  0
SECTION
  2
HEADER
  9
$ACADVER
  1
AC1009
  9
$DWGCODEPAGE
  3
ansi_1250
  9
$INSBASE
 10
0.0
 20
0.0
 30
0.0
  9
$EXTMIN
 10
-0.570866
 20
-0.570866
 30
0.0
  9
$EXTMAX
 10
0.570866
 20
0.570866
 30
0.0
  9
$LIMMIN
 10
0.0
 20
0.0
  9
$LIMMAX
 10
0.0
 20
0.0
  9
$ORTHOMODE
 70
     0
  9
$REGENMODE
 70
     1
  9
$FILLMODE
 70
     1
  9
$QTEXTMODE
 70
     0
  9
$MIRRTEXT
 70
     1
  9
$DRAGMODE
 70
     2
  9
$LTSCALE
 40
1.0
  9
$OSMODE
 70
     0
  9
$ATTMODE
 70
     1
  9
$TEXTSIZE
 40
0.2
  9
$TRACEWID
 40
0.05
  9
$TEXTSTYLE
  7
STANDARD
  9
$CLAYER
  8
0
  9
$CELTYPE
  6
CONTINUOUS
  9
$CECOLOR
 62
   256
  9
$DIMSCALE
 40
1.0
  9
$DIMASZ
 40
0.18
  9
$DIMEXO
 40
0.0625
  9
$DIMDLI
 40
0.38
  9
$DIMRND
 40
0.0
  9
$DIMDLE
 40
0.0
  9
$DIMEXE
 40
0.18
  9
$DIMTP
 40
0.0
  9
$DIMTM
 40
0.0
  9
$DIMTXT
 40
0.18
  9
$DIMCEN
 40
0.09
  9
$DIMTSZ
 40
0.0
  9
$DIMTOL
 70
     0
  9
$DIMLIM
 70
     0
  9
$DIMTIH
 70
     1
  9
$DIMTOH
 70
     1
  9
$DIMSE1
 70
     0
  9
$DIMSE2
 70
     0
  9
$DIMTAD
 70
     0
  9
$DIMZIN
 70
     0
  9
$DIMBLK
  1

  9
$DIMASO
 70
     1
  9
$DIMSHO
 70
     1
  9
$DIMPOST
  1

  9
$DIMAPOST
  1

  9
$DIMALT
 70
     0
  9
$DIMALTD
 70
     2
  9
$DIMALTF
 40
25.4
  9
$DIMLFAC
 40
1.0
  9
$DIMTOFL
 70
     0
  9
$DIMTVP
 40
0.0
  9
$DIMTIX
 70
     0
  9
$DIMSOXD
 70
     0
  9
$DIMSAH
 70
     0
  9
$DIMBLK1
  1

  9
$DIMBLK2
  1

  9
$DIMSTYLE
  2
STANDARD
  9
$DIMCLRD
 70
     0
  9
$DIMCLRE
 70
     0
  9
$DIMCLRT
 70
     0
  9
$DIMTFAC
 40
1.0
  9
$DIMGAP
 40
0.09
  9
$LUNITS
 70
     2
  9
$LUPREC
 70
     4
  9
$AXISMODE
 70
     0
  9
$AXISUNIT
 10
0.0
 20
0.0
  9
$SKETCHINC
 40
0.1
  9
$FILLETRAD
 40
0.0
  9
$AUNITS
 70
     0
  9
$AUPREC
 70
     0
  9
$MENU
  1
acad
  9
$ELEVATION
 40
0.0
  9
$PELEVATION
 40
0.0
  9
$THICKNESS
 40
0.0
  9
$LIMCHECK
 70
     0
  9
$BLIPMODE
 70
     1
  9
$CHAMFERA
 40
0.0
  9
$CHAMFERB
 40
0.0
  9
$SKPOLY
 70
     0
  9
$TDCREATE
 40
0.000000000
  9
$TDUPDATE
 40
0.000000000
  9
$TDINDWG
 40
0.0000000000
  9
$TDUSRTIMER
 40
0.0000000000
  9
$USRTIMER
 70
     1
  9
$ANGBASE
 50
0.0
  9
$ANGDIR
 70
     0
  9
$PDMODE
 70
     0
  9
$PDSIZE
 40
0.0
  9
$PLINEWID
 40
0.0
  9
$COORDS
 70
     0
  9
$SPLFRAME
 70
     0
  9
$SPLINETYPE
 70
     6
  9
$SPLINESEGS
 70
     8
  9
$ATTDIA
 70
     0
  9
$ATTREQ
 70
     1
  9
$HANDLING
 70
     1
  9
$HANDSEED
  5
200
  9
$SURFTAB1
 70
     6
  9
$SURFTAB2
 70
     6
  9
$SURFTYPE
 70
     6
  9
$SURFU
 70
     6
  9
$SURFV
 70
     6
  9
$UCSNAME
  2

  9
$UCSORG
 10
0.0
 20
0.0
 30
0.0
  9
$UCSXDIR
 10
1.0
 20
0.0
 30
0.0
  9
$UCSYDIR
 10
0.0
 20
1.0
 30
0.0
  9
$PUCSNAME
  2

  9
$PUCSORG
 10
0.0
 20
0.0
 30
0.0
  9
$PUCSXDIR
 10
1.0
 20
0.0
 30
0.0
  9
$PUCSYDIR
 10
0.0
 20
1.0
 30
0.0
  9
$USERI1
 70
     0
  9
$USERI2
 70
     0
  9
$USERI3
 70
     0
  9
$USERI4
 70
     0
  9
$USERI5
 70
     0
  9
$USERR1
 40
0.0
  9
$USERR2
 40
0.0
  9
$USERR3
 40
0.0
  9
$USERR4
 40
0.0
  9
$USERR5
 40
0.0
  9
$WORLDVIEW
 70
     1
  9
$SHADEDGE
 70
     3
  9
$SHADEDIF
 70
    70
  9
$TILEMODE
 70
     1
  9
$MAXACTVP
 70
    16
  9
$PINSBASE
 10
0.0
 20
0.0
 30
0.0
  9
$PLIMCHECK
 70
     0
  9
$PEXTMIN
 10
1.000000E+20
 20
1.000000E+20
 30
1.000000E+20
  9
$PEXTMAX
 10
-1.000000E+20
 20
-1.000000E+20
 30
-1.000000E+20
  9
$PLIMMIN
 10
0.0
 20
0.0
  9
$PLIMMAX
 10
12.0
 20
9.0
  9
$UNITMODE
 70
     0
  9
$VISRETAIN
 70
     0
  9
$PLINEGEN
 70
     1
  9
$PSLTSCALE
 70
     0
  9
$TREEDEPTH
 70
  3020
  0
ENDSEC
  0
SECTION
  2
TABLES
  0
TABLE
  2
VPORT
 70
     1
  0
VPORT
  2
*ACTIVE
 70
     0
 10
0.0
 20
0.0
 11
1.0
 21
1.0
 12
6.591288
 22
4.579184
 13
0.0
 23
0.0
 14
1.0
 24
1.0
 15
0.0
 25
0.0
 16
0.0
 26
0.0
 36
1.0
 17
0.0
 27
0.0
 37
0.0
 40
9.158369
 41
0.688564
 42
50.0
 43
0.0
 44
0.0
 50
0.0
 51
0.0
 71
     0
 72
   100
 73
     1
 74
     1
 75
     0
 76
     0
 77
     0
 78
     0
  0
ENDTAB
  0
TABLE
  2
LTYPE
 70
     5
  0
LTYPE
  2
CONTINUOUS
 70
    64
  3
Solid line
 72
    65
 73
     0
 40
0.0
  0
LTYPE
  2
CENTER
 70
    64
  3
Center ____ _ ____ _ ____ _ ____ _ ____ _ ____
 72
    65
 73
     4
 40
50.8
 49
31.75
 49
-6.35
 49
6.35
 49
-6.35
  0
LTYPE
  2
HIDDEN
 70
    64
  3
Hidden __ __ __ __ __ __ __ __ __ __ __ __ __ __
 72
    65
 73
     2
 40
9.525
 49
6.35
 49
-3.175
  0
LTYPE
  2
CENTER2
 70
    64
  3
Center (.5x) ___ _ ___ _ ___ _ ___ _ ___ _ ___
 72
    65
 73
     4
 40
28.575
 49
19.05
 49
-3.175
 49
3.175
 49
-3.175
  0
LTYPE
  2
HIDDEN2
 70
    64
  3
Hidden (.5x) _ _ _ _ _ _ _ _ _ _ _ _ _ _ _ _ _
 72
    65
 73
     2
 40
4.7625
 49
3.175
 49
-1.5875
  0
ENDTAB
  0
TABLE
  2
LAYER
 70
     1
  0
LAYER
  2
0
 70
     0
 62
     7
  6
CONTINUOUS
  0
ENDTAB
  0
TABLE
  2
STYLE
 70
     1
  0
STYLE
  2
STANDARD
 70
     0
 40
0.0
 41
1.0
 50
0.0
 71
     0
 42
0.0
  3
txt
  4

  0
ENDTAB
  0
TABLE
  2
VIEW
 70
     0
  0
ENDTAB
  0
TABLE
  2
UCS
 70
     0
  0
ENDTAB
  0
TABLE
  2
APPID
 70
     1
  0
APPID
  2
ACAD
 70
     0
  0
ENDTAB
  0
TABLE
  2
DIMSTYLE
 70
     1
  0
DIMSTYLE
  2
STANDARD
 70
     0
  3

  4

  5

  6

  7

 40
1.0
 41
0.18
 42
0.0625
 43
0.38
 44
0.18
 45
0.0
 46
0.0
 47
0.0
 48
0.0
 71
     0
 72
     0
 73
     1
 74
     1
 75
     0
 76
     0
 77
     0
 78
     0
140
0.18
141
0.09
142
0.0
143
25.4
144
1.0
145
0.0
146
1.0
147
0.09
170
     0
171
     2
172
     0
173
     0
174
     0
175
     0
176
     0
177
     0
178
     0
  0
ENDTAB
  0
ENDSEC
  0
SECTION
  2
BLOCKS
  0
ENDSEC
  0
SECTION
  2
ENTITIES
  0
LINE
  8
0
  6
CONTINUOUS
 62
     7
  5
122
 10
-0.174916
 20
0.543408
 30
0.0
 11
-0.174606
 21
0.54233
 31
0.0
  0
LINE
  8
0
  6
CONTINUOUS
 62
     7
  5
123
 10
-0.174606
 20
0.54233
 30
0.0
 11
-0.174298
 21
0.541252
 31
0.0
  0
LINE
  8
0
  6
CONTINUOUS
 62
     7
  5
124
 10
-0.174298
 20
0.541252
 30
0.0
 11
-0.173989
 21
0.540172
 31
0.0
  0
LINE
  8
0
  6
CONTINUOUS
 62
     7
  5
125
 10
-0.173989
 20
0.540172
 30
0.0
 11
-0.173681
 21
0.539092
 31
0.0
  0
LINE
  8
0
  6
CONTINUOUS
 62
     7
  5
126
 10
-0.173681
 20
0.539092
 30
0.0
 11
-0.173374
 21
0.538011
 31
0.0
  0
LINE
  8
0
  6
CONTINUOUS
 62
     7
  5
127
 10
-0.173374
 20
0.538011
 30
0.0
 11
-0.173067
 21
0.536929
 31
0.0
  0
LINE
  8
0
  6
CONTINUOUS
 62
     7
  5
128
 10
-0.173067
 20
0.536929
 30
0.0
 11
-0.17276
 21
0.535846
 31
0.0
  0
LINE
  8
0
  6
CONTINUOUS
 62
     7
  5
129
 10
-0.17276
 20
0.535846
 30
0.0
 11
-0.172454
 21
0.534763
 31
0.0
  0
LINE
  8
0
  6
CONTINUOUS
 62
     7
  5
12A
 10
-0.172454
 20
0.534763
 30
0.0
 11
-0.172148
 21
0.53368
 31
0.0
  0
LINE
  8
0
  6
CONTINUOUS
 62
     7
  5
12B
 10
-0.172148
 20
0.53368
 30
0.0
 11
-0.171843
 21
0.532596
 31
0.0
  0
LINE
  8
0
  6
CONTINUOUS
 62
     7
  5
12C
 10
-0.171843
 20
0.532596
 30
0.0
 11
-0.171539
 21
0.531511
 31
0.0
  0
LINE
  8
0
  6
CONTINUOUS
 62
     7
  5
12D
 10
-0.171539
 20
0.531511
 30
0.0
 11
-0.171235
 21
0.530426
 31
0.0
  0
LINE
  8
0
  6
CONTINUOUS
 62
     7
  5
12E
 10
-0.171235
 20
0.530426
 30
0.0
 11
-0.170932
 21
0.52934
 31
0.0
  0
LINE
  8
0
  6
CONTINUOUS
 62
     7
  5
12F
 10
-0.170932
 20
0.52934
 30
0.0
 11
-0.170629
 21
0.528254
 31
0.0
  0
LINE
  8
0
  6
CONTINUOUS
 62
     7
  5
130
 10
-0.170629
 20
0.528254
 30
0.0
 11
-0.170327
 21
0.527168
 31
0.0
  0
LINE
  8
0
  6
CONTINUOUS
 62
     7
  5
131
 10
-0.170327
 20
0.527168
 30
0.0
 11
-0.170025
 21
0.526082
 31
0.0
  0
LINE
  8
0
  6
CONTINUOUS
 62
     7
  5
132
 10
-0.170025
 20
0.526082
 30
0.0
 11
-0.169724
 21
0.524995
 31
0.0
  0
LINE
  8
0
  6
CONTINUOUS
 62
     7
  5
133
 10
-0.169724
 20
0.524995
 30
0.0
 11
-0.169423
 21
0.523908
 31
0.0
  0
LINE
  8
0
  6
CONTINUOUS
 62
     7
  5
134
 10
-0.169423
 20
0.523908
 30
0.0
 11
-0.169123
 21
0.52282
 31
0.0
  0
LINE
  8
0
  6
CONTINUOUS
 62
     7
  5
135
 10
-0.169123
 20
0.52282
 30
0.0
 11
-0.168824
 21
0.521733
 31
0.0
  0
LINE
  8
0
  6
CONTINUOUS
 62
     7
  5
136
 10
-0.168824
 20
0.521733
 30
0.0
 11
-0.168526
 21
0.520645
 31
0.0
  0
LINE
  8
0
  6
CONTINUOUS
 62
     7
  5
137
 10
-0.168526
 20
0.520645
 30
0.0
 11
-0.168228
 21
0.519558
 31
0.0
  0
LINE
  8
0
  6
CONTINUOUS
 62
     7
  5
138
 10
-0.168228
 20
0.519558
 30
0.0
 11
-0.16793
 21
0.51847
 31
0.0
  0
LINE
  8
0
  6
CONTINUOUS
 62
     7
  5
139
 10
-0.16793
 20
0.51847
 30
0.0
 11
-0.167634
 21
0.517382
 31
0.0
  0
LINE
  8
0
  6
CONTINUOUS
 62
     7
  5
13A
 10
-0.167634
 20
0.517382
 30
0.0
 11
-0.167338
 21
0.516294
 31
0.0
  0
LINE
  8
0
  6
CONTINUOUS
 62
     7
  5
13B
 10
-0.167338
 20
0.516294
 30
0.0
 11
-0.167042
 21
0.515207
 31
0.0
  0
LINE
  8
0
  6
CONTINUOUS
 62
     7
  5
13C
 10
-0.167042
 20
0.515207
 30
0.0
 11
-0.166748
 21
0.514119
 31
0.0
  0
LINE
  8
0
  6
CONTINUOUS
 62
     7
  5
13D
 10
-0.166748
 20
0.514119
 30
0.0
 11
-0.166454
 21
0.513031
 31
0.0
  0
LINE
  8
0
  6
CONTINUOUS
 62
     7
  5
13E
 10
-0.166454
 20
0.513031
 30
0.0
 11
-0.166161
 21
0.511944
 31
0.0
  0
LINE
  8
0
  6
CONTINUOUS
 62
     7
  5
13F
 10
-0.166161
 20
0.511944
 30
0.0
 11
-0.165868
 21
0.510857
 31
0.0
  0
LINE
  8
0
  6
CONTINUOUS
 62
     7
  5
140
 10
-0.165868
 20
0.510857
 30
0.0
 11
-0.165576
 21
0.50977
 31
0.0
  0
LINE
  8
0
  6
CONTINUOUS
 62
     7
  5
141
 10
-0.165576
 20
0.50977
 30
0.0
 11
-0.165285
 21
0.508683
 31
0.0
  0
LINE
  8
0
  6
CONTINUOUS
 62
     7
  5
142
 10
-0.165285
 20
0.508683
 30
0.0
 11
-0.164995
 21
0.507597
 31
0.0
  0
LINE
  8
0
  6
CONTINUOUS
 62
     7
  5
143
 10
-0.164995
 20
0.507597
 30
0.0
 11
-0.164706
 21
0.506511
 31
0.0
  0
LINE
  8
0
  6
CONTINUOUS
 62
     7
  5
144
 10
-0.164706
 20
0.506511
 30
0.0
 11
-0.164417
 21
0.505426
 31
0.0
  0
LINE
  8
0
  6
CONTINUOUS
 62
     7
  5
145
 10
-0.164417
 20
-0.505426
 30
0.0
 11
-0.164706
 21
-0.506511
 31
0.0
  0
LINE
  8
0
  6
CONTINUOUS
 62
     7
  5
146
 10
-0.164706
 20
-0.506511
 30
0.0
 11
-0.164995
 21
-0.507597
 31
0.0
  0
LINE
  8
0
  6
CONTINUOUS
 62
     7
  5
147
 10
-0.164995
 20
-0.507597
 30
0.0
 11
-0.165285
 21
-0.508683
 31
0.0
  0
LINE
  8
0
  6
CONTINUOUS
 62
     7
  5
148
 10
-0.165285
 20
-0.508683
 30
0.0
 11
-0.165576
 21
-0.50977
 31
0.0
  0
LINE
  8
0
  6
CONTINUOUS
 62
     7
  5
149
 10
-0.165576
 20
-0.50977
 30
0.0
 11
-0.165868
 21
-0.510857
 31
0.0
  0
LINE
  8
0
  6
CONTINUOUS
 62
     7
  5
14A
 10
-0.165868
 20
-0.510857
 30
0.0
 11
-0.166161
 21
-0.511944
 31
0.0
  0
LINE
  8
0
  6
CONTINUOUS
 62
     7
  5
14B
 10
-0.166161
 20
-0.511944
 30
0.0
 11
-0.166454
 21
-0.513031
 31
0.0
  0
LINE
  8
0
  6
CONTINUOUS
 62
     7
  5
14C
 10
-0.166454
 20
-0.513031
 30
0.0
 11
-0.166748
 21
-0.514119
 31
0.0
  0
LINE
  8
0
  6
CONTINUOUS
 62
     7
  5
14D
 10
-0.166748
 20
-0.514119
 30
0.0
 11
-0.167042
 21
-0.515207
 31
0.0
  0
LINE
  8
0
  6
CONTINUOUS
 62
     7
  5
14E
 10
-0.167042
 20
-0.515207
 30
0.0
 11
-0.167338
 21
-0.516294
 31
0.0
  0
LINE
  8
0
  6
CONTINUOUS
 62
     7
  5
14F
 10
-0.167338
 20
-0.516294
 30
0.0
 11
-0.167634
 21
-0.517382
 31
0.0
  0
LINE
  8
0
  6
CONTINUOUS
 62
     7
  5
150
 10
-0.167634
 20
-0.517382
 30
0.0
 11
-0.16793
 21
-0.51847
 31
0.0
  0
LINE
  8
0
  6
CONTINUOUS
 62
     7
  5
151
 10
-0.16793
 20
-0.51847
 30
0.0
 11
-0.168228
 21
-0.519558
 31
0.0
  0
LINE
  8
0
  6
CONTINUOUS
 62
     7
  5
152
 10
-0.168228
 20
-0.519558
 30
0.0
 11
-0.168526
 21
-0.520645
 31
0.0
  0
LINE
  8
0
  6
CONTINUOUS
 62
     7
  5
153
 10
-0.168526
 20
-0.520645
 30
0.0
 11
-0.168824
 21
-0.521733
 31
0.0
  0
LINE
  8
0
  6
CONTINUOUS
 62
     7
  5
154
 10
-0.168824
 20
-0.521733
 30
0.0
 11
-0.169123
 21
-0.52282
 31
0.0
  0
LINE
  8
0
  6
CONTINUOUS
 62
     7
  5
155
 10
-0.169123
 20
-0.52282
 30
0.0
 11
-0.169423
 21
-0.523908
 31
0.0
  0
LINE
  8
0
  6
CONTINUOUS
 62
     7
  5
156
 10
-0.169423
 20
-0.523908
 30
0.0
 11
-0.169724
 21
-0.524995
 31
0.0
  0
LINE
  8
0
  6
CONTINUOUS
 62
     7
  5
157
 10
-0.169724
 20
-0.524995
 30
0.0
 11
-0.170025
 21
-0.526082
 31
0.0
  0
LINE
  8
0
  6
CONTINUOUS
 62
     7
  5
158
 10
-0.170025
 20
-0.526082
 30
0.0
 11
-0.170327
 21
-0.527168
 31
0.0
  0
LINE
  8
0
  6
CONTINUOUS
 62
     7
  5
159
 10
-0.170327
 20
-0.527168
 30
0.0
 11
-0.170629
 21
-0.528254
 31
0.0
  0
LINE
  8
0
  6
CONTINUOUS
 62
     7
  5
15A
 10
-0.170629
 20
-0.528254
 30
0.0
 11
-0.170932
 21
-0.52934
 31
0.0
  0
LINE
  8
0
  6
CONTINUOUS
 62
     7
  5
15B
 10
-0.170932
 20
-0.52934
 30
0.0
 11
-0.171235
 21
-0.530426
 31
0.0
  0
LINE
  8
0
  6
CONTINUOUS
 62
     7
  5
15C
 10
-0.171235
 20
-0.530426
 30
0.0
 11
-0.171539
 21
-0.531511
 31
0.0
  0
LINE
  8
0
  6
CONTINUOUS
 62
     7
  5
15D
 10
-0.171539
 20
-0.531511
 30
0.0
 11
-0.171843
 21
-0.532596
 31
0.0
  0
LINE
  8
0
  6
CONTINUOUS
 62
     7
  5
15E
 10
-0.171843
 20
-0.532596
 30
0.0
 11
-0.172148
 21
-0.53368
 31
0.0
  0
LINE
  8
0
  6
CONTINUOUS
 62
     7
  5
15F
 10
-0.172148
 20
-0.53368
 30
0.0
 11
-0.172454
 21
-0.534763
 31
0.0
  0
LINE
  8
0
  6
CONTINUOUS
 62
     7
  5
160
 10
-0.172454
 20
-0.534763
 30
0.0
 11
-0.17276
 21
-0.535846
 31
0.0
  0
LINE
  8
0
  6
CONTINUOUS
 62
     7
  5
161
 10
-0.17276
 20
-0.535846
 30
0.0
 11
-0.173067
 21
-0.536929
 31
0.0
  0
LINE
  8
0
  6
CONTINUOUS
 62
     7
  5
162
 10
-0.173067
 20
-0.536929
 30
0.0
 11
-0.173374
 21
-0.538011
 31
0.0
  0
LINE
  8
0
  6
CONTINUOUS
 62
     7
  5
163
 10
-0.173374
 20
-0.538011
 30
0.0
 11
-0.173681
 21
-0.539092
 31
0.0
  0
LINE
  8
0
  6
CONTINUOUS
 62
     7
  5
164
 10
-0.173681
 20
-0.539092
 30
0.0
 11
-0.173989
 21
-0.540172
 31
0.0
  0
LINE
  8
0
  6
CONTINUOUS
 62
     7
  5
165
 10
-0.173989
 20
-0.540172
 30
0.0
 11
-0.174298
 21
-0.541252
 31
0.0
  0
LINE
  8
0
  6
CONTINUOUS
 62
     7
  5
166
 10
-0.174298
 20
-0.541252
 30
0.0
 11
-0.174606
 21
-0.54233
 31
0.0
  0
LINE
  8
0
  6
CONTINUOUS
 62
     7
  5
167
 10
-0.174606
 20
-0.54233
 30
0.0
 11
-0.174916
 21
-0.543408
 31
0.0
  0
LINE
  8
0
  6
CONTINUOUS
 62
     7
  5
168
 10
-0.164417
 20
0.505426
 30
0.0
 11
-0.157074
 21
0.47693
 31
0.0
  0
LINE
  8
0
  6
CONTINUOUS
 62
     7
  5
169
 10
-0.157074
 20
0.47693
 30
0.0
 11
-0.150148
 21
0.448283
 31
0.0
  0
LINE
  8
0
  6
CONTINUOUS
 62
     7
  5
16A
 10
-0.150148
 20
0.448283
 30
0.0
 11
-0.143645
 21
0.419506
 31
0.0
  0
LINE
  8
0
  6
CONTINUOUS
 62
     7
  5
16B
 10
-0.143645
 20
0.419506
 30
0.0
 11
-0.13757
 21
0.390617
 31
0.0
  0
LINE
  8
0
  6
CONTINUOUS
 62
     7
  5
16C
 10
-0.13757
 20
0.390617
 30
0.0
 11
-0.131929
 21
0.361636
 31
0.0
  0
LINE
  8
0
  6
CONTINUOUS
 62
     7
  5
16D
 10
-0.131929
 20
0.361636
 30
0.0
 11
-0.126724
 21
0.332583
 31
0.0
  0
LINE
  8
0
  6
CONTINUOUS
 62
     7
  5
16E
 10
-0.126724
 20
0.332583
 30
0.0
 11
-0.121959
 21
0.303479
 31
0.0
  0
LINE
  8
0
  6
CONTINUOUS
 62
     7
  5
16F
 10
-0.121959
 20
0.303479
 30
0.0
 11
-0.117636
 21
0.274345
 31
0.0
  0
LINE
  8
0
  6
CONTINUOUS
 62
     7
  5
170
 10
-0.117636
 20
0.274345
 30
0.0
 11
-0.113756
 21
0.245199
 31
0.0
  0
LINE
  8
0
  6
CONTINUOUS
 62
     7
  5
171
 10
-0.113756
 20
0.245199
 30
0.0
 11
-0.110319
 21
0.216063
 31
0.0
  0
LINE
  8
0
  6
CONTINUOUS
 62
     7
  5
172
 10
-0.110319
 20
0.216063
 30
0.0
 11
-0.107323
 21
0.186957
 31
0.0
  0
LINE
  8
0
  6
CONTINUOUS
 62
     7
  5
173
 10
-0.107323
 20
0.186957
 30
0.0
 11
-0.104768
 21
0.157903
 31
0.0
  0
LINE
  8
0
  6
CONTINUOUS
 62
     7
  5
174
 10
-0.104768
 20
0.157903
 30
0.0
 11
-0.102651
 21
0.128922
 31
0.0
  0
LINE
  8
0
  6
CONTINUOUS
 62
     7
  5
175
 10
-0.102651
 20
0.128922
 30
0.0
 11
-0.100969
 21
0.100036
 31
0.0
  0
LINE
  8
0
  6
CONTINUOUS
 62
     7
  5
176
 10
-0.100969
 20
0.100036
 30
0.0
 11
-0.099716
 21
0.071268
 31
0.0
  0
LINE
  8
0
  6
CONTINUOUS
 62
     7
  5
177
 10
-0.099716
 20
0.071268
 30
0.0
 11
-0.098887
 21
0.042638
 31
0.0
  0
LINE
  8
0
  6
CONTINUOUS
 62
     7
  5
178
 10
-0.098887
 20
0.042638
 30
0.0
 11
-0.098476
 21
0.014168
 31
0.0
  0
LINE
  8
0
  6
CONTINUOUS
 62
     7
  5
179
 10
-0.098476
 20
0.014168
 30
0.0
 11
-0.098476
 21
-0.014168
 31
0.0
  0
LINE
  8
0
  6
CONTINUOUS
 62
     7
  5
17A
 10
-0.098476
 20
-0.014168
 30
0.0
 11
-0.098887
 21
-0.042638
 31
0.0
  0
LINE
  8
0
  6
CONTINUOUS
 62
     7
  5
17B
 10
-0.098887
 20
-0.042638
 30
0.0
 11
-0.099716
 21
-0.071268
 31
0.0
  0
LINE
  8
0
  6
CONTINUOUS
 62
     7
  5
17C
 10
-0.099716
 20
-0.071268
 30
0.0
 11
-0.100969
 21
-0.100036
 31
0.0
  0
LINE
  8
0
  6
CONTINUOUS
 62
     7
  5
17D
 10
-0.100969
 20
-0.100036
 30
0.0
 11
-0.102651
 21
-0.128922
 31
0.0
  0
LINE
  8
0
  6
CONTINUOUS
 62
     7
  5
17E
 10
-0.102651
 20
-0.128922
 30
0.0
 11
-0.104768
 21
-0.157903
 31
0.0
  0
LINE
  8
0
  6
CONTINUOUS
 62
     7
  5
17F
 10
-0.104768
 20
-0.157903
 30
0.0
 11
-0.107323
 21
-0.186957
 31
0.0
  0
LINE
  8
0
  6
CONTINUOUS
 62
     7
  5
180
 10
-0.107323
 20
-0.186957
 30
0.0
 11
-0.110319
 21
-0.216063
 31
0.0
  0
LINE
  8
0
  6
CONTINUOUS
 62
     7
  5
181
 10
-0.110319
 20
-0.216063
 30
0.0
 11
-0.113756
 21
-0.245199
 31
0.0
  0
LINE
  8
0
  6
CONTINUOUS
 62
     7
  5
182
 10
-0.113756
 20
-0.245199
 30
0.0
 11
-0.117636
 21
-0.274345
 31
0.0
  0
LINE
  8
0
  6
CONTINUOUS
 62
     7
  5
183
 10
-0.117636
 20
-0.274345
 30
0.0
 11
-0.121959
 21
-0.303479
 31
0.0
  0
LINE
  8
0
  6
CONTINUOUS
 62
     7
  5
184
 10
-0.121959
 20
-0.303479
 30
0.0
 11
-0.126724
 21
-0.332583
 31
0.0
  0
LINE
  8
0
  6
CONTINUOUS
 62
     7
  5
185
 10
-0.126724
 20
-0.332583
 30
0.0
 11
-0.131929
 21
-0.361636
 31
0.0
  0
LINE
  8
0
  6
CONTINUOUS
 62
     7
  5
186
 10
-0.131929
 20
-0.361636
 30
0.0
 11
-0.13757
 21
-0.390617
 31
0.0
  0
LINE
  8
0
  6
CONTINUOUS
 62
     7
  5
187
 10
-0.13757
 20
-0.390617
 30
0.0
 11
-0.143645
 21
-0.419506
 31
0.0
  0
LINE
  8
0
  6
CONTINUOUS
 62
     7
  5
188
 10
-0.143645
 20
-0.419506
 30
0.0
 11
-0.150148
 21
-0.448283
 31
0.0
  0
LINE
  8
0
  6
CONTINUOUS
 62
     7
  5
189
 10
-0.150148
 20
-0.448283
 30
0.0
 11
-0.157074
 21
-0.47693
 31
0.0
  0
LINE
  8
0
  6
CONTINUOUS
 62
     7
  5
18A
 10
-0.157074
 20
-0.47693
 30
0.0
 11
-0.164417
 21
-0.505426
 31
0.0
  0
ARC
  8
0
  6
CONTINUOUS
 62
     7
  5
18B
 10
0.0
 20
0.0
 30
0.0
 40
0.551181
 50
107.917885
 51
252.08215
  0
ARC
  8
0
  6
CONTINUOUS
 62
     7
  5
18C
 10
0.0
 20
0.0
 30
0.0
 40
0.570866
 50
252.157352
 51
287.842648
  0
ARC
  8
0
  6
CONTINUOUS
 62
     7
  5
18D
 10
0.0
 20
0.0
 30
0.0
 40
0.570866
 50
72.157352
 51
107.842648
  0
ARC
  8
0
  6
CONTINUOUS
 62
     7
  5
18E
 10
0.0
 20
0.0
 30
0.0
 40
0.531496
 50
251.980091
 51
288.019909
  0
LINE
  8
0
  6
CONTINUOUS
 62
     7
  5
18F
 10
0.164417
 20
-0.505426
 30
0.0
 11
0.157074
 21
-0.47693
 31
0.0
  0
LINE
  8
0
  6
CONTINUOUS
 62
     7
  5
190
 10
0.157074
 20
-0.47693
 30
0.0
 11
0.150148
 21
-0.448283
 31
0.0
  0
LINE
  8
0
  6
CONTINUOUS
 62
     7
  5
191
 10
0.150148
 20
-0.448283
 30
0.0
 11
0.143645
 21
-0.419506
 31
0.0
  0
LINE
  8
0
  6
CONTINUOUS
 62
     7
  5
192
 10
0.143645
 20
-0.419506
 30
0.0
 11
0.13757
 21
-0.390617
 31
0.0
  0
LINE
  8
0
  6
CONTINUOUS
 62
     7
  5
193
 10
0.13757
 20
-0.390617
 30
0.0
 11
0.131929
 21
-0.361636
 31
0.0
  0
LINE
  8
0
  6
CONTINUOUS
 62
     7
  5
194
 10
0.131929
 20
-0.361636
 30
0.0
 11
0.126724
 21
-0.332583
 31
0.0
  0
LINE
  8
0
  6
CONTINUOUS
 62
     7
  5
195
 10
0.126724
 20
-0.332583
 30
0.0
 11
0.121959
 21
-0.303479
 31
0.0
  0
LINE
  8
0
  6
CONTINUOUS
 62
     7
  5
196
 10
0.121959
 20
-0.303479
 30
0.0
 11
0.117636
 21
-0.274345
 31
0.0
  0
LINE
  8
0
  6
CONTINUOUS
 62
     7
  5
197
 10
0.117636
 20
-0.274345
 30
0.0
 11
0.113756
 21
-0.245199
 31
0.0
  0
LINE
  8
0
  6
CONTINUOUS
 62
     7
  5
198
 10
0.113756
 20
-0.245199
 30
0.0
 11
0.110319
 21
-0.216063
 31
0.0
  0
LINE
  8
0
  6
CONTINUOUS
 62
     7
  5
199
 10
0.110319
 20
-0.216063
 30
0.0
 11
0.107323
 21
-0.186957
 31
0.0
  0
LINE
  8
0
  6
CONTINUOUS
 62
     7
  5
19A
 10
0.107323
 20
-0.186957
 30
0.0
 11
0.104768
 21
-0.157903
 31
0.0
  0
LINE
  8
0
  6
CONTINUOUS
 62
     7
  5
19B
 10
0.104768
 20
-0.157903
 30
0.0
 11
0.102651
 21
-0.128922
 31
0.0
  0
LINE
  8
0
  6
CONTINUOUS
 62
     7
  5
19C
 10
0.102651
 20
-0.128922
 30
0.0
 11
0.100969
 21
-0.100036
 31
0.0
  0
LINE
  8
0
  6
CONTINUOUS
 62
     7
  5
19D
 10
0.100969
 20
-0.100036
 30
0.0
 11
0.099716
 21
-0.071268
 31
0.0
  0
LINE
  8
0
  6
CONTINUOUS
 62
     7
  5
19E
 10
0.099716
 20
-0.071268
 30
0.0
 11
0.098887
 21
-0.042638
 31
0.0
  0
LINE
  8
0
  6
CONTINUOUS
 62
     7
  5
19F
 10
0.098887
 20
-0.042638
 30
0.0
 11
0.098476
 21
-0.014168
 31
0.0
  0
LINE
  8
0
  6
CONTINUOUS
 62
     7
  5
1A0
 10
0.098476
 20
-0.014168
 30
0.0
 11
0.098476
 21
0.014168
 31
0.0
  0
LINE
  8
0
  6
CONTINUOUS
 62
     7
  5
1A1
 10
0.098476
 20
0.014168
 30
0.0
 11
0.098887
 21
0.042638
 31
0.0
  0
LINE
  8
0
  6
CONTINUOUS
 62
     7
  5
1A2
 10
0.098887
 20
0.042638
 30
0.0
 11
0.099716
 21
0.071268
 31
0.0
  0
LINE
  8
0
  6
CONTINUOUS
 62
     7
  5
1A3
 10
0.099716
 20
0.071268
 30
0.0
 11
0.100969
 21
0.100036
 31
0.0
  0
LINE
  8
0
  6
CONTINUOUS
 62
     7
  5
1A4
 10
0.100969
 20
0.100036
 30
0.0
 11
0.102651
 21
0.128922
 31
0.0
  0
LINE
  8
0
  6
CONTINUOUS
 62
     7
  5
1A5
 10
0.102651
 20
0.128922
 30
0.0
 11
0.104768
 21
0.157903
 31
0.0
  0
LINE
  8
0
  6
CONTINUOUS
 62
     7
  5
1A6
 10
0.104768
 20
0.157903
 30
0.0
 11
0.107323
 21
0.186957
 31
0.0
  0
LINE
  8
0
  6
CONTINUOUS
 62
     7
  5
1A7
 10
0.107323
 20
0.186957
 30
0.0
 11
0.110319
 21
0.216063
 31
0.0
  0
LINE
  8
0
  6
CONTINUOUS
 62
     7
  5
1A8
 10
0.110319
 20
0.216063
 30
0.0
 11
0.113756
 21
0.245199
 31
0.0
  0
LINE
  8
0
  6
CONTINUOUS
 62
     7
  5
1A9
 10
0.113756
 20
0.245199
 30
0.0
 11
0.117636
 21
0.274345
 31
0.0
  0
LINE
  8
0
  6
CONTINUOUS
 62
     7
  5
1AA
 10
0.117636
 20
0.274345
 30
0.0
 11
0.121959
 21
0.303479
 31
0.0
  0
LINE
  8
0
  6
CONTINUOUS
 62
     7
  5
1AB
 10
0.121959
 20
0.303479
 30
0.0
 11
0.126724
 21
0.332583
 31
0.0
  0
LINE
  8
0
  6
CONTINUOUS
 62
     7
  5
1AC
 10
0.126724
 20
0.332583
 30
0.0
 11
0.131929
 21
0.361636
 31
0.0
  0
LINE
  8
0
  6
CONTINUOUS
 62
     7
  5
1AD
 10
0.131929
 20
0.361636
 30
0.0
 11
0.13757
 21
0.390617
 31
0.0
  0
LINE
  8
0
  6
CONTINUOUS
 62
     7
  5
1AE
 10
0.13757
 20
0.390617
 30
0.0
 11
0.143645
 21
0.419506
 31
0.0
  0
LINE
  8
0
  6
CONTINUOUS
 62
     7
  5
1AF
 10
0.143645
 20
0.419506
 30
0.0
 11
0.150148
 21
0.448283
 31
0.0
  0
LINE
  8
0
  6
CONTINUOUS
 62
     7
  5
1B0
 10
0.150148
 20
0.448283
 30
0.0
 11
0.157074
 21
0.47693
 31
0.0
  0
LINE
  8
0
  6
CONTINUOUS
 62
     7
  5
1B1
 10
0.157074
 20
0.47693
 30
0.0
 11
0.164417
 21
0.505426
 31
0.0
  0
ARC
  8
0
  6
CONTINUOUS
 62
     7
  5
1B2
 10
0.0
 20
0.0
 30
0.0
 40
0.531496
 50
71.980091
 51
108.019909
  0
LINE
  8
0
  6
CONTINUOUS
 62
     7
  5
1B3
 10
0.174916
 20
-0.543408
 30
0.0
 11
0.174606
 21
-0.54233
 31
0.0
  0
LINE
  8
0
  6
CONTINUOUS
 62
     7
  5
1B4
 10
0.174606
 20
-0.54233
 30
0.0
 11
0.174298
 21
-0.541252
 31
0.0
  0
LINE
  8
0
  6
CONTINUOUS
 62
     7
  5
1B5
 10
0.174298
 20
-0.541252
 30
0.0
 11
0.173989
 21
-0.540172
 31
0.0
  0
LINE
  8
0
  6
CONTINUOUS
 62
     7
  5
1B6
 10
0.173989
 20
-0.540172
 30
0.0
 11
0.173681
 21
-0.539092
 31
0.0
  0
LINE
  8
0
  6
CONTINUOUS
 62
     7
  5
1B7
 10
0.173681
 20
-0.539092
 30
0.0
 11
0.173374
 21
-0.538011
 31
0.0
  0
LINE
  8
0
  6
CONTINUOUS
 62
     7
  5
1B8
 10
0.173374
 20
-0.538011
 30
0.0
 11
0.173067
 21
-0.536929
 31
0.0
  0
LINE
  8
0
  6
CONTINUOUS
 62
     7
  5
1B9
 10
0.173067
 20
-0.536929
 30
0.0
 11
0.17276
 21
-0.535846
 31
0.0
  0
LINE
  8
0
  6
CONTINUOUS
 62
     7
  5
1BA
 10
0.17276
 20
-0.535846
 30
0.0
 11
0.172454
 21
-0.534763
 31
0.0
  0
LINE
  8
0
  6
CONTINUOUS
 62
     7
  5
1BB
 10
0.172454
 20
-0.534763
 30
0.0
 11
0.172148
 21
-0.53368
 31
0.0
  0
LINE
  8
0
  6
CONTINUOUS
 62
     7
  5
1BC
 10
0.172148
 20
-0.53368
 30
0.0
 11
0.171843
 21
-0.532596
 31
0.0
  0
LINE
  8
0
  6
CONTINUOUS
 62
     7
  5
1BD
 10
0.171843
 20
-0.532596
 30
0.0
 11
0.171539
 21
-0.531511
 31
0.0
  0
LINE
  8
0
  6
CONTINUOUS
 62
     7
  5
1BE
 10
0.171539
 20
-0.531511
 30
0.0
 11
0.171235
 21
-0.530426
 31
0.0
  0
LINE
  8
0
  6
CONTINUOUS
 62
     7
  5
1BF
 10
0.171235
 20
-0.530426
 30
0.0
 11
0.170932
 21
-0.52934
 31
0.0
  0
LINE
  8
0
  6
CONTINUOUS
 62
     7
  5
1C0
 10
0.170932
 20
-0.52934
 30
0.0
 11
0.170629
 21
-0.528254
 31
0.0
  0
LINE
  8
0
  6
CONTINUOUS
 62
     7
  5
1C1
 10
0.170629
 20
-0.528254
 30
0.0
 11
0.170327
 21
-0.527168
 31
0.0
  0
LINE
  8
0
  6
CONTINUOUS
 62
     7
  5
1C2
 10
0.170327
 20
-0.527168
 30
0.0
 11
0.170025
 21
-0.526082
 31
0.0
  0
LINE
  8
0
  6
CONTINUOUS
 62
     7
  5
1C3
 10
0.170025
 20
-0.526082
 30
0.0
 11
0.169724
 21
-0.524995
 31
0.0
  0
LINE
  8
0
  6
CONTINUOUS
 62
     7
  5
1C4
 10
0.169724
 20
-0.524995
 30
0.0
 11
0.169423
 21
-0.523908
 31
0.0
  0
LINE
  8
0
  6
CONTINUOUS
 62
     7
  5
1C5
 10
0.169423
 20
-0.523908
 30
0.0
 11
0.169123
 21
-0.52282
 31
0.0
  0
LINE
  8
0
  6
CONTINUOUS
 62
     7
  5
1C6
 10
0.169123
 20
-0.52282
 30
0.0
 11
0.168824
 21
-0.521733
 31
0.0
  0
LINE
  8
0
  6
CONTINUOUS
 62
     7
  5
1C7
 10
0.168824
 20
-0.521733
 30
0.0
 11
0.168526
 21
-0.520645
 31
0.0
  0
LINE
  8
0
  6
CONTINUOUS
 62
     7
  5
1C8
 10
0.168526
 20
-0.520645
 30
0.0
 11
0.168228
 21
-0.519558
 31
0.0
  0
LINE
  8
0
  6
CONTINUOUS
 62
     7
  5
1C9
 10
0.168228
 20
-0.519558
 30
0.0
 11
0.16793
 21
-0.51847
 31
0.0
  0
LINE
  8
0
  6
CONTINUOUS
 62
     7
  5
1CA
 10
0.16793
 20
-0.51847
 30
0.0
 11
0.167634
 21
-0.517382
 31
0.0
  0
LINE
  8
0
  6
CONTINUOUS
 62
     7
  5
1CB
 10
0.167634
 20
-0.517382
 30
0.0
 11
0.167338
 21
-0.516294
 31
0.0
  0
LINE
  8
0
  6
CONTINUOUS
 62
     7
  5
1CC
 10
0.167338
 20
-0.516294
 30
0.0
 11
0.167042
 21
-0.515206
 31
0.0
  0
LINE
  8
0
  6
CONTINUOUS
 62
     7
  5
1CD
 10
0.167042
 20
-0.515206
 30
0.0
 11
0.166748
 21
-0.514119
 31
0.0
  0
LINE
  8
0
  6
CONTINUOUS
 62
     7
  5
1CE
 10
0.166748
 20
-0.514119
 30
0.0
 11
0.166454
 21
-0.513031
 31
0.0
  0
LINE
  8
0
  6
CONTINUOUS
 62
     7
  5
1CF
 10
0.166454
 20
-0.513031
 30
0.0
 11
0.166161
 21
-0.511944
 31
0.0
  0
LINE
  8
0
  6
CONTINUOUS
 62
     7
  5
1D0
 10
0.166161
 20
-0.511944
 30
0.0
 11
0.165868
 21
-0.510857
 31
0.0
  0
LINE
  8
0
  6
CONTINUOUS
 62
     7
  5
1D1
 10
0.165868
 20
-0.510857
 30
0.0
 11
0.165576
 21
-0.50977
 31
0.0
  0
LINE
  8
0
  6
CONTINUOUS
 62
     7
  5
1D2
 10
0.165576
 20
-0.50977
 30
0.0
 11
0.165285
 21
-0.508683
 31
0.0
  0
LINE
  8
0
  6
CONTINUOUS
 62
     7
  5
1D3
 10
0.165285
 20
-0.508683
 30
0.0
 11
0.164995
 21
-0.507597
 31
0.0
  0
LINE
  8
0
  6
CONTINUOUS
 62
     7
  5
1D4
 10
0.164995
 20
-0.507597
 30
0.0
 11
0.164706
 21
-0.506511
 31
0.0
  0
LINE
  8
0
  6
CONTINUOUS
 62
     7
  5
1D5
 10
0.164706
 20
-0.506511
 30
0.0
 11
0.164417
 21
-0.505426
 31
0.0
  0
LINE
  8
0
  6
CONTINUOUS
 62
     7
  5
1D6
 10
0.164417
 20
0.505426
 30
0.0
 11
0.164706
 21
0.506511
 31
0.0
  0
LINE
  8
0
  6
CONTINUOUS
 62
     7
  5
1D7
 10
0.164706
 20
0.506511
 30
0.0
 11
0.164995
 21
0.507597
 31
0.0
  0
LINE
  8
0
  6
CONTINUOUS
 62
     7
  5
1D8
 10
0.164995
 20
0.507597
 30
0.0
 11
0.165285
 21
0.508683
 31
0.0
  0
LINE
  8
0
  6
CONTINUOUS
 62
     7
  5
1D9
 10
0.165285
 20
0.508683
 30
0.0
 11
0.165576
 21
0.50977
 31
0.0
  0
LINE
  8
0
  6
CONTINUOUS
 62
     7
  5
1DA
 10
0.165576
 20
0.50977
 30
0.0
 11
0.165868
 21
0.510857
 31
0.0
  0
LINE
  8
0
  6
CONTINUOUS
 62
     7
  5
1DB
 10
0.165868
 20
0.510857
 30
0.0
 11
0.166161
 21
0.511944
 31
0.0
  0
LINE
  8
0
  6
CONTINUOUS
 62
     7
  5
1DC
 10
0.166161
 20
0.511944
 30
0.0
 11
0.166454
 21
0.513031
 31
0.0
  0
LINE
  8
0
  6
CONTINUOUS
 62
     7
  5
1DD
 10
0.166454
 20
0.513031
 30
0.0
 11
0.166748
 21
0.514119
 31
0.0
  0
LINE
  8
0
  6
CONTINUOUS
 62
     7
  5
1DE
 10
0.166748
 20
0.514119
 30
0.0
 11
0.167042
 21
0.515206
 31
0.0
  0
LINE
  8
0
  6
CONTINUOUS
 62
     7
  5
1DF
 10
0.167042
 20
0.515206
 30
0.0
 11
0.167338
 21
0.516294
 31
0.0
  0
LINE
  8
0
  6
CONTINUOUS
 62
     7
  5
1E0
 10
0.167338
 20
0.516294
 30
0.0
 11
0.167634
 21
0.517382
 31
0.0
  0
LINE
  8
0
  6
CONTINUOUS
 62
     7
  5
1E1
 10
0.167634
 20
0.517382
 30
0.0
 11
0.16793
 21
0.51847
 31
0.0
  0
LINE
  8
0
  6
CONTINUOUS
 62
     7
  5
1E2
 10
0.16793
 20
0.51847
 30
0.0
 11
0.168228
 21
0.519558
 31
0.0
  0
LINE
  8
0
  6
CONTINUOUS
 62
     7
  5
1E3
 10
0.168228
 20
0.519558
 30
0.0
 11
0.168526
 21
0.520645
 31
0.0
  0
LINE
  8
0
  6
CONTINUOUS
 62
     7
  5
1E4
 10
0.168526
 20
0.520645
 30
0.0
 11
0.168824
 21
0.521733
 31
0.0
  0
LINE
  8
0
  6
CONTINUOUS
 62
     7
  5
1E5
 10
0.168824
 20
0.521733
 30
0.0
 11
0.169123
 21
0.52282
 31
0.0
  0
LINE
  8
0
  6
CONTINUOUS
 62
     7
  5
1E6
 10
0.169123
 20
0.52282
 30
0.0
 11
0.169423
 21
0.523908
 31
0.0
  0
LINE
  8
0
  6
CONTINUOUS
 62
     7
  5
1E7
 10
0.169423
 20
0.523908
 30
0.0
 11
0.169724
 21
0.524995
 31
0.0
  0
LINE
  8
0
  6
CONTINUOUS
 62
     7
  5
1E8
 10
0.169724
 20
0.524995
 30
0.0
 11
0.170025
 21
0.526082
 31
0.0
  0
LINE
  8
0
  6
CONTINUOUS
 62
     7
  5
1E9
 10
0.170025
 20
0.526082
 30
0.0
 11
0.170327
 21
0.527168
 31
0.0
  0
LINE
  8
0
  6
CONTINUOUS
 62
     7
  5
1EA
 10
0.170327
 20
0.527168
 30
0.0
 11
0.170629
 21
0.528254
 31
0.0
  0
LINE
  8
0
  6
CONTINUOUS
 62
     7
  5
1EB
 10
0.170629
 20
0.528254
 30
0.0
 11
0.170932
 21
0.52934
 31
0.0
  0
LINE
  8
0
  6
CONTINUOUS
 62
     7
  5
1EC
 10
0.170932
 20
0.52934
 30
0.0
 11
0.171235
 21
0.530426
 31
0.0
  0
LINE
  8
0
  6
CONTINUOUS
 62
     7
  5
1ED
 10
0.171235
 20
0.530426
 30
0.0
 11
0.171539
 21
0.531511
 31
0.0
  0
LINE
  8
0
  6
CONTINUOUS
 62
     7
  5
1EE
 10
0.171539
 20
0.531511
 30
0.0
 11
0.171843
 21
0.532596
 31
0.0
  0
LINE
  8
0
  6
CONTINUOUS
 62
     7
  5
1EF
 10
0.171843
 20
0.532596
 30
0.0
 11
0.172148
 21
0.53368
 31
0.0
  0
LINE
  8
0
  6
CONTINUOUS
 62
     7
  5
1F0
 10
0.172148
 20
0.53368
 30
0.0
 11
0.172454
 21
0.534763
 31
0.0
  0
LINE
  8
0
  6
CONTINUOUS
 62
     7
  5
1F1
 10
0.172454
 20
0.534763
 30
0.0
 11
0.17276
 21
0.535846
 31
0.0
  0
LINE
  8
0
  6
CONTINUOUS
 62
     7
  5
1F2
 10
0.17276
 20
0.535846
 30
0.0
 11
0.173067
 21
0.536929
 31
0.0
  0
LINE
  8
0
  6
CONTINUOUS
 62
     7
  5
1F3
 10
0.173067
 20
0.536929
 30
0.0
 11
0.173374
 21
0.538011
 31
0.0
  0
LINE
  8
0
  6
CONTINUOUS
 62
     7
  5
1F4
 10
0.173374
 20
0.538011
 30
0.0
 11
0.173681
 21
0.539092
 31
0.0
  0
LINE
  8
0
  6
CONTINUOUS
 62
     7
  5
1F5
 10
0.173681
 20
0.539092
 30
0.0
 11
0.173989
 21
0.540172
 31
0.0
  0
LINE
  8
0
  6
CONTINUOUS
 62
     7
  5
1F6
 10
0.173989
 20
0.540172
 30
0.0
 11
0.174298
 21
0.541252
 31
0.0
  0
LINE
  8
0
  6
CONTINUOUS
 62
     7
  5
1F7
 10
0.174298
 20
0.541252
 30
0.0
 11
0.174606
 21
0.54233
 31
0.0
  0
LINE
  8
0
  6
CONTINUOUS
 62
     7
  5
1F8
 10
0.174606
 20
0.54233
 30
0.0
 11
0.174916
 21
0.543408
 31
0.0
  0
ARC
  8
0
  6
CONTINUOUS
 62
     7
  5
1F9
 10
0.0
 20
0.0
 30
0.0
 40
0.551181
 50
287.917885
 51
72.08215
  0
ARC
  8
0
  6
CONTINUOUS
 62
     7
  5
1FA
 10
0.0
 20
0.0
 30
0.0
 40
0.570866
 50
107.842648
 51
252.157352
  0
ARC
  8
0
  6
CONTINUOUS
 62
     7
  5
1FB
 10
0.0
 20
0.0
 30
0.0
 40
0.570866
 50
270.0
 51
72.157352
  0
LINE
  8
0
  6
CONTINUOUS
 62
     3
  5
1FC
 10
0.0
 20
-0.570866
 30
0.0
 11
0.0
 21
0.570866
 31
0.0
  0
LINE
  8
0
  6
CONTINUOUS
 62
     3
  5
1FD
 10
-0.570866
 20
0.0
 30
0.0
 11
0.570866
 21
0.0
 31
0.0
  0
ENDSEC
  0
EOF
