999
DXF file: C:\Users\sesa63760\Dev\_Creo\CAD\MCADID0003808_3D-CAD\drw0001_1.dxf
999
Pro/ENGINEER 2019471 by Parametric Technology Corporation
  0
SECTION
  2
HEADER
  9
$ACADVER
  1
AC1024
  9
$DWGCODEPAGE
  3
ANSI_1252
  9
$EXTMAX
 10
95.5785954638
 20
135.1754421559
 30
0.0
  9
$EXTMIN
 10
-0.0
 20
0.0
 30
0.0
  9
$LIMMIN
 10
-0.0
 20
0.0
  9
$LIMMAX
 10
95.5785954638
 20
135.1754421559
  9
$VIEWCTR
 10
47.7892977319
 20
67.587721078
  9
$VIEWSIZE
 40
135.1754421559
  9
$CLAYER
  8
0
  9
$LTSCALE
 40
8.8114362294
  9
$CELTYPE
  6
BYLAYER
  9
$DIMSCALE
 40
1.0
  9
$DIMASZ
 40
1.1378404222
  9
$DIMEXO
 40
1.0
  9
$DIMDLI
 40
6.0879013949
  9
$DIMEXE
 40
1.0
  9
$DIMCEN
 40
1.441871383
  9
$DIMLFAC
 40
1.0
  9
$DIMBLK
  1
_FILLED
  9
$DIMALT
 70
0
  9
$DIMALTF
 40
0.0393700787
  9
$DIMTXT
 40
1.5929765911
  9
$DIMTOL
 70
1
  9
$DIMLIM
 70
0
  9
$DIMTFAC
 40
1.0
  9
$DIMTP
 40
0.01
  9
$DIMTM
 40
0.01
  9
$DIMGAP
 40
0.625
  9
$DIMDSEP
 70
46
  9
$AUNITS
 70
0
  9
$PDMODE
 70
3
  9
$PDSIZE
 40
0.3125
  9
$HANDSEED
  5
341
  9
$TILEMODE
 70
1
  9
$MEASUREMENT
 70
1
  9
$INSUNITS
 70
4
  0
ENDSEC
  0
SECTION
  2
CLASSES
  0
CLASS
  1
ACDBDICTIONARYWDFLT
  2
AcDbDictionaryWithDefault
  3
AutoCAD 2000
 90
0
 91
1
280
0
281
0
  0
CLASS
  1
ACDBPLACEHOLDER
  2
AcDbPlaceHolder
  3
AutoCAD 2000
 90
0
 91
1
280
0
281
0
  0
CLASS
  1
LAYOUT
  2
AcDbLayout
  3
AutoCAD 2000
 90
0
 91
0
280
0
281
0
  0
ENDSEC
  0
SECTION
  2
TABLES
  0
TABLE
  2
VPORT
  5
8
100
AcDbSymbolTable
 70
2
  0
VPORT
  5
1F4
100
AcDbSymbolTableRecord
100
AcDbViewportTableRecord
  2
*ACTIVE
 70
0
 10
0.0
 20
0.0
 11
1.0
 21
1.0
 12
47.7892977319
 22
67.587721078
 13
0.0
 23
0.0
 14
1.0
 24
1.0
 15
0.0
 25
0.0
 16
0.0
 26
0.0
 36
1.0
 17
0.0
 27
0.0
 37
0.0
 40
135.1754421559
 41
0.7070707071
 42
50.0
 43
0.0
 44
0.0
 50
0.0
 51
0.0
 71
0
 72
100
 73
1
 74
1
 75
0
 76
0
 77
0
 78
0
  0
ENDTAB
  0
TABLE
  2
LTYPE
  5
5
100
AcDbSymbolTable
 70
6
  0
LTYPE
  5
14
100
AcDbSymbolTableRecord
100
AcDbLinetypeTableRecord
  2
BYBLOCK
 70
0
  3

 72
65
 73
0
 40
0.0
  0
LTYPE
  5
15
100
AcDbSymbolTableRecord
100
AcDbLinetypeTableRecord
  2
BYLAYER
 70
0
  3

 72
65
 73
0
 40
0.0
  0
LTYPE
  5
16
100
AcDbSymbolTableRecord
100
AcDbLinetypeTableRecord
  2
CONTINUOUS
 70
64
  3
Solid line
 72
65
 73
0
 40
0.0
  0
LTYPE
  5
1F5
100
AcDbSymbolTableRecord
100
AcDbLinetypeTableRecord
  2
CENTER
 70
64
  3
____ _ ____ _ ____ _ ____ _ ____ _ ____ _ ____
 72
65
 73
4
 40
0.6
 49
0.375
 74
0
 49
-0.075
 74
0
 49
0.075
 74
0
 49
-0.075
 74
0
  0
LTYPE
  5
1F6
100
AcDbSymbolTableRecord
100
AcDbLinetypeTableRecord
  2
HIDDEN
 70
64
  3
- - - - - - - - - - - - - - - - - - - -
 72
65
 73
2
 40
0.2
 49
0.1
 74
0
 49
-0.1
 74
0
  0
LTYPE
  5
1F7
100
AcDbSymbolTableRecord
100
AcDbLinetypeTableRecord
  2
PHANTOM
 70
64
  3
_____ _ _ _____ _ _ _____ _ _ _____
 72
65
 73
6
 40
0.8
 49
0.45
 74
0
 49
-0.05
 74
0
 49
0.1
 74
0
 49
-0.05
 74
0
 49
0.1
 74
0
 49
-0.05
 74
0
  0
LTYPE
  5
1F8
100
AcDbSymbolTableRecord
100
AcDbLinetypeTableRecord
  2
DOT
 70
64
  3
. . . . . . . . . . . . . . . . . . . .
 72
65
 73
2
 40
0.2
 49
0.1
 74
0
 49
-0.1
 74
0
  0
LTYPE
  5
1F9
100
AcDbSymbolTableRecord
100
AcDbLinetypeTableRecord
  2
DASHED
 70
64
  3
- - - - - - - - - - - - - - - - - - - -
 72
65
 73
2
 40
0.2
 49
0.1
 74
0
 49
-0.1
 74
0
  0
ENDTAB
  0
TABLE
  2
LAYER
  5
2
100
AcDbSymbolTable
 70
36
  0
LAYER
  5
10
100
AcDbSymbolTableRecord
100
AcDbLayerTableRecord
  2
0
 70
0
 62
7
  6
CONTINUOUS
370
-3
390
F
  0
LAYER
  5
1FA
100
AcDbSymbolTableRecord
100
AcDbLayerTableRecord
  2
DEFAULT_1
 70
0
 62
7
  6
CENTER
370
-3
390
F
  0
LAYER
  5
1FB
100
AcDbSymbolTableRecord
100
AcDbLayerTableRecord
  2
DEFAULT_2
 70
0
 62
7
  6
HIDDEN
370
-3
390
F
  0
LAYER
  5
1FC
100
AcDbSymbolTableRecord
100
AcDbLayerTableRecord
  2
DEFAULT_3
 70
0
 62
7
  6
PHANTOM
370
-3
390
F
  0
LAYER
  5
1FD
100
AcDbSymbolTableRecord
100
AcDbLayerTableRecord
  2
00_COMPONENTS
 70
0
 62
7
  6
CONTINUOUS
370
-3
390
F
  0
LAYER
  5
1FE
100
AcDbSymbolTableRecord
100
AcDbLayerTableRecord
  2
01_1_DEFAULT_DATUMS
 70
0
 62
7
  6
CONTINUOUS
370
-3
390
F
  0
LAYER
  5
1FF
100
AcDbSymbolTableRecord
100
AcDbLayerTableRecord
  2
01_PLANES
 70
0
 62
7
  6
CONTINUOUS
370
-3
390
F
  0
LAYER
  5
200
100
AcDbSymbolTableRecord
100
AcDbLayerTableRecord
  2
02_COORD_SYS
 70
0
 62
7
  6
CONTINUOUS
370
-3
390
F
  0
LAYER
  5
201
100
AcDbSymbolTableRecord
100
AcDbLayerTableRecord
  2
03_AXES
 70
0
 62
7
  6
CONTINUOUS
370
-3
390
F
  0
LAYER
  5
202
100
AcDbSymbolTableRecord
100
AcDbLayerTableRecord
  2
04_POINTS
 70
0
 62
7
  6
CONTINUOUS
370
-3
390
F
  0
LAYER
  5
203
100
AcDbSymbolTableRecord
100
AcDbLayerTableRecord
  2
05_CURVES
 70
0
 62
7
  6
CONTINUOUS
370
-3
390
F
  0
LAYER
  5
204
100
AcDbSymbolTableRecord
100
AcDbLayerTableRecord
  2
06_SURFS
 70
0
 62
7
  6
CONTINUOUS
370
-3
390
F
  0
LAYER
  5
205
100
AcDbSymbolTableRecord
100
AcDbLayerTableRecord
  2
07_COSMETICS
 70
0
 62
7
  6
CONTINUOUS
370
-3
390
F
  0
LAYER
  5
206
100
AcDbSymbolTableRecord
100
AcDbLayerTableRecord
  2
10_NOTES
 70
0
 62
7
  6
CONTINUOUS
370
-3
390
F
  0
LAYER
  5
207
100
AcDbSymbolTableRecord
100
AcDbLayerTableRecord
  2
11_NOTES_PUB
 70
0
 62
7
  6
CONTINUOUS
370
-3
390
F
  0
LAYER
  5
208
100
AcDbSymbolTableRecord
100
AcDbLayerTableRecord
  2
13_REF_GTOL
 70
0
 62
7
  6
CONTINUOUS
370
-3
390
F
  0
LAYER
  5
209
100
AcDbSymbolTableRecord
100
AcDbLayerTableRecord
  2
16_MISC
 70
0
 62
7
  6
CONTINUOUS
370
-3
390
F
  0
LAYER
  5
20A
100
AcDbSymbolTableRecord
100
AcDbLayerTableRecord
  2
17_NO_PRINT
 70
0
 62
7
  6
CONTINUOUS
370
-3
390
F
  0
LAYER
  5
20B
100
AcDbSymbolTableRecord
100
AcDbLayerTableRecord
  2
18_DATUM_CAMS_JOINTS
 70
0
 62
7
  6
CONTINUOUS
370
-3
390
F
  0
LAYER
  5
20C
100
AcDbSymbolTableRecord
100
AcDbLayerTableRecord
  2
19_DATUM_FUNCTIONAL
 70
0
 62
7
  6
CONTINUOUS
370
-3
390
F
  0
LAYER
  5
20D
100
AcDbSymbolTableRecord
100
AcDbLayerTableRecord
  2
20_DATUM_KINEMATIC_SCHEME
 70
0
 62
7
  6
CONTINUOUS
370
-3
390
F
  0
ENDTAB
  0
TABLE
  2
STYLE
  5
3
100
AcDbSymbolTable
 70
1
  0
STYLE
  5
11
100
AcDbSymbolTableRecord
100
AcDbTextStyleTableRecord
  2
STANDARD
 70
0
 40
0.0
 41
1.0
 50
0.0
 71
0
 42
0.2
  3
ARIAL.TTF
  4

  0
STYLE
  5
20E
100
AcDbSymbolTableRecord
100
AcDbTextStyleTableRecord
  2
TEXTSTYLE_1
 70
0
 40
0.0
 41
0.8
 50
0.0
 71
0
 42
0.2
  3
gdt
  4

  0
ENDTAB
  0
TABLE
  2
VIEW
  5
6
100
AcDbSymbolTable
 70
0
  0
ENDTAB
  0
TABLE
  2
UCS
  5
7
100
AcDbSymbolTable
 70
0
  0
ENDTAB
  0
TABLE
  2
APPID
  5
9
100
AcDbSymbolTable
 70
1
  0
APPID
  5
20F
100
AcDbSymbolTableRecord
100
AcDbRegAppTableRecord
  2
ACAD
 70
0
  0
ENDTAB
  0
TABLE
  2
BLOCK_RECORD
  5
1
100
AcDbSymbolTable
 70
0
  0
BLOCK_RECORD
  5
210
100
AcDbSymbolTableRecord
100
AcDbBlockTableRecord
  2
*Model_Space
  0
BLOCK_RECORD
  5
211
100
AcDbSymbolTableRecord
100
AcDbBlockTableRecord
  2
*Paper_Space
  0
BLOCK_RECORD
  5
212
100
AcDbSymbolTableRecord
100
AcDbBlockTableRecord
  2
_FILLED
  0
ENDTAB
  0
TABLE
  2
DIMSTYLE
  5
A
100
AcDbSymbolTable
 70
1
100
AcDbDimStyleTable
 71
0
  0
DIMSTYLE
105
213
100
AcDbSymbolTableRecord
100
AcDbDimStyleTableRecord
  2
STANDARD
 70
0
  3

  4

 40
1.0
 41
1.1378404222
 42
1.0
 43
0.38
 44
1.0
 45
0.0
 46
0.0
 47
0.01
 48
0.01
140
1.5929765911
141
0.09
142
0.0
143
25.4
144
1.0
145
0.0
146
1.0
147
0.625
 71
1
 72
0
 73
0
 74
0
 75
0
 76
0
 77
1
 78
8
 79
2
170
0
171
1
172
0
173
0
174
0
175
0
176
0
177
0
178
0
270
2
179
2
271
2
272
2
273
2
274
2
275
0
280
0
281
0
282
0
283
1
284
8
285
0
286
0
287
3
288
0
340
11
278
46
341
212
342
212
343
212
344
212
  0
ENDTAB
  0
ENDSEC
  0
SECTION
  2
BLOCKS
  0
BLOCK
  5
20
100
AcDbEntity
  8
0
100
AcDbBlockBegin
  2
*Model_Space
 70
0
 10
0.0
 20
0.0
 30
0.0
  3
*Model_Space
  1

  0
ENDBLK
  5
21
100
AcDbEntity
  8
0
100
AcDbBlockEnd
  0
BLOCK
  5
1C
100
AcDbEntity
  8
0
100
AcDbBlockBegin
  2
*Paper_Space
 70
0
 10
0.0
 20
0.0
 30
0.0
  3
*Paper_Space
  1

  0
ENDBLK
  5
1D
100
AcDbEntity
  8
0
100
AcDbBlockEnd
  0
BLOCK
  5
214
100
AcDbEntity
  8
0
100
AcDbBlockBegin
  2
_FILLED
 70
64
 10
0.0
 20
0.0
  3
_FILLED
  1

  0
SOLID
  5
215
100
AcDbEntity
  8
0
  6
BYBLOCK
 62
0
100
AcDbTrace
 10
0.0
 20
0.0
 11
-1.0
 21
0.25
 12
-1.0
 22
-0.25
 13
-1.0
 23
-0.25
  0
ENDBLK
  5
216
100
AcDbEntity
  8
0
  6
BYBLOCK
 62
0
100
AcDbBlockEnd
  0
ENDSEC
  0
SECTION
  2
ENTITIES
  0
LINE
  5
217
100
AcDbEntity
  8
0
100
AcDbLine
 62
7
  6
BYLAYER
 10
11.424409222
 20
50.769220476
 11
11.3622946258
 21
50.910860303
  0
LWPOLYLINE
  5
218
100
AcDbEntity
  8
0
100
AcDbPolyline
 62
7
  6
BYLAYER
 90
4
 70
0
 10
11.085110694
 20
51.3051000312
 10
11.0973603009
 20
51.1843541213
 10
11.1800665097
 20
50.993367323
 10
11.424451531
 20
50.7691952583
  0
LINE
  5
219
100
AcDbEntity
  8
0
100
AcDbLine
 62
7
  6
BYLAYER
 10
11.0813537749
 20
51.311490659
 11
11.0811817883
 21
51.3051760494
  0
LINE
  5
21A
100
AcDbEntity
  8
0
100
AcDbLine
 62
7
  6
BYLAYER
 10
11.6397192352
 20
66.1725069637
 11
11.0813537749
 21
51.311490659
  0
LINE
  5
21B
100
AcDbEntity
  8
0
100
AcDbLine
 62
7
  6
BYLAYER
 10
11.9197786219
 20
65.7482198007
 11
11.3622946258
 21
50.910860303
  0
LWPOLYLINE
  5
21C
100
AcDbEntity
  8
0
100
AcDbPolyline
 62
7
  6
BYLAYER
 90
4
 70
0
 10
38.9857858897
 20
34.8570072672
 10
39.4704821129
 20
34.7064440438
 10
39.7562488974
 20
34.6955875321
 10
40.2462769257
 20
34.8121234398
  0
LINE
  5
21D
100
AcDbEntity
  8
0
100
AcDbLine
 62
7
  6
BYLAYER
 10
24.9659232907
 20
42.693672106
 11
38.9860069604
 21
34.8568833133
  0
LINE
  5
21E
100
AcDbEntity
  8
0
100
AcDbLine
 62
7
  6
BYLAYER
 10
24.9026147286
 20
42.8359782109
 11
38.9240222553
 21
34.9984494236
  0
LINE
  5
21F
100
AcDbEntity
  8
0
100
AcDbLine
 62
7
  6
BYLAYER
 10
24.9659251335
 20
42.6936710077
 11
24.9634966601
 21
42.6950734879
  0
LINE
  5
220
100
AcDbEntity
  8
0
100
AcDbLine
 62
7
  6
BYLAYER
 10
11.424409222
 20
50.769220476
 11
24.9634952382
 21
42.6950743359
  0
LINE
  5
221
100
AcDbEntity
  8
0
100
AcDbLine
 62
7
  6
BYLAYER
 10
11.3622946258
 20
50.910860303
 11
24.9026144223
 21
42.8359783877
  0
LINE
  5
222
100
AcDbEntity
  8
0
100
AcDbLine
 62
7
  6
BYLAYER
 10
18.2674226463
 20
49.3135238874
 11
18.5079888269
 21
48.896853353
  0
LINE
  5
223
100
AcDbEntity
  8
0
100
AcDbLine
 62
7
  6
BYLAYER
 10
19.1079913249
 20
49.2432748612
 11
18.8674251443
 21
49.6599453956
  0
LINE
  5
224
100
AcDbEntity
  8
0
100
AcDbLine
 62
7
  6
BYLAYER
 10
41.8531209283
 20
37.4029434246
 11
41.7117958902
 21
37.4802623841
  0
LINE
  5
225
100
AcDbEntity
  8
0
100
AcDbLine
 62
7
  6
BYLAYER
 10
41.4846564831
 20
37.9493061794
 11
41.6260138179
 21
37.8719695504
  0
LINE
  5
226
100
AcDbEntity
  8
0
100
AcDbLine
 62
7
  6
BYLAYER
 10
42.1795437744
 20
37.1402047448
 11
42.0381218294
 21
37.2218528957
  0
LINE
  5
227
100
AcDbEntity
  8
0
100
AcDbLine
 62
7
  6
BYLAYER
 10
24.9634966601
 20
42.6950734879
 11
24.9026266557
 21
42.8359710922
  0
LINE
  5
228
100
AcDbEntity
  8
0
100
AcDbLine
 62
7
  6
BYLAYER
 10
16.038290161
 20
54.3911848137
 11
16.0249417691
 21
54.339450414
  0
LINE
  5
229
100
AcDbEntity
  8
0
100
AcDbLine
 62
7
  6
BYLAYER
 10
25.016526363
 20
50.438826305
 11
24.9026147286
 21
42.8359782109
  0
LINE
  5
22A
100
AcDbEntity
  8
0
100
AcDbLine
 62
7
  6
BYLAYER
 10
25.3560837653
 20
73.0908236786
 11
25.2236619549
 21
64.2552215853
  0
LINE
  5
22B
100
AcDbEntity
  8
0
100
AcDbLine
 62
7
  6
BYLAYER
 10
21.6464634952
 20
51.1755849064
 11
21.4044158158
 21
49.8003241505
  0
LINE
  5
22C
100
AcDbEntity
  8
0
100
AcDbLine
 62
7
  6
BYLAYER
 10
21.5172513513
 20
50.0762868691
 11
21.7499895047
 21
51.3986529805
  0
LINE
  5
22D
100
AcDbEntity
  8
0
100
AcDbLine
 62
7
  6
BYLAYER
 10
17.8060644739
 20
53.3705829274
 11
17.792716082
 21
53.3188485277
  0
LINE
  5
22E
100
AcDbEntity
  8
0
100
AcDbLine
 62
7
  6
BYLAYER
 10
17.8060644739
 20
51.3293268846
 11
17.792716082
 21
51.2775924848
  0
LINE
  5
22F
100
AcDbEntity
  8
0
100
AcDbLine
 62
7
  6
BYLAYER
 10
17.0174005621
 20
54.2126206912
 11
17.1209565439
 21
54.441513662
  0
LINE
  5
230
100
AcDbEntity
  8
0
100
AcDbLine
 62
7
  6
BYLAYER
 10
18.785174875
 20
53.1920188049
 11
18.8887308568
 21
53.4209117757
  0
LINE
  5
231
100
AcDbEntity
  8
0
100
AcDbLine
 62
7
  6
BYLAYER
 10
18.785174875
 20
51.1507627621
 11
18.8887308568
 21
51.3796557329
  0
LINE
  5
232
100
AcDbEntity
  8
0
100
AcDbLine
 62
7
  6
BYLAYER
 10
16.0382754711
 20
54.3912025785
 11
16.4582924921
 21
55.0222616316
  0
LINE
  5
233
100
AcDbEntity
  8
0
100
AcDbLine
 62
7
  6
BYLAYER
 10
52.4814488497
 20
96.3177812399
 11
16.1151149408
 21
75.3216017188
  0
LINE
  5
234
100
AcDbEntity
  8
0
100
AcDbLine
 62
7
  6
BYLAYER
 10
58.0061175286
 20
97.6845527842
 11
57.0212606517
 21
97.1159487953
  0
LINE
  5
235
100
AcDbEntity
  8
0
100
AcDbLine
 62
7
  6
BYLAYER
 10
52.4814488497
 20
96.3177812399
 11
52.5042646958
 21
96.330893908
  0
LINE
  5
236
100
AcDbEntity
  8
0
100
AcDbLine
 62
7
  6
BYLAYER
 10
41.3761291592
 20
49.0352426605
 11
41.2347718243
 21
49.1125792896
  0
LINE
  5
237
100
AcDbEntity
  8
0
100
AcDbLine
 62
7
  6
BYLAYER
 10
38.9240222554
 20
34.9984494236
 11
38.985733036
 21
34.8570370156
  0
LINE
  5
238
100
AcDbEntity
  8
0
100
AcDbLine
 62
7
  6
BYLAYER
 10
21.5172513513
 20
50.0762868691
 11
21.4044158158
 21
49.8003241505
  0
LINE
  5
239
100
AcDbEntity
  8
0
100
AcDbLine
 62
7
  6
BYLAYER
 10
17.806049784
 20
53.3706006922
 11
18.2260668049
 21
54.0016597453
  0
LINE
  5
23A
100
AcDbEntity
  8
0
100
AcDbLine
 62
7
  6
BYLAYER
 10
17.806049784
 20
51.3293446494
 11
18.2260668049
 21
51.9604037025
  0
LINE
  5
23B
100
AcDbEntity
  8
0
100
AcDbLine
 62
7
  6
BYLAYER
 10
16.1824879876
 20
54.1414212998
 11
16.2370746866
 21
54.2169781876
  0
LINE
  5
23C
100
AcDbEntity
  8
0
100
AcDbLine
 62
7
  6
BYLAYER
 10
17.9502623005
 20
53.1208194135
 11
18.0048489995
 21
53.1963763013
  0
LINE
  5
23D
100
AcDbEntity
  8
0
100
AcDbLine
 62
7
  6
BYLAYER
 10
66.3436006461
 20
98.5551297925
 11
65.0722571702
 21
97.8211236759
  0
LINE
  5
23E
100
AcDbEntity
  8
0
100
AcDbLine
 62
7
  6
BYLAYER
 10
66.1507389139
 20
97.4457039207
 11
68.3887775304
 21
98.7378284055
  0
LINE
  5
23F
100
AcDbEntity
  8
0
100
AcDbLine
 62
7
  6
BYLAYER
 10
72.0900005634
 20
100.2732835952
 11
69.0076897631
 21
98.4937212475
  0
LINE
  5
240
100
AcDbEntity
  8
0
100
AcDbLine
 62
7
  6
BYLAYER
 10
42.0647230217
 20
50.2703959337
 11
41.9233656868
 21
50.3477325627
  0
LINE
  5
241
100
AcDbEntity
  8
0
100
AcDbLine
 62
7
  6
BYLAYER
 10
17.9502623005
 20
51.0795633707
 11
18.0048489995
 21
51.1551202585
  0
LINE
  5
242
100
AcDbEntity
  8
0
100
AcDbLine
 62
7
  6
BYLAYER
 10
13.9391619124
 20
56.6873147642
 11
14.5332416221
 21
57.2587215402
  0
LINE
  5
243
100
AcDbEntity
  8
0
100
AcDbLine
 62
7
  6
BYLAYER
 10
16.5174028006
 20
55.0786473873
 11
16.4582924921
 21
55.0222616316
  0
LINE
  5
244
100
AcDbEntity
  8
0
100
AcDbLine
 62
7
  6
BYLAYER
 10
17.950266174
 20
51.0795530435
 11
18.706788105
 21
51.1277650163
  0
LINE
  5
245
100
AcDbEntity
  8
0
100
AcDbLine
 62
7
  6
BYLAYER
 10
16.9529326283
 20
57.9819659895
 11
16.6575243439
 21
58.0222304357
  0
LINE
  5
246
100
AcDbEntity
  8
0
100
AcDbLine
 62
7
  6
BYLAYER
 10
38.9240222553
 20
34.9984494236
 11
38.8054349132
 21
50.2261300812
  0
LINE
  5
247
100
AcDbEntity
  8
0
100
AcDbLine
 62
7
  6
BYLAYER
 10
18.2851771135
 20
54.058045501
 11
18.2260668049
 21
54.0016597453
  0
LINE
  5
248
100
AcDbEntity
  8
0
100
AcDbLine
 62
7
  6
BYLAYER
 10
21.0565870856
 20
64.3115322479
 11
20.7606604216
 21
64.1406799286
  0
LINE
  5
249
100
AcDbEntity
  8
0
100
AcDbLine
 62
7
  6
BYLAYER
 10
75.4598747819
 20
94.6554208603
 11
72.3365360293
 21
92.8521711547
  0
LINE
  5
24A
100
AcDbEntity
  8
0
100
AcDbLine
 62
7
  6
BYLAYER
 10
21.1396078395
 20
64.3575106212
 11
21.0565785824
 21
64.3115273386
  0
LINE
  5
24B
100
AcDbEntity
  8
0
100
AcDbLine
 62
7
  6
BYLAYER
 10
17.950266174
 20
53.1208090863
 11
18.706788105
 21
53.1690210592
  0
LINE
  5
24C
100
AcDbEntity
  8
0
100
AcDbLine
 62
7
  6
BYLAYER
 10
16.1824918611
 20
54.1414109726
 11
16.9390137921
 21
54.1896229455
  0
LINE
  5
24D
100
AcDbEntity
  8
0
100
AcDbLine
 62
7
  6
BYLAYER
 10
41.1947903163
 20
49.13559738
 11
41.4539299625
 21
37.5588697102
  0
LINE
  5
24E
100
AcDbEntity
  8
0
100
AcDbLine
 62
7
  6
BYLAYER
 10
41.2347718243
 20
49.1125792896
 11
41.4846564831
 21
37.9493061794
  0
LINE
  5
24F
100
AcDbEntity
  8
0
100
AcDbLine
 62
7
  6
BYLAYER
 10
41.6260138179
 20
37.8719695504
 11
41.3761291592
 21
49.0352426605
  0
LINE
  5
250
100
AcDbEntity
  8
0
100
AcDbLine
 62
7
  6
BYLAYER
 10
40.2068431945
 20
50.2404008435
 11
40.3257931043
 21
34.9652370871
  0
LINE
  5
251
100
AcDbEntity
  8
0
100
AcDbLine
 62
7
  6
BYLAYER
 10
18.2851771135
 20
52.0167894582
 11
18.2260668049
 21
51.9604037025
  0
LINE
  5
252
100
AcDbEntity
  8
0
100
AcDbLine
 62
7
  6
BYLAYER
 10
20.838468204
 20
61.8830234839
 11
16.7372659481
 21
59.5152073914
  0
LINE
  5
253
100
AcDbEntity
  8
0
100
AcDbLine
 62
7
  6
BYLAYER
 10
15.3695045644
 20
57.8017756498
 11
14.8745318783
 21
57.5160047421
  0
LINE
  5
254
100
AcDbEntity
  8
0
100
AcDbLine
 62
7
  6
BYLAYER
 10
16.5301598725
 20
58.2409365414
 11
16.174565652
 21
58.035635348
  0
LINE
  5
255
100
AcDbEntity
  8
0
100
AcDbLine
 62
7
  6
BYLAYER
 10
74.2830451198
 20
90.2509935796
 11
77.5050516661
 21
92.1112088225
  0
LINE
  5
256
100
AcDbEntity
  8
0
100
AcDbLine
 62
7
  6
BYLAYER
 10
16.5174028006
 20
55.0786473873
 11
17.3447884297
 21
55.5563358516
  0
LINE
  5
257
100
AcDbEntity
  8
0
100
AcDbLine
 62
7
  6
BYLAYER
 10
17.0174005621
 20
54.2126206912
 11
18.0423460681
 21
54.8043697227
  0
LINE
  5
258
100
AcDbEntity
  8
0
100
AcDbLine
 62
7
  6
BYLAYER
 10
18.2851771135
 20
54.058045501
 11
18.5617243315
 21
54.2177091587
  0
LINE
  5
259
100
AcDbEntity
  8
0
100
AcDbLine
 62
7
  6
BYLAYER
 10
57.0341853534
 20
59.0719162885
 11
57.1755278347
 21
58.9945877859
  0
LINE
  5
25A
100
AcDbEntity
  8
0
100
AcDbLine
 62
7
  6
BYLAYER
 10
18.785174875
 20
53.1920188049
 11
19.0127839056
 21
53.3234281556
  0
LINE
  5
25B
100
AcDbEntity
  8
0
100
AcDbLine
 62
7
  6
BYLAYER
 10
18.2851771135
 20
52.0167894582
 11
19.3545350711
 21
52.6341798776
  0
LINE
  5
25C
100
AcDbEntity
  8
0
100
AcDbLine
 62
7
  6
BYLAYER
 10
18.785174875
 20
51.1507627621
 11
19.5630298669
 21
51.5998548703
  0
LINE
  5
25D
100
AcDbEntity
  8
0
100
AcDbLine
 62
7
  6
BYLAYER
 10
18.2674252384
 20
50.0063506592
 11
19.6742761625
 21
50.8185915705
  0
LINE
  5
25E
100
AcDbEntity
  8
0
100
AcDbLine
 62
7
  6
BYLAYER
 10
18.8674251443
 20
49.6599453956
 11
19.5527986995
 21
50.0556436402
  0
LINE
  5
25F
100
AcDbEntity
  8
0
100
AcDbLine
 62
7
  6
BYLAYER
 10
21.5301374881
 20
49.58066958
 11
21.1050567078
 21
49.335250542
  0
LINE
  5
260
100
AcDbEntity
  8
0
100
AcDbLine
 62
7
  6
BYLAYER
 10
20.5694812846
 20
48.7950980099
 11
20.0745085985
 21
48.5093271022
  0
LINE
  5
261
100
AcDbEntity
  8
0
100
AcDbLine
 62
7
  6
BYLAYER
 10
81.0406002919
 20
82.9988866951
 11
78.0126586557
 21
81.2507142115
  0
LINE
  5
262
100
AcDbEntity
  8
0
100
AcDbLine
 62
7
  6
BYLAYER
 10
26.8384413427
 20
51.4907031301
 11
22.7372390869
 21
49.1228870377
  0
LINE
  5
263
100
AcDbEntity
  8
0
100
AcDbLine
 62
7
  6
BYLAYER
 10
75.2720021784
 20
56.4093281277
 11
75.4134241235
 21
56.3276799768
  0
LINE
  5
264
100
AcDbEntity
  8
0
100
AcDbLine
 62
7
  6
BYLAYER
 10
28.9098503383
 20
50.3840497998
 11
28.7547191019
 21
50.2944814855
  0
LINE
  5
265
100
AcDbEntity
  8
0
100
AcDbLine
 62
7
  6
BYLAYER
 10
78.3682930991
 20
78.7291279768
 11
81.0406002919
 21
80.2719760444
  0
LINE
  5
266
100
AcDbEntity
  8
0
100
AcDbLine
 62
7
  6
BYLAYER
 10
83.5899490793
 20
80.3546695839
 11
79.758052951
 21
78.1423365286
  0
LINE
  5
267
100
AcDbEntity
  8
0
100
AcDbLine
 62
7
  6
BYLAYER
 10
19.6810488187
 20
48.3424047052
 11
20.0745085985
 21
48.5093271022
  0
LINE
  5
268
100
AcDbEntity
  8
0
100
AcDbLine
 62
7
  6
BYLAYER
 10
16.9390137921
 20
54.1896229455
 11
17.0174005621
 21
54.2126206912
  0
LINE
  5
269
100
AcDbEntity
  8
0
100
AcDbLine
 62
7
  6
BYLAYER
 10
18.706788105
 20
53.1690210592
 11
18.785174875
 21
53.1920188049
  0
LINE
  5
26A
100
AcDbEntity
  8
0
100
AcDbLine
 62
7
  6
BYLAYER
 10
76.1020179859
 20
57.5628332499
 11
75.9605960409
 21
57.6444814008
  0
LINE
  5
26B
100
AcDbEntity
  8
0
100
AcDbLine
 62
7
  6
BYLAYER
 10
57.0331665904
 20
59.117428204
 11
57.0341853534
 21
59.0719162885
  0
LINE
  5
26C
100
AcDbEntity
  8
0
100
AcDbLine
 62
7
  6
BYLAYER
 10
57.1755278347
 20
58.9945877859
 11
57.1709808464
 21
59.1969948003
  0
LINE
  5
26D
100
AcDbEntity
  8
0
100
AcDbLine
 62
7
  6
BYLAYER
 10
40.2463330788
 20
34.8121512195
 11
40.3257931043
 21
34.9652370871
  0
LINE
  5
26E
100
AcDbEntity
  8
0
100
AcDbLine
 62
7
  6
BYLAYER
 10
18.706788105
 20
51.1277650163
 11
18.785174875
 21
51.1507627621
  0
LINE
  5
26F
100
AcDbEntity
  8
0
100
AcDbLine
 62
7
  6
BYLAYER
 10
76.7080041377
 20
71.3142303009
 11
40.2068431945
 21
50.2404008435
  0
LINE
  5
270
100
AcDbEntity
  8
0
100
AcDbLine
 62
7
  6
BYLAYER
 10
57.1709808464
 20
59.196994816
 11
41.8833841788
 21
50.3707506532
  0
LINE
  5
271
100
AcDbEntity
  8
0
100
AcDbLine
 62
7
  6
BYLAYER
 10
75.1172645279
 20
69.5582258851
 11
68.4846422418
 21
65.728901278
  0
LINE
  5
272
100
AcDbEntity
  8
0
100
AcDbLine
 62
7
  6
BYLAYER
 10
41.9233656868
 20
50.3477325627
 11
57.0341853534
 21
59.0719162885
  0
LINE
  5
273
100
AcDbEntity
  8
0
100
AcDbLine
 62
7
  6
BYLAYER
 10
68.4856599895
 20
65.6833887871
 11
74.8036941172
 21
69.3310857177
  0
LINE
  5
274
100
AcDbEntity
  8
0
100
AcDbLine
 62
7
  6
BYLAYER
 10
68.4891892302
 20
65.5264942478
 11
74.9450514521
 21
69.2537490887
  0
LINE
  5
275
100
AcDbEntity
  8
0
100
AcDbLine
 62
7
  6
BYLAYER
 10
42.0647230217
 20
50.2703959337
 11
57.1755278348
 21
58.9945877859
  0
LINE
  5
276
100
AcDbEntity
  8
0
100
AcDbLine
 62
7
  6
BYLAYER
 10
18.8891549973
 20
48.1136240664
 11
19.6810488187
 21
48.3424047052
  0
LINE
  5
277
100
AcDbEntity
  8
0
100
AcDbLine
 62
7
  6
BYLAYER
 10
74.8036941172
 20
69.3310857177
 11
74.9450514521
 21
69.2537490887
  0
LINE
  5
278
100
AcDbEntity
  8
0
100
AcDbLine
 62
7
  6
BYLAYER
 10
75.4434935602
 20
69.3041455882
 11
75.3021685221
 21
69.3814645477
  0
LINE
  5
279
100
AcDbEntity
  8
0
100
AcDbLine
 62
7
  6
BYLAYER
 10
75.7014563948
 20
69.2212090706
 11
75.8428783398
 21
69.1395609197
  0
LINE
  5
27A
100
AcDbEntity
  8
0
100
AcDbLine
 62
7
  6
BYLAYER
 10
68.4891717869
 20
65.526503791
 11
68.4846412012
 21
65.7289018316
  0
LINE
  5
27B
100
AcDbEntity
  8
0
100
AcDbLine
 62
7
  6
BYLAYER
 10
75.2319560603
 20
56.43665774
 11
42.3516276299
 21
37.453304585
  0
LINE
  5
27C
100
AcDbEntity
  8
0
100
AcDbLine
 62
7
  6
BYLAYER
 10
75.2720021784
 20
56.4093281277
 11
42.0381218294
 21
37.2218528957
  0
LINE
  5
27D
100
AcDbEntity
  8
0
100
AcDbLine
 62
7
  6
BYLAYER
 10
42.1795437744
 20
37.1402047448
 11
75.4134241235
 21
56.3276799768
  0
LINE
  5
27E
100
AcDbEntity
  8
0
100
AcDbLine
 62
7
  6
BYLAYER
 10
77.6598556468
 20
73.9444257666
 11
77.2678125744
 21
72.9856030735
  0
LINE
  5
27F
100
AcDbEntity
  8
0
100
AcDbLine
 62
7
  6
BYLAYER
 10
40.3257931043
 20
34.9652370871
 11
77.383406809
 21
53.1728443989
  0
LINE
  5
280
100
AcDbEntity
  8
0
100
AcDbLine
 62
7
  6
BYLAYER
 10
77.3038054836
 20
53.0196887016
 11
40.2460266793
 21
34.8120001055
  0
LWPOLYLINE
  5
281
100
AcDbEntity
  8
0
100
AcDbPolyline
 62
7
  6
BYLAYER
 90
3
 70
0
 10
78.0963691301
 20
81.0329108374
 10
78.3203615639
 20
76.7640779952
 10
77.6598556468
 20
73.9444257666
  0
LINE
  5
282
100
AcDbEntity
  8
0
100
AcDbLine
 62
7
  6
BYLAYER
 10
77.383406809
 20
53.1728443989
 11
76.7080041377
 21
71.3142303009
  0
LINE
  5
283
100
AcDbEntity
  8
0
100
AcDbLine
 62
7
  6
BYLAYER
 10
77.677033395
 20
53.5649113078
 11
77.0004439871
 21
71.7381614035
  0
LINE
  5
284
100
AcDbEntity
  8
0
100
AcDbLine
 62
7
  6
BYLAYER
 10
75.670665264
 20
68.8350841233
 11
75.9205499228
 21
57.6718110131
  0
LINE
  5
285
100
AcDbEntity
  8
0
100
AcDbLine
 62
7
  6
BYLAYER
 10
75.7014563948
 20
69.2212090706
 11
75.9605960409
 21
57.6444814008
  0
LINE
  5
286
100
AcDbEntity
  8
0
100
AcDbLine
 62
7
  6
BYLAYER
 10
76.1020179859
 20
57.5628332499
 11
75.8428783398
 21
69.1395609197
  0
LINE
  5
287
100
AcDbEntity
  8
0
100
AcDbLine
 62
7
  6
BYLAYER
 10
78.3721732389
 20
78.3648908341
 11
78.362285692
 21
79.2930563068
  0
LINE
  5
288
100
AcDbEntity
  8
0
100
AcDbLine
 62
7
  6
BYLAYER
 10
77.6819695619
 20
76.9139933383
 11
77.0846454811
 21
73.0299556227
  0
LWPOLYLINE
  5
289
100
AcDbEntity
  8
0
100
AcDbPolyline
 62
7
  6
BYLAYER
 90
4
 70
0
 10
77.3037328103
 20
53.0196528812
 10
77.5659483448
 20
53.2286976029
 10
77.6583500082
 20
53.4202838146
 10
77.6729797525
 20
53.5690195547
  0
LINE
  5
28A
100
AcDbEntity
  8
0
100
AcDbLine
 62
7
  6
BYLAYER
 10
77.383406809
 20
53.1728443989
 11
77.3038054836
 21
53.0196887016
  0
LINE
  5
28B
100
AcDbEntity
  8
0
100
AcDbLine
 62
7
  6
BYLAYER
 10
63.5735098774
 20
98.3428379701
 11
62.5471242545
 21
98.4827353624
  0
LINE
  5
28C
100
AcDbEntity
  8
0
100
AcDbLine
 62
7
  6
BYLAYER
 10
63.5735098774
 20
98.3428379701
 11
64.1337767949
 21
98.2465020052
  0
LWPOLYLINE
  5
28D
100
AcDbEntity
  8
0
100
AcDbPolyline
 62
7
  6
BYLAYER
 90
3
 70
0
 10
58.8955119052
 20
97.0831108513
 10
58.7510662803
 20
97.1102306134
 10
58.7173496319
 20
97.11712005
  0
LINE
  5
28E
100
AcDbEntity
  8
0
100
AcDbLine
 62
7
  6
BYLAYER
 10
58.9179698208
 20
97.0786399932
 11
58.897786024
 21
97.0826144722
  0
LWPOLYLINE
  5
28F
100
AcDbEntity
  8
0
100
AcDbPolyline
 62
7
  6
BYLAYER
 90
4
 70
0
 10
63.101179756
 20
95.4508396109
 10
61.7830602029
 20
96.1138307678
 10
60.2542327143
 20
96.7101270026
 10
58.9156026778
 20
97.0791587285
  0
LINE
  5
290
100
AcDbEntity
  8
0
100
AcDbLine
 62
7
  6
BYLAYER
 10
63.1108094788
 20
95.4452576198
 11
63.1022697682
 21
95.4501885822
  0
LWPOLYLINE
  5
291
100
AcDbEntity
  8
0
100
AcDbPolyline
 62
7
  6
BYLAYER
 90
4
 70
0
 10
67.0432732319
 20
92.4071268756
 10
65.8231410254
 20
93.4965350563
 10
64.4319251056
 20
94.576678366
 10
63.1097206423
 20
95.4459083296
  0
LWPOLYLINE
  5
292
100
AcDbEntity
  8
0
100
AcDbPolyline
 62
7
  6
BYLAYER
 90
4
 70
0
 10
67.212329688
 20
92.2389719503
 10
67.1821613073
 20
92.2666902788
 10
67.0629234245
 20
92.3867714663
 10
67.0496793171
 20
92.4006995196
  0
LINE
  5
293
100
AcDbEntity
  8
0
100
AcDbLine
 62
7
  6
BYLAYER
 10
67.0515254613
 20
92.3987499138
 11
67.0451269444
 21
92.4051715583
  0
LINE
  5
294
100
AcDbEntity
  8
0
100
AcDbLine
 62
7
  6
BYLAYER
 10
74.9318819415
 20
89.3540262121
 11
76.2105762914
 21
86.7217611112
  0
LINE
  5
295
100
AcDbEntity
  8
0
100
AcDbLine
 62
7
  6
BYLAYER
 10
77.2631968447
 20
84.195431294
 11
75.6076466496
 21
88.1688154434
  0
LINE
  5
296
100
AcDbEntity
  8
0
100
AcDbLine
 62
7
  6
BYLAYER
 10
77.5458977344
 20
83.3321621284
 11
78.0963691301
 21
81.0329108374
  0
LINE
  5
297
100
AcDbEntity
  8
0
100
AcDbLine
 62
7
  6
BYLAYER
 10
78.362285692
 20
79.2930563068
 11
77.5773191759
 21
83.4415256163
  0
LINE
  5
298
100
AcDbEntity
  8
0
100
AcDbLine
 62
7
  6
BYLAYER
 10
64.1337767949
 20
98.2465020052
 11
67.5876615108
 21
96.8351269746
  0
LINE
  5
299
100
AcDbEntity
  8
0
100
AcDbLine
 62
7
  6
BYLAYER
 10
73.656863098
 20
91.0524042165
 11
74.9318819415
 21
89.3540262121
  0
LWPOLYLINE
  5
29A
100
AcDbEntity
  8
0
100
AcDbPolyline
 62
7
  6
BYLAYER
 90
3
 70
0
 10
75.6076466496
 20
88.1688154434
 10
72.7108583928
 20
92.4507595312
 10
72.1785044038
 20
93.0216393392
  0
ARC
  5
29B
100
AcDbEntity
  8
0
100
AcDbCircle
 62
7
  6
BYLAYER
 10
54.9189481708
 20
77.5856631786
 40
23.18424089
100
AcDbArc
 50
41.8323986473
 51
43.1936050314
  0
ARC
  5
29C
100
AcDbEntity
  8
0
100
AcDbCircle
 62
7
  6
BYLAYER
 10
55.5083699635
 20
76.8755628505
 40
23.0249948182
100
AcDbArc
 50
16.5688158351
 51
18.5360321337
  0
ARC
  5
29D
100
AcDbEntity
  8
0
100
AcDbCircle
 62
7
  6
BYLAYER
 10
55.6165994387
 20
76.8092711836
 40
22.8788598933
100
AcDbArc
 50
16.5651605616
 51
16.7920482668
  0
ARC
  5
29E
100
AcDbEntity
  8
0
100
AcDbCircle
 62
7
  6
BYLAYER
 10
53.4494784887
 20
80.0752518519
 40
17.8505836285
100
AcDbArc
 50
57.8926122301
 51
59.1415990414
  0
ARC
  5
29F
100
AcDbEntity
  8
0
100
AcDbCircle
 62
7
  6
BYLAYER
 10
59.7112182973
 20
83.5160550896
 40
15.4898484234
100
AcDbArc
 50
55.7334819241
 51
59.435882511
  0
ARC
  5
2A0
100
AcDbEntity
  8
0
100
AcDbCircle
 62
7
  6
BYLAYER
 10
55.8369848601
 20
84.8918997028
 40
12.3987961215
100
AcDbArc
 50
75.8769408356
 51
77.5421631793
  0
ARC
  5
2A1
100
AcDbEntity
  8
0
100
AcDbCircle
 62
7
  6
BYLAYER
 10
74.7551132211
 20
85.6162877655
 40
11.2166238399
100
AcDbArc
 50
0.0153158385
 51
1.9469041636
  0
ARC
  5
2A2
100
AcDbEntity
  8
0
100
AcDbCircle
 62
7
  6
BYLAYER
 10
72.2934459726
 20
90.0986956312
 40
11.0914893483
100
AcDbArc
 50
58.041889128
 51
59.9953223779
  0
ARC
  5
2A3
100
AcDbEntity
  8
0
100
AcDbCircle
 62
7
  6
BYLAYER
 10
68.866520745
 20
75.8938943285
 40
8.7028569498
100
AcDbArc
 50
337.705714799
 51
340.7870375292
  0
ARC
  5
2A4
100
AcDbEntity
  8
0
100
AcDbCircle
 62
7
  6
BYLAYER
 10
69.4039553466
 20
76.1902259066
 40
8.4917523516
100
AcDbArc
 50
332.3033987024
 51
337.8284732032
  0
ARC
  5
2A5
100
AcDbEntity
  8
0
100
AcDbCircle
 62
7
  6
BYLAYER
 10
12.468028429
 20
50.2453912208
 40
7.7825352919
100
AcDbArc
 50
38.6825132468
 51
44.3519934954
  0
ARC
  5
2A6
100
AcDbEntity
  8
0
100
AcDbCircle
 62
7
  6
BYLAYER
 10
12.6921683555
 20
50.0997294228
 40
7.6589167538
100
AcDbArc
 50
15.7516430323
 51
21.5624029018
  0
ARC
  5
2A7
100
AcDbEntity
  8
0
100
AcDbCircle
 62
7
  6
BYLAYER
 10
59.8464693487
 20
104.4574871909
 40
7.5772203997
100
AcDbArc
 50
258.2502410464
 51
259.853772868
  0
ARC
  5
2A8
100
AcDbEntity
  8
0
100
AcDbCircle
 62
7
  6
BYLAYER
 10
71.1886673813
 20
96.8430585318
 40
6.4556481375
100
AcDbArc
 50
223.9357799568
 51
226.3294463479
  0
ARC
  5
2A9
100
AcDbEntity
  8
0
100
AcDbCircle
 62
7
  6
BYLAYER
 10
13.6395329737
 20
50.607092713
 40
6.0743700871
100
AcDbArc
 50
15.9112760978
 51
16.3935473901
  0
ARC
  5
2AA
100
AcDbEntity
  8
0
100
AcDbCircle
 62
7
  6
BYLAYER
 10
13.7910800804
 20
50.6498191985
 40
5.9169157641
100
AcDbArc
 50
13.6482700056
 51
15.9157003277
  0
ARC
  5
2AB
100
AcDbEntity
  8
0
100
AcDbCircle
 62
7
  6
BYLAYER
 10
13.6110839161
 20
51.0285709929
 40
5.882261294
100
AcDbArc
 50
43.906742858
 51
46.3428311082
  0
ARC
  5
2AC
100
AcDbEntity
  8
0
100
AcDbCircle
 62
7
  6
BYLAYER
 10
22.5788650091
 20
62.1925643584
 40
2.8889461993
100
AcDbArc
 50
126.3680600521
 51
132.699253555
  0
ARC
  5
2AD
100
AcDbEntity
  8
0
100
AcDbCircle
 62
7
  6
BYLAYER
 10
22.114291673
 20
61.7865065451
 40
2.715817058
100
AcDbArc
 50
111.5126877484
 51
113.3682814639
  0
ARC
  5
2AE
100
AcDbEntity
  8
0
100
AcDbCircle
 62
7
  6
BYLAYER
 10
22.0987847653
 20
61.8217375989
 40
2.677325211
100
AcDbArc
 50
113.3626979673
 51
119.9866998825
  0
ARC
  5
2AF
100
AcDbEntity
  8
0
100
AcDbCircle
 62
7
  6
BYLAYER
 10
27.4227145005
 20
52.6014527007
 40
2.6638979793
100
AcDbArc
 50
300.0013811548
 51
303.3850384292
  0
ARC
  5
2B0
100
AcDbEntity
  8
0
100
AcDbCircle
 62
7
  6
BYLAYER
 10
19.6463381289
 20
50.3674403643
 40
1.8243269332
100
AcDbArc
 50
310.0576685351
 51
315.3516321852
  0
ARC
  5
2B1
100
AcDbEntity
  8
0
100
AcDbCircle
 62
7
  6
BYLAYER
 10
18.3710869945
 20
49.7948011604
 40
1.7665803122
100
AcDbArc
 50
313.3264126707
 51
315.0062939064
  0
ARC
  5
2B2
100
AcDbEntity
  8
0
100
AcDbCircle
 62
7
  6
BYLAYER
 10
19.6900855949
 20
50.3157522803
 40
1.7566109927
100
AcDbArc
 50
300.0408325838
 51
310.0504964352
  0
ARC
  5
2B3
100
AcDbEntity
  8
0
100
AcDbCircle
 62
7
  6
BYLAYER
 10
16.240913018
 20
56.292419842
 40
1.742832173
100
AcDbArc
 50
109.5932109707
 51
119.9994724731
  0
ARC
  5
2B4
100
AcDbEntity
  8
0
100
AcDbCircle
 62
7
  6
BYLAYER
 10
58.6108203851
 20
96.6023558539
 40
0.5253961818
100
AcDbArc
 50
75.8258866223
 51
78.3169055744
  0
ARC
  5
2B5
100
AcDbEntity
  8
0
100
AcDbCircle
 62
7
  6
BYLAYER
 10
58.8158572302
 20
96.6138361582
 40
0.475885148
100
AcDbArc
 50
78.9700437736
 51
80.0857747973
  0
SPLINE
  5
2B6
100
AcDbEntity
  8
0
100
AcDbSpline
 62
7
  6
BYLAYER
 70
0
 71
3
 72
9
 73
5
 74
0
 42
0.0000001
 43
0.0000001
 44
0.0000000001
 40
0.0
 40
0.0
 40
0.0
 40
0.0
 40
0.5120692984
 40
1.0
 40
1.0
 40
1.0
 40
1.0
 10
68.3887775304
 20
98.7378284055
 30
0.0
 10
69.0843278712
 20
98.4821975182
 30
0.0
 10
70.4278798913
 20
97.9408797859
 30
0.0
 10
71.7210634882
 20
97.2853715219
 30
0.0
 10
72.3325727198
 20
96.9323244894
 30
0.0
  0
SPLINE
  5
2B7
100
AcDbEntity
  8
0
100
AcDbSpline
 62
7
  6
BYLAYER
 70
0
 71
3
 72
9
 73
5
 74
0
 42
0.0000001
 43
0.0000001
 44
0.0000000001
 40
0.0
 40
0.0
 40
0.0
 40
0.0
 40
0.485918899
 40
1.0
 40
1.0
 40
1.0
 40
1.0
 10
66.3436006461
 20
98.5551297925
 30
0.0
 10
66.6632687147
 20
98.652585862
 30
0.0
 10
67.3448487558
 20
98.7805033526
 30
0.0
 10
68.0368403096
 20
98.7716884783
 30
0.0
 10
68.3887775304
 20
98.7378284055
 30
0.0
  0
SPLINE
  5
2B8
100
AcDbEntity
  8
0
100
AcDbSpline
 62
7
  6
BYLAYER
 70
0
 71
3
 72
11
 73
7
 74
0
 42
0.0000001
 43
0.0000001
 44
0.0000000001
 40
0.0
 40
0.0
 40
0.0
 40
0.0
 40
0.2024660283
 40
0.4361211706
 40
0.7029102917
 40
1.0
 40
1.0
 40
1.0
 40
1.0
 10
81.0406002919
 20
80.2719760444
 30
0.0
 10
80.8893310677
 20
79.954610784
 30
0.0
 10
80.5329882556
 20
79.2852845445
 30
0.0
 10
79.8784599786
 20
78.253937453
 30
0.0
 10
79.0639117522
 20
77.1330637332
 30
0.0
 10
78.4510904555
 20
76.3690208494
 30
0.0
 10
78.1218256312
 20
75.9718828648
 30
0.0
  0
SPLINE
  5
2B9
100
AcDbEntity
  8
0
100
AcDbSpline
 62
7
  6
BYLAYER
 70
0
 71
3
 72
9
 73
5
 74
0
 42
0.0000001
 43
0.0000001
 44
0.0000000001
 40
0.0
 40
0.0
 40
0.0
 40
0.0
 40
0.5160729224
 40
1.0
 40
1.0
 40
1.0
 40
1.0
 10
81.0406002919
 20
82.9988866951
 30
0.0
 10
81.0898236517
 20
82.5316455565
 30
0.0
 10
81.1420116458
 20
81.620984076
 30
0.0
 10
81.0930646829
 20
80.7094026169
 30
0.0
 10
81.0406002919
 20
80.2719760444
 30
0.0
  0
SPLINE
  5
2BA
100
AcDbEntity
  8
0
100
AcDbSpline
 62
7
  6
BYLAYER
 70
0
 71
3
 72
13
 73
9
 74
0
 42
0.0000001
 43
0.0000001
 44
0.0000000001
 40
0.0
 40
0.0
 40
0.0
 40
0.0
 40
0.2441104752
 40
0.3678757683
 40
0.4927267358
 40
0.6185454023
 40
0.7451607359
 40
1.0
 40
1.0
 40
1.0
 40
1.0
 10
77.5050516661
 20
92.1112088225
 30
0.0
 10
77.9276290843
 20
91.4320541154
 30
0.0
 10
78.5239849984
 20
90.3821041328
 30
0.0
 10
79.2192981629
 20
88.9243866161
 30
0.0
 10
79.6918478794
 20
87.791519671
 30
0.0
 10
80.1099730104
 20
86.6275494985
 30
0.0
 10
80.5957490211
 20
85.0373861519
 30
0.0
 10
80.8798557314
 20
83.8183139426
 30
0.0
 10
81.0406002919
 20
82.9988866951
 30
0.0
  0
SPLINE
  5
2BB
100
AcDbEntity
  8
0
100
AcDbSpline
 62
7
  6
BYLAYER
 70
0
 71
3
 72
9
 73
5
 74
0
 42
0.0000001
 43
0.0000001
 44
0.0000000001
 40
0.0
 40
0.0
 40
0.0
 40
0.0
 40
0.494382671
 40
1.0
 40
1.0
 40
1.0
 40
1.0
 10
75.4598747819
 20
94.6554208603
 30
0.0
 10
75.8295842782
 20
94.2640967166
 30
0.0
 10
76.5446908075
 20
93.4411365601
 30
0.0
 10
77.1938567557
 20
92.5654105118
 30
0.0
 10
77.5050516661
 20
92.1112088225
 30
0.0
  0
SPLINE
  5
2BC
100
AcDbEntity
  8
0
100
AcDbSpline
 62
7
  6
BYLAYER
 70
0
 71
3
 72
11
 73
7
 74
0
 42
0.0000001
 43
0.0000001
 44
0.0000000001
 40
0.0
 40
0.0
 40
0.0
 40
0.0
 40
0.2615627675
 40
0.5151013739
 40
0.7610093714
 40
1.0
 40
1.0
 40
1.0
 40
1.0
 10
72.3325727198
 20
96.9323244894
 30
0.0
 10
72.6251921332
 20
96.7633844142
 30
0.0
 10
73.1929395855
 20
96.415629817
 30
0.0
 10
74.0022634651
 20
95.8567314653
 30
0.0
 10
74.7566931498
 20
95.272228028
 30
0.0
 10
75.2311892522
 20
94.8628225405
 30
0.0
 10
75.4598747819
 20
94.6554208603
 30
0.0
  0
SPLINE
  5
2BD
100
AcDbEntity
  8
0
100
AcDbSpline
 62
7
  6
BYLAYER
 70
0
 71
3
 72
17
 73
13
 74
0
 42
0.0000001
 43
0.0000001
 44
0.0000000001
 40
0.0
 40
0.0
 40
0.0
 40
0.0
 40
0.0558480079
 40
0.1142250014
 40
0.1748485526
 40
0.2374405961
 40
0.3670695103
 40
0.5000739653
 40
0.6330790712
 40
0.7627096922
 40
0.8858627312
 40
1.0
 40
1.0
 40
1.0
 40
1.0
 10
78.19352674
 20
99.4996252549
 30
0.0
 10
78.4540715511
 20
99.3492030411
 30
0.0
 10
78.9737742632
 20
99.0182611003
 30
0.0
 10
79.7276031151
 20
98.4522144559
 30
0.0
 10
80.4667086271
 20
97.8101615608
 30
0.0
 10
81.434048564
 20
96.8501271407
 30
0.0
 10
82.558530464
 20
95.5006012478
 30
0.0
 10
83.7283458654
 20
93.7138312082
 30
0.0
 10
84.6909364227
 20
91.8072090128
 30
0.0
 10
85.4101300453
 20
89.8520515892
 30
0.0
 10
85.8590931756
 20
87.9218382673
 30
0.0
 10
85.9717203905
 20
86.6423787141
 30
0.0
 10
85.9717274357
 20
86.0275287809
 30
0.0
  0
SPLINE
  5
2BE
100
AcDbEntity
  8
0
100
AcDbSpline
 62
7
  6
BYLAYER
 70
0
 71
3
 72
15
 73
11
 74
0
 42
0.0000001
 43
0.0000001
 44
0.0000000001
 40
0.0
 40
0.0
 40
0.0
 40
0.0
 40
0.1486045145
 40
0.2894990885
 40
0.4227227972
 40
0.5486417765
 40
0.6680007077
 40
0.7819384288
 40
0.8919870976
 40
1.0
 40
1.0
 40
1.0
 40
1.0
 10
85.9717366603
 20
85.6192861015
 30
0.0
 10
85.9717388248
 20
85.3197454176
 30
0.0
 10
85.9476039917
 20
84.7358008553
 30
0.0
 10
85.8326312414
 20
83.8901627592
 30
0.0
 10
85.6406470869
 20
83.1052878872
 30
0.0
 10
85.37304263
 20
82.3887242954
 30
0.0
 10
85.0319754533
 20
81.7474035081
 30
0.0
 10
84.6200067407
 20
81.1879089719
 30
0.0
 10
84.1410029868
 20
80.7165097534
 30
0.0
 10
83.7785010916
 20
80.4635290458
 30
0.0
 10
83.5899490793
 20
80.354669584
 30
0.0
  0
SPLINE
  5
2BF
100
AcDbEntity
  8
0
100
AcDbSpline
 62
7
  6
BYLAYER
 70
0
 71
3
 72
15
 73
11
 74
0
 42
0.0000001
 43
0.0000001
 44
0.0000000001
 40
0.0
 40
0.0
 40
0.0
 40
0.0
 40
0.1080137708
 40
0.218062664
 40
0.3320007636
 40
0.4513627908
 40
0.5772765272
 40
0.7104924444
 40
0.851428019
 40
1.0
 40
1.0
 40
1.0
 40
1.0
 10
72.0900005635
 20
100.2732835951
 30
0.0
 10
72.2785465899
 20
100.382139601
 30
0.0
 10
72.6788721898
 20
100.5695759945
 30
0.0
 10
73.3265925607
 20
100.7487056374
 30
0.0
 10
74.0170932291
 20
100.8257399049
 30
0.0
 10
74.7429938726
 20
100.8004423987
 30
0.0
 10
75.4973112655
 20
100.6739495856
 30
0.0
 10
76.2730607256
 20
100.4478025119
 30
0.0
 10
77.0628401136
 20
100.1245136854
 30
0.0
 10
77.5806306234
 20
99.8534834417
 30
0.0
 10
77.8399748214
 20
99.7037543865
 30
0.0
  0
SPLINE
  5
2C0
100
AcDbEntity
  8
0
100
AcDbSpline
 62
7
  6
BYLAYER
 70
0
 71
3
 72
15
 73
11
 74
0
 42
0.0000001
 43
0.0000001
 44
0.0000000001
 40
0.0
 40
0.0
 40
0.0
 40
0.0
 40
0.1152000586
 40
0.2385669699
 40
0.3677743857
 40
0.5000072295
 40
0.6322401659
 40
0.7614466808
 40
0.8848184748
 40
1.0
 40
1.0
 40
1.0
 40
1.0
 10
78.1641614353
 20
99.5091066701
 30
0.0
 10
78.6900387479
 20
99.1812304276
 30
0.0
 10
79.7256465571
 20
98.414436709
 30
0.0
 10
81.1516699405
 20
97.0364963875
 30
0.0
 10
82.4656742736
 20
95.4311761931
 30
0.0
 10
83.6229183395
 20
93.6527379499
 30
0.0
 10
84.58445073
 20
91.761314536
 30
0.0
 10
85.3177171054
 20
89.8206744818
 30
0.0
 10
85.7979515487
 20
87.8967946697
 30
0.0
 10
85.9442638759
 20
86.6166159348
 30
0.0
 10
85.9652621433
 20
85.9973540441
 30
0.0
  0
SPLINE
  5
2C1
100
AcDbEntity
  8
0
100
AcDbSpline
 62
7
  6
BYLAYER
 70
0
 71
3
 72
11
 73
7
 74
0
 42
0.0000001
 43
0.0000001
 44
0.0000000001
 40
0.0
 40
0.0
 40
0.0
 40
0.0
 40
0.2177822878
 40
0.4509146108
 40
0.7103059136
 40
1.0
 40
1.0
 40
1.0
 40
1.0
 10
32.5609570479
 20
76.6094601752
 30
0.0
 10
32.5609440445
 20
76.7046815972
 30
0.0
 10
32.525775357
 20
76.903155608
 30
0.0
 10
32.3753029233
 20
77.1796944403
 30
0.0
 10
32.137441848
 20
77.4296643165
 30
0.0
 10
31.9384226279
 20
77.5667398754
 30
0.0
 10
31.8287281339
 20
77.6300705883
 30
0.0
  0
SPLINE
  5
2C2
100
AcDbEntity
  8
0
100
AcDbSpline
 62
7
  6
BYLAYER
 70
0
 71
3
 72
11
 73
7
 74
0
 42
0.0000001
 43
0.0000001
 44
0.0000000001
 40
0.0
 40
0.0
 40
0.0
 40
0.0
 40
0.288094897
 40
0.5473332511
 40
0.7810768076
 40
1.0
 40
1.0
 40
1.0
 40
1.0
 10
75.6706329673
 20
68.8351017929
 30
0.0
 10
75.6694633028
 20
68.8873550383
 30
0.0
 10
75.6590892899
 20
68.9867832056
 30
0.0
 10
75.6151717978
 20
69.1228446551
 30
0.0
 10
75.5439265993
 20
69.2327004157
 30
0.0
 10
75.4783076967
 20
69.285029385
 30
0.0
 10
75.443466928
 20
69.3040970049
 30
0.0
  0
SPLINE
  5
2C3
100
AcDbEntity
  8
0
100
AcDbSpline
 62
7
  6
BYLAYER
 70
0
 71
3
 72
11
 73
7
 74
0
 42
0.0000001
 43
0.0000001
 44
0.0000000001
 40
0.0
 40
0.0
 40
0.0
 40
0.0
 40
0.2364352153
 40
0.4983524089
 40
0.7611676684
 40
1.0
 40
1.0
 40
1.0
 40
1.0
 10
75.2319237635
 20
56.4366754096
 30
0.0
 10
75.3321457271
 20
56.4945382418
 30
0.0
 10
75.5212728713
 20
56.6551980236
 30
0.0
 10
75.7391882199
 20
56.9609799211
 30
0.0
 10
75.8850193725
 20
57.3082661807
 30
0.0
 10
75.923133711
 20
57.5549584777
 30
0.0
 10
75.920517626
 20
57.6718286827
 30
0.0
  0
SPLINE
  5
2C4
100
AcDbEntity
  8
0
100
AcDbSpline
 62
7
  6
BYLAYER
 70
0
 71
3
 72
11
 73
7
 74
0
 42
0.0000001
 43
0.0000001
 44
0.0000000001
 40
0.0
 40
0.0
 40
0.0
 40
0.0
 40
0.2387977923
 40
0.501648076
 40
0.7635992992
 40
1.0
 40
1.0
 40
1.0
 40
1.0
 10
41.1947903163
 20
49.13559738
 30
0.0
 10
41.1921745968
 20
49.2524512581
 30
0.0
 10
41.2302995771
 20
49.4991378339
 30
0.0
 10
41.3760647399
 20
49.8464770955
 30
0.0
 10
41.594059843
 20
50.1522306875
 30
0.0
 10
41.7831763528
 20
50.3128959832
 30
0.0
 10
41.8833841788
 20
50.3707506531
 30
0.0
  0
SPLINE
  5
2C5
100
AcDbEntity
  8
0
100
AcDbSpline
 62
7
  6
BYLAYER
 70
0
 71
3
 72
11
 73
7
 74
0
 42
0.0000001
 43
0.0000001
 44
0.0000000001
 40
0.0
 40
0.0
 40
0.0
 40
0.0
 40
0.2872200713
 40
0.5455141996
 40
0.7795438254
 40
1.0
 40
1.0
 40
1.0
 40
1.0
 10
75.1172645279
 20
69.5582258851
 30
0.0
 10
75.161229043
 20
69.5836086582
 30
0.0
 10
75.2490185163
 20
69.6250434369
 30
0.0
 10
75.3843759045
 20
69.6569152698
 30
0.0
 10
75.5119997074
 20
69.652430565
 30
0.0
 10
75.5890201457
 20
69.6241375287
 30
0.0
 10
75.6227652431
 20
69.6046550685
 30
0.0
  0
SPLINE
  5
2C6
100
AcDbEntity
  8
0
100
AcDbSpline
 62
7
  6
BYLAYER
 70
0
 71
3
 72
10
 73
6
 74
0
 42
0.0000001
 43
0.0000001
 44
0.0000000001
 40
0.0
 40
0.0
 40
0.0
 40
0.0
 40
0.2337148584
 40
0.6041306592
 40
1.0
 40
1.0
 40
1.0
 40
1.0
 10
77.6598556468
 20
73.9444257666
 30
0.0
 10
77.792348307
 20
74.268464063
 30
0.0
 10
78.0823147751
 20
75.1281456447
 30
0.0
 10
78.3604112111
 20
76.6060600979
 30
0.0
 10
78.4120996218
 20
77.7564090827
 30
0.0
 10
78.4039532234
 20
78.3493211509
 30
0.0
  0
SPLINE
  5
2C7
100
AcDbEntity
  8
0
100
AcDbSpline
 62
7
  6
BYLAYER
 70
0
 71
3
 72
19
 73
15
 74
0
 42
0.0000001
 43
0.0000001
 44
0.0000000001
 40
0.0
 40
0.0
 40
0.0
 40
0.0
 40
0.0610496916
 40
0.1258222132
 40
0.2637034317
 40
0.407612067
 40
0.5503319249
 40
0.6848375762
 40
0.7472469141
 40
0.8056933788
 40
0.8599362992
 40
0.910041222
 40
0.9564428299
 40
1.0
 40
1.0
 40
1.0
 40
1.0
 10
13.2317402961
 20
54.6456991395
 30
0.0
 10
13.2317402961
 20
54.4511750879
 30
0.0
 10
13.2564891148
 20
54.0500033044
 30
0.0
 10
13.3956668312
 20
53.220203802
 30
0.0
 10
13.733616785
 20
52.1623182222
 30
0.0
 10
14.3497311267
 20
50.9521117859
 30
0.0
 10
15.1408910091
 20
49.8615181381
 30
0.0
 10
15.9179768154
 20
49.0986088803
 30
0.0
 10
16.579802206
 20
48.6228621493
 30
0.0
 10
17.068027321
 20
48.3499691547
 30
0.0
 10
17.5515003495
 20
48.1574052433
 30
0.0
 10
18.0217763902
 20
48.0491704701
 30
0.0
 10
18.4702090243
 20
48.0282047491
 30
0.0
 10
18.7558036997
 20
48.0751421944
 30
0.0
 10
18.8891401889
 20
48.1136554923
 30
0.0
  0
SPLINE
  5
2C8
100
AcDbEntity
  8
0
100
AcDbSpline
 62
7
  6
BYLAYER
 70
0
 71
3
 72
11
 73
7
 74
0
 42
0.0000001
 43
0.0000001
 44
0.0000000001
 40
0.0
 40
0.0
 40
0.0
 40
0.0
 40
0.2838468286
 40
0.5434700441
 40
0.7805350635
 40
1.0
 40
1.0
 40
1.0
 40
1.0
 10
19.6842440174
 20
50.9204286559
 30
0.0
 10
19.6842440174
 20
50.7484702039
 30
0.0
 10
19.6624942994
 20
50.4185496419
 30
0.0
 10
19.5549774102
 20
49.9555218098
 30
0.0
 10
19.3749298475
 20
49.5573352204
 30
0.0
 10
19.203167545
 20
49.3361108191
 30
0.0
 10
19.1079913249
 20
49.2432748612
 30
0.0
  0
SPLINE
  5
2C9
100
AcDbEntity
  8
0
100
AcDbSpline
 62
7
  6
BYLAYER
 70
0
 71
3
 72
9
 73
5
 74
0
 42
0.0000001
 43
0.0000001
 44
0.0000000001
 40
0.0
 40
0.0
 40
0.0
 40
0.0
 40
0.4744352541
 40
1.0
 40
1.0
 40
1.0
 40
1.0
 10
18.1431580602
 20
49.7316790942
 30
0.0
 10
18.1431580602
 20
49.6621336304
 30
0.0
 10
18.1692107692
 20
49.5154978938
 30
0.0
 10
18.2289023256
 20
49.3802426695
 30
0.0
 10
18.2674226463
 20
49.3135238874
 30
0.0
  0
SPLINE
  5
2CA
100
AcDbEntity
  8
0
100
AcDbSpline
 62
7
  6
BYLAYER
 70
0
 71
3
 72
12
 73
8
 74
0
 42
0.0000001
 43
0.0000001
 44
0.0000000001
 40
0.0
 40
0.0
 40
0.0
 40
0.0
 40
0.278773235
 40
0.539682772
 40
0.6625715082
 40
0.7802018982
 40
1.0
 40
1.0
 40
1.0
 40
1.0
 10
71.821303706
 20
93.4544817549
 30
0.0
 10
71.2007004696
 20
94.1154006015
 30
0.0
 10
69.9218905288
 20
95.3253394048
 30
0.0
 10
68.1626262177
 20
96.5842982846
 30
0.0
 10
66.7277148746
 20
97.363718018
 30
0.0
 10
65.3528118816
 20
97.9582104285
 30
0.0
 10
64.2817844009
 20
98.2462994404
 30
0.0
 10
63.5735098774
 20
98.3428379701
 30
0.0
  0
SPLINE
  5
2CB
100
AcDbEntity
  8
0
100
AcDbSpline
 62
7
  6
BYLAYER
 70
0
 71
3
 72
9
 73
5
 74
0
 42
0.0000001
 43
0.0000001
 44
0.0000000001
 40
0.0
 40
0.0
 40
0.0
 40
0.0
 40
0.5082524157
 40
1.0
 40
1.0
 40
1.0
 40
1.0
 10
62.5471242545
 20
98.4827353624
 30
0.0
 10
62.1100447958
 20
98.5423097321
 30
0.0
 10
61.2397990561
 20
98.5964148513
 30
0.0
 10
60.3716263459
 20
98.5028988289
 30
0.0
 10
59.9534265386
 20
98.4176713196
 30
0.0
  0
SPLINE
  5
2CC
100
AcDbEntity
  8
0
100
AcDbSpline
 62
7
  6
BYLAYER
 70
0
 71
3
 72
9
 73
5
 74
0
 42
0.0000001
 43
0.0000001
 44
0.0000000001
 40
0.0
 40
0.0
 40
0.0
 40
0.0
 40
0.5022452471
 40
1.0
 40
1.0
 40
1.0
 40
1.0
 10
59.9534265386
 20
98.4176713196
 30
0.0
 10
59.6109756875
 20
98.3478811556
 30
0.0
 10
58.9386399943
 20
98.1561733055
 30
0.0
 10
58.3060790861
 20
97.8577346364
 30
0.0
 10
58.0061175286
 20
97.6845527842
 30
0.0
  0
SPLINE
  5
2CD
100
AcDbEntity
  8
0
100
AcDbSpline
 62
7
  6
BYLAYER
 70
0
 71
3
 72
12
 73
8
 74
0
 42
0.0000001
 43
0.0000001
 44
0.0000000001
 40
0.0
 40
0.0
 40
0.0
 40
0.0
 40
0.2573787231
 40
0.5394067857
 40
0.6747769022
 40
0.7988480634
 40
1.0
 40
1.0
 40
1.0
 40
1.0
 10
16.0249417691
 20
54.339450414
 30
0.0
 10
16.0249417691
 20
54.3160209086
 30
0.0
 10
16.0364770429
 20
54.2669923822
 30
0.0
 10
16.0673319051
 20
54.2130052053
 30
0.0
 10
16.1011033104
 20
54.1766711955
 30
0.0
 10
16.1342769477
 20
54.1512654101
 30
0.0
 10
16.1642123211
 20
54.1402820174
 30
0.0
 10
16.1824879495
 20
54.1414214012
 30
0.0
  0
SPLINE
  5
2CE
100
AcDbEntity
  8
0
100
AcDbSpline
 62
7
  6
BYLAYER
 70
0
 71
3
 72
15
 73
11
 74
0
 42
0.0000001
 43
0.0000001
 44
0.0000000001
 40
0.0
 40
0.0
 40
0.0
 40
0.0
 40
0.1240856547
 40
0.2523048277
 40
0.382766539
 40
0.513447597
 40
0.6423122295
 40
0.7674308113
 40
0.8871048382
 40
1.0
 40
1.0
 40
1.0
 40
1.0
 10
67.212329688
 20
92.2389719503
 30
0.0
 10
67.9060987741
 20
91.5748758354
 30
0.0
 10
69.2478986583
 20
90.1511350858
 30
0.0
 10
71.0744300036
 20
87.8140052376
 30
0.0
 10
72.7171539663
 20
85.2829975821
 30
0.0
 10
74.1387342257
 20
82.615934101
 30
0.0
 10
75.3068344207
 20
79.8732511655
 30
0.0
 10
76.194562264
 20
77.116256763
 30
0.0
 10
76.7809666882
 20
74.4060233933
 30
0.0
 10
76.9668551977
 20
72.6105532751
 30
0.0
 10
76.9998160709
 20
71.7374012423
 30
0.0
  0
SPLINE
  5
2CF
100
AcDbEntity
  8
0
100
AcDbSpline
 62
7
  6
BYLAYER
 70
0
 71
3
 72
12
 73
8
 74
0
 42
0.0000001
 43
0.0000001
 44
0.0000000001
 40
0.0
 40
0.0
 40
0.0
 40
0.0
 40
0.2573787231
 40
0.5394067857
 40
0.6747769022
 40
0.7988480634
 40
1.0
 40
1.0
 40
1.0
 40
1.0
 10
17.792716082
 20
51.2775924848
 30
0.0
 10
17.792716082
 20
51.2541629794
 30
0.0
 10
17.8042513557
 20
51.2051344531
 30
0.0
 10
17.8351062179
 20
51.1511472762
 30
0.0
 10
17.8688776232
 20
51.1148132664
 30
0.0
 10
17.9020512605
 20
51.0894074809
 30
0.0
 10
17.931986634
 20
51.0784240883
 30
0.0
 10
17.9502622624
 20
51.0795634721
 30
0.0
  0
SPLINE
  5
2D0
100
AcDbEntity
  8
0
100
AcDbSpline
 62
7
  6
BYLAYER
 70
0
 71
3
 72
12
 73
8
 74
0
 42
0.0000001
 43
0.0000001
 44
0.0000000001
 40
0.0
 40
0.0
 40
0.0
 40
0.0
 40
0.2573787231
 40
0.5394067857
 40
0.6747769022
 40
0.7988480634
 40
1.0
 40
1.0
 40
1.0
 40
1.0
 10
17.792716082
 20
53.3188485277
 30
0.0
 10
17.792716082
 20
53.2954190223
 30
0.0
 10
17.8042513557
 20
53.2463904959
 30
0.0
 10
17.8351062179
 20
53.192403319
 30
0.0
 10
17.8688776232
 20
53.1560693092
 30
0.0
 10
17.9020512605
 20
53.1306635238
 30
0.0
 10
17.931986634
 20
53.1196801311
 30
0.0
 10
17.9502622624
 20
53.1208195149
 30
0.0
  0
SPLINE
  5
2D1
100
AcDbEntity
  8
0
100
AcDbSpline
 62
7
  6
BYLAYER
 70
0
 71
3
 72
11
 73
7
 74
0
 42
0.0000001
 43
0.0000001
 44
0.0000000001
 40
0.0
 40
0.0
 40
0.0
 40
0.0
 40
0.2176967831
 40
0.4508589589
 40
0.7105480504
 40
1.0
 40
1.0
 40
1.0
 40
1.0
 10
18.2674406869
 20
50.0063236638
 30
0.0
 10
18.2476510706
 20
49.9949121907
 30
0.0
 10
18.2106072947
 20
49.9638081976
 30
0.0
 10
18.1711581984
 20
49.8993276641
 30
0.0
 10
18.1478172879
 20
49.8198645092
 30
0.0
 10
18.1431580602
 20
49.7620527854
 30
0.0
 10
18.1431580602
 20
49.7316790942
 30
0.0
  0
SPLINE
  5
2D2
100
AcDbEntity
  8
0
100
AcDbSpline
 62
7
  6
BYLAYER
 70
0
 71
3
 72
14
 73
10
 74
0
 42
0.0000001
 43
0.0000001
 44
0.0000000001
 40
0.0
 40
0.0
 40
0.0
 40
0.0
 40
0.0994962415
 40
0.2027141225
 40
0.3125852252
 40
0.4311083751
 40
0.5593173201
 40
0.6973690974
 40
1.0
 40
1.0
 40
1.0
 40
1.0
 10
14.7177067094
 20
56.1840375605
 30
0.0
 10
14.8127858667
 20
56.2375860548
 30
0.0
 10
15.0204443698
 20
56.3236036061
 30
0.0
 10
15.3613815548
 20
56.3792267787
 30
0.0
 10
15.7269810207
 20
56.362894702
 30
0.0
 10
16.1101159274
 20
56.2761297646
 30
0.0
 10
16.5041844752
 20
56.1211969663
 30
0.0
 10
17.0515092343
 20
55.8190473504
 30
0.0
 10
17.431701757
 20
55.5133942369
 30
0.0
 10
17.6718545802
 20
55.2842894451
 30
0.0
  0
SPLINE
  5
2D3
100
AcDbEntity
  8
0
100
AcDbSpline
 62
7
  6
BYLAYER
 70
0
 71
3
 72
11
 73
7
 74
0
 42
0.0000001
 43
0.0000001
 44
0.0000000001
 40
0.0
 40
0.0
 40
0.0
 40
0.0
 40
0.2464386366
 40
0.499715678
 40
0.7531478131
 40
1.0
 40
1.0
 40
1.0
 40
1.0
 10
17.8490737909
 20
55.107840505
 30
0.0
 10
18.0342676969
 20
54.9155518512
 30
0.0
 10
18.3844696599
 20
54.5006178951
 30
0.0
 10
18.834806532
 20
53.8182021225
 30
0.0
 10
19.2043917106
 20
53.0883863191
 30
0.0
 10
19.3914823927
 20
52.5780275205
 30
0.0
 10
19.4669541951
 20
52.3214829437
 30
0.0
  0
SPLINE
  5
2D4
100
AcDbEntity
  8
0
100
AcDbSpline
 62
7
  6
BYLAYER
 70
0
 71
3
 72
9
 73
5
 74
0
 42
0.0000001
 43
0.0000001
 44
0.0000000001
 40
0.0
 40
0.0
 40
0.0
 40
0.0
 40
0.5163455843
 40
1.0
 40
1.0
 40
1.0
 40
1.0
 10
19.5409172633
 20
52.0459798375
 30
0.0
 10
19.5870272468
 20
51.8558618783
 30
0.0
 10
19.6575695085
 20
51.4827779445
 30
0.0
 10
19.6842440174
 20
51.1036725107
 30
0.0
 10
19.6842440174
 20
50.9204286559
 30
0.0
  0
SPLINE
  5
2D5
100
AcDbEntity
  8
0
100
AcDbSpline
 62
7
  6
BYLAYER
 70
0
 71
3
 72
11
 73
7
 74
0
 42
0.0000001
 43
0.0000001
 44
0.0000000001
 40
0.0
 40
0.0
 40
0.0
 40
0.0
 40
0.2194036354
 40
0.4562973975
 40
0.7159535775
 40
1.0
 40
1.0
 40
1.0
 40
1.0
 10
13.9391654644
 20
56.6873096119
 30
0.0
 10
13.8223907991
 20
56.5749979318
 30
0.0
 10
13.6114892235
 20
56.3066438275
 30
0.0
 10
13.3904865105
 20
55.8220566507
 30
0.0
 10
13.2583899735
 20
55.2578007426
 30
0.0
 10
13.2317402961
 20
54.8554540371
 30
0.0
 10
13.2317402961
 20
54.6456991395
 30
0.0
  0
SPLINE
  5
2D6
100
AcDbEntity
  8
0
100
AcDbSpline
 62
7
  6
BYLAYER
 70
0
 71
3
 72
9
 73
5
 74
0
 42
0.0000001
 43
0.0000001
 44
0.0000000001
 40
0.0
 40
0.0
 40
0.0
 40
0.0
 40
0.2486822984
 40
1.0
 40
1.0
 40
1.0
 40
1.0
 10
14.874538142
 20
57.5159938939
 30
0.0
 10
14.8438149804
 20
57.4982514275
 30
0.0
 10
14.7224745649
 20
57.4231414229
 30
0.0
 10
14.6104977212
 20
57.3330215008
 30
0.0
 10
14.5332418861
 20
57.2587211591
 30
0.0
  0
SPLINE
  5
2D7
100
AcDbEntity
  8
0
100
AcDbSpline
 62
7
  6
BYLAYER
 70
0
 71
3
 72
9
 73
5
 74
0
 42
0.0000001
 43
0.0000001
 44
0.0000000001
 40
0.0
 40
0.0
 40
0.0
 40
0.0
 40
0.4827781161
 40
1.0
 40
1.0
 40
1.0
 40
1.0
 10
15.6564717779
 20
57.9343371421
 30
0.0
 10
15.8098817789
 20
57.9890947363
 30
0.0
 10
16.1444040517
 20
58.0588244457
 30
0.0
 10
16.4846134874
 20
58.045769582
 30
0.0
 10
16.6575278667
 20
58.0222177541
 30
0.0
  0
SPLINE
  5
2D8
100
AcDbEntity
  8
0
100
AcDbSpline
 62
7
  6
BYLAYER
 70
0
 71
3
 72
9
 73
5
 74
0
 42
0.0000001
 43
0.0000001
 44
0.0000000001
 40
0.0
 40
0.0
 40
0.0
 40
0.0
 40
0.5153011544
 40
1.0
 40
1.0
 40
1.0
 40
1.0
 10
21.4044165447
 20
49.8003234081
 30
0.0
 10
21.348881026
 20
49.6644910253
 30
0.0
 10
21.21901824
 20
49.4090922074
 30
0.0
 10
21.0412418808
 20
49.1835733958
 30
0.0
 10
20.944224604
 20
49.0853875351
 30
0.0
  0
SPLINE
  5
2D9
100
AcDbEntity
  8
0
100
AcDbSpline
 62
7
  6
BYLAYER
 70
0
 71
3
 72
11
 73
7
 74
0
 42
0.0000001
 43
0.0000001
 44
0.0000000001
 40
0.0
 40
0.0
 40
0.0
 40
0.0
 40
0.2716685644
 40
0.5256488582
 40
0.766387491
 40
1.0
 40
1.0
 40
1.0
 40
1.0
 10
20.9194083261
 20
48.9315533196
 30
0.0
 10
21.0840566492
 20
48.8916401146
 30
0.0
 10
21.4089208336
 20
48.8371244976
 30
0.0
 10
21.8894757638
 20
48.8394288085
 30
0.0
 10
22.3376311194
 20
48.930157017
 30
0.0
 10
22.6110731465
 20
49.0500435529
 30
0.0
 10
22.7372318595
 20
49.1228995549
 30
0.0
  0
SPLINE
  5
2DA
100
AcDbEntity
  8
0
100
AcDbSpline
 62
7
  6
BYLAYER
 70
0
 71
3
 72
11
 73
7
 74
0
 42
0.0000001
 43
0.0000001
 44
0.0000000001
 40
0.0
 40
0.0
 40
0.0
 40
0.0
 40
0.2321137987
 40
0.4720853093
 40
0.72648116
 40
1.0
 40
1.0
 40
1.0
 40
1.0
 10
16.7372731755
 20
59.5151948742
 30
0.0
 10
16.6041458485
 20
59.4383145338
 30
0.0
 10
16.3507251252
 20
59.2496963915
 30
0.0
 10
16.0364175676
 20
58.8807152444
 30
0.0
 10
15.789725471
 20
58.4325497457
 30
0.0
 10
15.677070746
 20
58.0996457217
 30
0.0
 10
15.6315876748
 20
57.924293554
 30
0.0
  0
SPLINE
  5
2DB
100
AcDbEntity
  8
0
100
AcDbSpline
 62
7
  6
BYLAYER
 70
0
 71
3
 72
12
 73
8
 74
0
 42
0.0000001
 43
0.0000001
 44
0.0000000001
 40
0.0
 40
0.0
 40
0.0
 40
0.0
 40
0.2781014837
 40
0.5335149677
 40
0.7712561317
 40
0.8861930913
 40
1.0
 40
1.0
 40
1.0
 40
1.0
 10
25.1268639861
 20
50.4032759046
 30
0.0
 10
25.4429391644
 20
50.254291479
 30
0.0
 10
26.0739314208
 20
50.015492168
 30
0.0
 10
27.037690907
 20
49.8586137232
 30
0.0
 10
27.8091601852
 20
49.9237580782
 30
0.0
 10
28.3706787583
 20
50.0979092515
 30
0.0
 10
28.6308810206
 20
50.2229839627
 30
0.0
 10
28.7547191019
 20
50.2944814855
 30
0.0
  0
SPLINE
  5
2DC
100
AcDbEntity
  8
0
100
AcDbSpline
 62
7
  6
BYLAYER
 70
0
 71
3
 72
12
 73
8
 74
0
 42
0.0000001
 43
0.0000001
 44
0.0000000001
 40
0.0
 40
0.0
 40
0.0
 40
0.0
 40
0.1137856762
 40
0.2286990522
 40
0.4664027935
 40
0.7217592245
 40
1.0
 40
1.0
 40
1.0
 40
1.0
 10
20.7606604216
 20
64.1406799286
 30
0.0
 10
20.6367582917
 20
64.0691454276
 30
0.0
 10
20.3982221262
 20
63.9062512501
 30
0.0
 10
19.9664524919
 20
63.5067804789
 30
0.0
 10
19.5242553896
 20
62.8707931831
 30
0.0
 10
19.1780770313
 20
61.9569709822
 30
0.0
 10
19.0696791644
 20
61.2904695263
 30
0.0
 10
19.0407566965
 20
60.9418180761
 30
0.0
  0
SPLINE
  5
2DD
100
AcDbEntity
  8
0
100
AcDbSpline
 62
7
  6
BYLAYER
 70
0
 71
3
 72
15
 73
11
 74
0
 42
0.0000001
 43
0.0000001
 44
0.0000000001
 40
0.0
 40
0.0
 40
0.0
 40
0.0
 40
0.1124084784
 40
0.2262315712
 40
0.3428007316
 40
0.4633653443
 40
0.5888457471
 40
0.7198824106
 40
0.8569230276
 40
1.0
 40
1.0
 40
1.0
 40
1.0
 10
16.1155125428
 20
75.3209328492
 30
0.0
 10
15.7723609961
 20
75.119494506
 30
0.0
 10
15.1137564262
 20
74.656718565
 30
0.0
 10
14.2404030052
 20
73.8076318554
 30
0.0
 10
13.4867990187
 20
72.8144178485
 30
0.0
 10
12.8583021775
 20
71.6909444156
 30
0.0
 10
12.3566140162
 20
70.450596751
 30
0.0
 10
11.9828286068
 20
69.1057527616
 30
0.0
 10
11.7372684057
 20
67.6689976036
 30
0.0
 10
11.6600788393
 20
66.6789692382
 30
0.0
 10
11.641266813
 20
66.1728497949
 30
0.0
  0
SPLINE
  5
2DE
100
AcDbEntity
  8
0
100
AcDbSpline
 62
7
  6
BYLAYER
 70
0
 71
3
 72
11
 73
7
 74
0
 42
0.0000001
 43
0.0000001
 44
0.0000000001
 40
0.0
 40
0.0
 40
0.0
 40
0.0
 40
0.2189433259
 40
0.4530476665
 40
0.7121202382
 40
1.0
 40
1.0
 40
1.0
 40
1.0
 10
41.6740430591
 20
37.0937755614
 30
0.0
 10
41.6401480698
 20
37.1133445605
 30
0.0
 10
41.5766745161
 20
37.1663396209
 30
0.0
 10
41.5076719896
 20
37.2752606088
 30
0.0
 10
41.465195067
 20
37.4095387988
 30
0.0
 10
41.4550816164
 20
37.5074210641
 30
0.0
 10
41.4539299625
 20
37.5588697102
 30
0.0
  0
SPLINE
  5
2DF
100
AcDbEntity
  8
0
100
AcDbSpline
 62
7
  6
BYLAYER
 70
0
 71
3
 72
11
 73
7
 74
0
 42
0.0000001
 43
0.0000001
 44
0.0000000001
 40
0.0
 40
0.0
 40
0.0
 40
0.0
 40
0.2203342705
 40
0.4546949937
 40
0.7134126805
 40
1.0
 40
1.0
 40
1.0
 40
1.0
 10
41.8531475604
 20
37.4029920079
 30
0.0
 10
41.886796971
 20
37.3845763933
 30
0.0
 10
41.9631220013
 20
37.3580867828
 30
0.0
 10
42.0889222075
 20
37.3553561649
 30
0.0
 10
42.2220261185
 20
37.3874569331
 30
0.0
 10
42.3083863361
 20
37.4283756774
 30
0.0
 10
42.3515953331
 20
37.4533222545
 30
0.0
  0
SPLINE
  5
2E0
100
AcDbEntity
  8
0
100
AcDbSpline
 62
7
  6
BYLAYER
 70
0
 71
3
 72
11
 73
7
 74
0
 42
0.0000001
 43
0.0000001
 44
0.0000000001
 40
0.0
 40
0.0
 40
0.0
 40
0.0
 40
0.2383742106
 40
0.481860941
 40
0.7346229123
 40
1.0
 40
1.0
 40
1.0
 40
1.0
 10
52.5060350684
 20
96.3273619639
 30
0.0
 10
52.9469187639
 20
96.5798213331
 30
0.0
 10
53.8944731009
 20
96.9975926807
 30
0.0
 10
55.4335455497
 20
97.3323139069
 30
0.0
 10
57.0641802643
 20
97.3806622091
 30
0.0
 10
58.1635117058
 20
97.2322836532
 30
0.0
 10
58.7174240284
 20
97.1178918093
 30
0.0
  0
SPLINE
  5
2E1
100
AcDbEntity
  8
0
100
AcDbSpline
 62
7
  6
BYLAYER
 70
0
 71
3
 72
17
 73
13
 74
0
 42
0.0000001
 43
0.0000001
 44
0.0000000001
 40
0.0
 40
0.0
 40
0.0
 40
0.0
 40
0.1286930255
 40
0.2702801155
 40
0.4174389234
 40
0.5617808058
 40
0.6954504305
 40
0.8127136056
 40
0.8646759876
 40
0.9125114232
 40
0.9571388406
 40
1.0
 40
1.0
 40
1.0
 40
1.0
 10
31.8287281339
 20
77.6300705883
 30
0.0
 10
31.6436629629
 20
77.7369155975
 30
0.0
 10
31.2246587399
 20
77.9098010365
 30
0.0
 10
30.5417563811
 20
78.0464007783
 30
0.0
 10
29.8194779134
 20
78.0664023665
 30
0.0
 10
29.1167554382
 20
77.9676450215
 30
0.0
 10
28.490572213
 20
77.7584855728
 30
0.0
 10
28.0550480082
 20
77.4933988558
 30
0.0
 10
27.7994786758
 20
77.2368799338
 30
0.0
 10
27.6636736404
 20
77.0371881292
 30
0.0
 10
27.5800579078
 20
76.8265163359
 30
0.0
 10
27.5609703148
 20
76.680630812
 30
0.0
 10
27.5609800338
 20
76.6094602322
 30
0.0
  0
SPLINE
  5
2E2
100
AcDbEntity
  8
0
100
AcDbSpline
 62
7
  6
BYLAYER
 70
0
 71
3
 72
15
 73
11
 74
0
 42
0.0000001
 43
0.0000001
 44
0.0000000001
 40
0.0
 40
0.0
 40
0.0
 40
0.0
 40
0.1140005624
 40
0.2338597689
 40
0.3584005741
 40
0.4862480545
 40
0.6159026673
 40
0.7457817554
 40
0.8743354918
 40
1.0
 40
1.0
 40
1.0
 40
1.0
 10
68.4326722116
 20
96.3172911941
 30
0.0
 10
68.9372354373
 20
95.9741997109
 30
0.0
 10
69.9340274898
 20
95.2129156602
 30
0.0
 10
71.3420601772
 20
93.906531347
 30
0.0
 10
72.6800346442
 20
92.4269917278
 30
0.0
 10
73.9236891789
 20
90.801117807
 30
0.0
 10
75.0505920759
 20
89.0582262609
 30
0.0
 10
76.0405620223
 20
87.2297389907
 30
0.0
 10
76.8754281096
 20
85.3488719467
 30
0.0
 10
77.3255866149
 20
84.0628592516
 30
0.0
 10
77.519895624
 20
83.4189494088
 30
0.0
  0
SPLINE
  5
2E3
100
AcDbEntity
  8
0
100
AcDbSpline
 62
7
  6
BYLAYER
 70
0
 71
3
 72
11
 73
7
 74
0
 42
0.0000001
 43
0.0000001
 44
0.0000000001
 40
0.0
 40
0.0
 40
0.0
 40
0.0
 40
0.288094897
 40
0.5473332511
 40
0.7810768076
 40
1.0
 40
1.0
 40
1.0
 40
1.0
 10
41.6259815212
 20
37.8719872199
 30
0.0
 10
41.6271511857
 20
37.8197339745
 30
0.0
 10
41.6375251985
 20
37.7203058072
 30
0.0
 10
41.6814426906
 20
37.5842443578
 30
0.0
 10
41.7526878891
 20
37.4743885972
 30
0.0
 10
41.8183067917
 20
37.4220596278
 30
0.0
 10
41.8531475604
 20
37.4029920079
 30
0.0
  0
SPLINE
  5
2E4
100
AcDbEntity
  8
0
100
AcDbSpline
 62
7
  6
BYLAYER
 70
0
 71
3
 72
9
 73
5
 74
0
 42
0.0000001
 43
0.0000001
 44
0.0000000001
 40
0.0
 40
0.0
 40
0.0
 40
0.0
 40
0.2451245337
 40
1.0
 40
1.0
 40
1.0
 40
1.0
 10
77.2678065819
 20
72.985609176
 30
0.0
 10
77.2994256287
 20
73.0629492246
 30
0.0
 10
77.4236348385
 20
73.3804054703
 30
0.0
 10
77.5289738417
 20
73.7051734177
 30
0.0
 10
77.5985784862
 20
73.9528892508
 30
0.0
  0
SPLINE
  5
2E5
100
AcDbEntity
  8
0
100
AcDbSpline
 62
7
  6
BYLAYER
 70
0
 71
3
 72
11
 73
7
 74
0
 42
0.0000001
 43
0.0000001
 44
0.0000000001
 40
0.0
 40
0.0
 40
0.0
 40
0.0
 40
0.2204587338
 40
0.4618108141
 40
0.7226600324
 40
1.0
 40
1.0
 40
1.0
 40
1.0
 10
77.5985784862
 20
73.9528892508
 30
0.0
 10
77.7766892823
 20
74.5867674136
 30
0.0
 10
78.0155357199
 20
75.9539435316
 30
0.0
 10
78.0448745965
 20
78.1189961656
 30
0.0
 10
77.7641229264
 20
80.4362589829
 30
0.0
 10
77.3848767952
 20
82.0021610255
 30
0.0
 10
77.148722859
 20
82.7960921297
 30
0.0
  0
SPLINE
  5
2E6
100
AcDbEntity
  8
0
100
AcDbSpline
 62
7
  6
BYLAYER
 70
0
 71
3
 72
11
 73
7
 74
0
 42
0.0000001
 43
0.0000001
 44
0.0000000001
 40
0.0
 40
0.0
 40
0.0
 40
0.0
 40
0.2364352153
 40
0.4983524089
 40
0.7611676684
 40
1.0
 40
1.0
 40
1.0
 40
1.0
 10
42.0646907249
 20
50.2704136033
 30
0.0
 10
41.9644687613
 20
50.212550771
 30
0.0
 10
41.7753416172
 20
50.0518909893
 30
0.0
 10
41.5574262685
 20
49.7461090918
 30
0.0
 10
41.4115951159
 20
49.3988228321
 30
0.0
 10
41.3734807774
 20
49.1521305351
 30
0.0
 10
41.3760968624
 20
49.0352603301
 30
0.0
  0
SPLINE
  5
2E7
100
AcDbEntity
  8
0
100
AcDbSpline
 62
7
  6
BYLAYER
 70
0
 71
3
 72
11
 73
7
 74
0
 42
0.0000001
 43
0.0000001
 44
0.0000000001
 40
0.0
 40
0.0
 40
0.0
 40
0.0
 40
0.2872200713
 40
0.5455141996
 40
0.7795438254
 40
1.0
 40
1.0
 40
1.0
 40
1.0
 10
42.1795437744
 20
37.1402047448
 30
0.0
 10
42.1355792593
 20
37.1148219717
 30
0.0
 10
42.047789786
 20
37.073387193
 30
0.0
 10
41.9124323978
 20
37.0415153601
 30
0.0
 10
41.7848085949
 20
37.0460000649
 30
0.0
 10
41.7077881566
 20
37.0742931013
 30
0.0
 10
41.6740430591
 20
37.0937755614
 30
0.0
  0
SPLINE
  5
2E8
100
AcDbEntity
  8
0
100
AcDbSpline
 62
7
  6
BYLAYER
 70
0
 71
3
 72
11
 73
7
 74
0
 42
0.0000001
 43
0.0000001
 44
0.0000000001
 40
0.0
 40
0.0
 40
0.0
 40
0.0
 40
0.2387977923
 40
0.501648076
 40
0.7635992992
 40
1.0
 40
1.0
 40
1.0
 40
1.0
 10
76.1020179859
 20
57.5628332499
 30
0.0
 10
76.1046337055
 20
57.4459793719
 30
0.0
 10
76.0665087252
 20
57.199292796
 30
0.0
 10
75.9207435624
 20
56.8519535344
 30
0.0
 10
75.7027484593
 20
56.5461999424
 30
0.0
 10
75.5136319494
 20
56.3855346467
 30
0.0
 10
75.4134241235
 20
56.3276799768
 30
0.0
  0
SPLINE
  5
2E9
100
AcDbEntity
  8
0
100
AcDbSpline
 62
7
  6
BYLAYER
 70
0
 71
3
 72
15
 73
11
 74
0
 42
0.0000001
 43
0.0000001
 44
0.0000000001
 40
0.0
 40
0.0
 40
0.0
 40
0.0
 40
0.1287465248
 40
0.2706115193
 40
0.4178719491
 40
0.5623918971
 40
0.6962071465
 40
0.8135885781
 40
0.9130602404
 40
1.0
 40
1.0
 40
1.0
 40
1.0
 10
17.1209565439
 20
54.441513662
 30
0.0
 10
17.1209565439
 20
54.4842230943
 30
0.0
 10
17.1089482439
 20
54.5740864754
 30
0.0
 10
17.0644084858
 20
54.7060470538
 30
0.0
 10
16.995571903
 20
54.8331531371
 30
0.0
 10
16.9082716362
 20
54.9449881388
 30
0.0
 10
16.8093120524
 20
55.0325868244
 30
0.0
 10
16.7061307505
 20
55.0889367996
 30
0.0
 10
16.6051346092
 20
55.1091673365
 30
0.0
 10
16.542387593
 20
55.093053971
 30
0.0
 10
16.5174028013
 20
55.0786473862
 30
0.0
  0
SPLINE
  5
2EA
100
AcDbEntity
  8
0
100
AcDbSpline
 62
7
  6
BYLAYER
 70
0
 71
3
 72
13
 73
9
 74
0
 42
0.0000001
 43
0.0000001
 44
0.0000000001
 40
0.0
 40
0.0
 40
0.0
 40
0.0
 40
0.2815213433
 40
0.5788118793
 40
0.7090122145
 40
0.8184219674
 40
0.9105621106
 40
1.0
 40
1.0
 40
1.0
 40
1.0
 10
16.2370746866
 20
54.2169781876
 30
0.0
 10
16.2370746866
 20
54.2471689477
 30
0.0
 10
16.2188698824
 20
54.3088958007
 30
0.0
 10
16.1732904327
 20
54.3719371813
 30
0.0
 10
16.1259115895
 20
54.4056350665
 30
0.0
 10
16.0914446933
 20
54.4171777826
 30
0.0
 10
16.0589921563
 20
54.4131144118
 30
0.0
 10
16.0435716033
 20
54.3991953949
 30
0.0
 10
16.0382826078
 20
54.3911939927
 30
0.0
  0
SPLINE
  5
2EB
100
AcDbEntity
  8
0
100
AcDbSpline
 62
7
  6
BYLAYER
 70
0
 71
3
 72
15
 73
11
 74
0
 42
0.0000001
 43
0.0000001
 44
0.0000000001
 40
0.0
 40
0.0
 40
0.0
 40
0.0
 40
0.1287465248
 40
0.2706115193
 40
0.4178719491
 40
0.5623918971
 40
0.6962071465
 40
0.8135885781
 40
0.9130602404
 40
1.0
 40
1.0
 40
1.0
 40
1.0
 10
18.8887308568
 20
51.3796557329
 30
0.0
 10
18.8887308568
 20
51.4223651652
 30
0.0
 10
18.8767225568
 20
51.5122285463
 30
0.0
 10
18.8321827986
 20
51.6441891247
 30
0.0
 10
18.7633462159
 20
51.7712952079
 30
0.0
 10
18.6760459491
 20
51.8831302097
 30
0.0
 10
18.5770863653
 20
51.9707288953
 30
0.0
 10
18.4739050633
 20
52.0270788705
 30
0.0
 10
18.3729089221
 20
52.0473094074
 30
0.0
 10
18.3101619059
 20
52.0311960419
 30
0.0
 10
18.2851771141
 20
52.016789457
 30
0.0
  0
SPLINE
  5
2EC
100
AcDbEntity
  8
0
100
AcDbSpline
 62
7
  6
BYLAYER
 70
0
 71
3
 72
13
 73
9
 74
0
 42
0.0000001
 43
0.0000001
 44
0.0000000001
 40
0.0
 40
0.0
 40
0.0
 40
0.0
 40
0.2815213433
 40
0.5788118793
 40
0.7090122145
 40
0.8184219674
 40
0.9105621106
 40
1.0
 40
1.0
 40
1.0
 40
1.0
 10
18.0048489995
 20
51.1551202585
 30
0.0
 10
18.0048489995
 20
51.1853110185
 30
0.0
 10
17.9866441952
 20
51.2470378716
 30
0.0
 10
17.9410647456
 20
51.3100792522
 30
0.0
 10
17.8936859024
 20
51.3437771374
 30
0.0
 10
17.8592190062
 20
51.3553198535
 30
0.0
 10
17.8267664691
 20
51.3512564827
 30
0.0
 10
17.8113459162
 20
51.3373374658
 30
0.0
 10
17.8060569207
 20
51.3293360636
 30
0.0
  0
SPLINE
  5
2ED
100
AcDbEntity
  8
0
100
AcDbSpline
 62
7
  6
BYLAYER
 70
0
 71
3
 72
15
 73
11
 74
0
 42
0.0000001
 43
0.0000001
 44
0.0000000001
 40
0.0
 40
0.0
 40
0.0
 40
0.0
 40
0.1287465248
 40
0.2706115193
 40
0.4178719491
 40
0.5623918971
 40
0.6962071465
 40
0.8135885781
 40
0.9130602404
 40
1.0
 40
1.0
 40
1.0
 40
1.0
 10
18.8887308568
 20
53.4209117757
 30
0.0
 10
18.8887308568
 20
53.463621208
 30
0.0
 10
18.8767225568
 20
53.5534845891
 30
0.0
 10
18.8321827986
 20
53.6854451675
 30
0.0
 10
18.7633462159
 20
53.8125512508
 30
0.0
 10
18.6760459491
 20
53.9243862525
 30
0.0
 10
18.5770863653
 20
54.0119849381
 30
0.0
 10
18.4739050633
 20
54.0683349133
 30
0.0
 10
18.3729089221
 20
54.0885654502
 30
0.0
 10
18.3101619059
 20
54.0724520847
 30
0.0
 10
18.2851771141
 20
54.0580454999
 30
0.0
  0
SPLINE
  5
2EE
100
AcDbEntity
  8
0
100
AcDbSpline
 62
7
  6
BYLAYER
 70
0
 71
3
 72
13
 73
9
 74
0
 42
0.0000001
 43
0.0000001
 44
0.0000000001
 40
0.0
 40
0.0
 40
0.0
 40
0.0
 40
0.2815213433
 40
0.5788118793
 40
0.7090122145
 40
0.8184219674
 40
0.9105621106
 40
1.0
 40
1.0
 40
1.0
 40
1.0
 10
18.0048489995
 20
53.1963763013
 30
0.0
 10
18.0048489995
 20
53.2265670614
 30
0.0
 10
17.9866441952
 20
53.2882939144
 30
0.0
 10
17.9410647456
 20
53.351335295
 30
0.0
 10
17.8936859024
 20
53.3850331802
 30
0.0
 10
17.8592190062
 20
53.3965758963
 30
0.0
 10
17.8267664691
 20
53.3925125255
 30
0.0
 10
17.8113459162
 20
53.3785935086
 30
0.0
 10
17.8060569207
 20
53.3705921064
 30
0.0
  0
SPLINE
  5
2EF
100
AcDbEntity
  8
0
100
AcDbSpline
 62
7
  6
BYLAYER
 70
0
 71
3
 72
11
 73
7
 74
0
 42
0.0000001
 43
0.0000001
 44
0.0000000001
 40
0.0
 40
0.0
 40
0.0
 40
0.0
 40
0.2388325776
 40
0.5016479252
 40
0.7635650289
 40
1.0
 40
1.0
 40
1.0
 40
1.0
 10
41.2347718243
 20
49.1125792896
 30
0.0
 10
41.2321557366
 20
49.2294496149
 30
0.0
 10
41.2702701427
 20
49.4761420772
 30
0.0
 10
41.4161014302
 20
49.82342841
 30
0.0
 10
41.6340167876
 20
50.1292101535
 30
0.0
 10
41.8231438268
 20
50.2898697902
 30
0.0
 10
41.9233656868
 20
50.3477325627
 30
0.0
  0
SPLINE
  5
2F0
100
AcDbEntity
  8
0
100
AcDbSpline
 62
7
  6
BYLAYER
 70
0
 71
3
 72
11
 73
7
 74
0
 42
0.0000001
 43
0.0000001
 44
0.0000000001
 40
0.0
 40
0.0
 40
0.0
 40
0.0
 40
0.2177822878
 40
0.4509146108
 40
0.7103059136
 40
1.0
 40
1.0
 40
1.0
 40
1.0
 10
27.5609800338
 20
76.6094602322
 30
0.0
 10
27.5609930371
 20
76.5142388101
 30
0.0
 10
27.5961617246
 20
76.3157647993
 30
0.0
 10
27.7466341584
 20
76.0392259671
 30
0.0
 10
27.9844952336
 20
75.7892560909
 30
0.0
 10
28.1835144538
 20
75.6521805319
 30
0.0
 10
28.2932089478
 20
75.588849819
 30
0.0
  0
SPLINE
  5
2F1
100
AcDbEntity
  8
0
100
AcDbSpline
 62
7
  6
BYLAYER
 70
0
 71
3
 72
11
 73
7
 74
0
 42
0.0000001
 43
0.0000001
 44
0.0000000001
 40
0.0
 40
0.0
 40
0.0
 40
0.0
 40
0.2865872795
 40
0.5453051624
 40
0.7796658685
 40
1.0
 40
1.0
 40
1.0
 40
1.0
 10
74.8036941172
 20
69.3310857177
 30
0.0
 10
74.8469031075
 20
69.356032291
 30
0.0
 10
74.9332633689
 20
69.3969509904
 30
0.0
 10
75.0663672885
 20
69.4290518368
 30
0.0
 10
75.1921674957
 20
69.4263211523
 30
0.0
 10
75.2684925118
 20
69.3998315882
 30
0.0
 10
75.3021418912
 20
69.3814159683
 30
0.0
  0
SPLINE
  5
2F2
100
AcDbEntity
  8
0
100
AcDbSpline
 62
7
  6
BYLAYER
 70
0
 71
3
 72
11
 73
7
 74
0
 42
0.0000001
 43
0.0000001
 44
0.0000000001
 40
0.0
 40
0.0
 40
0.0
 40
0.0
 40
0.2176255594
 40
0.4509805772
 40
0.7108800606
 40
1.0
 40
1.0
 40
1.0
 40
1.0
 10
63.1023211334
 20
95.4501432365
 30
0.0
 10
63.0693207098
 20
95.4685511954
 30
0.0
 10
62.9937906278
 20
95.494935474
 30
0.0
 10
62.8687515829
 20
95.4972232228
 30
0.0
 10
62.7356145492
 20
95.4649397014
 30
0.0
 10
62.6488426154
 20
95.4239620844
 30
0.0
 10
62.6053663041
 20
95.3988628555
 30
0.0
  0
SPLINE
  5
2F3
100
AcDbEntity
  8
0
100
AcDbSpline
 62
7
  6
BYLAYER
 70
0
 71
3
 72
9
 73
5
 74
0
 42
0.0000001
 43
0.0000001
 44
0.0000000001
 40
0.0
 40
0.0
 40
0.0
 40
0.0
 40
0.2610913226
 40
1.0
 40
1.0
 40
1.0
 40
1.0
 10
75.7014563948
 20
69.2212090706
 30
0.0
 10
75.7010975035
 20
69.2372420744
 30
0.0
 10
75.698150508
 20
69.298590227
 30
0.0
 10
75.6887536534
 20
69.359737423
 30
0.0
 10
75.6773749161
 20
69.4036739024
 30
0.0
  0
SPLINE
  5
2F4
100
AcDbEntity
  8
0
100
AcDbSpline
 62
7
  6
BYLAYER
 70
0
 71
3
 72
9
 73
5
 74
0
 42
0.0000001
 43
0.0000001
 44
0.0000000001
 40
0.0
 40
0.0
 40
0.0
 40
0.0
 40
0.2673739759
 40
1.0
 40
1.0
 40
1.0
 40
1.0
 10
75.6773749161
 20
69.4036739024
 30
0.0
 10
75.6724653901
 20
69.4226309518
 30
0.0
 10
75.6510537251
 20
69.4926279606
 30
0.0
 10
75.6157514509
 20
69.5589658929
 30
0.0
 10
75.5816971251
 20
69.6004319476
 30
0.0
  0
SPLINE
  5
2F5
100
AcDbEntity
  8
0
100
AcDbSpline
 62
7
  6
BYLAYER
 70
0
 71
3
 72
12
 73
8
 74
0
 42
0.0000001
 43
0.0000001
 44
0.0000000001
 40
0.0
 40
0.0
 40
0.0
 40
0.0
 40
0.089128435
 40
0.1838255492
 40
0.4031873588
 40
0.6753311972
 40
1.0
 40
1.0
 40
1.0
 40
1.0
 10
67.0451630531
 20
92.4051364286
 30
0.0
 10
67.0336594035
 20
92.4161022671
 30
0.0
 10
67.0066733516
 20
92.4354998143
 30
0.0
 10
66.9390161753
 20
92.4616180427
 30
0.0
 10
66.8321343663
 20
92.4657804378
 30
0.0
 10
66.6895739943
 20
92.4326073249
 30
0.0
 10
66.5913521811
 20
92.3902146566
 30
0.0
 10
66.5398384513
 20
92.3637959699
 30
0.0
  0
SPLINE
  5
2F6
100
AcDbEntity
  8
0
100
AcDbSpline
 62
7
  6
BYLAYER
 70
0
 71
3
 72
11
 73
7
 74
0
 42
0.0000001
 43
0.0000001
 44
0.0000000001
 40
0.0
 40
0.0
 40
0.0
 40
0.0
 40
0.2364360539
 40
0.4983524507
 40
0.7611668888
 40
1.0
 40
1.0
 40
1.0
 40
1.0
 10
75.2720021784
 20
56.4093281277
 30
0.0
 10
75.3722242501
 20
56.4671910224
 30
0.0
 10
75.561346813
 20
56.6278555666
 30
0.0
 10
75.7792621558
 20
56.9336352045
 30
0.0
 10
75.9250914252
 20
57.2809202629
 30
0.0
 10
75.963212128
 20
57.5276111028
 30
0.0
 10
75.9605960409
 20
57.6444814008
 30
0.0
  0
SPLINE
  5
2F7
100
AcDbEntity
  8
0
100
AcDbSpline
 62
7
  6
BYLAYER
 70
0
 71
3
 72
13
 73
9
 74
0
 42
0.0000001
 43
0.0000001
 44
0.0000000001
 40
0.0
 40
0.0
 40
0.0
 40
0.0
 40
0.1151170296
 40
0.2313072418
 40
0.3495931975
 40
0.4709105399
 40
0.7254332505
 40
1.0
 40
1.0
 40
1.0
 40
1.0
 10
58.0061212321
 20
97.6845463697
 30
0.0
 10
58.1927652902
 20
97.7923186429
 30
0.0
 10
58.5811432956
 20
97.9866149823
 30
0.0
 10
59.1982611483
 20
98.208875959
 30
0.0
 10
59.8481399677
 20
98.3615815787
 30
0.0
 10
60.7681224376
 20
98.4732544618
 30
0.0
 10
61.9932977709
 20
98.4274930415
 30
0.0
 10
62.965449503
 20
98.212647957
 30
0.0
 10
63.4579094788
 20
98.0652353584
 30
0.0
  0
SPLINE
  5
2F8
100
AcDbEntity
  8
0
100
AcDbSpline
 62
7
  6
BYLAYER
 70
0
 71
3
 72
12
 73
8
 74
0
 42
0.0000001
 43
0.0000001
 44
0.0000000001
 40
0.0
 40
0.0
 40
0.0
 40
0.0
 40
0.2188165029
 40
0.3370570594
 40
0.4607949897
 40
0.722747871
 40
1.0
 40
1.0
 40
1.0
 40
1.0
 10
63.4579094788
 20
98.0652353584
 30
0.0
 10
64.2156316982
 20
97.8384193594
 30
0.0
 10
65.3454916527
 20
97.3567110571
 30
0.0
 10
66.7839515237
 20
96.5155633509
 30
0.0
 10
68.2805162164
 20
95.47381349
 30
0.0
 10
70.0908868386
 20
93.8921702574
 30
0.0
 10
71.3906680214
 20
92.4328710514
 30
0.0
 10
72.0140403098
 20
91.6481791087
 30
0.0
  0
SPLINE
  5
2F9
100
AcDbEntity
  8
0
100
AcDbSpline
 62
7
  6
BYLAYER
 70
0
 71
3
 72
11
 73
7
 74
0
 42
0.0000001
 43
0.0000001
 44
0.0000000001
 40
0.0
 40
0.0
 40
0.0
 40
0.0
 40
0.2506389514
 40
0.5037431334
 40
0.7549512988
 40
1.0
 40
1.0
 40
1.0
 40
1.0
 10
72.0140403098
 20
91.6481791087
 30
0.0
 10
72.5527305484
 20
90.9700836949
 30
0.0
 10
73.5694263168
 20
89.5535267839
 30
0.0
 10
74.8890967599
 20
87.299257693
 30
0.0
 10
75.9864309364
 20
84.9500406288
 30
0.0
 10
76.5614670485
 20
83.3310956077
 30
0.0
 10
76.8028672388
 20
82.5195270069
 30
0.0
  0
SPLINE
  5
2FA
100
AcDbEntity
  8
0
100
AcDbSpline
 62
7
  6
BYLAYER
 70
0
 71
3
 72
9
 73
5
 74
0
 42
0.0000001
 43
0.0000001
 44
0.0000000001
 40
0.0
 40
0.0
 40
0.0
 40
0.0
 40
0.247504602
 40
1.0
 40
1.0
 40
1.0
 40
1.0
 10
58.9069046228
 20
97.0809304168
 30
0.0
 10
58.8928208902
 20
97.0836757187
 30
0.0
 10
58.8354356112
 20
97.0922047811
 30
0.0
 10
58.7765870005
 20
97.0902035956
 30
0.0
 10
58.7335089445
 20
97.0833167034
 30
0.0
  0
SPLINE
  5
2FB
100
AcDbEntity
  8
0
100
AcDbSpline
 62
7
  6
BYLAYER
 70
0
 71
3
 72
9
 73
5
 74
0
 42
0.0000001
 43
0.0000001
 44
0.0000000001
 40
0.0
 40
0.0
 40
0.0
 40
0.0
 40
0.2415309987
 40
1.0
 40
1.0
 40
1.0
 40
1.0
 10
58.7335089445
 20
97.0833167034
 30
0.0
 10
58.7145649827
 20
97.0802881307
 30
0.0
 10
58.6368323012
 20
97.0634902453
 30
0.0
 10
58.5629668299
 20
97.0303524678
 30
0.0
 10
58.511666748
 20
96.9987664345
 30
0.0
  0
SPLINE
  5
2FC
100
AcDbEntity
  8
0
100
AcDbSpline
 62
7
  6
BYLAYER
 70
0
 71
3
 72
15
 73
11
 74
0
 42
0.0000001
 43
0.0000001
 44
0.0000000001
 40
0.0
 40
0.0
 40
0.0
 40
0.0
 40
0.1240413901
 40
0.2525055337
 40
0.3833575045
 40
0.5144472904
 40
0.6436136092
 40
0.7687872128
 40
0.8880990237
 40
1.0
 40
1.0
 40
1.0
 40
1.0
 10
66.730972966
 20
92.1735454908
 30
0.0
 10
67.4378378822
 20
91.4987901941
 30
0.0
 10
68.8064335722
 20
90.0499996643
 30
0.0
 10
70.6704793918
 20
87.6688948198
 30
0.0
 10
72.3486400112
 20
85.0866963306
 30
0.0
 10
73.8008142068
 20
82.3648132106
 30
0.0
 10
74.9927067108
 20
79.5677125193
 30
0.0
 10
75.8961147038
 20
76.7613504918
 30
0.0
 10
76.4897971096
 20
74.0124029649
 30
0.0
 10
76.6761285395
 20
72.1952273084
 30
0.0
 10
76.7080055023
 20
71.3142310113
 30
0.0
  0
SPLINE
  5
2FD
100
AcDbEntity
  8
0
100
AcDbSpline
 62
7
  6
BYLAYER
 70
0
 71
3
 72
13
 73
9
 74
0
 42
0.0000001
 43
0.0000001
 44
0.0000000001
 40
0.0
 40
0.0
 40
0.0
 40
0.0
 40
0.3122303848
 40
0.5881955733
 40
0.7079243152
 40
0.8149405473
 40
0.910855738
 40
1.0
 40
1.0
 40
1.0
 40
1.0
 10
66.7310249291
 20
92.1734957512
 30
0.0
 10
66.7775684192
 20
92.1996057708
 30
0.0
 10
66.8680250895
 20
92.2439810951
 30
0.0
 10
66.9847186715
 20
92.2798931699
 30
0.0
 10
67.0706343024
 20
92.2875407201
 30
0.0
 10
67.1259392349
 20
92.2829020476
 30
0.0
 10
67.1740057786
 20
92.2674390161
 30
0.0
 10
67.2003666962
 20
92.248905397
 30
0.0
 10
67.211326325
 20
92.2383203559
 30
0.0
  0
SPLINE
  5
2FE
100
AcDbEntity
  8
0
100
AcDbSpline
 62
7
  6
BYLAYER
 70
0
 71
3
 72
11
 73
7
 74
0
 42
0.0000001
 43
0.0000001
 44
0.0000000001
 40
0.0
 40
0.0
 40
0.0
 40
0.0
 40
0.2915730689
 40
0.551817572
 40
0.7841494897
 40
1.0
 40
1.0
 40
1.0
 40
1.0
 10
76.7080037188
 20
71.3142298974
 30
0.0
 10
76.7528884268
 20
71.341047953
 30
0.0
 10
76.83405642
 20
71.3987770293
 30
0.0
 10
76.9303156075
 20
71.5030045428
 30
0.0
 10
76.9897989331
 20
71.6173284158
 30
0.0
 10
77.0017701272
 20
71.6987400402
 30
0.0
 10
77.0004286124
 20
71.7374240636
 30
0.0
  0
SPLINE
  5
2FF
100
AcDbEntity
  8
0
100
AcDbSpline
 62
7
  6
BYLAYER
 70
0
 71
3
 72
9
 73
5
 74
0
 42
0.0000001
 43
0.0000001
 44
0.0000000001
 40
0.0
 40
0.0
 40
0.0
 40
0.0
 40
0.5190106378
 40
1.0
 40
1.0
 40
1.0
 40
1.0
 10
76.8028672388
 20
82.5195270069
 30
0.0
 10
77.0834525416
 20
81.576221116
 30
0.0
 10
77.5148559878
 20
79.7237764348
 30
0.0
 10
77.6819695619
 20
77.8260486093
 30
0.0
 10
77.6819695619
 20
76.9139933383
 30
0.0
  0
SPLINE
  5
300
100
AcDbEntity
  8
0
100
AcDbSpline
 62
7
  6
BYLAYER
 70
0
 71
3
 72
10
 73
6
 74
0
 42
0.0000001
 43
0.0000001
 44
0.0000000001
 40
0.0
 40
0.0
 40
0.0
 40
0.0
 40
0.286682205
 40
0.5483278961
 40
1.0
 40
1.0
 40
1.0
 40
1.0
 10
77.383406809
 20
53.1728443989
 30
0.0
 10
77.4181694178
 20
53.1909590913
 30
0.0
 10
77.4825961392
 20
53.2300997368
 30
0.0
 10
77.5873142293
 20
53.318083081
 30
0.0
 10
77.6443447344
 20
53.4027330616
 30
0.0
 10
77.6628792149
 20
53.4616452621
 30
0.0
  0
SPLINE
  5
301
100
AcDbEntity
  8
0
100
AcDbSpline
 62
7
  6
BYLAYER
 70
0
 71
3
 72
9
 73
5
 74
0
 42
0.0000001
 43
0.0000001
 44
0.0000000001
 40
0.0
 40
0.0
 40
0.0
 40
0.0
 40
0.2534158232
 40
1.0
 40
1.0
 40
1.0
 40
1.0
 10
77.6628792149
 20
53.4616452621
 30
0.0
 10
77.6655286608
 20
53.4700665766
 30
0.0
 10
77.6746229172
 20
53.5037099004
 30
0.0
 10
77.6779462911
 20
53.5389189376
 30
0.0
 10
77.6769886345
 20
53.5649100799
 30
0.0
  0
SPLINE
  5
302
100
AcDbEntity
  8
0
100
AcDbSpline
 62
7
  6
BYLAYER
 70
0
 71
3
 72
16
 73
12
 74
0
 42
0.0000001
 43
0.0000001
 44
0.0000000001
 40
0.0
 40
0.0
 40
0.0
 40
0.0
 40
0.1324715938
 40
0.2683567386
 40
0.4047191544
 40
0.5385674058
 40
0.6670920735
 40
0.7878660682
 40
0.8447932543
 40
0.8991811973
 40
1.0
 40
1.0
 40
1.0
 40
1.0
 10
77.148722859
 20
82.7960921297
 30
0.0
 10
76.8786536524
 20
83.7040437257
 30
0.0
 10
76.2225921655
 20
85.5123835381
 30
0.0
 10
74.9480648999
 20
88.116224024
 30
0.0
 10
73.4045602134
 20
90.5822251163
 30
0.0
 10
71.6418141867
 20
92.8304381532
 30
0.0
 10
69.7167548114
 20
94.7883380391
 30
0.0
 10
67.9947233091
 20
96.152566172
 30
0.0
 10
66.5871317925
 20
97.0349843795
 30
0.0
 10
65.2418309949
 20
97.7373245182
 30
0.0
 10
64.1927177241
 20
98.1260492963
 30
0.0
 10
63.4930729903
 20
98.2999227473
 30
0.0
  0
SPLINE
  5
303
100
AcDbEntity
  8
0
100
AcDbSpline
 62
7
  6
BYLAYER
 70
0
 71
3
 72
9
 73
5
 74
0
 42
0.0000001
 43
0.0000001
 44
0.0000000001
 40
0.0
 40
0.0
 40
0.0
 40
0.0
 40
0.2547553877
 40
1.0
 40
1.0
 40
1.0
 40
1.0
 10
63.4930729903
 20
98.2999227473
 30
0.0
 10
63.4136521515
 20
98.3196601578
 30
0.0
 10
63.1009292389
 20
98.3931525799
 30
0.0
 10
62.7843314565
 20
98.4503863335
 30
0.0
 10
62.5471265113
 20
98.4827272362
 30
0.0
  0
SPLINE
  5
304
100
AcDbEntity
  8
0
100
AcDbSpline
 62
7
  6
BYLAYER
 70
0
 71
3
 72
10
 73
6
 74
0
 42
0.0000001
 43
0.0000001
 44
0.0000000001
 40
0.0
 40
0.0
 40
0.0
 40
0.0
 40
0.4974305443
 40
0.7475743821
 40
1.0
 40
1.0
 40
1.0
 40
1.0
 10
58.3034744654
 20
97.0390343604
 30
0.0
 10
58.3681454079
 20
97.0769390604
 30
0.0
 10
58.4757187634
 20
97.11973019
 30
0.0
 10
58.6268501469
 20
97.1316929553
 30
0.0
 10
58.7025925342
 20
97.1210720278
 30
0.0
 10
58.7394738112
 20
97.1117569176
 30
0.0
  0
SPLINE
  5
305
100
AcDbEntity
  8
0
100
AcDbSpline
 62
7
  6
BYLAYER
 70
0
 71
3
 72
12
 73
8
 74
0
 42
0.0000001
 43
0.0000001
 44
0.0000000001
 40
0.0
 40
0.0
 40
0.0
 40
0.0
 40
0.1029096155
 40
0.2086393211
 40
0.4372285748
 40
0.6997820914
 40
1.0
 40
1.0
 40
1.0
 40
1.0
 10
27.560975289
 20
76.5455625501
 30
0.0
 10
27.5609678495
 20
76.5024193823
 30
0.0
 10
27.5692731294
 20
76.4147399223
 30
0.0
 10
27.6197100552
 20
76.2376072343
 30
0.0
 10
27.7495971311
 20
76.0188268106
 30
0.0
 10
27.9874489445
 20
75.7842170283
 30
0.0
 10
28.1842091321
 20
75.6517794682
 30
0.0
 10
28.2932089478
 20
75.588849819
 30
0.0
  0
SPLINE
  5
306
100
AcDbEntity
  8
0
100
AcDbSpline
 62
7
  6
BYLAYER
 70
0
 71
3
 72
17
 73
13
 74
0
 42
0.0000001
 43
0.0000001
 44
0.0000000001
 40
0.0
 40
0.0
 40
0.0
 40
0.0
 40
0.0559662465
 40
0.1143193329
 40
0.2370921474
 40
0.3660930273
 40
0.4984471656
 40
0.6310173543
 40
0.7606495013
 40
0.8844167601
 40
0.9433755794
 40
1.0
 40
1.0
 40
1.0
 40
1.0
 10
26.063102468
 20
74.3013865138
 30
0.0
 10
26.535590821
 20
74.037138456
 30
0.0
 10
27.4776460691
 20
73.4552118554
 30
0.0
 10
29.331102937
 20
72.101535533
 30
0.0
 10
31.5545476005
 20
70.0726310015
 30
0.0
 10
33.9687224681
 20
67.2368252198
 30
0.0
 10
36.0880650234
 20
64.0599551812
 30
0.0
 10
37.8354591921
 20
60.657449352
 30
0.0
 10
39.1474761497
 20
57.1530432726
 30
0.0
 10
39.8502804592
 20
54.2043094252
 30
0.0
 10
40.1442670187
 20
51.906095633
 30
0.0
 10
40.2018470634
 20
50.7881060784
 30
0.0
 10
40.2068430543
 20
50.24040084
 30
0.0
  0
SPLINE
  5
307
100
AcDbEntity
  8
0
100
AcDbSpline
 62
7
  6
BYLAYER
 70
0
 71
3
 72
23
 73
19
 74
0
 42
0.0000001
 43
0.0000001
 44
0.0000000001
 40
0.0
 40
0.0
 40
0.0
 40
0.0
 40
0.073934631
 40
0.1441070017
 40
0.2104686221
 40
0.2732556836
 40
0.3328542296
 40
0.3898307071
 40
0.444945848
 40
0.4991093111
 40
0.5533135686
 40
0.6085473576
 40
0.6657102745
 40
0.7255489363
 40
0.7886140858
 40
0.8552765757
 40
0.9257587899
 40
1.0
 40
1.0
 40
1.0
 40
1.0
 10
25.3560562306
 20
73.0908397479
 30
0.0
 10
24.9416423381
 20
73.3384917462
 30
0.0
 10
24.113897515
 20
73.7889638106
 30
0.0
 10
22.8488415924
 20
74.3315145228
 30
0.0
 10
21.6027203797
 20
74.716420781
 30
0.0
 10
20.3876496353
 20
74.9406824417
 30
0.0
 10
19.21433868
 20
75.0016232846
 30
0.0
 10
18.0938326737
 20
74.8971138005
 30
0.0
 10
17.0374069737
 20
74.6272682778
 30
0.0
 10
16.0562393969
 20
74.1941079068
 30
0.0
 10
15.1611814539
 20
73.6018030195
 30
0.0
 10
14.3615634134
 20
72.857275429
 30
0.0
 10
13.6650896503
 20
71.9688467209
 30
0.0
 10
13.0779465704
 20
70.9459299872
 30
0.0
 10
12.60435325
 20
69.7989601584
 30
0.0
 10
12.2479098516
 20
68.5384071001
 30
0.0
 10
12.012709573
 20
67.1761101323
 30
0.0
 10
11.9384739427
 20
66.2326346945
 30
0.0
 10
11.9197786219
 20
65.7482198007
 30
0.0
  0
SPLINE
  5
308
100
AcDbEntity
  8
0
100
AcDbSpline
 62
7
  6
BYLAYER
 70
0
 71
3
 72
15
 73
11
 74
0
 42
0.0000001
 43
0.0000001
 44
0.0000000001
 40
0.0
 40
0.0
 40
0.0
 40
0.0
 40
0.1097833342
 40
0.2201336345
 40
0.3334318994
 40
0.4517512993
 40
0.5766902708
 40
0.7093960701
 40
0.8505496263
 40
1.0
 40
1.0
 40
1.0
 40
1.0
 10
20.8658062908
 20
64.5188145535
 30
0.0
 10
21.0022468085
 20
64.6191673862
 30
0.0
 10
21.2948784839
 20
64.7959578432
 30
0.0
 10
21.7792617687
 20
64.9771580905
 30
0.0
 10
22.3010678246
 20
65.0714578284
 30
0.0
 10
22.8533949932
 20
65.0783779708
 30
0.0
 10
23.4298808609
 20
64.9987884724
 30
0.0
 10
24.0243352075
 20
64.8339002098
 30
0.0
 10
24.6296759851
 20
64.5853904692
 30
0.0
 10
25.0254704494
 20
64.3730806684
 30
0.0
 10
25.2236430742
 20
64.2552261915
 30
0.0
  0
SPLINE
  5
309
100
AcDbEntity
  8
0
100
AcDbSpline
 62
7
  6
BYLAYER
 70
0
 71
3
 72
9
 73
5
 74
0
 42
0.0000001
 43
0.0000001
 44
0.0000000001
 40
0.0
 40
0.0
 40
0.0
 40
0.0
 40
0.5157434966
 40
1.0
 40
1.0
 40
1.0
 40
1.0
 10
62.6053663294
 20
95.3988635443
 30
0.0
 10
61.9977871518
 20
95.7379413929
 30
0.0
 10
60.7800364737
 20
96.327087869
 30
0.0
 10
59.4959324952
 20
96.7565560064
 30
0.0
 10
58.8623571389
 20
96.9159284717
 30
0.0
  0
SPLINE
  5
30A
100
AcDbEntity
  8
0
100
AcDbSpline
 62
7
  6
BYLAYER
 70
0
 71
3
 72
9
 73
5
 74
0
 42
0.0000001
 43
0.0000001
 44
0.0000000001
 40
0.0
 40
0.0
 40
0.0
 40
0.0
 40
0.5140320619
 40
1.0
 40
1.0
 40
1.0
 40
1.0
 10
66.5398466372
 20
92.3637985667
 30
0.0
 10
65.9692054264
 20
92.9044793656
 30
0.0
 10
64.8138481681
 20
93.9097718354
 30
0.0
 10
63.5667456083
 20
94.8006707602
 30
0.0
 10
62.9372029891
 20
95.1956493229
 30
0.0
  0
SPLINE
  5
30B
100
AcDbEntity
  8
0
100
AcDbSpline
 62
7
  6
BYLAYER
 70
0
 71
3
 72
12
 73
8
 74
0
 42
0.0000001
 43
0.0000001
 44
0.0000000001
 40
0.0
 40
0.0
 40
0.0
 40
0.0
 40
0.2366449419
 40
0.4988743521
 40
0.7616867931
 40
0.8853514694
 40
1.0
 40
1.0
 40
1.0
 40
1.0
 10
26.0631735159
 20
74.3015843524
 30
0.0
 10
25.9644265565
 20
74.2439445845
 30
0.0
 10
25.7779541316
 20
74.0850850443
 30
0.0
 10
25.5591130142
 20
73.786333381
 30
0.0
 10
25.4300711763
 20
73.4974452899
 30
0.0
 10
25.3710841961
 20
73.2621566995
 30
0.0
 10
25.3584400982
 20
73.1471038484
 30
0.0
 10
25.3576273605
 20
73.0917156535
 30
0.0
  0
SPLINE
  5
30C
100
AcDbEntity
  8
0
100
AcDbSpline
 62
7
  6
BYLAYER
 70
0
 71
3
 72
9
 73
5
 74
0
 42
0.0000001
 43
0.0000001
 44
0.0000000001
 40
0.0
 40
0.0
 40
0.0
 40
0.0
 40
0.5001988818
 40
1.0
 40
1.0
 40
1.0
 40
1.0
 10
18.8891401889
 20
48.1136554923
 30
0.0
 10
19.0180736994
 20
48.1508970212
 30
0.0
 10
19.2682906022
 20
48.2555106618
 30
0.0
 10
19.485679665
 20
48.4176823863
 30
0.0
 10
19.5832327439
 20
48.5096907831
 30
0.0
  0
SPLINE
  5
30D
100
AcDbEntity
  8
0
100
AcDbSpline
 62
7
  6
BYLAYER
 70
0
 71
3
 72
11
 73
7
 74
0
 42
0.0000001
 43
0.0000001
 44
0.0000000001
 40
0.0
 40
0.0
 40
0.0
 40
0.0
 40
0.2197036702
 40
0.4568963815
 40
0.716509393
 40
1.0
 40
1.0
 40
1.0
 40
1.0
 10
19.6203851248
 20
48.5457774692
 30
0.0
 10
19.7333169906
 20
48.658727253
 30
0.0
 10
19.9368221411
 20
48.9263755312
 30
0.0
 10
20.1499251532
 20
49.405678566
 30
0.0
 10
20.2773308752
 20
49.961420453
 30
0.0
 10
20.3030925063
 20
50.3570494634
 30
0.0
 10
20.3030925063
 20
50.5631443971
 30
0.0
  0
SPLINE
  5
30E
100
AcDbEntity
  8
0
100
AcDbSpline
 62
7
  6
BYLAYER
 70
0
 71
3
 72
11
 73
7
 74
0
 42
0.0000001
 43
0.0000001
 44
0.0000000001
 40
0.0
 40
0.0
 40
0.0
 40
0.0
 40
0.2373216466
 40
0.5005649702
 40
0.7635023093
 40
1.0
 40
1.0
 40
1.0
 40
1.0
 10
38.8054424271
 20
50.2261257396
 30
0.0
 10
38.9066952232
 20
50.1727006351
 30
0.0
 10
39.139433363
 20
50.0961000794
 30
0.0
 10
39.5085957607
 20
50.0620494852
 30
0.0
 10
39.8765961004
 20
50.1035148964
 30
0.0
 10
40.1071853531
 20
50.1848689662
 30
0.0
 10
40.2068433714
 20
50.2404009389
 30
0.0
  0
SPLINE
  5
30F
100
AcDbEntity
  8
0
100
AcDbSpline
 62
7
  6
BYLAYER
 70
0
 71
3
 72
11
 73
7
 74
0
 42
0.0000001
 43
0.0000001
 44
0.0000000001
 40
0.0
 40
0.0
 40
0.0
 40
0.0
 40
0.2360146373
 40
0.4982221672
 40
0.7613472156
 40
1.0
 40
1.0
 40
1.0
 40
1.0
 10
25.010504976
 20
63.8902856992
 30
0.0
 10
25.0409212497
 20
63.9069191763
 30
0.0
 10
25.098444727
 20
63.9542495814
 30
0.0
 10
25.1657403828
 20
64.0445392873
 30
0.0
 10
25.2124448086
 20
64.1475427627
 30
0.0
 10
25.2256844876
 20
64.2213177505
 30
0.0
 10
25.2257435984
 20
64.2563725165
 30
0.0
  0
SPLINE
  5
310
100
AcDbEntity
  8
0
100
AcDbSpline
 62
7
  6
BYLAYER
 70
0
 71
3
 72
9
 73
5
 74
0
 42
0.0000001
 43
0.0000001
 44
0.0000000001
 40
0.0
 40
0.0
 40
0.0
 40
0.0
 40
0.2480836547
 40
1.0
 40
1.0
 40
1.0
 40
1.0
 10
20.0745023348
 20
48.5093379505
 30
0.0
 10
20.1116682828
 20
48.5308010926
 30
0.0
 10
20.2582515132
 20
48.6228285829
 30
0.0
 10
20.3908386115
 20
48.736857989
 30
0.0
 10
20.4800455396
 20
48.8315318185
 30
0.0
  0
SPLINE
  5
311
100
AcDbEntity
  8
0
100
AcDbSpline
 62
7
  6
BYLAYER
 70
0
 71
3
 72
11
 73
7
 74
0
 42
0.0000001
 43
0.0000001
 44
0.0000000001
 40
0.0
 40
0.0
 40
0.0
 40
0.0
 40
0.2202053366
 40
0.4578519336
 40
0.7173764323
 40
1.0
 40
1.0
 40
1.0
 40
1.0
 10
20.4800455396
 20
48.8315318185
 30
0.0
 10
20.5914498137
 20
48.9497633222
 30
0.0
 10
20.7915483259
 20
49.2265817189
 30
0.0
 10
21.0008898122
 20
49.7163440733
 30
0.0
 10
21.1260902984
 20
50.2806129556
 30
0.0
 10
21.1514908092
 20
50.6813183745
 30
0.0
 10
21.1514908092
 20
50.8898139987
 30
0.0
  0
SPLINE
  5
312
100
AcDbEntity
  8
0
100
AcDbSpline
 62
7
  6
BYLAYER
 70
0
 71
3
 72
22
 73
18
 74
0
 42
0.0000001
 43
0.0000001
 44
0.0000000001
 40
0.0
 40
0.0
 40
0.0
 40
0.0
 40
0.1302016949
 40
0.2005924136
 40
0.2732636002
 40
0.3471684384
 40
0.421201813
 40
0.4942482771
 40
0.5652424335
 40
0.633226455
 40
0.6974127167
 40
0.7572558651
 40
0.8125378816
 40
0.8634657589
 40
0.9107639587
 40
0.9557061297
 40
1.0
 40
1.0
 40
1.0
 40
1.0
 10
25.2236619549
 20
64.2552215853
 30
0.0
 10
25.8733312626
 20
63.891288372
 30
0.0
 10
26.7989898135
 20
63.1902212632
 30
0.0
 10
27.8869892976
 20
62.0669101155
 30
0.0
 10
28.6612908319
 20
61.0944022961
 30
0.0
 10
29.3530803736
 20
60.0372334193
 30
0.0
 10
29.9469559579
 20
58.9195596992
 30
0.0
 10
30.4289980551
 20
57.7672748541
 30
0.0
 10
30.7881143304
 20
56.6069592235
 30
0.0
 10
31.015981331
 20
55.4652635052
 30
0.0
 10
31.1072182307
 20
54.3681922757
 30
0.0
 10
31.0593196065
 20
53.3404705175
 30
0.0
 10
30.872348225
 20
52.4050475962
 30
0.0
 10
30.5485836516
 20
51.5831204041
 30
0.0
 10
30.0922382864
 20
50.8947500079
 30
0.0
 10
29.5120016436
 20
50.3603294248
 30
0.0
 10
29.054323358
 20
50.1196716575
 30
0.0
 10
28.8170080153
 20
50.0310322993
 30
0.0
  0
SPLINE
  5
313
100
AcDbEntity
  8
0
100
AcDbSpline
 62
7
  6
BYLAYER
 70
0
 71
3
 72
10
 73
6
 74
0
 42
0.0000001
 43
0.0000001
 44
0.0000000001
 40
0.0
 40
0.0
 40
0.0
 40
0.0
 40
0.23811589
 40
0.4827413134
 40
1.0
 40
1.0
 40
1.0
 40
1.0
 10
28.8170080153
 20
50.0310322993
 30
0.0
 10
28.6795947564
 20
49.9797072441
 30
0.0
 10
28.3930275575
 20
49.8957716539
 30
0.0
 10
27.7822451167
 20
49.8054268732
 30
0.0
 10
27.3074913585
 20
49.8294295215
 30
0.0
 10
26.9926521219
 20
49.8785293278
 30
0.0
  0
SPLINE
  5
314
100
AcDbEntity
  8
0
100
AcDbSpline
 62
7
  6
BYLAYER
 70
0
 71
3
 72
16
 73
12
 74
0
 42
0.0000001
 43
0.0000001
 44
0.0000000001
 40
0.0
 40
0.0
 40
0.0
 40
0.0
 40
0.0992133243
 40
0.1542135795
 40
0.2126435835
 40
0.3384386232
 40
0.4731084429
 40
0.6117979512
 40
0.7491654228
 40
0.8800110726
 40
1.0
 40
1.0
 40
1.0
 40
1.0
 10
16.6575278667
 20
58.0222177541
 30
0.0
 10
16.9536988727
 20
57.9818777396
 30
0.0
 10
17.4047215305
 20
57.8420725544
 30
0.0
 10
17.9757566332
 20
57.5508908667
 30
0.0
 10
18.5814542172
 20
57.1578026499
 30
0.0
 10
19.308996471
 20
56.5226076642
 30
0.0
 10
20.0852665165
 20
55.5988583379
 30
0.0
 10
20.7430425651
 20
54.5460677735
 30
0.0
 10
21.2452858901
 20
53.4232209913
 30
0.0
 10
21.5640652192
 20
52.2936174838
 30
0.0
 10
21.6464634952
 20
51.5370823906
 30
0.0
 10
21.6464634952
 20
51.1755849064
 30
0.0
  0
SPLINE
  5
315
100
AcDbEntity
  8
0
100
AcDbSpline
 62
7
  6
BYLAYER
 70
0
 71
3
 72
14
 73
10
 74
0
 42
0.0000001
 43
0.0000001
 44
0.0000000001
 40
0.0
 40
0.0
 40
0.0
 40
0.0
 40
0.2881810185
 40
0.4211758093
 40
0.5470363656
 40
0.6665641726
 40
0.780882643
 40
0.8914371838
 40
1.0
 40
1.0
 40
1.0
 40
1.0
 10
25.0033640546
 20
63.8954216748
 30
0.0
 10
24.6681569078
 20
64.0954860583
 30
0.0
 10
24.1526652187
 20
64.3503110109
 30
0.0
 10
23.4437990947
 20
64.5703597653
 30
0.0
 10
22.9387242919
 20
64.6651073814
 30
0.0
 10
22.4507560536
 20
64.6925074019
 30
0.0
 10
21.9842144047
 20
64.6522094074
 30
0.0
 10
21.5438403705
 20
64.5438894761
 30
0.0
 10
21.269513021
 20
64.4264391593
 30
0.0
 10
21.1396097137
 20
64.3575068997
 30
0.0
  0
SPLINE
  5
316
100
AcDbEntity
  8
0
100
AcDbSpline
 62
7
  6
BYLAYER
 70
0
 71
3
 72
21
 73
17
 74
0
 42
0.0000001
 43
0.0000001
 44
0.0000000001
 40
0.0
 40
0.0
 40
0.0
 40
0.0
 40
0.0428261187
 40
0.0874200102
 40
0.135216363
 40
0.1871406755
 40
0.2436022633
 40
0.30457624
 40
0.369693086
 40
0.438319891
 40
0.5825518293
 40
0.7295909987
 40
0.80159959
 40
0.8712141883
 40
0.9376040176
 40
1.0
 40
1.0
 40
1.0
 40
1.0
 10
16.5301658953
 20
58.2409261104
 30
0.0
 10
16.6534274612
 20
58.312109025
 30
0.0
 10
16.9251741035
 20
58.4250023572
 30
0.0
 10
17.3737066656
 20
58.4907878505
 30
0.0
 10
17.8553821351
 20
58.4553251418
 30
0.0
 10
18.359470742
 20
58.3213678409
 30
0.0
 10
18.8761019649
 20
58.0930564997
 30
0.0
 10
19.3949754532
 20
57.7756298515
 30
0.0
 10
19.9055706002
 20
57.3758834183
 30
0.0
 10
20.5719117272
 20
56.7340029011
 30
0.0
 10
21.3122053235
 20
55.7859526377
 30
0.0
 10
21.8898199597
 20
54.7187953038
 30
0.0
 10
22.233942299
 20
53.8220571548
 30
0.0
 10
22.4219851583
 20
53.1556198809
 30
0.0
 10
22.5375444761
 20
52.5053035626
 30
0.0
 10
22.565697306
 20
52.0769818057
 30
0.0
 10
22.565697306
 20
51.8695992881
 30
0.0
  0
SPLINE
  5
317
100
AcDbEntity
  8
0
100
AcDbSpline
 62
7
  6
BYLAYER
 70
0
 71
3
 72
15
 73
11
 74
0
 42
0.0000001
 43
0.0000001
 44
0.0000000001
 40
0.0
 40
0.0
 40
0.0
 40
0.0
 40
0.1145696324
 40
0.2378262647
 40
0.3673499768
 40
0.5001264895
 40
0.6328565005
 40
0.7622830072
 40
0.8854445589
 40
1.0
 40
1.0
 40
1.0
 40
1.0
 10
30.6527355476
 20
54.0939814661
 30
0.0
 10
30.6587967434
 20
54.543771003
 30
0.0
 10
30.5879595982
 20
55.4795297677
 30
0.0
 10
30.2728195494
 20
56.8910244438
 30
0.0
 10
29.7584093575
 20
58.3187754348
 30
0.0
 10
29.0630956604
 20
59.7090949282
 30
0.0
 10
28.2114605919
 20
61.0091073974
 30
0.0
 10
27.2359495445
 20
62.1705150521
 30
0.0
 10
26.1724568081
 20
63.1496395146
 30
0.0
 10
25.396653984
 20
63.6772009791
 30
0.0
 10
25.0033640546
 20
63.8954216748
 30
0.0
  0
SPLINE
  5
318
100
AcDbEntity
  8
0
100
AcDbSpline
 62
7
  6
BYLAYER
 70
0
 71
3
 72
22
 73
18
 74
0
 42
0.0000001
 43
0.0000001
 44
0.0000000001
 40
0.0
 40
0.0
 40
0.0
 40
0.0
 40
0.0615718205
 40
0.1269611009
 40
0.1954794234
 40
0.2663734444
 40
0.4115090647
 40
0.4839461005
 40
0.5549729038
 40
0.6236914302
 40
0.6893071027
 40
0.7511738266
 40
0.8088501825
 40
0.8621702298
 40
0.9113176385
 40
0.9569016185
 40
1.0
 40
1.0
 40
1.0
 40
1.0
 10
30.4103917044
 20
53.9540650182
 30
0.0
 10
30.4103917157
 20
54.2731829866
 30
0.0
 10
30.3687385299
 20
54.9316205938
 30
0.0
 10
30.1970989554
 20
55.9317108039
 30
0.0
 10
29.9174213215
 20
56.9573373542
 30
0.0
 10
29.4043805335
 20
58.3414850278
 30
0.0
 10
28.7090109876
 20
59.6742194418
 30
0.0
 10
27.8608458354
 20
60.9077503749
 30
0.0
 10
27.1630824807
 20
61.7596129898
 30
0.0
 10
26.4176318828
 20
62.5213692176
 30
0.0
 10
25.6390419505
 20
63.1781226608
 30
0.0
 10
24.8424559934
 20
63.7168968719
 30
0.0
 10
24.0430631778
 20
64.1269670241
 30
0.0
 10
23.2559016872
 20
64.3999745755
 30
0.0
 10
22.4953252306
 20
64.5294291282
 30
0.0
 10
21.7762561578
 20
64.51068544
 30
0.0
 10
21.326191783
 20
64.3950471864
 30
0.0
 10
21.1183818622
 20
64.3131299721
 30
0.0
  0
SPLINE
  5
319
100
AcDbEntity
  8
0
100
AcDbSpline
 62
7
  6
BYLAYER
 70
0
 71
3
 72
12
 73
8
 74
0
 42
0.0000001
 43
0.0000001
 44
0.0000000001
 40
0.0
 40
0.0
 40
0.0
 40
0.0
 40
0.1081629427
 40
0.2183667851
 40
0.4513616977
 40
0.7104309989
 40
1.0
 40
1.0
 40
1.0
 40
1.0
 10
22.7372318595
 20
49.1228995549
 30
0.0
 10
22.8355990869
 20
49.1797061183
 30
0.0
 10
23.0247449404
 20
49.3117005945
 30
0.0
 10
23.364030963
 20
49.6454277288
 30
0.0
 10
23.7000530183
 20
50.1932488422
 30
0.0
 10
23.9338164144
 20
50.9872657683
 30
0.0
 10
23.9799108684
 20
51.5654997913
 30
0.0
 10
23.9799108684
 20
51.8696026874
 30
0.0
  0
SPLINE
  5
31A
100
AcDbEntity
  8
0
100
AcDbSpline
 62
7
  6
BYLAYER
 70
0
 71
3
 72
21
 73
17
 74
0
 42
0.0000001
 43
0.0000001
 44
0.0000000001
 40
0.0
 40
0.0
 40
0.0
 40
0.0
 40
0.0428261187
 40
0.0874200102
 40
0.135216363
 40
0.1871406755
 40
0.2436022633
 40
0.30457624
 40
0.369693086
 40
0.438319891
 40
0.5825518293
 40
0.7295909987
 40
0.80159959
 40
0.8712141883
 40
0.9376040176
 40
1.0
 40
1.0
 40
1.0
 40
1.0
 10
20.8384754314
 20
61.8830109667
 30
0.0
 10
20.9863893105
 20
61.9684304642
 30
0.0
 10
21.3124852812
 20
62.1039024628
 30
0.0
 10
21.8507243557
 20
62.1828450547
 30
0.0
 10
22.4287349192
 20
62.1402898043
 30
0.0
 10
23.0336412474
 20
61.9795410433
 30
0.0
 10
23.6535987148
 20
61.7055674338
 30
0.0
 10
24.2762469008
 20
61.324655456
 30
0.0
 10
24.8889610773
 20
60.8449597362
 30
0.0
 10
25.6885704296
 20
60.0747031155
 30
0.0
 10
26.5769227452
 20
58.9370427994
 30
0.0
 10
27.2700603087
 20
57.6564539988
 30
0.0
 10
27.6830071158
 20
56.58036822
 30
0.0
 10
27.908658547
 20
55.7806434913
 30
0.0
 10
28.0473297283
 20
55.0002639093
 30
0.0
 10
28.0811131242
 20
54.486277801
 30
0.0
 10
28.0811131242
 20
54.2374187799
 30
0.0
  0
SPLINE
  5
31B
100
AcDbEntity
  8
0
100
AcDbSpline
 62
7
  6
BYLAYER
 70
0
 71
3
 72
13
 73
9
 74
0
 42
0.0000001
 43
0.0000001
 44
0.0000000001
 40
0.0
 40
0.0
 40
0.0
 40
0.0
 40
0.2821727885
 40
0.5381447382
 40
0.6581990098
 40
0.7742446694
 40
0.8876627563
 40
1.0
 40
1.0
 40
1.0
 40
1.0
 10
25.2553703985
 20
50.4567872748
 30
0.0
 10
25.5476596587
 20
50.3324347955
 30
0.0
 10
26.1258057421
 20
50.1392080637
 30
0.0
 10
26.8686912154
 20
50.0521300995
 30
0.0
 10
27.4225681751
 20
50.093045478
 30
0.0
 10
27.8087728294
 20
50.1747702587
 30
0.0
 10
28.1712433804
 20
50.3076436916
 30
0.0
 10
28.3953408018
 20
50.4298179134
 30
0.0
 10
28.5015707602
 20
50.498424454
 30
0.0
  0
SPLINE
  5
31C
100
AcDbEntity
  8
0
100
AcDbSpline
 62
7
  6
BYLAYER
 70
0
 71
3
 72
13
 73
9
 74
0
 42
0.0000001
 43
0.0000001
 44
0.0000000001
 40
0.0
 40
0.0
 40
0.0
 40
0.0
 40
0.1078931939
 40
0.2182200886
 40
0.4519133614
 40
0.5781623813
 40
0.7115130259
 40
1.0
 40
1.0
 40
1.0
 40
1.0
 10
28.5015707602
 20
50.498424454
 30
0.0
 10
28.6198498944
 20
50.574812719
 30
0.0
 10
28.8467200876
 20
50.7494418542
 30
0.0
 10
29.2522882937
 20
51.1803941436
 30
0.0
 10
29.5643760113
 20
51.7196716743
 30
0.0
 10
29.7802113547
 20
52.3270199633
 30
0.0
 10
29.9436705318
 20
53.0246918748
 30
0.0
 10
29.9861276357
 20
53.5775861172
 30
0.0
 10
29.9861276357
 20
53.9540645295
 30
0.0
  0
SPLINE
  5
31D
100
AcDbEntity
  8
0
100
AcDbSpline
 62
7
  6
BYLAYER
 70
0
 71
3
 72
14
 73
10
 74
0
 42
0.0000001
 43
0.0000001
 44
0.0000000001
 40
0.0
 40
0.0
 40
0.0
 40
0.0
 40
0.1094835909
 40
0.220752854
 40
0.3355379631
 40
0.4553016066
 40
0.5811006549
 40
0.7136727277
 40
1.0
 40
1.0
 40
1.0
 40
1.0
 10
28.9098288594
 20
50.3840803652
 30
0.0
 10
29.0450937122
 20
50.4624638192
 30
0.0
 10
29.3052837707
 20
50.643359404
 30
0.0
 10
29.6504519312
 20
50.9784277855
 30
0.0
 10
29.9487429128
 20
51.3742842028
 30
0.0
 10
30.1973651891
 20
51.8265876775
 30
0.0
 10
30.3944415563
 20
52.3308144905
 30
0.0
 10
30.5911094867
 20
53.0847061268
 30
0.0
 10
30.6475232449
 20
53.6851593264
 30
0.0
 10
30.652734647
 20
54.0939809461
 30
0.0
  0
SPLINE
  5
31E
100
AcDbEntity
  8
0
100
AcDbSpline
 62
7
  6
BYLAYER
 70
0
 71
3
 72
13
 73
9
 74
0
 42
0.0000001
 43
0.0000001
 44
0.0000000001
 40
0.0
 40
0.0
 40
0.0
 40
0.0
 40
0.1078684988
 40
0.2182368952
 40
0.4520771082
 40
0.5783629684
 40
0.7117033371
 40
1.0
 40
1.0
 40
1.0
 40
1.0
 10
28.8885582447
 20
50.3771203151
 30
0.0
 10
29.0099505446
 20
50.4571141471
 30
0.0
 10
29.2426899043
 20
50.6394642938
 30
0.0
 10
29.6584887079
 20
51.0876232952
 30
0.0
 10
29.9782222771
 20
51.6461702226
 30
0.0
 10
30.1994109881
 20
52.2742452671
 30
0.0
 10
30.3668508037
 20
52.9948305932
 30
0.0
 10
30.4103916907
 20
53.5655147871
 30
0.0
 10
30.4103917044
 20
53.9540650182
 30
0.0
  0
SPLINE
  5
31F
100
AcDbEntity
  8
0
100
AcDbSpline
 62
7
  6
BYLAYER
 70
0
 71
3
 72
26
 73
22
 74
0
 42
0.0000001
 43
0.0000001
 44
0.0000000001
 40
0.0
 40
0.0
 40
0.0
 40
0.0
 40
0.066386231
 40
0.1378614716
 40
0.2130843885
 40
0.2904201642
 40
0.3680758145
 40
0.4442335921
 40
0.5171843733
 40
0.5854700506
 40
0.6480444763
 40
0.7044738809
 40
0.7551828092
 40
0.7788843652
 40
0.801821684
 40
0.8243512071
 40
0.8468619654
 40
0.8697457942
 40
0.8933644184
 40
0.9438339908
 40
1.0
 40
1.0
 40
1.0
 40
1.0
 10
29.9861276357
 20
53.9540645295
 30
0.0
 10
29.9861276357
 20
54.3654578699
 30
0.0
 10
29.9140664261
 20
55.2205443095
 30
0.0
 10
29.6252925216
 20
56.5123687805
 30
0.0
 10
29.1614015319
 20
57.8242369162
 30
0.0
 10
28.538431156
 20
59.1107674807
 30
0.0
 10
27.7777729282
 20
60.3278297825
 30
0.0
 10
26.9056627112
 20
61.4334658258
 30
0.0
 10
25.9519596359
 20
62.3896965335
 30
0.0
 10
24.9489830316
 20
63.1639103325
 30
0.0
 10
23.9294271241
 20
63.7295979379
 30
0.0
 10
22.9260335345
 20
64.0667549951
 30
0.0
 10
22.1089856475
 20
64.1447837412
 30
0.0
 10
21.5080680335
 20
64.0720176308
 30
0.0
 10
21.0936124658
 20
63.9558783216
 30
0.0
 10
20.7096774203
 20
63.7780378195
 30
0.0
 10
20.360317299
 20
63.539907739
 30
0.0
 10
20.048853833
 20
63.2442133467
 30
0.0
 10
19.6802480197
 20
62.7669681338
 30
0.0
 10
19.3318956798
 20
62.0278991593
 30
0.0
 10
19.1940194828
 20
61.3764016125
 30
0.0
 10
19.1517815646
 20
61.030915008
 30
0.0
  0
SPLINE
  5
320
100
AcDbEntity
  8
0
100
AcDbSpline
 62
7
  6
BYLAYER
 70
0
 71
3
 72
15
 73
11
 74
0
 42
0.0000001
 43
0.0000001
 44
0.0000000001
 40
0.0
 40
0.0
 40
0.0
 40
0.0
 40
0.1504177523
 40
0.2877778172
 40
0.4130340974
 40
0.5290350534
 40
0.6403194698
 40
0.7525315184
 40
0.8710821508
 40
1.0
 40
1.0
 40
1.0
 40
1.0
 10
29.4953266866
 20
54.2374221792
 30
0.0
 10
29.4953266866
 20
53.9413661686
 30
0.0
 10
29.457438345
 20
53.3737086769
 30
0.0
 10
29.2694645661
 20
52.5783452668
 30
0.0
 10
28.954548385
 20
51.896309713
 30
0.0
 10
28.5170358451
 20
51.3477111503
 30
0.0
 10
27.9664394234
 20
50.9533185284
 30
0.0
 10
27.3221722041
 20
50.7293805912
 30
0.0
 10
26.6088581648
 20
50.6806498511
 30
0.0
 10
26.1239860645
 20
50.7587268188
 30
0.0
 10
25.8780864658
 20
50.8213131585
 30
0.0
  0
SPLINE
  5
321
100
AcDbEntity
  8
0
100
AcDbSpline
 62
7
  6
BYLAYER
 70
0
 71
3
 72
26
 73
22
 74
0
 42
0.0000001
 43
0.0000001
 44
0.0000000001
 40
0.0
 40
0.0
 40
0.0
 40
0.0
 40
0.0516790646
 40
0.0757947628
 40
0.0990234092
 40
0.1216584601
 40
0.1440375514
 40
0.1665180217
 40
0.1894474971
 40
0.2377563262
 40
0.2909406435
 40
0.3498629871
 40
0.4145293197
 40
0.4843000488
 40
0.5580780776
 40
0.6344608908
 40
0.711864433
 40
0.7886412661
 40
0.8631801788
 40
0.9340328134
 40
1.0
 40
1.0
 40
1.0
 40
1.0
 10
19.7786950665
 20
61.3865597706
 30
0.0
 10
19.8542960473
 20
61.6550326043
 30
0.0
 10
20.0053654981
 20
62.0405541386
 30
0.0
 10
20.2942446597
 20
62.4917578252
 30
0.0
 10
20.5409718681
 20
62.7795129651
 30
0.0
 10
20.8206912605
 20
63.021287177
 30
0.0
 10
21.1309687892
 20
63.2149444572
 30
0.0
 10
21.4690960965
 20
63.3585088388
 30
0.0
 10
21.9608543695
 20
63.4840326143
 30
0.0
 10
22.6410090846
 20
63.5039075161
 30
0.0
 10
23.4933856975
 20
63.3186725756
 30
0.0
 10
24.3732270028
 20
62.93705736
 30
0.0
 10
25.2552401478
 20
62.3724240126
 30
0.0
 10
26.1137312432
 20
61.6427132126
 30
0.0
 10
26.9225760383
 20
60.7705451749
 30
0.0
 10
27.6567160685
 20
59.7831008699
 30
0.0
 10
28.2932145554
 20
58.711293185
 30
0.0
 10
28.81204582
 20
57.5887637531
 30
0.0
 10
29.1970542852
 20
56.4505504969
 30
0.0
 10
29.4360209048
 20
55.3324980379
 30
0.0
 10
29.4953266866
 20
54.5934500975
 30
0.0
 10
29.4953266866
 20
54.2374221792
 30
0.0
  0
SPLINE
  5
322
100
AcDbEntity
  8
0
100
AcDbSpline
 62
7
  6
BYLAYER
 70
0
 71
3
 72
11
 73
7
 74
0
 42
0.0000001
 43
0.0000001
 44
0.0000000001
 40
0.0
 40
0.0
 40
0.0
 40
0.0
 40
0.2148625155
 40
0.4468595755
 40
0.7074255161
 40
1.0
 40
1.0
 40
1.0
 40
1.0
 10
11.0812230984
 20
51.3051701261
 30
0.0
 10
11.0806100543
 20
51.2689352246
 30
0.0
 10
11.0932172684
 20
51.1928177702
 30
0.0
 10
11.1507294374
 20
51.0863529262
 30
0.0
 10
11.2426131895
 20
50.9893847143
 30
0.0
 10
11.3196882957
 20
50.9357578374
 30
0.0
 10
11.3622945181
 20
50.9108603659
 30
0.0
  0
SPLINE
  5
323
100
AcDbEntity
  8
0
100
AcDbSpline
 62
7
  6
BYLAYER
 70
0
 71
3
 72
12
 73
8
 74
0
 42
0.0000001
 43
0.0000001
 44
0.0000000001
 40
0.0
 40
0.0
 40
0.0
 40
0.0
 40
0.2895690011
 40
0.5486383023
 40
0.7816332149
 40
0.8918370573
 40
1.0
 40
1.0
 40
1.0
 40
1.0
 10
28.0811131242
 20
54.2374187799
 30
0.0
 10
28.0811131242
 20
53.9333158838
 30
0.0
 10
28.0350186703
 20
53.3550818608
 30
0.0
 10
27.8012552742
 20
52.5610649346
 30
0.0
 10
27.4652332188
 20
52.0132438213
 30
0.0
 10
27.1259471963
 20
51.679516687
 30
0.0
 10
26.9368013428
 20
51.5475222107
 30
0.0
 10
26.8384341153
 20
51.4907156474
 30
0.0
  0
SPLINE
  5
324
100
AcDbEntity
  8
0
100
AcDbSpline
 62
7
  6
BYLAYER
 70
0
 71
3
 72
11
 73
7
 74
0
 42
0.0000001
 43
0.0000001
 44
0.0000000001
 40
0.0
 40
0.0
 40
0.0
 40
0.0
 40
0.2181954165
 40
0.4515644641
 40
0.7109761397
 40
1.0
 40
1.0
 40
1.0
 40
1.0
 10
11.6397637826
 20
66.1725052921
 30
0.0
 10
11.6383196118
 20
66.133921146
 30
0.0
 10
11.6494005743
 20
66.0529934954
 30
0.0
 10
11.7059764667
 20
65.9386779178
 30
0.0
 10
11.798220638
 20
65.8339313073
 30
0.0
 10
11.8764756849
 20
65.7754504138
 30
0.0
 10
11.9197712905
 20
65.7482240508
 30
0.0
  0
SPLINE
  5
325
100
AcDbEntity
  8
0
100
AcDbSpline
 62
7
  6
BYLAYER
 70
0
 71
3
 72
11
 73
7
 74
0
 42
0.0000001
 43
0.0000001
 44
0.0000000001
 40
0.0
 40
0.0
 40
0.0
 40
0.0
 40
0.2189433259
 40
0.4530476665
 40
0.7121202382
 40
1.0
 40
1.0
 40
1.0
 40
1.0
 10
75.6227652431
 20
69.6046550685
 30
0.0
 10
75.6566602325
 20
69.5850860695
 30
0.0
 10
75.7201337861
 20
69.5320910091
 30
0.0
 10
75.7891363127
 20
69.4231700211
 30
0.0
 10
75.8316132353
 20
69.2888918311
 30
0.0
 10
75.8417266859
 20
69.1910095658
 30
0.0
 10
75.8428783398
 20
69.1395609197
 30
0.0
  0
SPLINE
  5
326
100
AcDbEntity
  8
0
100
AcDbSpline
 62
7
  6
BYLAYER
 70
0
 71
3
 72
9
 73
5
 74
0
 42
0.0000001
 43
0.0000001
 44
0.0000000001
 40
0.0
 40
0.0
 40
0.0
 40
0.0
 40
0.4624533588
 40
1.0
 40
1.0
 40
1.0
 40
1.0
 10
41.6567786312
 20
37.1317752422
 30
0.0
 10
41.7172759799
 20
37.1220366972
 30
0.0
 10
41.8534047698
 20
37.132309883
 30
0.0
 10
41.9764380359
 20
37.1862399535
 30
0.0
 10
42.0381218294
 20
37.2218528957
 30
0.0
  0
SPLINE
  5
327
100
AcDbEntity
  8
0
100
AcDbSpline
 62
7
  6
BYLAYER
 70
0
 71
3
 72
11
 73
7
 74
0
 42
0.0000001
 43
0.0000001
 44
0.0000000001
 40
0.0
 40
0.0
 40
0.0
 40
0.0
 40
0.2203342705
 40
0.4546949937
 40
0.7134126805
 40
1.0
 40
1.0
 40
1.0
 40
1.0
 10
75.443466928
 20
69.3040970049
 30
0.0
 10
75.4098175174
 20
69.3225126195
 30
0.0
 10
75.3334924871
 20
69.34900223
 30
0.0
 10
75.2076922809
 20
69.3517328479
 30
0.0
 10
75.0745883699
 20
69.3196320797
 30
0.0
 10
74.9882281523
 20
69.2787133354
 30
0.0
 10
74.9450191553
 20
69.2537667583
 30
0.0
  0
SPLINE
  5
328
100
AcDbEntity
  8
0
100
AcDbSpline
 62
7
  6
BYLAYER
 70
0
 71
3
 72
17
 73
13
 74
0
 42
0.0000001
 43
0.0000001
 44
0.0000000001
 40
0.0
 40
0.0
 40
0.0
 40
0.0
 40
0.1155508423
 40
0.1765882648
 40
0.2394140479
 40
0.3690467099
 40
0.5016033614
 40
0.6339369734
 40
0.7629179434
 40
0.8252732671
 40
0.8857564839
 40
1.0
 40
1.0
 40
1.0
 40
1.0
 10
38.8054349132
 20
50.2261300812
 30
0.0
 10
38.7960956976
 20
51.2887004112
 30
0.0
 10
38.6456544907
 20
52.913812677
 30
0.0
 10
38.2148737472
 20
55.0738519872
 30
0.0
 10
37.6084539796
 20
57.326431631
 30
0.0
 10
36.5587205809
 20
60.1333501098
 30
0.0
 10
34.8974529601
 20
63.3674914097
 30
0.0
 10
32.8815457119
 20
66.3861418663
 30
0.0
 10
30.9446975847
 20
68.656863187
 30
0.0
 10
29.2783204834
 20
70.2673263027
 30
0.0
 10
27.6116481839
 20
71.6742980486
 30
0.0
 10
26.2735983022
 20
72.5790575177
 30
0.0
 10
25.3560837653
 20
73.0908236786
 30
0.0
  0
SPLINE
  5
329
100
AcDbEntity
  8
0
100
AcDbSpline
 62
7
  6
BYLAYER
 70
0
 71
3
 72
21
 73
17
 74
0
 42
0.0000001
 43
0.0000001
 44
0.0000000001
 40
0.0
 40
0.0
 40
0.0
 40
0.0
 40
0.0623959824
 40
0.1287858117
 40
0.19840041
 40
0.2704090013
 40
0.4174481707
 40
0.561680109
 40
0.630306914
 40
0.69542376
 40
0.7563977367
 40
0.8128593245
 40
0.864783637
 40
0.9125799898
 40
0.9571738813
 40
1.0
 40
1.0
 40
1.0
 40
1.0
 10
23.9799108684
 20
51.8696026874
 30
0.0
 10
23.9799108684
 20
52.1184617086
 30
0.0
 10
23.9461274725
 20
52.6324478169
 30
0.0
 10
23.8074562911
 20
53.4128273988
 30
0.0
 10
23.58180486
 20
54.2125521275
 30
0.0
 10
23.1688580528
 20
55.2886379063
 30
0.0
 10
22.4757204894
 20
56.5692267069
 30
0.0
 10
21.5873681738
 20
57.7068870231
 30
0.0
 10
20.7877588214
 20
58.4771436437
 30
0.0
 10
20.175044645
 20
58.9568393636
 30
0.0
 10
19.552396459
 20
59.3377513413
 30
0.0
 10
18.9324389915
 20
59.6117249508
 30
0.0
 10
18.3275326633
 20
59.7724737119
 30
0.0
 10
17.7495220999
 20
59.8150289623
 30
0.0
 10
17.2112830254
 20
59.7360863703
 30
0.0
 10
16.8851870546
 20
59.6006143717
 30
0.0
 10
16.7372731755
 20
59.5151948742
 30
0.0
  0
SPLINE
  5
32A
100
AcDbEntity
  8
0
100
AcDbSpline
 62
7
  6
BYLAYER
 70
0
 71
3
 72
9
 73
5
 74
0
 42
0.0000001
 43
0.0000001
 44
0.0000000001
 40
0.0
 40
0.0
 40
0.0
 40
0.0
 40
0.4917168702
 40
1.0
 40
1.0
 40
1.0
 40
1.0
 10
41.711822521
 20
37.4803109634
 30
0.0
 10
41.6877577852
 20
37.4934811031
 30
0.0
 10
41.6418195432
 20
37.5261427382
 30
0.0
 10
41.6045869757
 20
37.568352546
 30
0.0
 10
41.5880464066
 20
37.5913859263
 30
0.0
  0
SPLINE
  5
32B
100
AcDbEntity
  8
0
100
AcDbSpline
 62
7
  6
BYLAYER
 70
0
 71
3
 72
9
 73
5
 74
0
 42
0.0000001
 43
0.0000001
 44
0.0000000001
 40
0.0
 40
0.0
 40
0.0
 40
0.0
 40
0.2258062492
 40
1.0
 40
1.0
 40
1.0
 40
1.0
 10
41.5880464066
 20
37.5913859263
 30
0.0
 10
41.571543416
 20
37.6143669771
 30
0.0
 10
41.5086050281
 20
37.7235275254
 30
0.0
 10
41.4868273215
 20
37.8523267864
 30
0.0
 10
41.4846564831
 20
37.9493061794
 30
0.0
  0
SPLINE
  5
32C
100
AcDbEntity
  8
0
100
AcDbSpline
 62
7
  6
BYLAYER
 70
0
 71
3
 72
12
 73
8
 74
0
 42
0.0000001
 43
0.0000001
 44
0.0000000001
 40
0.0
 40
0.0
 40
0.0
 40
0.0
 40
0.2895690011
 40
0.5486383023
 40
0.7816332149
 40
0.8918370573
 40
1.0
 40
1.0
 40
1.0
 40
1.0
 10
22.565697306
 20
51.8695992881
 30
0.0
 10
22.565697306
 20
51.616180208
 30
0.0
 10
22.5272852611
 20
51.1343185222
 30
0.0
 10
22.332482431
 20
50.4726377504
 30
0.0
 10
22.0524640515
 20
50.0161201559
 30
0.0
 10
21.7697256994
 20
49.7380142107
 30
0.0
 10
21.6121041548
 20
49.6280188138
 30
0.0
 10
21.5301314653
 20
49.580680011
 30
0.0
  0
SPLINE
  5
32D
100
AcDbEntity
  8
0
100
AcDbSpline
 62
7
  6
BYLAYER
 70
0
 71
3
 72
16
 73
12
 74
0
 42
0.0000001
 43
0.0000001
 44
0.0000000001
 40
0.0
 40
0.0
 40
0.0
 40
0.0
 40
0.1199889274
 40
0.2508345772
 40
0.3882020488
 40
0.5268915571
 40
0.6615613768
 40
0.7873564165
 40
0.8457864205
 40
0.9007866757
 40
1.0
 40
1.0
 40
1.0
 40
1.0
 10
21.7499895047
 20
51.3986529805
 30
0.0
 10
21.7499895047
 20
51.7462467153
 30
0.0
 10
21.6707603931
 20
52.473684305
 30
0.0
 10
21.3642418074
 20
53.5598415238
 30
0.0
 10
20.8813155334
 20
54.6395018913
 30
0.0
 10
20.2488385636
 20
55.6518005109
 30
0.0
 10
19.5024250583
 20
56.5400210169
 30
0.0
 10
18.8028651989
 20
57.1507854263
 30
0.0
 10
18.2204636758
 20
57.5287548654
 30
0.0
 10
17.6713914617
 20
57.8087372575
 30
0.0
 10
17.2377158291
 20
57.9431653201
 30
0.0
 10
16.9529360156
 20
57.9819537957
 30
0.0
  0
SPLINE
  5
32E
100
AcDbEntity
  8
0
100
AcDbSpline
 62
7
  6
BYLAYER
 70
0
 71
3
 72
15
 73
11
 74
0
 42
0.0000001
 43
0.0000001
 44
0.0000000001
 40
0.0
 40
0.0
 40
0.0
 40
0.0
 40
0.1086275217
 40
0.2189859634
 40
0.3329854033
 40
0.4522308806
 40
0.5779248693
 40
0.7108835727
 40
0.8515869297
 40
1.0
 40
1.0
 40
1.0
 40
1.0
 10
16.1558311999
 20
75.3452979171
 30
0.0
 10
16.4832252749
 20
75.5343332325
 30
0.0
 10
17.1773639409
 20
75.859414708
 30
0.0
 10
18.2994429696
 20
76.1686035734
 30
0.0
 10
19.4930778062
 20
76.2983282324
 30
0.0
 10
20.7453848806
 20
76.2483027192
 30
0.0
 10
22.044241755
 20
76.0205305866
 30
0.0
 10
23.377588847
 20
75.6178471643
 30
0.0
 10
24.7327459883
 20
75.0448672754
 30
0.0
 10
25.6194113998
 20
74.5658164139
 30
0.0
 10
26.063102468
 20
74.3013865138
 30
0.0
  0
SPLINE
  5
32F
100
AcDbEntity
  8
0
100
AcDbSpline
 62
7
  6
BYLAYER
 70
0
 71
3
 72
11
 73
7
 74
0
 42
0.0000001
 43
0.0000001
 44
0.0000000001
 40
0.0
 40
0.0
 40
0.0
 40
0.0
 40
0.233730993
 40
0.4748633291
 40
0.7289834385
 40
1.0
 40
1.0
 40
1.0
 40
1.0
 10
52.5042810715
 20
96.3308646881
 30
0.0
 10
52.9077339594
 20
96.5617269602
 30
0.0
 10
53.7795680369
 20
96.9450107682
 30
0.0
 10
55.205580729
 20
97.2511532164
 30
0.0
 10
56.7365460618
 20
97.2920056612
 30
0.0
 10
57.7757992903
 20
97.1489440752
 30
0.0
 10
58.3034616627
 20
97.0390371007
 30
0.0
  0
SPLINE
  5
330
100
AcDbEntity
  8
0
100
AcDbSpline
 62
7
  6
BYLAYER
 70
0
 71
3
 72
13
 73
9
 74
0
 42
0.0000001
 43
0.0000001
 44
0.0000000001
 40
0.0
 40
0.0
 40
0.0
 40
0.0
 40
0.1115088169
 40
0.2305790309
 40
0.3556149984
 40
0.4848214359
 40
0.7469734922
 40
1.0
 40
1.0
 40
1.0
 40
1.0
 10
21.1514908092
 20
50.8898139987
 30
0.0
 10
21.1514908092
 20
51.1229881171
 30
0.0
 10
21.117254818
 20
51.6054999908
 30
0.0
 10
20.9776602393
 20
52.3373128355
 30
0.0
 10
20.7512653872
 20
53.0858420656
 30
0.0
 10
20.3395092632
 20
54.0855903561
 30
0.0
 10
19.6563655421
 20
55.2557055856
 30
0.0
 10
18.9490075137
 20
56.0788518249
 30
0.0
 10
18.5625233281
 20
56.4402048451
 30
0.0
  0
SPLINE
  5
331
100
AcDbEntity
  8
0
100
AcDbSpline
 62
7
  6
BYLAYER
 70
0
 71
3
 72
13
 73
9
 74
0
 42
0.0000001
 43
0.0000001
 44
0.0000000001
 40
0.0
 40
0.0
 40
0.0
 40
0.0
 40
0.2937389722
 40
0.5585991314
 40
0.67945473
 40
0.7927093206
 40
0.8991281955
 40
1.0
 40
1.0
 40
1.0
 40
1.0
 10
18.5625233281
 20
56.4402048451
 30
0.0
 10
18.3093492385
 20
56.676916269
 30
0.0
 10
17.7944556202
 20
57.0933185438
 30
0.0
 10
17.086190708
 20
57.4818351003
 30
0.0
 10
16.5273177068
 20
57.6713726703
 30
0.0
 10
16.1319504817
 20
57.7501289955
 30
0.0
 10
15.7527058668
 20
57.7685712213
 30
0.0
 10
15.5083480433
 20
57.7393164119
 30
0.0
 10
15.3920140224
 20
57.7141568918
 30
0.0
  0
SPLINE
  5
332
100
AcDbEntity
  8
0
100
AcDbSpline
 62
7
  6
BYLAYER
 70
0
 71
3
 72
9
 73
5
 74
0
 42
0.0000001
 43
0.0000001
 44
0.0000000001
 40
0.0
 40
0.0
 40
0.0
 40
0.0
 40
0.5040918406
 40
1.0
 40
1.0
 40
1.0
 40
1.0
 10
15.3920140224
 20
57.7141568918
 30
0.0
 10
15.3007312679
 20
57.6944152007
 30
0.0
 10
15.1222266114
 20
57.6418633879
 30
0.0
 10
14.95410092
 20
57.5619409852
 30
0.0
 10
14.874538142
 20
57.5159938939
 30
0.0
  0
SPLINE
  5
333
100
AcDbEntity
  8
0
100
AcDbSpline
 62
7
  6
BYLAYER
 70
0
 71
3
 72
9
 73
5
 74
0
 42
0.0000001
 43
0.0000001
 44
0.0000000001
 40
0.0
 40
0.0
 40
0.0
 40
0.0
 40
0.2451133059
 40
1.0
 40
1.0
 40
1.0
 40
1.0
 10
38.9240223687
 20
34.9984493589
 30
0.0
 10
38.9303273553
 20
34.9948520755
 30
0.0
 10
38.9562136378
 20
34.9804637736
 30
0.0
 10
38.9827219255
 20
34.9672012259
 30
0.0
 10
39.0029959014
 20
34.9577803361
 30
0.0
  0
SPLINE
  5
334
100
AcDbEntity
  8
0
100
AcDbSpline
 62
7
  6
BYLAYER
 70
0
 71
3
 72
11
 73
7
 74
0
 42
0.0000001
 43
0.0000001
 44
0.0000000001
 40
0.0
 40
0.0
 40
0.0
 40
0.0
 40
0.2424732286
 40
0.5024772924
 40
0.7613215563
 40
1.0
 40
1.0
 40
1.0
 40
1.0
 10
39.0029959014
 20
34.9577803361
 30
0.0
 10
39.0952930607
 20
34.9148917889
 30
0.0
 10
39.2982576217
 20
34.8505120629
 30
0.0
 10
39.6173718369
 20
34.8140678775
 30
0.0
 10
39.936274977
 20
34.8342046572
 30
0.0
 10
40.1403696065
 20
34.8866742445
 30
0.0
 10
40.2335066752
 20
34.9235795071
 30
0.0
  0
SPLINE
  5
335
100
AcDbEntity
  8
0
100
AcDbSpline
 62
7
  6
BYLAYER
 70
0
 71
3
 72
9
 73
5
 74
0
 42
0.0000001
 43
0.0000001
 44
0.0000000001
 40
0.0
 40
0.0
 40
0.0
 40
0.0
 40
0.2564690659
 40
1.0
 40
1.0
 40
1.0
 40
1.0
 10
40.2335066752
 20
34.9235795071
 30
0.0
 10
40.2415557456
 20
34.9267689253
 30
0.0
 10
40.2727984752
 20
34.9395565892
 30
0.0
 10
40.303462533
 20
34.9537754209
 30
0.0
 10
40.3257931043
 20
34.9652370871
 30
0.0
  0
SPLINE
  5
336
100
AcDbEntity
  8
0
100
AcDbSpline
 62
7
  6
BYLAYER
 70
0
 71
3
 72
9
 73
5
 74
0
 42
0.0000001
 43
0.0000001
 44
0.0000000001
 40
0.0
 40
0.0
 40
0.0
 40
0.0
 40
0.4817217268
 40
1.0
 40
1.0
 40
1.0
 40
1.0
 10
20.3030925063
 20
50.5631443971
 30
0.0
 10
20.3030925063
 20
50.8260347292
 30
0.0
 10
20.2578253064
 20
51.3721762557
 30
0.0
 10
20.1401193197
 20
51.9066232853
 30
0.0
 10
20.0634732714
 20
52.1788806147
 30
0.0
  0
SPLINE
  5
337
100
AcDbEntity
  8
0
100
AcDbSpline
 62
7
  6
BYLAYER
 70
0
 71
3
 72
9
 73
5
 74
0
 42
0.0000001
 43
0.0000001
 44
0.0000000001
 40
0.0
 40
0.0
 40
0.0
 40
0.0
 40
0.5001160638
 40
1.0
 40
1.0
 40
1.0
 40
1.0
 10
19.8150976215
 20
52.9144913158
 30
0.0
 10
19.6597908528
 20
53.3091107776
 30
0.0
 10
19.2876250844
 20
54.0749545641
 30
0.0
 10
18.8082923214
 20
54.7787153716
 30
0.0
 10
18.5432404359
 20
55.109510323
 30
0.0
  0
SPLINE
  5
338
100
AcDbEntity
  8
0
100
AcDbSpline
 62
7
  6
BYLAYER
 70
0
 71
3
 72
14
 73
10
 74
0
 42
0.0000001
 43
0.0000001
 44
0.0000000001
 40
0.0
 40
0.0
 40
0.0
 40
0.0
 40
0.298084895
 40
0.4358778911
 40
0.5650183189
 40
0.6852763491
 40
0.7970138189
 40
0.9013085962
 40
1.0
 40
1.0
 40
1.0
 40
1.0
 10
18.0329976612
 20
55.6858850415
 30
0.0
 10
17.7638006685
 20
55.9604887737
 30
0.0
 10
17.3370017317
 20
56.3329286954
 30
0.0
 10
16.7209661789
 20
56.7245779869
 30
0.0
 10
16.2710640695
 20
56.9443871195
 30
0.0
 10
15.8283645729
 20
57.0941323604
 30
0.0
 10
15.3994734664
 20
57.1709608524
 30
0.0
 10
14.9912946494
 20
57.1730536048
 30
0.0
 10
14.7320885495
 20
57.1225063951
 30
0.0
 10
14.6105346181
 20
57.0846355457
 30
0.0
  0
SPLINE
  5
339
100
AcDbEntity
  8
0
100
AcDbSpline
 62
7
  6
BYLAYER
 70
0
 71
3
 72
9
 73
5
 74
0
 42
0.0000001
 43
0.0000001
 44
0.0000000001
 40
0.0
 40
0.0
 40
0.0
 40
0.0
 40
0.4995797159
 40
1.0
 40
1.0
 40
1.0
 40
1.0
 10
14.6105346181
 20
57.0846355457
 30
0.0
 10
14.485648654
 20
57.0457265817
 30
0.0
 10
14.2435678751
 20
56.9390346551
 30
0.0
 10
14.0336025033
 20
56.7781373824
 30
0.0
 10
13.9391654644
 20
56.6873096119
 30
0.0
  0
SPLINE
  5
33A
100
AcDbEntity
  8
0
100
AcDbSpline
 62
7
  6
BYLAYER
 70
0
 71
3
 72
17
 73
13
 74
0
 42
0.0000001
 43
0.0000001
 44
0.0000000001
 40
0.0
 40
0.0
 40
0.0
 40
0.0
 40
0.1286930255
 40
0.2702801155
 40
0.4174389234
 40
0.5617808058
 40
0.6954504305
 40
0.8127136056
 40
0.8646759876
 40
0.9125114232
 40
0.9571388406
 40
1.0
 40
1.0
 40
1.0
 40
1.0
 10
28.2932089478
 20
75.588849819
 30
0.0
 10
28.4782741187
 20
75.4820048099
 30
0.0
 10
28.8972783418
 20
75.3091193708
 30
0.0
 10
29.5801807005
 20
75.1725196291
 30
0.0
 10
30.3024591683
 20
75.1525180409
 30
0.0
 10
31.0051816435
 20
75.2512753859
 30
0.0
 10
31.6313648686
 20
75.4604348345
 30
0.0
 10
32.0668890734
 20
75.7255215515
 30
0.0
 10
32.3224584058
 20
75.9820404735
 30
0.0
 10
32.4582634413
 20
76.1817322781
 30
0.0
 10
32.5418791738
 20
76.3924040715
 30
0.0
 10
32.5609667668
 20
76.5382895954
 30
0.0
 10
32.5609570479
 20
76.6094601752
 30
0.0
  0
SPLINE
  5
33B
100
AcDbEntity
  8
0
100
AcDbSpline
 62
7
  6
BYLAYER
 70
0
 71
3
 72
18
 73
14
 74
0
 42
0.0000001
 43
0.0000001
 44
0.0000000001
 40
0.0
 40
0.0
 40
0.0
 40
0.0
 40
0.1281159204
 40
0.2692568664
 40
0.4149272016
 40
0.5567059299
 40
0.6877675184
 40
0.7480370466
 40
0.8044628487
 40
0.8572200614
 40
0.9068022419
 40
0.9540308742
 40
1.0
 40
1.0
 40
1.0
 40
1.0
 10
28.2932089478
 20
75.588849819
 30
0.0
 10
28.4796603627
 20
75.4812044796
 30
0.0
 10
28.8980953258
 20
75.3002846837
 30
0.0
 10
29.5779956338
 20
75.1342236313
 30
0.0
 10
30.29924702
 20
75.0758374756
 30
0.0
 10
31.0033197746
 20
75.1399030131
 30
0.0
 10
31.5444574
 20
75.3042590702
 30
0.0
 10
31.9118972434
 20
75.5027558402
 30
0.0
 10
32.1404528317
 20
75.6746423952
 30
0.0
 10
32.3244869005
 20
75.8698135424
 30
0.0
 10
32.4595485145
 20
76.0838726082
 30
0.0
 10
32.5423124749
 20
76.3111061183
 30
0.0
 10
32.5609506426
 20
76.4683115627
 30
0.0
 10
32.5609617926
 20
76.5455610729
 30
0.0
  0
SPLINE
  5
33C
100
AcDbEntity
  8
0
100
AcDbSpline
 62
7
  6
BYLAYER
 70
0
 71
3
 72
12
 73
8
 74
0
 42
0.0000001
 43
0.0000001
 44
0.0000000001
 40
0.0
 40
0.0
 40
0.0
 40
0.0
 40
0.2897520349
 40
0.5487847264
 40
0.7815983483
 40
0.8917765484
 40
1.0
 40
1.0
 40
1.0
 40
1.0
 10
13.850588785
 20
54.2884148807
 30
0.0
 10
13.850588785
 20
54.4990241309
 30
0.0
 10
13.882753704
 20
54.8993576962
 30
0.0
 10
14.0459070702
 20
55.4486060612
 30
0.0
 10
14.280642427
 20
55.8263949369
 30
0.0
 10
14.5172872545
 20
56.0554017181
 30
0.0
 10
14.6491661591
 20
56.1454355854
 30
0.0
 10
14.7177067094
 20
56.1840375605
 30
0.0
  0
SPLINE
  5
33D
100
AcDbEntity
  8
0
100
AcDbSpline
 62
7
  6
BYLAYER
 70
0
 71
3
 72
17
 73
13
 74
0
 42
0.0000001
 43
0.0000001
 44
0.0000000001
 40
0.0
 40
0.0
 40
0.0
 40
0.0
 40
0.0435985116
 40
0.0901034394
 40
0.140295465
 40
0.1946252941
 40
0.3154197895
 40
0.4499877542
 40
0.5927045309
 40
0.7365710469
 40
0.8743927154
 40
1.0
 40
1.0
 40
1.0
 40
1.0
 10
18.5079888269
 20
48.896853353
 30
0.0
 10
18.397850789
 20
48.8658648788
 30
0.0
 10
18.162013932
 20
48.828808104
 30
0.0
 10
17.7922019484
 20
48.8478996578
 30
0.0
 10
17.4045393735
 20
48.9388502816
 30
0.0
 10
16.8543392886
 20
49.1603611181
 30
0.0
 10
16.1685743838
 20
49.6111904427
 30
0.0
 10
15.4205749861
 20
50.3476453775
 30
0.0
 10
14.7696465084
 20
51.2467994344
 30
0.0
 10
14.2630260249
 20
52.2439636356
 30
0.0
 10
13.9368779605
 20
53.2666831474
 30
0.0
 10
13.850588785
 20
53.9587868392
 30
0.0
 10
13.850588785
 20
54.2884148807
 30
0.0
  0
SPLINE
  5
33E
100
AcDbEntity
  8
0
100
AcDbSpline
 62
7
  6
BYLAYER
 70
0
 71
3
 72
13
 73
9
 74
0
 42
0.0000001
 43
0.0000001
 44
0.0000000001
 40
0.0
 40
0.0
 40
0.0
 40
0.0
 40
0.3063627845
 40
0.5827953498
 40
0.7037141188
 40
0.811861176
 40
0.9091433849
 40
1.0
 40
1.0
 40
1.0
 40
1.0
 10
18.8674251443
 20
49.6599453956
 30
0.0
 10
18.8288975581
 20
49.726676762
 30
0.0
 10
18.7415518407
 20
49.8460086871
 30
0.0
 10
18.6041295197
 20
49.9617218429
 30
0.0
 10
18.4887447691
 20
50.0167703612
 30
0.0
 10
18.4082131538
 20
50.0361515462
 30
0.0
 10
18.3326939284
 20
50.0343003885
 30
0.0
 10
18.2872370221
 20
50.0177390114
 30
0.0
 10
18.2674406869
 20
50.0063236638
 30
0.0
  0
ENDSEC
  0
SECTION
  2
OBJECTS
  0
DICTIONARY
  5
C
100
AcDbDictionary
280
0
281
1
  3
ACAD_GROUP
350
D
  3
ACAD_MLINESTYLE
350
17
  3
ACAD_LAYOUT
350
1A
  3
ACAD_PLOTSETTINGS
350
19
  3
ACAD_PLOTSTYLENAME
350
E
  0
DICTIONARY
  5
D
102
{ACAD_REACTORS
330
C
102
}
100
AcDbDictionary
280
0
281
1
  0
ACDBDICTIONARYWDFLT
  5
E
102
{ACAD_REACTORS
330
C
102
}
100
AcDbDictionary
281
1
  3
Normal
350
F
100
AcDbDictionaryWithDefault
340
F
  0
DICTIONARY
  5
17
102
{ACAD_REACTORS
330
C
102
}
100
AcDbDictionary
280
0
281
1
  3
Standard
350
18
  0
DICTIONARY
  5
19
102
{ACAD_REACTORS
330
C
102
}
100
AcDbDictionary
281
1
  0
DICTIONARY
  5
1A
102
{ACAD_REACTORS
330
C
102
}
100
AcDbDictionary
281
1
  3
Model
350
33F
  3
Layout1
350
340
  0
ACDBPLACEHOLDER
  5
F
102
{ACAD_REACTORS
330
E
102
}
  0
MLINESTYLE
  5
18
102
{ACAD_REACTORS
330
17
102
}
100
AcDbMlineStyle
  2
STANDARD
 70
0
  3

 62
256
 51
90.0
 52
90.0
 71
2
 49
0.5
 62
256
  6
BYLAYER
 49
-0.5
 62
256
  6
BYLAYER
  0
LAYOUT
  5
33F
102
{ACAD_REACTORS
330
1A
102
}
100
AcDbPlotSettings
  1

  2
none_device
  4

  6

 40
0.0
 41
0.0
 42
0.0
 43
0.0
 44
210.0
 45
297.0
 46
0.0
 47
0.0
 48
0.0
 49
0.0
140
0.0
141
0.0
142
1.0
143
1.0
 70
1024
 72
1
 73
0
 74
0
  7

 75
0
147
1.0
148
0.0
149
0.0
100
AcDbLayout
  1
Model
 70
0
 71
0
 10
0.0
 20
0.0
 11
210.0
 21
297.0
 12
0.0
 22
0.0
 32
0.0
 14
0.0
 24
0.0
 34
0.0
 15
0.0
 25
0.0
 35
0.0
146
0.0
 13
0.0
 23
0.0
 33
0.0
 16
1.0
 26
0.0
 36
0.0
 17
0.0
 27
1.0
 37
0.0
 76
0
330
210
345
0
346
0
  0
LAYOUT
  5
340
102
{ACAD_REACTORS
330
1A
102
}
100
AcDbPlotSettings
  1

  2
none_device
  4

  6

 40
0.0
 41
0.0
 42
0.0
 43
0.0
 44
210.0
 45
297.0
 46
0.0
 47
0.0
 48
0.0
 49
0.0
140
0.0
141
0.0
142
1.0
143
1.0
 70
0
 72
1
 73
0
 74
0
  7

 75
0
147
1.0
148
0.0
149
0.0
100
AcDbLayout
  1
Layout1
 70
0
 71
1
 10
0.0
 20
0.0
 11
210.0
 21
297.0
 12
0.0
 22
0.0
 32
0.0
 14
0.0
 24
0.0
 34
0.0
 15
0.0
 25
0.0
 35
0.0
146
0.0
 13
0.0
 23
0.0
 33
0.0
 16
1.0
 26
0.0
 36
0.0
 17
0.0
 27
1.0
 37
0.0
 76
0
330
211
345
0
346
0
  0
ENDSEC
  0
EOF
