999
DXF file: C:\Users\sesa63760\Dev\_Creo\CAD\MCADPD0003782_3D-CAD\drw0001_3.dxf
999
Pro/ENGINEER 2019471 by Parametric Technology Corporation
  0
SECTION
  2
HEADER
  9
$ACADVER
  1
AC1024
  9
$DWGCODEPAGE
  3
ANSI_1252
  9
$EXTMAX
 10
181.2641471119
 20
256.3592937726
 30
0.0
  9
$EXTMIN
 10
0.0
 20
0.0
 30
0.0
  9
$LIMMIN
 10
0.0
 20
0.0
  9
$LIMMAX
 10
181.2641471119
 20
256.3592937726
  9
$VIEWCTR
 10
90.632073556
 20
128.1796468863
  9
$VIEWSIZE
 40
256.3592937726
  9
$CLAYER
  8
0
  9
$LTSCALE
 40
16.7108280385
  9
$CELTYPE
  6
BYLAYER
  9
$DIMSCALE
 40
1.0
  9
$DIMASZ
 40
2.1579065132
  9
$DIMEXO
 40
1.0
  9
$DIMDLI
 40
11.5456630084
  9
$DIMEXE
 40
1.0
  9
$DIMCEN
 40
2.7344991336
  9
$DIMLFAC
 40
1.0
  9
$DIMBLK
  1
_FILLED
  9
$DIMALT
 70
0
  9
$DIMALTF
 40
0.0393700787
  9
$DIMTXT
 40
3.0210691185
  9
$DIMTOL
 70
1
  9
$DIMLIM
 70
0
  9
$DIMTFAC
 40
1.0
  9
$DIMTP
 40
0.01
  9
$DIMTM
 40
0.01
  9
$DIMGAP
 40
0.625
  9
$DIMDSEP
 70
46
  9
$AUNITS
 70
0
  9
$PDMODE
 70
3
  9
$PDSIZE
 40
0.3125
  9
$HANDSEED
  5
3BD
  9
$TILEMODE
 70
1
  9
$MEASUREMENT
 70
1
  9
$INSUNITS
 70
4
  0
ENDSEC
  0
SECTION
  2
CLASSES
  0
CLASS
  1
ACDBDICTIONARYWDFLT
  2
AcDbDictionaryWithDefault
  3
AutoCAD 2000
 90
0
 91
1
280
0
281
0
  0
CLASS
  1
ACDBPLACEHOLDER
  2
AcDbPlaceHolder
  3
AutoCAD 2000
 90
0
 91
1
280
0
281
0
  0
CLASS
  1
LAYOUT
  2
AcDbLayout
  3
AutoCAD 2000
 90
0
 91
0
280
0
281
0
  0
ENDSEC
  0
SECTION
  2
TABLES
  0
TABLE
  2
VPORT
  5
8
100
AcDbSymbolTable
 70
2
  0
VPORT
  5
1F4
100
AcDbSymbolTableRecord
100
AcDbViewportTableRecord
  2
*ACTIVE
 70
0
 10
0.0
 20
0.0
 11
1.0
 21
1.0
 12
90.632073556
 22
128.1796468863
 13
0.0
 23
0.0
 14
1.0
 24
1.0
 15
0.0
 25
0.0
 16
0.0
 26
0.0
 36
1.0
 17
0.0
 27
0.0
 37
0.0
 40
256.3592937726
 41
0.7070707071
 42
50.0
 43
0.0
 44
0.0
 50
0.0
 51
0.0
 71
0
 72
100
 73
1
 74
1
 75
0
 76
0
 77
0
 78
0
  0
ENDTAB
  0
TABLE
  2
LTYPE
  5
5
100
AcDbSymbolTable
 70
6
  0
LTYPE
  5
14
100
AcDbSymbolTableRecord
100
AcDbLinetypeTableRecord
  2
BYBLOCK
 70
0
  3

 72
65
 73
0
 40
0.0
  0
LTYPE
  5
15
100
AcDbSymbolTableRecord
100
AcDbLinetypeTableRecord
  2
BYLAYER
 70
0
  3

 72
65
 73
0
 40
0.0
  0
LTYPE
  5
16
100
AcDbSymbolTableRecord
100
AcDbLinetypeTableRecord
  2
CONTINUOUS
 70
64
  3
Solid line
 72
65
 73
0
 40
0.0
  0
LTYPE
  5
1F5
100
AcDbSymbolTableRecord
100
AcDbLinetypeTableRecord
  2
CENTER
 70
64
  3
____ _ ____ _ ____ _ ____ _ ____ _ ____ _ ____
 72
65
 73
4
 40
0.6
 49
0.375
 74
0
 49
-0.075
 74
0
 49
0.075
 74
0
 49
-0.075
 74
0
  0
LTYPE
  5
1F6
100
AcDbSymbolTableRecord
100
AcDbLinetypeTableRecord
  2
HIDDEN
 70
64
  3
- - - - - - - - - - - - - - - - - - - -
 72
65
 73
2
 40
0.2
 49
0.1
 74
0
 49
-0.1
 74
0
  0
LTYPE
  5
1F7
100
AcDbSymbolTableRecord
100
AcDbLinetypeTableRecord
  2
PHANTOM
 70
64
  3
_____ _ _ _____ _ _ _____ _ _ _____
 72
65
 73
6
 40
0.8
 49
0.45
 74
0
 49
-0.05
 74
0
 49
0.1
 74
0
 49
-0.05
 74
0
 49
0.1
 74
0
 49
-0.05
 74
0
  0
LTYPE
  5
1F8
100
AcDbSymbolTableRecord
100
AcDbLinetypeTableRecord
  2
DOT
 70
64
  3
. . . . . . . . . . . . . . . . . . . .
 72
65
 73
2
 40
0.2
 49
0.1
 74
0
 49
-0.1
 74
0
  0
LTYPE
  5
1F9
100
AcDbSymbolTableRecord
100
AcDbLinetypeTableRecord
  2
DASHED
 70
64
  3
- - - - - - - - - - - - - - - - - - - -
 72
65
 73
2
 40
0.2
 49
0.1
 74
0
 49
-0.1
 74
0
  0
ENDTAB
  0
TABLE
  2
LAYER
  5
2
100
AcDbSymbolTable
 70
36
  0
LAYER
  5
10
100
AcDbSymbolTableRecord
100
AcDbLayerTableRecord
  2
0
 70
0
 62
7
  6
CONTINUOUS
370
-3
390
F
  0
LAYER
  5
1FA
100
AcDbSymbolTableRecord
100
AcDbLayerTableRecord
  2
DEFAULT_1
 70
0
 62
7
  6
CENTER
370
-3
390
F
  0
LAYER
  5
1FB
100
AcDbSymbolTableRecord
100
AcDbLayerTableRecord
  2
DEFAULT_2
 70
0
 62
7
  6
HIDDEN
370
-3
390
F
  0
LAYER
  5
1FC
100
AcDbSymbolTableRecord
100
AcDbLayerTableRecord
  2
DEFAULT_3
 70
0
 62
7
  6
PHANTOM
370
-3
390
F
  0
LAYER
  5
1FD
100
AcDbSymbolTableRecord
100
AcDbLayerTableRecord
  2
00_COMPONENTS
 70
0
 62
7
  6
CONTINUOUS
370
-3
390
F
  0
LAYER
  5
1FE
100
AcDbSymbolTableRecord
100
AcDbLayerTableRecord
  2
01_1_DEFAULT_DATUMS
 70
0
 62
7
  6
CONTINUOUS
370
-3
390
F
  0
LAYER
  5
1FF
100
AcDbSymbolTableRecord
100
AcDbLayerTableRecord
  2
01_PLANES
 70
0
 62
7
  6
CONTINUOUS
370
-3
390
F
  0
LAYER
  5
200
100
AcDbSymbolTableRecord
100
AcDbLayerTableRecord
  2
02_COORD_SYS
 70
0
 62
7
  6
CONTINUOUS
370
-3
390
F
  0
LAYER
  5
201
100
AcDbSymbolTableRecord
100
AcDbLayerTableRecord
  2
03_AXES
 70
0
 62
7
  6
CONTINUOUS
370
-3
390
F
  0
LAYER
  5
202
100
AcDbSymbolTableRecord
100
AcDbLayerTableRecord
  2
04_POINTS
 70
0
 62
7
  6
CONTINUOUS
370
-3
390
F
  0
LAYER
  5
203
100
AcDbSymbolTableRecord
100
AcDbLayerTableRecord
  2
05_CURVES
 70
0
 62
7
  6
CONTINUOUS
370
-3
390
F
  0
LAYER
  5
204
100
AcDbSymbolTableRecord
100
AcDbLayerTableRecord
  2
06_SURFS
 70
0
 62
7
  6
CONTINUOUS
370
-3
390
F
  0
LAYER
  5
205
100
AcDbSymbolTableRecord
100
AcDbLayerTableRecord
  2
07_COSMETICS
 70
0
 62
7
  6
CONTINUOUS
370
-3
390
F
  0
LAYER
  5
206
100
AcDbSymbolTableRecord
100
AcDbLayerTableRecord
  2
10_NOTES
 70
0
 62
7
  6
CONTINUOUS
370
-3
390
F
  0
LAYER
  5
207
100
AcDbSymbolTableRecord
100
AcDbLayerTableRecord
  2
11_NOTES_PUB
 70
0
 62
7
  6
CONTINUOUS
370
-3
390
F
  0
LAYER
  5
208
100
AcDbSymbolTableRecord
100
AcDbLayerTableRecord
  2
13_REF_GTOL
 70
0
 62
7
  6
CONTINUOUS
370
-3
390
F
  0
LAYER
  5
209
100
AcDbSymbolTableRecord
100
AcDbLayerTableRecord
  2
16_MISC
 70
0
 62
7
  6
CONTINUOUS
370
-3
390
F
  0
LAYER
  5
20A
100
AcDbSymbolTableRecord
100
AcDbLayerTableRecord
  2
17_NO_PRINT
 70
0
 62
7
  6
CONTINUOUS
370
-3
390
F
  0
LAYER
  5
20B
100
AcDbSymbolTableRecord
100
AcDbLayerTableRecord
  2
18_DATUM_CAMS_JOINTS
 70
0
 62
7
  6
CONTINUOUS
370
-3
390
F
  0
LAYER
  5
20C
100
AcDbSymbolTableRecord
100
AcDbLayerTableRecord
  2
19_DATUM_FUNCTIONAL
 70
0
 62
7
  6
CONTINUOUS
370
-3
390
F
  0
LAYER
  5
20D
100
AcDbSymbolTableRecord
100
AcDbLayerTableRecord
  2
20_DATUM_KINEMATIC_SCHEME
 70
0
 62
7
  6
CONTINUOUS
370
-3
390
F
  0
ENDTAB
  0
TABLE
  2
STYLE
  5
3
100
AcDbSymbolTable
 70
1
  0
STYLE
  5
11
100
AcDbSymbolTableRecord
100
AcDbTextStyleTableRecord
  2
STANDARD
 70
0
 40
0.0
 41
1.0
 50
0.0
 71
0
 42
0.2
  3
ARIAL.TTF
  4

  0
STYLE
  5
20E
100
AcDbSymbolTableRecord
100
AcDbTextStyleTableRecord
  2
TEXTSTYLE_1
 70
0
 40
0.0
 41
0.8
 50
0.0
 71
0
 42
0.2
  3
gdt
  4

  0
ENDTAB
  0
TABLE
  2
VIEW
  5
6
100
AcDbSymbolTable
 70
0
  0
ENDTAB
  0
TABLE
  2
UCS
  5
7
100
AcDbSymbolTable
 70
0
  0
ENDTAB
  0
TABLE
  2
APPID
  5
9
100
AcDbSymbolTable
 70
1
  0
APPID
  5
20F
100
AcDbSymbolTableRecord
100
AcDbRegAppTableRecord
  2
ACAD
 70
0
  0
ENDTAB
  0
TABLE
  2
BLOCK_RECORD
  5
1
100
AcDbSymbolTable
 70
0
  0
BLOCK_RECORD
  5
210
100
AcDbSymbolTableRecord
100
AcDbBlockTableRecord
  2
*Model_Space
  0
BLOCK_RECORD
  5
211
100
AcDbSymbolTableRecord
100
AcDbBlockTableRecord
  2
*Paper_Space
  0
BLOCK_RECORD
  5
212
100
AcDbSymbolTableRecord
100
AcDbBlockTableRecord
  2
_FILLED
  0
ENDTAB
  0
TABLE
  2
DIMSTYLE
  5
A
100
AcDbSymbolTable
 70
1
100
AcDbDimStyleTable
 71
0
  0
DIMSTYLE
105
213
100
AcDbSymbolTableRecord
100
AcDbDimStyleTableRecord
  2
STANDARD
 70
0
  3

  4

 40
1.0
 41
2.1579065132
 42
1.0
 43
0.38
 44
1.0
 45
0.0
 46
0.0
 47
0.01
 48
0.01
140
3.0210691185
141
0.09
142
0.0
143
25.4
144
1.0
145
0.0
146
1.0
147
0.625
 71
1
 72
0
 73
0
 74
0
 75
0
 76
0
 77
1
 78
8
 79
2
170
0
171
1
172
0
173
0
174
0
175
0
176
0
177
0
178
0
270
2
179
2
271
2
272
2
273
2
274
2
275
0
280
0
281
0
282
0
283
1
284
8
285
0
286
0
287
3
288
0
340
11
278
46
341
212
342
212
343
212
344
212
  0
ENDTAB
  0
ENDSEC
  0
SECTION
  2
BLOCKS
  0
BLOCK
  5
20
100
AcDbEntity
  8
0
100
AcDbBlockBegin
  2
*Model_Space
 70
0
 10
0.0
 20
0.0
 30
0.0
  3
*Model_Space
  1

  0
ENDBLK
  5
21
100
AcDbEntity
  8
0
100
AcDbBlockEnd
  0
BLOCK
  5
1C
100
AcDbEntity
  8
0
100
AcDbBlockBegin
  2
*Paper_Space
 70
0
 10
0.0
 20
0.0
 30
0.0
  3
*Paper_Space
  1

  0
ENDBLK
  5
1D
100
AcDbEntity
  8
0
100
AcDbBlockEnd
  0
BLOCK
  5
214
100
AcDbEntity
  8
0
100
AcDbBlockBegin
  2
_FILLED
 70
64
 10
0.0
 20
0.0
  3
_FILLED
  1

  0
SOLID
  5
215
100
AcDbEntity
  8
0
  6
BYBLOCK
 62
0
100
AcDbTrace
 10
0.0
 20
0.0
 11
-1.0
 21
0.25
 12
-1.0
 22
-0.25
 13
-1.0
 23
-0.25
  0
ENDBLK
  5
216
100
AcDbEntity
  8
0
  6
BYBLOCK
 62
0
100
AcDbBlockEnd
  0
ENDSEC
  0
SECTION
  2
ENTITIES
  0
LINE
  5
217
100
AcDbEntity
  8
0
100
AcDbLine
 62
7
  6
BYLAYER
 10
91.0462691585
 20
20.5860294845
 11
74.0899875901
 21
20.550366578
  0
LINE
  5
218
100
AcDbEntity
  8
0
100
AcDbLine
 62
7
  6
BYLAYER
 10
74.2959582468
 20
20.6580854697
 11
91.1219944077
 21
20.6934744406
  0
LINE
  5
219
100
AcDbEntity
  8
0
100
AcDbLine
 62
7
  6
BYLAYER
 10
71.8305745865
 20
24.0931970651
 11
71.6725478207
 21
24.105443126
  0
LINE
  5
21A
100
AcDbEntity
  8
0
100
AcDbLine
 62
7
  6
BYLAYER
 10
73.9139646411
 20
20.5630454155
 11
69.0720171761
 21
21.2739586985
  0
LINE
  5
21B
100
AcDbEntity
  8
0
100
AcDbLine
 62
7
  6
BYLAYER
 10
68.1397040883
 20
22.2731508131
 11
73.0699508766
 21
21.549273085
  0
LINE
  5
21C
100
AcDbEntity
  8
0
100
AcDbLine
 62
7
  6
BYLAYER
 10
72.734977716
 20
23.0981027975
 11
67.8734006147
 21
23.811898179
  0
LINE
  5
21D
100
AcDbEntity
  8
0
100
AcDbLine
 62
7
  6
BYLAYER
 10
57.8797188988
 20
26.9878335879
 11
57.9807456431
 21
26.9508975228
  0
LINE
  5
21E
100
AcDbEntity
  8
0
100
AcDbLine
 62
7
  6
BYLAYER
 10
60.379393341
 20
24.4895955035
 11
60.4690563093
 21
24.4567182224
  0
LINE
  5
21F
100
AcDbEntity
  8
0
100
AcDbLine
 62
7
  6
BYLAYER
 10
82.0235312508
 20
29.5162546483
 11
83.020091675
 21
29.518350641
  0
LINE
  5
220
100
AcDbEntity
  8
0
100
AcDbLine
 62
7
  6
BYLAYER
 10
93.9245089378
 20
29.5412851041
 11
94.921069362
 21
29.5433810967
  0
LINE
  5
221
100
AcDbEntity
  8
0
100
AcDbLine
 62
7
  6
BYLAYER
 10
96.1810327345
 20
33.5474458321
 11
85.9799595911
 21
33.5259906612
  0
LINE
  5
222
100
AcDbEntity
  8
0
100
AcDbLine
 62
7
  6
BYLAYER
 10
96.4842425213
 20
33.65587536
 11
96.2028713133
 21
33.6552835725
  0
LINE
  5
223
100
AcDbEntity
  8
0
100
AcDbLine
 62
7
  6
BYLAYER
 10
86.0479423522
 20
33.6339254534
 11
85.7665711443
 21
33.6333336659
  0
LINE
  5
224
100
AcDbEntity
  8
0
100
AcDbLine
 62
7
  6
BYLAYER
 10
86.7689284869
 20
36.4301465219
 11
95.8744749376
 21
36.4492975516
  0
LINE
  5
225
100
AcDbEntity
  8
0
100
AcDbLine
 62
7
  6
BYLAYER
 10
60.379131405
 20
24.4895953792
 11
57.8797188988
 21
26.9878335879
  0
LINE
  5
226
100
AcDbEntity
  8
0
100
AcDbLine
 62
7
  6
BYLAYER
 10
95.8744749376
 20
45.9140326431
 11
86.7689284869
 21
45.8948816134
  0
LINE
  5
227
100
AcDbEntity
  8
0
100
AcDbLine
 62
7
  6
BYLAYER
 10
97.1994317376
 20
45.9610712205
 11
96.2028713133
 21
45.9589752278
  0
LINE
  5
228
100
AcDbEntity
  8
0
100
AcDbLine
 62
7
  6
BYLAYER
 10
85.051381928
 20
45.935521116
 11
86.0479423522
 21
45.9376171086
  0
LINE
  5
229
100
AcDbEntity
  8
0
100
AcDbLine
 62
7
  6
BYLAYER
 10
85.9019124347
 20
45.9590577808
 11
84.9053520105
 21
45.9569617881
  0
LINE
  5
22A
100
AcDbEntity
  8
0
100
AcDbLine
 62
7
  6
BYLAYER
 10
96.1559610994
 20
45.9806243712
 11
97.1525215236
 21
45.9827203638
  0
LINE
  5
22B
100
AcDbEntity
  8
0
100
AcDbLine
 62
7
  6
BYLAYER
 10
97.0821562027
 20
46.0151940788
 11
96.0855957784
 21
46.0130980862
  0
LINE
  5
22C
100
AcDbEntity
  8
0
100
AcDbLine
 62
7
  6
BYLAYER
 10
84.6863071342
 20
45.9891227963
 11
85.6828675584
 21
45.991218789
  0
LINE
  5
22D
100
AcDbEntity
  8
0
100
AcDbLine
 62
7
  6
BYLAYER
 10
85.5368376409
 20
46.0126594611
 11
84.5402772167
 21
46.0105634685
  0
LINE
  5
22E
100
AcDbEntity
  8
0
100
AcDbLine
 62
7
  6
BYLAYER
 10
96.0386855645
 20
46.0347472296
 11
97.0352459887
 21
46.0368432222
  0
LINE
  5
22F
100
AcDbEntity
  8
0
100
AcDbLine
 62
7
  6
BYLAYER
 10
96.9648806678
 20
46.0693169372
 11
95.9683202436
 21
46.0672209446
  0
LINE
  5
230
100
AcDbEntity
  8
0
100
AcDbLine
 62
7
  6
BYLAYER
 10
84.3212323404
 20
46.0427244767
 11
85.3177927646
 21
46.0448204693
  0
LINE
  5
231
100
AcDbEntity
  8
0
100
AcDbLine
 62
7
  6
BYLAYER
 10
85.1717628471
 20
46.0662611415
 11
84.1752024229
 21
46.0641651488
  0
LINE
  5
232
100
AcDbEntity
  8
0
100
AcDbLine
 62
7
  6
BYLAYER
 10
95.9214100296
 20
46.088870088
 11
96.9179704538
 21
46.0909660806
  0
LINE
  5
233
100
AcDbEntity
  8
0
100
AcDbLine
 62
7
  6
BYLAYER
 10
96.8476051329
 20
46.1234397956
 11
95.8510447087
 21
46.121343803
  0
LINE
  5
234
100
AcDbEntity
  8
0
100
AcDbLine
 62
7
  6
BYLAYER
 10
83.9561575466
 20
46.096326157
 11
84.9527179708
 21
46.0984221497
  0
LINE
  5
235
100
AcDbEntity
  8
0
100
AcDbLine
 62
7
  6
BYLAYER
 10
84.8066880533
 20
46.1198628218
 11
83.8101276291
 21
46.1177668292
  0
LINE
  5
236
100
AcDbEntity
  8
0
100
AcDbLine
 62
7
  6
BYLAYER
 10
95.8041344947
 20
46.1429929463
 11
96.8006949189
 21
46.145088939
  0
LINE
  5
237
100
AcDbEntity
  8
0
100
AcDbLine
 62
7
  6
BYLAYER
 10
96.730329598
 20
46.177562654
 11
95.7337691738
 21
46.1754666614
  0
LINE
  5
238
100
AcDbEntity
  8
0
100
AcDbLine
 62
7
  6
BYLAYER
 10
83.5910827528
 20
46.1499278374
 11
84.587643177
 21
46.15202383
  0
LINE
  5
239
100
AcDbEntity
  8
0
100
AcDbLine
 62
7
  6
BYLAYER
 10
84.4416132595
 20
46.1734645021
 11
83.4450528353
 21
46.1713685095
  0
LINE
  5
23A
100
AcDbEntity
  8
0
100
AcDbLine
 62
7
  6
BYLAYER
 10
95.6868589598
 20
46.1971158047
 11
96.6834193841
 21
46.1992117974
  0
LINE
  5
23B
100
AcDbEntity
  8
0
100
AcDbLine
 62
7
  6
BYLAYER
 10
96.6130540631
 20
46.2316855124
 11
95.6164936389
 21
46.2295895198
  0
LINE
  5
23C
100
AcDbEntity
  8
0
100
AcDbLine
 62
7
  6
BYLAYER
 10
83.226007959
 20
46.2035295177
 11
84.2225683832
 21
46.2056255103
  0
LINE
  5
23D
100
AcDbEntity
  8
0
100
AcDbLine
 62
7
  6
BYLAYER
 10
84.0765384657
 20
46.2270661825
 11
83.0799780415
 21
46.2249701898
  0
LINE
  5
23E
100
AcDbEntity
  8
0
100
AcDbLine
 62
7
  6
BYLAYER
 10
95.569583425
 20
46.2512386631
 11
96.5661438492
 21
46.2533346558
  0
LINE
  5
23F
100
AcDbEntity
  8
0
100
AcDbLine
 62
7
  6
BYLAYER
 10
96.4957785283
 20
46.2858083708
 11
95.499218104
 21
46.2837123782
  0
LINE
  5
240
100
AcDbEntity
  8
0
100
AcDbLine
 62
7
  6
BYLAYER
 10
82.8609331652
 20
46.257131198
 11
83.8574935894
 21
46.2592271907
  0
LINE
  5
241
100
AcDbEntity
  8
0
100
AcDbLine
 62
7
  6
BYLAYER
 10
83.7114636719
 20
46.2806678628
 11
82.7149032477
 21
46.2785718702
  0
LINE
  5
242
100
AcDbEntity
  8
0
100
AcDbLine
 62
7
  6
BYLAYER
 10
95.4523078901
 20
46.3053615215
 11
96.4488683143
 21
46.3074575141
  0
LINE
  5
243
100
AcDbEntity
  8
0
100
AcDbLine
 62
7
  6
BYLAYER
 10
85.1401234083
 20
45.9224917518
 11
85.051381928
 21
45.935521116
  0
LINE
  5
244
100
AcDbEntity
  8
0
100
AcDbLine
 62
7
  6
BYLAYER
 10
84.9053520105
 20
45.9569617881
 11
84.6863071342
 21
45.9891227963
  0
LINE
  5
245
100
AcDbEntity
  8
0
100
AcDbLine
 62
7
  6
BYLAYER
 10
84.5402772167
 20
46.0105634685
 11
84.3212323404
 21
46.0427244767
  0
LINE
  5
246
100
AcDbEntity
  8
0
100
AcDbLine
 62
7
  6
BYLAYER
 10
84.1752024229
 20
46.0641651488
 11
83.9561575466
 21
46.096326157
  0
LINE
  5
247
100
AcDbEntity
  8
0
100
AcDbLine
 62
7
  6
BYLAYER
 10
83.8101276291
 20
46.1177668292
 11
83.5910827528
 21
46.1499278374
  0
LINE
  5
248
100
AcDbEntity
  8
0
100
AcDbLine
 62
7
  6
BYLAYER
 10
83.4450528353
 20
46.1713685095
 11
83.226007959
 21
46.2035295177
  0
LINE
  5
249
100
AcDbEntity
  8
0
100
AcDbLine
 62
7
  6
BYLAYER
 10
83.0799780415
 20
46.2249701898
 11
82.8609331652
 21
46.257131198
  0
LINE
  5
24A
100
AcDbEntity
  8
0
100
AcDbLine
 62
7
  6
BYLAYER
 10
82.7149032477
 20
46.2785718702
 11
82.4958583714
 21
46.3107328784
  0
LINE
  5
24B
100
AcDbEntity
  8
0
100
AcDbLine
 62
7
  6
BYLAYER
 10
82.3498284539
 20
46.3321735505
 11
82.1307835776
 21
46.3643345587
  0
LINE
  5
24C
100
AcDbEntity
  8
0
100
AcDbLine
 62
7
  6
BYLAYER
 10
81.9847536601
 20
46.3857752308
 11
81.7657087838
 21
46.417936239
  0
LINE
  5
24D
100
AcDbEntity
  8
0
100
AcDbLine
 62
7
  6
BYLAYER
 10
81.6196788663
 20
46.4393769112
 11
81.40063399
 21
46.4715379194
  0
LINE
  5
24E
100
AcDbEntity
  8
0
100
AcDbLine
 62
7
  6
BYLAYER
 10
81.2546040725
 20
46.4929785915
 11
81.0352871502
 21
46.5251795426
  0
LINE
  5
24F
100
AcDbEntity
  8
0
100
AcDbLine
 62
7
  6
BYLAYER
 10
86.0479423522
 20
45.9376171086
 11
85.9019124347
 21
45.9590577808
  0
LINE
  5
250
100
AcDbEntity
  8
0
100
AcDbLine
 62
7
  6
BYLAYER
 10
85.6828675584
 20
45.991218789
 11
85.5368376409
 21
46.0126594611
  0
LINE
  5
251
100
AcDbEntity
  8
0
100
AcDbLine
 62
7
  6
BYLAYER
 10
85.3177927646
 20
46.0448204693
 11
85.1717628471
 21
46.0662611415
  0
LINE
  5
252
100
AcDbEntity
  8
0
100
AcDbLine
 62
7
  6
BYLAYER
 10
84.9527179708
 20
46.0984221497
 11
84.8066880533
 21
46.1198628218
  0
LINE
  5
253
100
AcDbEntity
  8
0
100
AcDbLine
 62
7
  6
BYLAYER
 10
84.587643177
 20
46.15202383
 11
84.4416132595
 21
46.1734645021
  0
LINE
  5
254
100
AcDbEntity
  8
0
100
AcDbLine
 62
7
  6
BYLAYER
 10
84.2225683832
 20
46.2056255103
 11
84.0765384657
 21
46.2270661825
  0
LINE
  5
255
100
AcDbEntity
  8
0
100
AcDbLine
 62
7
  6
BYLAYER
 10
83.8574935894
 20
46.2592271907
 11
83.7114636719
 21
46.2806678628
  0
LINE
  5
256
100
AcDbEntity
  8
0
100
AcDbLine
 62
7
  6
BYLAYER
 10
83.4924187956
 20
46.312828871
 11
83.3463888781
 21
46.3342695431
  0
LINE
  5
257
100
AcDbEntity
  8
0
100
AcDbLine
 62
7
  6
BYLAYER
 10
83.1273440018
 20
46.3664305513
 11
82.9813140843
 21
46.3878712235
  0
LINE
  5
258
100
AcDbEntity
  8
0
100
AcDbLine
 62
7
  6
BYLAYER
 10
82.762269208
 20
46.4200322317
 11
82.6162392905
 21
46.4414729038
  0
LINE
  5
259
100
AcDbEntity
  8
0
100
AcDbLine
 62
7
  6
BYLAYER
 10
82.3971944143
 20
46.473633912
 11
82.2511644967
 21
46.4950745841
  0
LINE
  5
25A
100
AcDbEntity
  8
0
100
AcDbLine
 62
7
  6
BYLAYER
 10
82.0318475744
 20
46.5272755352
 11
73.262526363
 21
47.814820883
  0
LINE
  5
25B
100
AcDbEntity
  8
0
100
AcDbLine
 62
7
  6
BYLAYER
 10
120.2085088076
 20
235.0617459549
 11
102.7085088076
 21
224.0617459549
  0
LINE
  5
25C
100
AcDbEntity
  8
0
100
AcDbLine
 62
7
  6
BYLAYER
 10
61.2142205533
 20
50.738095874
 11
61.2243727055
 21
50.7385163918
  0
LINE
  5
25D
100
AcDbEntity
  8
0
100
AcDbLine
 62
7
  6
BYLAYER
 10
60.9673265656
 20
50.7412136569
 11
60.9784884262
 21
50.7416283757
  0
LINE
  5
25E
100
AcDbEntity
  8
0
100
AcDbLine
 62
7
  6
BYLAYER
 10
96.3785029934
 20
46.3399312292
 11
95.3819425692
 21
46.3378352365
  0
LINE
  5
25F
100
AcDbEntity
  8
0
100
AcDbLine
 62
7
  6
BYLAYER
 10
82.4958583714
 20
46.3107328784
 11
83.4924187956
 21
46.312828871
  0
LINE
  5
260
100
AcDbEntity
  8
0
100
AcDbLine
 62
7
  6
BYLAYER
 10
83.3463888781
 20
46.3342695431
 11
82.3498284539
 21
46.3321735505
  0
LINE
  5
261
100
AcDbEntity
  8
0
100
AcDbLine
 62
7
  6
BYLAYER
 10
95.3350323552
 20
46.3594843799
 11
96.3315927794
 21
46.3615803725
  0
LINE
  5
262
100
AcDbEntity
  8
0
100
AcDbLine
 62
7
  6
BYLAYER
 10
96.2612274585
 20
46.3940540876
 11
95.2646670343
 21
46.3919580949
  0
LINE
  5
263
100
AcDbEntity
  8
0
100
AcDbLine
 62
7
  6
BYLAYER
 10
82.1307835776
 20
46.3643345587
 11
83.1273440018
 21
46.3664305513
  0
LINE
  5
264
100
AcDbEntity
  8
0
100
AcDbLine
 62
7
  6
BYLAYER
 10
82.9813140843
 20
46.3878712235
 11
81.9847536601
 21
46.3857752308
  0
LINE
  5
265
100
AcDbEntity
  8
0
100
AcDbLine
 62
7
  6
BYLAYER
 10
95.2177568203
 20
46.4136072383
 11
96.2143172445
 21
46.4157032309
  0
LINE
  5
266
100
AcDbEntity
  8
0
100
AcDbLine
 62
7
  6
BYLAYER
 10
96.1439519236
 20
46.448176946
 11
95.1473914994
 21
46.4460809533
  0
LINE
  5
267
100
AcDbEntity
  8
0
100
AcDbLine
 62
7
  6
BYLAYER
 10
81.7657087838
 20
46.417936239
 11
82.762269208
 21
46.4200322317
  0
LINE
  5
268
100
AcDbEntity
  8
0
100
AcDbLine
 62
7
  6
BYLAYER
 10
82.6162392905
 20
46.4414729038
 11
81.6196788663
 21
46.4393769112
  0
LINE
  5
269
100
AcDbEntity
  8
0
100
AcDbLine
 62
7
  6
BYLAYER
 10
95.1004812854
 20
46.4677300967
 11
96.0970417096
 21
46.4698260893
  0
LINE
  5
26A
100
AcDbEntity
  8
0
100
AcDbLine
 62
7
  6
BYLAYER
 10
96.0266763887
 20
46.5022998044
 11
95.0301159645
 21
46.5002038117
  0
LINE
  5
26B
100
AcDbEntity
  8
0
100
AcDbLine
 62
7
  6
BYLAYER
 10
81.40063399
 20
46.4715379194
 11
82.3971944143
 21
46.473633912
  0
LINE
  5
26C
100
AcDbEntity
  8
0
100
AcDbLine
 62
7
  6
BYLAYER
 10
82.2511644967
 20
46.4950745841
 11
81.2546040725
 21
46.4929785915
  0
LINE
  5
26D
100
AcDbEntity
  8
0
100
AcDbLine
 62
7
  6
BYLAYER
 10
94.9832057506
 20
46.5218529551
 11
95.9797661748
 21
46.5239489477
  0
LINE
  5
26E
100
AcDbEntity
  8
0
100
AcDbLine
 62
7
  6
BYLAYER
 10
81.0352871502
 20
46.5251795426
 11
82.0318475744
 21
46.5272755352
  0
LINE
  5
26F
100
AcDbEntity
  8
0
100
AcDbLine
 62
7
  6
BYLAYER
 10
94.9127530384
 20
46.5543670013
 11
95.9093134626
 21
46.556462994
  0
LINE
  5
270
100
AcDbEntity
  8
0
100
AcDbLine
 62
7
  6
BYLAYER
 10
57.8743727055
 20
26.998522207
 11
57.8797188988
 21
26.9878335879
  0
LINE
  5
271
100
AcDbEntity
  8
0
100
AcDbLine
 62
7
  6
BYLAYER
 10
75.2295892708
 20
56.9550881017
 11
74.0142480457
 21
56.9525319634
  0
LINE
  5
272
100
AcDbEntity
  8
0
100
AcDbLine
 62
7
  6
BYLAYER
 10
86.2413128599
 20
56.9782482543
 11
87.456654085
 21
56.9808043926
  0
LINE
  5
273
100
AcDbEntity
  8
0
100
AcDbLine
 62
7
  6
BYLAYER
 10
75.0074325511
 20
57.0047029329
 11
73.7920913259
 21
57.0021467946
  0
LINE
  5
274
100
AcDbEntity
  8
0
100
AcDbLine
 62
7
  6
BYLAYER
 10
86.0191561401
 20
57.0278630855
 11
87.2344973653
 21
57.0304192238
  0
LINE
  5
275
100
AcDbEntity
  8
0
100
AcDbLine
 62
7
  6
BYLAYER
 10
78.9454409935
 20
57.1083967509
 11
78.8274998714
 21
57.1347368448
  0
LINE
  5
276
100
AcDbEntity
  8
0
100
AcDbLine
 62
7
  6
BYLAYER
 10
80.0140586045
 20
56.8697396331
 11
80.1319997267
 21
56.8433995391
  0
LINE
  5
277
100
AcDbEntity
  8
0
100
AcDbLine
 62
7
  6
BYLAYER
 10
81.2346868064
 20
57.1132115541
 11
81.1167456843
 21
57.1395516481
  0
LINE
  5
278
100
AcDbEntity
  8
0
100
AcDbLine
 62
7
  6
BYLAYER
 10
82.3033044174
 20
56.8745544363
 11
82.4212455396
 21
56.8482143424
  0
LINE
  5
279
100
AcDbEntity
  8
0
100
AcDbLine
 62
7
  6
BYLAYER
 10
92.09572252
 20
47.8544313667
 11
94.9127530384
 21
46.5543670013
  0
LINE
  5
27A
100
AcDbEntity
  8
0
100
AcDbLine
 62
7
  6
BYLAYER
 10
94.9832057506
 20
46.5218529551
 11
95.0301159645
 21
46.5002038117
  0
LINE
  5
27B
100
AcDbEntity
  8
0
100
AcDbLine
 62
7
  6
BYLAYER
 10
95.1004812854
 20
46.4677300967
 11
95.1473914994
 21
46.4460809533
  0
LINE
  5
27C
100
AcDbEntity
  8
0
100
AcDbLine
 62
7
  6
BYLAYER
 10
95.2177568203
 20
46.4136072383
 11
95.2646670343
 21
46.3919580949
  0
LINE
  5
27D
100
AcDbEntity
  8
0
100
AcDbLine
 62
7
  6
BYLAYER
 10
95.3350323552
 20
46.3594843799
 11
95.3819425692
 21
46.3378352365
  0
LINE
  5
27E
100
AcDbEntity
  8
0
100
AcDbLine
 62
7
  6
BYLAYER
 10
95.4523078901
 20
46.3053615215
 11
95.499218104
 21
46.2837123782
  0
LINE
  5
27F
100
AcDbEntity
  8
0
100
AcDbLine
 62
7
  6
BYLAYER
 10
95.569583425
 20
46.2512386631
 11
95.6164936389
 21
46.2295895198
  0
LINE
  5
280
100
AcDbEntity
  8
0
100
AcDbLine
 62
7
  6
BYLAYER
 10
95.6868589598
 20
46.1971158047
 11
95.7337691738
 21
46.1754666614
  0
LINE
  5
281
100
AcDbEntity
  8
0
100
AcDbLine
 62
7
  6
BYLAYER
 10
95.8041344947
 20
46.1429929463
 11
95.8510447087
 21
46.121343803
  0
LINE
  5
282
100
AcDbEntity
  8
0
100
AcDbLine
 62
7
  6
BYLAYER
 10
95.9214100296
 20
46.088870088
 11
95.9683202436
 21
46.0672209446
  0
LINE
  5
283
100
AcDbEntity
  8
0
100
AcDbLine
 62
7
  6
BYLAYER
 10
96.0386855645
 20
46.0347472296
 11
96.0855957784
 21
46.0130980862
  0
LINE
  5
284
100
AcDbEntity
  8
0
100
AcDbLine
 62
7
  6
BYLAYER
 10
96.1559610994
 20
45.9806243712
 11
96.2028713133
 21
45.9589752278
  0
LINE
  5
285
100
AcDbEntity
  8
0
100
AcDbLine
 62
7
  6
BYLAYER
 10
95.9093134626
 20
46.556462994
 11
95.9797661748
 21
46.5239489477
  0
LINE
  5
286
100
AcDbEntity
  8
0
100
AcDbLine
 62
7
  6
BYLAYER
 10
96.0266763887
 20
46.5022998044
 11
96.0970417096
 21
46.4698260893
  0
LINE
  5
287
100
AcDbEntity
  8
0
100
AcDbLine
 62
7
  6
BYLAYER
 10
96.1439519236
 20
46.448176946
 11
96.2143172445
 21
46.4157032309
  0
LINE
  5
288
100
AcDbEntity
  8
0
100
AcDbLine
 62
7
  6
BYLAYER
 10
96.2612274585
 20
46.3940540876
 11
96.3315927794
 21
46.3615803725
  0
LINE
  5
289
100
AcDbEntity
  8
0
100
AcDbLine
 62
7
  6
BYLAYER
 10
96.3785029934
 20
46.3399312292
 11
96.4488683143
 21
46.3074575141
  0
LINE
  5
28A
100
AcDbEntity
  8
0
100
AcDbLine
 62
7
  6
BYLAYER
 10
96.4957785282
 20
46.2858083708
 11
96.5661438492
 21
46.2533346558
  0
LINE
  5
28B
100
AcDbEntity
  8
0
100
AcDbLine
 62
7
  6
BYLAYER
 10
96.6130540631
 20
46.2316855124
 11
96.6834193841
 21
46.1992117974
  0
LINE
  5
28C
100
AcDbEntity
  8
0
100
AcDbLine
 62
7
  6
BYLAYER
 10
96.730329598
 20
46.177562654
 11
96.8006949189
 21
46.145088939
  0
LINE
  5
28D
100
AcDbEntity
  8
0
100
AcDbLine
 62
7
  6
BYLAYER
 10
96.8476051329
 20
46.1234397956
 11
96.9179704538
 21
46.0909660806
  0
LINE
  5
28E
100
AcDbEntity
  8
0
100
AcDbLine
 62
7
  6
BYLAYER
 10
96.9648806678
 20
46.0693169372
 11
97.0352459887
 21
46.0368432222
  0
LINE
  5
28F
100
AcDbEntity
  8
0
100
AcDbLine
 62
7
  6
BYLAYER
 10
97.0821562027
 20
46.0151940788
 11
97.1525215236
 21
45.9827203638
  0
LINE
  5
290
100
AcDbEntity
  8
0
100
AcDbLine
 62
7
  6
BYLAYER
 10
97.1994317376
 20
45.9610712205
 11
97.2279387853
 21
45.9479151696
  0
LINE
  5
291
100
AcDbEntity
  8
0
100
AcDbLine
 62
7
  6
BYLAYER
 10
91.0950031268
 20
75.3200398332
 11
83.0950031268
 21
75.3200398332
  0
LINE
  5
292
100
AcDbEntity
  8
0
100
AcDbLine
 62
7
  6
BYLAYER
 10
97.2279387853
 20
45.9479151696
 11
97.229196718
 21
45.9463901705
  0
LINE
  5
293
100
AcDbEntity
  8
0
100
AcDbLine
 62
7
  6
BYLAYER
 10
92.0950447363
 20
47.8554479965
 11
92.09572252
 21
47.8544313667
  0
LINE
  5
294
100
AcDbEntity
  8
0
100
AcDbLine
 62
7
  6
BYLAYER
 10
57.8743727055
 20
26.998522207
 11
57.8743727055
 21
50.4930023598
  0
LINE
  5
295
100
AcDbEntity
  8
0
100
AcDbLine
 62
7
  6
BYLAYER
 10
61.2243727055
 20
50.4930023598
 11
61.2243727055
 21
51.4927674727
  0
LINE
  5
296
100
AcDbEntity
  8
0
100
AcDbLine
 62
7
  6
BYLAYER
 10
72.6248725684
 20
26.520194599
 11
72.6248725684
 21
47.8319449503
  0
LINE
  5
297
100
AcDbEntity
  8
0
100
AcDbLine
 62
7
  6
BYLAYER
 10
73.262526363
 20
47.814820883
 11
73.262526363
 21
26.1060848774
  0
LINE
  5
298
100
AcDbEntity
  8
0
100
AcDbLine
 62
7
  6
BYLAYER
 10
76.1085088076
 20
224.0617459549
 11
76.1085088076
 21
237.0617459549
  0
LINE
  5
299
100
AcDbEntity
  8
0
100
AcDbLine
 62
7
  6
BYLAYER
 10
76.3252532593
 20
237.0617459549
 11
76.3252532593
 21
224.0617459549
  0
LINE
  5
29A
100
AcDbEntity
  8
0
100
AcDbLine
 62
7
  6
BYLAYER
 10
86.0191561401
 20
57.0278630855
 11
86.0303232032
 21
56.9485678189
  0
LINE
  5
29B
100
AcDbEntity
  8
0
100
AcDbLine
 62
7
  6
BYLAYER
 10
86.0191561401
 20
57.0278630855
 11
86.0303110628
 21
56.948566069
  0
LINE
  5
29C
100
AcDbEntity
  8
0
100
AcDbLine
 62
7
  6
BYLAYER
 10
87.241500204
 20
56.9803524749
 11
87.2344973653
 21
57.0304192238
  0
LINE
  5
29D
100
AcDbEntity
  8
0
100
AcDbLine
 62
7
  6
BYLAYER
 10
79.9085088076
 20
224.0617459549
 11
79.9085088076
 21
237.0617459549
  0
LINE
  5
29E
100
AcDbEntity
  8
0
100
AcDbLine
 62
7
  6
BYLAYER
 10
81.0352871502
 20
30.5198222049
 11
81.0352871502
 21
46.5251795426
  0
LINE
  5
29F
100
AcDbEntity
  8
0
100
AcDbLine
 62
7
  6
BYLAYER
 10
81.2546040725
 20
30.7425613577
 11
81.2546040725
 21
46.4929785915
  0
LINE
  5
2A0
100
AcDbEntity
  8
0
100
AcDbLine
 62
7
  6
BYLAYER
 10
81.40063399
 20
30.8908699321
 11
81.40063399
 21
46.4715379194
  0
LINE
  5
2A1
100
AcDbEntity
  8
0
100
AcDbLine
 62
7
  6
BYLAYER
 10
81.6196788663
 20
31.1133327938
 11
81.6196788663
 21
46.4393769112
  0
LINE
  5
2A2
100
AcDbEntity
  8
0
100
AcDbLine
 62
7
  6
BYLAYER
 10
81.7657087838
 20
31.2616413683
 11
81.7657087838
 21
46.417936239
  0
LINE
  5
2A3
100
AcDbEntity
  8
0
100
AcDbLine
 62
7
  6
BYLAYER
 10
81.9847536601
 20
31.48410423
 11
81.9847536601
 21
46.3857752308
  0
LINE
  5
2A4
100
AcDbEntity
  8
0
100
AcDbLine
 62
7
  6
BYLAYER
 10
82.1307835776
 20
31.6324128044
 11
82.1307835776
 21
46.3643345587
  0
LINE
  5
2A5
100
AcDbEntity
  8
0
100
AcDbLine
 62
7
  6
BYLAYER
 10
82.251141714
 20
29.7386827589
 11
82.2511419157
 21
29.8869816234
  0
LINE
  5
2A6
100
AcDbEntity
  8
0
100
AcDbLine
 62
7
  6
BYLAYER
 10
82.2511644672
 20
46.4733267779
 11
82.2511644967
 21
46.4950745841
  0
LINE
  5
2A7
100
AcDbEntity
  8
0
100
AcDbLine
 62
7
  6
BYLAYER
 10
82.3498284539
 20
31.8548756661
 11
82.3498284539
 21
46.3321735505
  0
LINE
  5
2A8
100
AcDbEntity
  8
0
100
AcDbLine
 62
7
  6
BYLAYER
 10
82.4958583714
 20
32.0031842406
 11
82.4958583714
 21
46.3107328784
  0
LINE
  5
2A9
100
AcDbEntity
  8
0
100
AcDbLine
 62
7
  6
BYLAYER
 10
82.6162165078
 20
30.109454195
 11
82.6162167147
 21
30.2577530646
  0
LINE
  5
2AA
100
AcDbEntity
  8
0
100
AcDbLine
 62
7
  6
BYLAYER
 10
82.6162392602
 20
46.4197250976
 11
82.6162392905
 21
46.4414729038
  0
LINE
  5
2AB
100
AcDbEntity
  8
0
100
AcDbLine
 62
7
  6
BYLAYER
 10
82.7149032477
 20
32.2256471023
 11
82.7149032477
 21
46.2785718702
  0
LINE
  5
2AC
100
AcDbEntity
  8
0
100
AcDbLine
 62
7
  6
BYLAYER
 10
82.8609331652
 20
32.3739556767
 11
82.8609331652
 21
46.257131198
  0
LINE
  5
2AD
100
AcDbEntity
  8
0
100
AcDbLine
 62
7
  6
BYLAYER
 10
82.9812913016
 20
30.4802256312
 11
82.981291514
 21
30.6285245061
  0
LINE
  5
2AE
100
AcDbEntity
  8
0
100
AcDbLine
 62
7
  6
BYLAYER
 10
82.9813140532
 20
46.3661234172
 11
82.9813140843
 21
46.3878712235
  0
LINE
  5
2AF
100
AcDbEntity
  8
0
100
AcDbLine
 62
7
  6
BYLAYER
 10
83.0799780415
 20
32.5964185384
 11
83.0799780415
 21
46.2249701898
  0
LINE
  5
2B0
100
AcDbEntity
  8
0
100
AcDbLine
 62
7
  6
BYLAYER
 10
83.0950031268
 20
201.3200398332
 11
83.0950031268
 21
75.3200398332
  0
LINE
  5
2B1
100
AcDbEntity
  8
0
100
AcDbLine
 62
7
  6
BYLAYER
 10
83.226007959
 20
32.7447271129
 11
83.226007959
 21
46.2035295177
  0
LINE
  5
2B2
100
AcDbEntity
  8
0
100
AcDbLine
 62
7
  6
BYLAYER
 10
83.3463660954
 20
30.8509970673
 11
83.3463663136
 21
30.9992959479
  0
LINE
  5
2B3
100
AcDbEntity
  8
0
100
AcDbLine
 62
7
  6
BYLAYER
 10
83.3463888461
 20
46.3125217369
 11
83.3463888781
 21
46.3342695431
  0
LINE
  5
2B4
100
AcDbEntity
  8
0
100
AcDbLine
 62
7
  6
BYLAYER
 10
83.4450528353
 20
32.9671899746
 11
83.4450528353
 21
46.1713685095
  0
LINE
  5
2B5
100
AcDbEntity
  8
0
100
AcDbLine
 62
7
  6
BYLAYER
 10
83.5910827528
 20
33.115498549
 11
83.5910827528
 21
46.1499278374
  0
LINE
  5
2B6
100
AcDbEntity
  8
0
100
AcDbLine
 62
7
  6
BYLAYER
 10
83.7114408892
 20
31.2217685035
 11
83.7114411136
 21
31.37006739
  0
LINE
  5
2B7
100
AcDbEntity
  8
0
100
AcDbLine
 62
7
  6
BYLAYER
 10
83.711463639
 20
46.2589200566
 11
83.7114636719
 21
46.2806678628
  0
LINE
  5
2B8
100
AcDbEntity
  8
0
100
AcDbLine
 62
7
  6
BYLAYER
 10
83.8101276291
 20
33.3379614107
 11
83.8101276291
 21
46.1177668292
  0
LINE
  5
2B9
100
AcDbEntity
  8
0
100
AcDbLine
 62
7
  6
BYLAYER
 10
83.9561575466
 20
33.4862699852
 11
83.9561575466
 21
46.096326157
  0
LINE
  5
2BA
100
AcDbEntity
  8
0
100
AcDbLine
 62
7
  6
BYLAYER
 10
84.0585088076
 20
217.3617459549
 11
84.0585088076
 21
224.0617459549
  0
LINE
  5
2BB
100
AcDbEntity
  8
0
100
AcDbLine
 62
7
  6
BYLAYER
 10
84.076515683
 20
31.5925399396
 11
84.0765159139
 21
31.7408388324
  0
LINE
  5
2BC
100
AcDbEntity
  8
0
100
AcDbLine
 62
7
  6
BYLAYER
 10
84.0765384319
 20
46.2053183762
 11
84.0765384657
 21
46.2270661825
  0
LINE
  5
2BD
100
AcDbEntity
  8
0
100
AcDbLine
 62
7
  6
BYLAYER
 10
84.1752024229
 20
33.7087328469
 11
84.1752024229
 21
46.0641651488
  0
LINE
  5
2BE
100
AcDbEntity
  8
0
100
AcDbLine
 62
7
  6
BYLAYER
 10
84.3212323404
 20
33.8570414213
 11
84.3212323404
 21
46.0427244767
  0
LINE
  5
2BF
100
AcDbEntity
  8
0
100
AcDbLine
 62
7
  6
BYLAYER
 10
84.4415904768
 20
31.9633113758
 11
84.4415907146
 21
32.1116102752
  0
LINE
  5
2C0
100
AcDbEntity
  8
0
100
AcDbLine
 62
7
  6
BYLAYER
 10
84.4416132247
 20
46.1517166959
 11
84.4416132595
 21
46.1734645021
  0
LINE
  5
2C1
100
AcDbEntity
  8
0
100
AcDbLine
 62
7
  6
BYLAYER
 10
84.5402772167
 20
34.079504283
 11
84.5402772167
 21
46.0105634685
  0
LINE
  5
2C2
100
AcDbEntity
  8
0
100
AcDbLine
 62
7
  6
BYLAYER
 10
84.6863071342
 20
34.2278128575
 11
84.6863071342
 21
45.9891227963
  0
LINE
  5
2C3
100
AcDbEntity
  8
0
100
AcDbLine
 62
7
  6
BYLAYER
 10
84.8066652706
 20
32.3340828119
 11
84.8066655157
 21
32.4823817184
  0
LINE
  5
2C4
100
AcDbEntity
  8
0
100
AcDbLine
 62
7
  6
BYLAYER
 10
84.8066880174
 20
46.0981150155
 11
84.8066880533
 21
46.1198628218
  0
LINE
  5
2C5
100
AcDbEntity
  8
0
100
AcDbLine
 62
7
  6
BYLAYER
 10
84.9053520105
 20
34.4502757192
 11
84.9053520105
 21
45.9569617881
  0
LINE
  5
2C6
100
AcDbEntity
  8
0
100
AcDbLine
 62
7
  6
BYLAYER
 10
85.051381928
 20
34.5985842936
 11
85.051381928
 21
45.935521116
  0
LINE
  5
2C7
100
AcDbEntity
  8
0
100
AcDbLine
 62
7
  6
BYLAYER
 10
85.1401234083
 20
34.6887104997
 11
85.1401234083
 21
45.9224917518
  0
LINE
  5
2C8
100
AcDbEntity
  8
0
100
AcDbLine
 62
7
  6
BYLAYER
 10
85.1717400644
 20
32.7048542481
 11
85.1717403173
 21
32.853153162
  0
LINE
  5
2C9
100
AcDbEntity
  8
0
100
AcDbLine
 62
7
  6
BYLAYER
 10
85.17176281
 20
46.0445133352
 11
85.1717628471
 21
46.0662611415
  0
LINE
  5
2CA
100
AcDbEntity
  8
0
100
AcDbLine
 62
7
  6
BYLAYER
 10
85.5368148582
 20
33.0756256842
 11
85.5368151194
 21
33.2239246062
  0
LINE
  5
2CB
100
AcDbEntity
  8
0
100
AcDbLine
 62
7
  6
BYLAYER
 10
85.5368376026
 20
45.9909116549
 11
85.5368376409
 21
46.0126594611
  0
LINE
  5
2CC
100
AcDbEntity
  8
0
100
AcDbLine
 62
7
  6
BYLAYER
 10
85.901889652
 20
33.4463971204
 11
85.9018899924
 21
33.6333334195
  0
LINE
  5
2CD
100
AcDbEntity
  8
0
100
AcDbLine
 62
7
  6
BYLAYER
 10
85.9019123951
 20
45.9373099745
 11
85.9019124347
 21
45.9590577808
  0
LINE
  5
2CE
100
AcDbEntity
  8
0
100
AcDbLine
 62
7
  6
BYLAYER
 10
78.9454409935
 20
57.1083967509
 11
78.9422866594
 21
56.8779695622
  0
LINE
  5
2CF
100
AcDbEntity
  8
0
100
AcDbLine
 62
7
  6
BYLAYER
 10
75.0003894556
 20
56.9546060425
 11
75.0074325511
 21
57.0047029329
  0
LINE
  5
2D0
100
AcDbEntity
  8
0
100
AcDbLine
 62
7
  6
BYLAYER
 10
75.0003816708
 20
56.9546071319
 11
75.0074325511
 21
57.0047029329
  0
LINE
  5
2D1
100
AcDbEntity
  8
0
100
AcDbLine
 62
7
  6
BYLAYER
 10
86.7689284869
 20
45.8948816134
 11
86.7689284869
 21
36.4301465219
  0
LINE
  5
2D2
100
AcDbEntity
  8
0
100
AcDbLine
 62
7
  6
BYLAYER
 10
89.9527604263
 20
217.3617459549
 11
89.9527604263
 21
224.0617459549
  0
LINE
  5
2D3
100
AcDbEntity
  8
0
100
AcDbLine
 62
7
  6
BYLAYER
 10
91.0950031268
 20
201.3200398332
 11
91.0950031268
 21
75.3200398332
  0
LINE
  5
2D4
100
AcDbEntity
  8
0
100
AcDbLine
 62
7
  6
BYLAYER
 10
91.3085088076
 20
237.0617459549
 11
91.3085088076
 21
235.0617459549
  0
LINE
  5
2D5
100
AcDbEntity
  8
0
100
AcDbLine
 62
7
  6
BYLAYER
 10
92.5695585173
 20
47.8738931491
 11
92.5695585173
 21
47.6357552497
  0
LINE
  5
2D6
100
AcDbEntity
  8
0
100
AcDbLine
 62
7
  6
BYLAYER
 10
95.8744749376
 20
36.4492975516
 11
95.8744749376
 21
45.9140326431
  0
LINE
  5
2D7
100
AcDbEntity
  8
0
100
AcDbLine
 62
7
  6
BYLAYER
 10
95.9797661748
 20
46.5022998044
 11
95.9797661748
 21
46.5239489477
  0
LINE
  5
2D8
100
AcDbEntity
  8
0
100
AcDbLine
 62
7
  6
BYLAYER
 10
96.0970417096
 20
46.448176946
 11
96.0970417096
 21
46.4698260893
  0
LINE
  5
2D9
100
AcDbEntity
  8
0
100
AcDbLine
 62
7
  6
BYLAYER
 10
96.2143172445
 20
46.3940540876
 11
96.2143172445
 21
46.4157032309
  0
LINE
  5
2DA
100
AcDbEntity
  8
0
100
AcDbLine
 62
7
  6
BYLAYER
 10
96.3315927794
 20
46.3399312292
 11
96.3315927794
 21
46.3615803725
  0
LINE
  5
2DB
100
AcDbEntity
  8
0
100
AcDbLine
 62
7
  6
BYLAYER
 10
96.4488683143
 20
46.2858083708
 11
96.4488683143
 21
46.3074575141
  0
LINE
  5
2DC
100
AcDbEntity
  8
0
100
AcDbLine
 62
7
  6
BYLAYER
 10
96.5661438492
 20
46.2316855124
 11
96.5661438492
 21
46.2533346558
  0
LINE
  5
2DD
100
AcDbEntity
  8
0
100
AcDbLine
 62
7
  6
BYLAYER
 10
96.6834193841
 20
46.177562654
 11
96.6834193841
 21
46.1992117974
  0
LINE
  5
2DE
100
AcDbEntity
  8
0
100
AcDbLine
 62
7
  6
BYLAYER
 10
96.8006949189
 20
46.1234397956
 11
96.8006949189
 21
46.145088939
  0
LINE
  5
2DF
100
AcDbEntity
  8
0
100
AcDbLine
 62
7
  6
BYLAYER
 10
96.9179704538
 20
46.0693169372
 11
96.9179704538
 21
46.0909660806
  0
LINE
  5
2E0
100
AcDbEntity
  8
0
100
AcDbLine
 62
7
  6
BYLAYER
 10
97.0352459887
 20
46.0151940788
 11
97.0352459887
 21
46.0368432222
  0
LINE
  5
2E1
100
AcDbEntity
  8
0
100
AcDbLine
 62
7
  6
BYLAYER
 10
97.1525215236
 20
45.9610712205
 11
97.1525215236
 21
45.9827203638
  0
LINE
  5
2E2
100
AcDbEntity
  8
0
100
AcDbLine
 62
7
  6
BYLAYER
 10
97.2295901204
 20
45.9463901417
 11
97.2295901204
 21
34.6662997623
  0
LINE
  5
2E3
100
AcDbEntity
  8
0
100
AcDbLine
 62
7
  6
BYLAYER
 10
97.9085088076
 20
235.0617459549
 11
97.9085088076
 21
227.0617459549
  0
LINE
  5
2E4
100
AcDbEntity
  8
0
100
AcDbLine
 62
7
  6
BYLAYER
 10
98.5585088076
 20
224.0617459549
 11
98.5585088076
 21
217.3617459549
  0
LINE
  5
2E5
100
AcDbEntity
  8
0
100
AcDbLine
 62
7
  6
BYLAYER
 10
99.9085088076
 20
227.0617459549
 11
99.9085088076
 21
235.0617459549
  0
LINE
  5
2E6
100
AcDbEntity
  8
0
100
AcDbLine
 62
7
  6
BYLAYER
 10
100.0243727055
 20
50.4930023598
 11
100.0243727055
 21
51.4927674727
  0
LINE
  5
2E7
100
AcDbEntity
  8
0
100
AcDbLine
 62
7
  6
BYLAYER
 10
102.7085088076
 20
224.0617459549
 11
102.7085088076
 21
235.0617459549
  0
LINE
  5
2E8
100
AcDbEntity
  8
0
100
AcDbLine
 62
7
  6
BYLAYER
 10
103.3743727055
 20
26.998522207
 11
103.3743727055
 21
50.4930023598
  0
LINE
  5
2E9
100
AcDbEntity
  8
0
100
AcDbLine
 62
7
  6
BYLAYER
 10
106.291764356
 20
224.0617459549
 11
106.291764356
 21
226.3140780139
  0
LINE
  5
2EA
100
AcDbEntity
  8
0
100
AcDbLine
 62
7
  6
BYLAYER
 10
106.5085088076
 20
224.0617459549
 11
106.5085088076
 21
226.4503173835
  0
LINE
  5
2EB
100
AcDbEntity
  8
0
100
AcDbLine
 62
7
  6
BYLAYER
 10
124.3085088076
 20
237.0617459549
 11
124.3085088076
 21
235.0617459549
  0
LINE
  5
2EC
100
AcDbEntity
  8
0
100
AcDbLine
 62
7
  6
BYLAYER
 10
94.9863190742
 20
29.7657880835
 11
94.921069362
 21
29.5433810967
  0
LINE
  5
2ED
100
AcDbEntity
  8
0
100
AcDbLine
 62
7
  6
BYLAYER
 10
93.9245089378
 20
29.5412851041
 11
91.1219944077
 21
20.6934744406
  0
LINE
  5
2EE
100
AcDbEntity
  8
0
100
AcDbLine
 62
7
  6
BYLAYER
 10
128.4085088076
 20
237.0617459549
 11
128.4085088076
 21
235.0617459549
  0
LINE
  5
2EF
100
AcDbEntity
  8
0
100
AcDbLine
 62
7
  6
BYLAYER
 10
94.6444275872
 20
29.5427992563
 11
92.0591266526
 21
21.3807530181
  0
LINE
  5
2F0
100
AcDbEntity
  8
0
100
AcDbLine
 62
7
  6
BYLAYER
 10
96.159074423
 20
33.4682906646
 11
94.9863190742
 21
29.7657880835
  0
LINE
  5
2F1
100
AcDbEntity
  8
0
100
AcDbLine
 62
7
  6
BYLAYER
 10
97.1501597984
 20
34.3456909924
 11
97.1976180757
 21
34.4593276038
  0
LINE
  5
2F2
100
AcDbEntity
  8
0
100
AcDbLine
 62
7
  6
BYLAYER
 10
103.3690265121
 20
26.9878335879
 11
103.3743727055
 21
26.998522207
  0
LINE
  5
2F3
100
AcDbEntity
  8
0
100
AcDbLine
 62
7
  6
BYLAYER
 10
85.9799595911
 20
33.5259906612
 11
85.9291355938
 21
33.4741537047
  0
LINE
  5
2F4
100
AcDbEntity
  8
0
100
AcDbLine
 62
7
  6
BYLAYER
 10
85.1401234083
 20
34.6887104997
 11
85.051381928
 21
34.5985842936
  0
LINE
  5
2F5
100
AcDbEntity
  8
0
100
AcDbLine
 62
7
  6
BYLAYER
 10
84.9053520105
 20
34.4502757192
 11
84.6863071342
 21
34.2278128575
  0
LINE
  5
2F6
100
AcDbEntity
  8
0
100
AcDbLine
 62
7
  6
BYLAYER
 10
84.5402772167
 20
34.079504283
 11
84.3212323404
 21
33.8570414213
  0
LINE
  5
2F7
100
AcDbEntity
  8
0
100
AcDbLine
 62
7
  6
BYLAYER
 10
84.1752024229
 20
33.7087328469
 11
83.9561575466
 21
33.4862699852
  0
LINE
  5
2F8
100
AcDbEntity
  8
0
100
AcDbLine
 62
7
  6
BYLAYER
 10
83.8101276291
 20
33.3379614107
 11
83.5910827528
 21
33.115498549
  0
LINE
  5
2F9
100
AcDbEntity
  8
0
100
AcDbLine
 62
7
  6
BYLAYER
 10
83.4450528353
 20
32.9671899746
 11
83.226007959
 21
32.7447271129
  0
LINE
  5
2FA
100
AcDbEntity
  8
0
100
AcDbLine
 62
7
  6
BYLAYER
 10
83.0799780415
 20
32.5964185384
 11
82.8609331652
 21
32.3739556767
  0
LINE
  5
2FB
100
AcDbEntity
  8
0
100
AcDbLine
 62
7
  6
BYLAYER
 10
82.7149032477
 20
32.2256471023
 11
82.4958583714
 21
32.0031842406
  0
LINE
  5
2FC
100
AcDbEntity
  8
0
100
AcDbLine
 62
7
  6
BYLAYER
 10
82.3498284539
 20
31.8548756661
 11
82.1307835776
 21
31.6324128044
  0
LINE
  5
2FD
100
AcDbEntity
  8
0
100
AcDbLine
 62
7
  6
BYLAYER
 10
81.9847536601
 20
31.48410423
 11
81.7657087838
 21
31.2616413683
  0
LINE
  5
2FE
100
AcDbEntity
  8
0
100
AcDbLine
 62
7
  6
BYLAYER
 10
81.6196788663
 20
31.1133327938
 11
81.40063399
 21
30.8908699321
  0
LINE
  5
2FF
100
AcDbEntity
  8
0
100
AcDbLine
 62
7
  6
BYLAYER
 10
81.2546040725
 20
30.7425613577
 11
81.0352871502
 21
30.5198222049
  0
LINE
  5
300
100
AcDbEntity
  8
0
100
AcDbLine
 62
7
  6
BYLAYER
 10
81.336756349
 20
29.8159807395
 11
73.2904900442
 21
21.6441601587
  0
LINE
  5
301
100
AcDbEntity
  8
0
100
AcDbLine
 62
7
  6
BYLAYER
 10
85.8987885156
 20
33.4467109558
 11
82.251141714
 21
29.7386827589
  0
LINE
  5
302
100
AcDbEntity
  8
0
100
AcDbLine
 62
7
  6
BYLAYER
 10
74.2959582468
 20
20.6580854697
 11
83.020091675
 21
29.518350641
  0
LINE
  5
303
100
AcDbEntity
  8
0
100
AcDbLine
 62
7
  6
BYLAYER
 10
82.0235312508
 20
29.5162546483
 11
82.2480405777
 21
29.7389965943
  0
LINE
  5
304
100
AcDbEntity
  8
0
100
AcDbLine
 62
7
  6
BYLAYER
 10
91.0950031268
 20
201.3200398332
 11
83.0950031268
 21
201.3200398332
  0
LINE
  5
305
100
AcDbEntity
  8
0
100
AcDbLine
 62
7
  6
BYLAYER
 10
100.8696140059
 20
24.4895953792
 11
103.3690265121
 21
26.9878335879
  0
LINE
  5
306
100
AcDbEntity
  8
0
100
AcDbLine
 62
7
  6
BYLAYER
 10
84.0585088076
 20
217.3617459549
 11
98.5585088076
 21
217.3617459549
  0
LINE
  5
307
100
AcDbEntity
  8
0
100
AcDbLine
 62
7
  6
BYLAYER
 10
76.1085088076
 20
224.0617459549
 11
106.5085088076
 21
224.0617459549
  0
LINE
  5
308
100
AcDbEntity
  8
0
100
AcDbLine
 62
7
  6
BYLAYER
 10
97.9085088076
 20
227.0617459549
 11
99.9085088076
 21
227.0617459549
  0
LINE
  5
309
100
AcDbEntity
  8
0
100
AcDbLine
 62
7
  6
BYLAYER
 10
79.9085088076
 20
235.0617459549
 11
128.4085088076
 21
235.0617459549
  0
LINE
  5
30A
100
AcDbEntity
  8
0
100
AcDbLine
 62
7
  6
BYLAYER
 10
128.4085088076
 20
237.0617459549
 11
76.1085088076
 21
237.0617459549
  0
ARC
  5
30B
100
AcDbEntity
  8
0
100
AcDbCircle
 62
7
  6
BYLAYER
 10
-763.5561890545
 20
156.5406107032
 40
846.080942821
100
AcDbArc
 50
350.9890030602
 51
351.1613450583
  0
ARC
  5
30C
100
AcDbEntity
  8
0
100
AcDbCircle
 62
7
  6
BYLAYER
 10
-248.2013234373
 20
80.9350974031
 40
326.1061596213
100
AcDbArc
 50
349.7841882587
 51
350.3207492113
  0
ARC
  5
30D
100
AcDbEntity
  8
0
100
AcDbCircle
 62
7
  6
BYLAYER
 10
84.1605425364
 20
-9.984914748
 40
67.093626862
100
AcDbArc
 50
88.1487907014
 51
88.4595239643
  0
ARC
  5
30E
100
AcDbEntity
  8
0
100
AcDbCircle
 62
7
  6
BYLAYER
 10
74.0876743751
 20
21.7464082799
 40
1.1960435488
100
AcDbArc
 50
261.6477087197
 51
270.1111983085
  0
ARC
  5
30F
100
AcDbEntity
  8
0
100
AcDbCircle
 62
7
  6
BYLAYER
 10
85.8923527156
 20
34.4193857738
 40
0.9730198769
100
AcDbArc
 50
259.6008897019
 51
270.3792835311
  0
ARC
  5
310
100
AcDbEntity
  8
0
100
AcDbCircle
 62
7
  6
BYLAYER
 10
75.3234028017
 20
43.8575204416
 40
14.8423674949
100
AcDbArc
 50
315.456846057
 51
315.6069893477
  0
ARC
  5
311
100
AcDbEntity
  8
0
100
AcDbCircle
 62
7
  6
BYLAYER
 10
94.9576968401
 20
30.7713815438
 40
1.0217537268
100
AcDbArc
 50
342.4518345977
 51
346.8971925297
  0
ARC
  5
312
100
AcDbEntity
  8
0
100
AcDbCircle
 62
7
  6
BYLAYER
 10
95.0749723833
 20
31.1416317999
 40
1.0217537183
100
AcDbArc
 50
342.451834565
 51
346.8971925341
  0
ARC
  5
313
100
AcDbEntity
  8
0
100
AcDbCircle
 62
7
  6
BYLAYER
 10
95.1922479182
 20
31.511882058
 40
1.0217537182
100
AcDbArc
 50
342.4518345648
 51
346.8971925345
  0
ARC
  5
314
100
AcDbEntity
  8
0
100
AcDbCircle
 62
7
  6
BYLAYER
 10
95.3095234531
 20
31.8821323161
 40
1.0217537183
100
AcDbArc
 50
342.4518345649
 51
346.8971925343
  0
ARC
  5
315
100
AcDbEntity
  8
0
100
AcDbCircle
 62
7
  6
BYLAYER
 10
95.5440745229
 20
32.6226328323
 40
1.0217537183
100
AcDbArc
 50
342.4518345648
 51
346.8971925343
  0
ARC
  5
316
100
AcDbEntity
  8
0
100
AcDbCircle
 62
7
  6
BYLAYER
 10
95.426798988
 20
32.2523825742
 40
1.0217537183
100
AcDbArc
 50
342.4518345648
 51
346.8971925343
  0
ARC
  5
317
100
AcDbEntity
  8
0
100
AcDbCircle
 62
7
  6
BYLAYER
 10
95.0337387261
 20
30.8996084572
 40
0.986175815
100
AcDbArc
 50
277.7871605229
 51
283.2420281836
  0
ARC
  5
318
100
AcDbEntity
  8
0
100
AcDbCircle
 62
7
  6
BYLAYER
 10
95.1510142609
 20
31.2698587153
 40
0.986175815
100
AcDbArc
 50
277.7871605228
 51
283.2420281835
  0
ARC
  5
319
100
AcDbEntity
  8
0
100
AcDbCircle
 62
7
  6
BYLAYER
 10
95.2682897958
 20
31.6401089734
 40
0.986175815
100
AcDbArc
 50
277.7871605229
 51
283.2420281835
  0
ARC
  5
31A
100
AcDbEntity
  8
0
100
AcDbCircle
 62
7
  6
BYLAYER
 10
95.6201164005
 20
32.7508597477
 40
0.986175815
100
AcDbArc
 50
277.787160523
 51
283.2420281836
  0
ARC
  5
31B
100
AcDbEntity
  8
0
100
AcDbCircle
 62
7
  6
BYLAYER
 10
95.3855653307
 20
32.0103592315
 40
0.986175815
100
AcDbArc
 50
277.787160523
 51
283.2420281837
  0
ARC
  5
31C
100
AcDbEntity
  8
0
100
AcDbCircle
 62
7
  6
BYLAYER
 10
95.5028408656
 20
32.3806094896
 40
0.986175815
100
AcDbArc
 50
277.787160523
 51
283.2420281836
  0
ARC
  5
31D
100
AcDbEntity
  8
0
100
AcDbCircle
 62
7
  6
BYLAYER
 10
95.0358682103
 20
30.882228333
 40
0.968667466
100
AcDbArc
 50
269.8442233737
 51
277.8016548929
  0
ARC
  5
31E
100
AcDbEntity
  8
0
100
AcDbCircle
 62
7
  6
BYLAYER
 10
95.1531437452
 20
31.2524785911
 40
0.9686674661
100
AcDbArc
 50
269.8442233736
 51
277.8016548928
  0
ARC
  5
31F
100
AcDbEntity
  8
0
100
AcDbCircle
 62
7
  6
BYLAYER
 10
95.27041928
 20
31.6227288492
 40
0.9686674661
100
AcDbArc
 50
269.8442233736
 51
277.8016548928
  0
ARC
  5
320
100
AcDbEntity
  8
0
100
AcDbCircle
 62
7
  6
BYLAYER
 10
95.6222458847
 20
32.7334796235
 40
0.968667466
100
AcDbArc
 50
269.8442233736
 51
277.8016548929
  0
ARC
  5
321
100
AcDbEntity
  8
0
100
AcDbCircle
 62
7
  6
BYLAYER
 10
95.3876948149
 20
31.9929791073
 40
0.968667466
100
AcDbArc
 50
269.8442233736
 51
277.8016548929
  0
ARC
  5
322
100
AcDbEntity
  8
0
100
AcDbCircle
 62
7
  6
BYLAYER
 10
95.5049703498
 20
32.3632293654
 40
0.968667466
100
AcDbArc
 50
269.8442233737
 51
277.8016548929
  0
ARC
  5
323
100
AcDbEntity
  8
0
100
AcDbCircle
 62
7
  6
BYLAYER
 10
94.9891947506
 20
30.7283408988
 40
0.9628808333
100
AcDbArc
 50
269.8291991898
 51
275.0977153842
  0
ARC
  5
324
100
AcDbEntity
  8
0
100
AcDbCircle
 62
7
  6
BYLAYER
 10
95.5755728712
 20
32.5795880691
 40
0.9628767144
100
AcDbArc
 50
269.8291719057
 51
275.0977105733
  0
ARC
  5
325
100
AcDbEntity
  8
0
100
AcDbCircle
 62
7
  6
BYLAYER
 10
95.1064707317
 20
31.0985870368
 40
0.9628767145
100
AcDbArc
 50
269.8291719057
 51
275.0977105732
  0
ARC
  5
326
100
AcDbEntity
  8
0
100
AcDbCircle
 62
7
  6
BYLAYER
 10
95.3410218015
 20
31.8390875529
 40
0.9628767144
100
AcDbArc
 50
269.8291719057
 51
275.0977105733
  0
ARC
  5
327
100
AcDbEntity
  8
0
100
AcDbCircle
 62
7
  6
BYLAYER
 10
95.4582973363
 20
32.209337811
 40
0.9628767144
100
AcDbArc
 50
269.8291719057
 51
275.0977105733
  0
ARC
  5
328
100
AcDbEntity
  8
0
100
AcDbCircle
 62
7
  6
BYLAYER
 10
95.2237462666
 20
31.4688372949
 40
0.9628767145
100
AcDbArc
 50
269.8291719057
 51
275.0977105731
  0
ARC
  5
329
100
AcDbEntity
  8
0
100
AcDbCircle
 62
7
  6
BYLAYER
 10
94.9783976657
 20
33.5584012063
 40
2.3100597326
100
AcDbArc
 50
19.9261872286
 51
21.5895788325
  0
ARC
  5
32A
100
AcDbEntity
  8
0
100
AcDbCircle
 62
7
  6
BYLAYER
 10
95.6613500577
 20
32.9928830904
 40
1.0217537183
100
AcDbArc
 50
342.451834565
 51
346.8971925343
  0
ARC
  5
32B
100
AcDbEntity
  8
0
100
AcDbCircle
 62
7
  6
BYLAYER
 10
95.7373919354
 20
33.1211100058
 40
0.986175815
100
AcDbArc
 50
277.787160523
 51
283.2420281837
  0
ARC
  5
32C
100
AcDbEntity
  8
0
100
AcDbCircle
 62
7
  6
BYLAYER
 10
95.7395214196
 20
33.1037298816
 40
0.9686674661
100
AcDbArc
 50
269.8442233736
 51
277.8016548929
  0
ARC
  5
32D
100
AcDbEntity
  8
0
100
AcDbCircle
 62
7
  6
BYLAYER
 10
95.6928484061
 20
32.9498383272
 40
0.9628767144
100
AcDbArc
 50
269.8291719057
 51
275.0977105733
  0
ARC
  5
32E
100
AcDbEntity
  8
0
100
AcDbCircle
 62
7
  6
BYLAYER
 10
95.8669801537
 20
34.9378159805
 40
1.4132098224
100
AcDbArc
 50
334.1218763415
 51
335.2289738817
  0
ARC
  5
32F
100
AcDbEntity
  8
0
100
AcDbCircle
 62
7
  6
BYLAYER
 10
96.13019902
 20
34.4739564715
 40
1.0220169274
100
AcDbArc
 50
342.4522467793
 51
347.0352989876
  0
ARC
  5
330
100
AcDbEntity
  8
0
100
AcDbCircle
 62
7
  6
BYLAYER
 10
96.0131766624
 20
34.1036338647
 40
1.0217537183
100
AcDbArc
 50
342.4518345649
 51
346.8971925348
  0
ARC
  5
331
100
AcDbEntity
  8
0
100
AcDbCircle
 62
7
  6
BYLAYER
 10
95.8959011275
 20
33.7333836066
 40
1.0217537183
100
AcDbArc
 50
342.4518345651
 51
346.897192535
  0
ARC
  5
332
100
AcDbEntity
  8
0
100
AcDbCircle
 62
7
  6
BYLAYER
 10
95.7786255927
 20
33.3631333485
 40
1.0217537182
100
AcDbArc
 50
342.4518345652
 51
346.8971925351
  0
ARC
  5
333
100
AcDbEntity
  8
0
100
AcDbCircle
 62
7
  6
BYLAYER
 10
95.9500016508
 20
33.8794704722
 40
1.0142936587
100
AcDbArc
 50
335.6603306686
 51
342.4378043123
  0
ARC
  5
334
100
AcDbEntity
  8
0
100
AcDbCircle
 62
7
  6
BYLAYER
 10
96.0750432678
 20
34.2459995288
 40
1.0057674364
100
AcDbArc
 50
307.8172009868
 51
342.5064163115
  0
ARC
  5
335
100
AcDbEntity
  8
0
100
AcDbCircle
 62
7
  6
BYLAYER
 10
96.1592334915
 20
34.4549945788
 40
0.9871842307
100
AcDbArc
 50
275.6626083541
 51
306.3696999642
  0
ARC
  5
336
100
AcDbEntity
  8
0
100
AcDbCircle
 62
7
  6
BYLAYER
 10
95.9719430051
 20
33.8616105219
 40
0.986175815
100
AcDbArc
 50
277.7871605237
 51
283.2420281845
  0
ARC
  5
337
100
AcDbEntity
  8
0
100
AcDbCircle
 62
7
  6
BYLAYER
 10
95.8546674702
 20
33.4913602639
 40
0.9861758151
100
AcDbArc
 50
277.7871605234
 51
283.2420281838
  0
ARC
  5
338
100
AcDbEntity
  8
0
100
AcDbCircle
 62
7
  6
BYLAYER
 10
96.0899477596
 20
34.2288458432
 40
0.9830787222
100
AcDbArc
 50
277.7845990555
 51
307.7439735961
  0
ARC
  5
339
100
AcDbEntity
  8
0
100
AcDbCircle
 62
7
  6
BYLAYER
 10
96.16149074
 20
34.4378183648
 40
0.9698692669
100
AcDbArc
 50
272.4518488931
 51
275.6300309859
  0
ARC
  5
33A
100
AcDbEntity
  8
0
100
AcDbCircle
 62
7
  6
BYLAYER
 10
96.0913480242
 20
34.2144806559
 40
0.968667466
100
AcDbArc
 50
269.8442233736
 51
277.8016548939
  0
ARC
  5
33B
100
AcDbEntity
  8
0
100
AcDbCircle
 62
7
  6
BYLAYER
 10
95.9740724893
 20
33.8442303977
 40
0.968667466
100
AcDbArc
 50
269.8442233737
 51
277.8016548937
  0
ARC
  5
33C
100
AcDbEntity
  8
0
100
AcDbCircle
 62
7
  6
BYLAYER
 10
95.8567969545
 20
33.4739801397
 40
0.968667466
100
AcDbArc
 50
269.8442233737
 51
277.8016548933
  0
ARC
  5
33D
100
AcDbEntity
  8
0
100
AcDbCircle
 62
7
  6
BYLAYER
 10
95.9273994759
 20
33.6903388434
 40
0.9628767144
100
AcDbArc
 50
269.8291719058
 51
275.0977105735
  0
ARC
  5
33E
100
AcDbEntity
  8
0
100
AcDbCircle
 62
7
  6
BYLAYER
 10
95.810123941
 20
33.3200885855
 40
0.9628767146
100
AcDbArc
 50
269.8291719056
 51
275.0977105724
  0
ARC
  5
33F
100
AcDbEntity
  8
0
100
AcDbCircle
 62
7
  6
BYLAYER
 10
96.0446754057
 20
34.0605756686
 40
0.9628632827
100
AcDbArc
 50
269.8291460235
 51
275.0920605728
  0
ARC
  5
340
100
AcDbEntity
  8
0
100
AcDbCircle
 62
7
  6
BYLAYER
 10
96.1620886633
 20
34.4241794164
 40
0.9562172257
100
AcDbArc
 50
269.8197062429
 51
272.4510157302
  0
ARC
  5
341
100
AcDbEntity
  8
0
100
AcDbCircle
 62
7
  6
BYLAYER
 10
96.5455122257
 20
34.6660169644
 40
0.6840777228
100
AcDbArc
 50
342.4142922805
 51
0.0236819896
  0
ARC
  5
342
100
AcDbEntity
  8
0
100
AcDbCircle
 62
7
  6
BYLAYER
 10
307.3304817277
 20
64.4611453323
 40
242.8828009334
100
AcDbArc
 50
189.6344505071
 51
190.0028358429
  0
ARC
  5
343
100
AcDbEntity
  8
0
100
AcDbCircle
 62
7
  6
BYLAYER
 10
80.5590312269
 20
1038.7073150262
 40
990.9071348501
100
AcDbArc
 50
269.5412298017
 51
270.1308364581
  0
ARC
  5
344
100
AcDbEntity
  8
0
100
AcDbCircle
 62
7
  6
BYLAYER
 10
81.0373741907
 20
960.3095803707
 40
912.5085613795
100
AcDbArc
 50
270.1120424549
 51
270.7241171298
  0
ARC
  5
345
100
AcDbEntity
  8
0
100
AcDbCircle
 62
7
  6
BYLAYER
 10
80.6249291708
 20
944.1880341702
 40
893.1157216012
100
AcDbArc
 50
269.8569263575
 51
270.1201765066
  0
SPLINE
  5
346
100
AcDbEntity
  8
0
100
AcDbSpline
 62
7
  6
BYLAYER
 70
0
 71
3
 72
22
 73
18
 74
0
 42
0.0000001
 43
0.0000001
 44
0.0000000001
 40
0.0
 40
0.0
 40
0.0
 40
0.0
 40
0.2162532709
 40
0.4105240709
 40
0.5802060293
 40
0.6551805393
 40
0.7232704023
 40
0.7842598452
 40
0.8379451896
 40
0.884174464
 40
0.922812036
 40
0.9537363965
 40
0.9768826739
 40
0.9855322962
 40
0.9922384816
 40
0.9970276093
 40
1.0
 40
1.0
 40
1.0
 40
1.0
 10
92.9417746802
 20
24.1507573824
 30
0.0
 10
93.514289019
 20
24.1602663997
 30
0.0
 10
94.6010900703
 20
24.1802891449
 30
0.0
 10
96.1369531058
 20
24.2156212792
 30
0.0
 10
97.2986705769
 20
24.2490328727
 30
0.0
 10
98.1262560948
 20
24.2779075321
 30
0.0
 10
98.6661259755
 20
24.2993203456
 30
0.0
 10
99.1495513904
 20
24.3213086204
 30
0.0
 10
99.5750045473
 20
24.3437944573
 30
0.0
 10
99.941148878
 20
24.3666834495
 30
0.0
 10
100.2468949496
 20
24.389792869
 30
0.0
 10
100.4912417181
 20
24.4130895316
 30
0.0
 10
100.6561496835
 20
24.4337062287
 30
0.0
 10
100.756512353
 20
24.4513280529
 30
0.0
 10
100.8087074103
 20
24.4631016599
 30
0.0
 10
100.844989068
 20
24.4746689169
 30
0.0
 10
100.8639726052
 20
24.4840238507
 30
0.0
 10
100.8695312699
 20
24.4895954171
 30
0.0
  0
SPLINE
  5
347
100
AcDbEntity
  8
0
100
AcDbSpline
 62
7
  6
BYLAYER
 70
0
 71
3
 72
11
 73
7
 74
0
 42
0.0000001
 43
0.0000001
 44
0.0000000001
 40
0.0
 40
0.0
 40
0.0
 40
0.0
 40
0.2056955694
 40
0.4489220196
 40
0.7331351146
 40
1.0
 40
1.0
 40
1.0
 40
1.0
 10
68.1397040883
 20
22.2731508131
 30
0.0
 10
68.156954603
 20
22.1754365766
 30
0.0
 10
68.2203346139
 20
21.9660665044
 30
0.0
 10
68.4028773795
 20
21.6587250235
 30
0.0
 10
68.6892323802
 20
21.3938342743
 30
0.0
 10
68.9446502329
 20
21.2926609583
 30
0.0
 10
69.0720171431
 20
21.2739588774
 30
0.0
  0
SPLINE
  5
348
100
AcDbEntity
  8
0
100
AcDbSpline
 62
7
  6
BYLAYER
 70
0
 71
3
 72
11
 73
7
 74
0
 42
0.0000001
 43
0.0000001
 44
0.0000000001
 40
0.0
 40
0.0
 40
0.0
 40
0.0
 40
0.2505511501
 40
0.5007437984
 40
0.7505089491
 40
1.0
 40
1.0
 40
1.0
 40
1.0
 10
85.051381928
 20
34.5985842936
 30
0.0
 10
85.051381928
 20
34.4914058711
 30
0.0
 10
85.0854130702
 20
34.2757096887
 30
0.0
 10
85.234104093
 20
33.98513793
 30
0.0
 10
85.467298508
 20
33.7571498507
 30
0.0
 10
85.6640390032
 20
33.6629541578
 30
0.0
 10
85.7665711443
 20
33.6333336659
 30
0.0
  0
SPLINE
  5
349
100
AcDbEntity
  8
0
100
AcDbSpline
 62
7
  6
BYLAYER
 70
0
 71
3
 72
9
 73
5
 74
0
 42
0.0000001
 43
0.0000001
 44
0.0000000001
 40
0.0
 40
0.0
 40
0.0
 40
0.0
 40
0.4994907553
 40
1.0
 40
1.0
 40
1.0
 40
1.0
 10
96.4842425213
 20
33.65587536
 30
0.0
 10
96.6385840277
 20
33.7011122807
 30
0.0
 10
96.9292215112
 20
33.8721048142
 30
0.0
 10
97.1028930546
 20
34.1602814799
 30
0.0
 10
97.1514896216
 20
34.3139423145
 30
0.0
  0
SPLINE
  5
34A
100
AcDbEntity
  8
0
100
AcDbSpline
 62
7
  6
BYLAYER
 70
0
 71
3
 72
23
 73
19
 74
0
 42
0.0000001
 43
0.0000001
 44
0.0000000001
 40
0.0
 40
0.0
 40
0.0
 40
0.0
 40
0.0016145625
 40
0.0054627637
 40
0.0117080148
 40
0.020369078
 40
0.0314438451
 40
0.044907635
 40
0.0788227099
 40
0.1217443001
 40
0.1732521353
 40
0.2327570672
 40
0.2996273922
 40
0.373157991
 40
0.4525107495
 40
0.6252278183
 40
0.8105176308
 40
1.0
 40
1.0
 40
1.0
 40
1.0
 10
79.5732538955
 20
51.1691924892
 30
0.0
 10
79.5732660136
 20
51.1677157648
 30
0.0
 10
79.5792731179
 20
51.1652197138
 30
0.0
 10
79.5885217411
 20
51.1630625347
 30
0.0
 10
79.6061270861
 20
51.1602691834
 30
0.0
 10
79.6294624324
 20
51.157668556
 30
0.0
 10
79.6598201432
 20
51.154960243
 30
0.0
 10
79.7130971794
 20
51.1511242285
 30
0.0
 10
79.7956076124
 20
51.1466332049
 30
0.0
 10
79.9128837635
 20
51.1417343583
 30
0.0
 10
80.0536114564
 20
51.137098038
 30
0.0
 10
80.2162553738
 20
51.1327725844
 30
0.0
 10
80.3990595896
 20
51.1288230963
 30
0.0
 10
80.6000286777
 20
51.125299167
 30
0.0
 10
80.8978129132
 20
51.1210959876
 30
0.0
 10
81.2978318838
 20
51.1172817491
 30
0.0
 10
81.7985940505
 20
51.1149557358
 30
0.0
 10
82.1413841958
 20
51.1148988087
 30
0.0
 10
82.3146955734
 20
51.1152633219
 30
0.0
  0
SPLINE
  5
34B
100
AcDbEntity
  8
0
100
AcDbSpline
 62
7
  6
BYLAYER
 70
0
 71
3
 72
25
 73
21
 74
0
 42
0.0000001
 43
0.0000001
 44
0.0000000001
 40
0.0
 40
0.0
 40
0.0
 40
0.0
 40
0.0016107367
 40
0.0054581366
 40
0.0117062612
 40
0.0203735218
 40
0.0314514027
 40
0.0449087227
 40
0.0607093945
 40
0.0788162545
 40
0.1217563945
 40
0.1732537477
 40
0.2327677777
 40
0.2996388327
 40
0.3731551351
 40
0.4525128083
 40
0.5368629708
 40
0.6252707772
 40
0.8104398963
 40
1.0
 40
1.0
 40
1.0
 40
1.0
 10
71.1243969927
 20
51.4927674727
 30
0.0
 10
71.1244038254
 20
51.487168969
 30
0.0
 10
71.1472485394
 20
51.4776394666
 30
0.0
 10
71.1823530345
 20
51.4694861396
 30
0.0
 10
71.2493048346
 20
51.4588499366
 30
0.0
 10
71.3380130891
 20
51.4489810784
 30
0.0
 10
71.4533902337
 20
51.438688678
 30
0.0
 10
71.5930767492
 20
51.4286135832
 30
0.0
 10
71.7574545041
 20
51.4186067765
 30
0.0
 10
72.0241767268
 20
51.4047170507
 30
0.0
 10
72.4150358438
 20
51.3884468725
 30
0.0
 10
72.9498390559
 20
51.3707934855
 30
0.0
 10
73.5679000611
 20
51.3543736101
 30
0.0
 10
74.2625454521
 20
51.3393617822
 30
0.0
 10
75.0262073509
 20
51.3259666051
 30
0.0
 10
75.850656835
 20
51.3143282899
 30
0.0
 10
76.7268933658
 20
51.3045963417
 30
0.0
 10
77.9709134265
 20
51.2941332059
 30
0.0
 10
79.5806480327
 20
51.2866618298
 30
0.0
 10
80.8831156711
 20
51.2864509141
 30
0.0
 10
81.541976548
 20
51.287836648
 30
0.0
  0
SPLINE
  5
34C
100
AcDbEntity
  8
0
100
AcDbSpline
 62
7
  6
BYLAYER
 70
0
 71
3
 72
8
 73
4
 74
0
 42
0.0000001
 43
0.0000001
 44
0.0000000001
 40
0.0
 40
0.0
 40
0.0
 40
0.0
 40
1.0
 40
1.0
 40
1.0
 40
1.0
 10
96.1810327345
 20
33.5474458321
 30
0.0
 10
96.1782701129
 20
33.5387239672
 30
0.0
 10
96.1758180195
 20
33.5299037895
 30
0.0
 10
96.1734805741
 20
33.5210584883
 30
0.0
  0
SPLINE
  5
34D
100
AcDbEntity
  8
0
100
AcDbSpline
 62
7
  6
BYLAYER
 70
0
 71
3
 72
8
 73
4
 74
0
 42
0.0000001
 43
0.0000001
 44
0.0000000001
 40
0.0
 40
0.0
 40
0.0
 40
0.0
 40
1.0
 40
1.0
 40
1.0
 40
1.0
 10
96.1734805741
 20
33.5210584883
 30
0.0
 10
96.1688222566
 20
33.5034306028
 30
0.0
 10
96.1645800781
 20
33.4856725525
 30
0.0
 10
96.159074423
 20
33.4682906646
 30
0.0
  0
SPLINE
  5
34E
100
AcDbEntity
  8
0
100
AcDbSpline
 62
7
  6
BYLAYER
 70
0
 71
3
 72
24
 73
20
 74
0
 42
0.0000001
 43
0.0000001
 44
0.0000000001
 40
0.0
 40
0.0
 40
0.0
 40
0.0
 40
0.0016964358
 40
0.0052209655
 40
0.0108340607
 40
0.0185790855
 40
0.0284615721
 40
0.0404769976
 40
0.0708674534
 40
0.1096087358
 40
0.1564984146
 40
0.2113022503
 40
0.2737194619
 40
0.3434310403
 40
0.4200588993
 40
0.5031958204
 40
0.5924041347
 40
0.7871044577
 40
1.0
 40
1.0
 40
1.0
 40
1.0
 10
61.2244416521
 20
51.4927674731
 30
0.0
 10
61.224438341
 20
51.4994514481
 30
0.0
 10
61.2445644878
 20
51.5142830251
 30
0.0
 10
61.2829923135
 20
51.5258793544
 30
0.0
 10
61.349107704
 20
51.5414172659
 30
0.0
 10
61.4390364178
 20
51.5556114232
 30
0.0
 10
61.5550862836
 20
51.5706036307
 30
0.0
 10
61.7599085251
 20
51.591962925
 30
0.0
 10
62.0787185512
 20
51.617361438
 30
0.0
 10
62.5349481881
 20
51.6456859578
 30
0.0
 10
63.0875881223
 20
51.6734164055
 30
0.0
 10
63.7336276659
 20
51.700328788
 30
0.0
 10
64.4696935763
 20
51.72624109
 30
0.0
 10
65.2918277602
 20
51.7509699328
 30
0.0
 10
66.1956663978
 20
51.7743783254
 30
0.0
 10
67.1763793134
 20
51.7963265412
 30
0.0
 10
68.6222743521
 20
51.8242907306
 30
0.0
 10
70.5794683496
 20
51.8541805749
 30
0.0
 10
72.1853075997
 20
51.8718737873
 30
0.0
 10
73.0240826983
 20
51.8796142082
 30
0.0
  0
SPLINE
  5
34F
100
AcDbEntity
  8
0
100
AcDbSpline
 62
7
  6
BYLAYER
 70
0
 71
3
 72
17
 73
13
 74
0
 42
0.0000001
 43
0.0000001
 44
0.0000000001
 40
0.0
 40
0.0
 40
0.0
 40
0.0
 40
0.0065614349
 40
0.0195621257
 40
0.0400570337
 40
0.0682572558
 40
0.1479591647
 40
0.2585867744
 40
0.3997399177
 40
0.5708790463
 40
0.7712389107
 40
1.0
 40
1.0
 40
1.0
 40
1.0
 10
57.8743981274
 20
50.4930023597
 30
0.0
 10
57.874405045
 20
50.4998147448
 30
0.0
 10
57.8928792011
 20
50.5154832
 30
0.0
 10
57.9305110722
 20
50.5281029189
 30
0.0
 10
57.9935199635
 20
50.544489622
 30
0.0
 10
58.1243385794
 20
50.567433758
 30
0.0
 10
58.3500573967
 20
50.594945312
 30
0.0
 10
58.6927000968
 20
50.625317919
 30
0.0
 10
59.130843075
 20
50.6556558793
 30
0.0
 10
59.6622474958
 20
50.6854908898
 30
0.0
 10
60.2847985245
 20
50.7146657758
 30
0.0
 10
60.7299802427
 20
50.7323851894
 30
0.0
 10
60.9673265656
 20
50.7412136569
 30
0.0
  0
SPLINE
  5
350
100
AcDbEntity
  8
0
100
AcDbSpline
 62
7
  6
BYLAYER
 70
0
 71
3
 72
9
 73
5
 74
0
 42
0.0000001
 43
0.0000001
 44
0.0000000001
 40
0.0
 40
0.0
 40
0.0
 40
0.0
 40
0.2673816556
 40
1.0
 40
1.0
 40
1.0
 40
1.0
 10
67.75788382
 20
24.1657761382
 30
0.0
 10
67.77261995
 20
24.1359744742
 30
0.0
 10
67.8235328831
 20
24.0224862221
 30
0.0
 10
67.8581356197
 20
23.9017030118
 30
0.0
 10
67.8734006147
 20
23.811898179
 30
0.0
  0
SPLINE
  5
351
100
AcDbEntity
  8
0
100
AcDbSpline
 62
7
  6
BYLAYER
 70
0
 71
3
 72
17
 73
13
 74
0
 42
0.0000001
 43
0.0000001
 44
0.0000000001
 40
0.0
 40
0.0
 40
0.0
 40
0.0
 40
0.0148974581
 40
0.0369185962
 40
0.0660048391
 40
0.1020534641
 40
0.1944386496
 40
0.3126311942
 40
0.4547427997
 40
0.6184629057
 40
0.8012373057
 40
1.0
 40
1.0
 40
1.0
 40
1.0
 10
60.4690563093
 20
24.4567182224
 30
0.0
 10
60.5233986871
 20
24.4445817994
 30
0.0
 10
60.6601000127
 20
24.4242564861
 30
0.0
 10
60.9053489743
 20
24.3979797431
 30
0.0
 10
61.230119742
 20
24.3719037646
 30
0.0
 10
61.8176542979
 20
24.3341237654
 30
0.0
 10
62.7385094674
 20
24.2910267516
 30
0.0
 10
64.0559227615
 20
24.2447700736
 30
0.0
 10
65.6402128279
 20
24.2021997057
 30
0.0
 10
67.4660458809
 20
24.1639857203
 30
0.0
 10
69.5037517675
 20
24.1309464927
 30
0.0
 10
70.9296897106
 20
24.1133777689
 30
0.0
 10
71.6725478207
 20
24.105443126
 30
0.0
  0
SPLINE
  5
352
100
AcDbEntity
  8
0
100
AcDbSpline
 62
7
  6
BYLAYER
 70
0
 71
3
 72
18
 73
14
 74
0
 42
0.0000001
 43
0.0000001
 44
0.0000000001
 40
0.0
 40
0.0
 40
0.0
 40
0.0
 40
0.2286018519
 40
0.4289358998
 40
0.600120594
 40
0.7413562337
 40
0.8520818596
 40
0.8958552207
 40
0.9318471311
 40
0.9600654759
 40
0.9805630881
 40
0.9935344646
 40
1.0
 40
1.0
 40
1.0
 40
1.0
 10
100.127183
 20
50.7468645139
 30
0.0
 10
100.3761255883
 20
50.7378819407
 30
0.0
 10
100.8431873865
 20
50.7198335689
 30
0.0
 10
101.496456866
 20
50.6900779731
 30
0.0
 10
102.0543876184
 20
50.6596000679
 30
0.0
 10
102.5144286058
 20
50.6285739227
 30
0.0
 10
102.8355856925
 20
50.6008499246
 30
0.0
 10
103.041790024
 20
50.5775846361
 30
0.0
 10
103.1585091141
 20
50.5612831234
 30
0.0
 10
103.2490802399
 20
50.5458005993
 30
0.0
 10
103.3153821463
 20
50.5289721036
 30
0.0
 10
103.3547183278
 20
50.5161441406
 30
0.0
 10
103.3743544377
 20
50.5000477698
 30
0.0
 10
103.3743472835
 20
50.4930023599
 30
0.0
  0
LINE
  5
353
100
AcDbEntity
  8
0
100
AcDbLine
 62
7
  6
BYLAYER
 10
80.1942668593
 20
51.9131182456
 11
81.0514538228
 21
51.9131198613
  0
SPLINE
  5
354
100
AcDbEntity
  8
0
100
AcDbSpline
 62
7
  6
BYLAYER
 70
0
 71
3
 72
24
 73
20
 74
0
 42
0.0000001
 43
0.0000001
 44
0.0000000001
 40
0.0
 40
0.0
 40
0.0
 40
0.0
 40
0.2130258101
 40
0.4077676484
 40
0.4969829874
 40
0.5801125486
 40
0.6567263468
 40
0.7264139461
 40
0.7888085515
 40
0.8435871927
 40
0.8904519153
 40
0.9291728084
 40
0.9595425504
 40
0.9715514115
 40
0.9814289895
 40
0.9891695412
 40
0.9947779886
 40
0.9983011945
 40
1.0
 40
1.0
 40
1.0
 40
1.0
 10
88.2843996679
 20
51.8790598699
 30
0.0
 10
89.1194455843
 20
51.8712830653
 30
0.0
 10
90.7178408171
 20
51.8535371264
 30
0.0
 10
92.6658413329
 20
51.8236110273
 30
0.0
 10
94.1045876589
 20
51.7956523478
 30
0.0
 10
95.0802854271
 20
51.7737177403
 30
0.0
 10
95.9793757811
 20
51.7503403962
 30
0.0
 10
96.7971143888
 20
51.7256475387
 30
0.0
 10
97.5291758465
 20
51.6997863489
 30
0.0
 10
98.1716616766
 20
51.6729322278
 30
0.0
 10
98.7212277385
 20
51.645264693
 30
0.0
 10
99.174888349
 20
51.6170170396
 30
0.0
 10
99.4918939663
 20
51.591680762
 30
0.0
 10
99.6955500947
 20
51.5703815576
 30
0.0
 10
99.810944441
 20
51.5554327497
 30
0.0
 10
99.9003629648
 20
51.5412785239
 30
0.0
 10
99.9660835589
 20
51.5257867396
 30
0.0
 10
100.004310744
 20
51.514206502
 30
0.0
 10
100.0243004599
 20
51.4994269561
 30
0.0
 10
100.0243037589
 20
51.4927674724
 30
0.0
  0
SPLINE
  5
355
100
AcDbEntity
  8
0
100
AcDbSpline
 62
7
  6
BYLAYER
 70
0
 71
3
 72
23
 73
19
 74
0
 42
0.0000001
 43
0.0000001
 44
0.0000000001
 40
0.0
 40
0.0
 40
0.0
 40
0.0
 40
0.1998055339
 40
0.3892765822
 40
0.561923598
 40
0.6401128607
 40
0.7119614038
 40
0.7768770361
 40
0.8342983358
 40
0.8837563544
 40
0.9248204565
 40
0.9571560695
 40
0.9699685744
 40
0.9805036937
 40
0.9887476742
 40
0.9947010082
 40
0.9983883864
 40
1.0
 40
1.0
 40
1.0
 40
1.0
 10
81.541976548
 20
51.287836648
 30
0.0
 10
82.1142294541
 20
51.2890402257
 30
0.0
 10
83.2291338009
 20
51.293579407
 30
0.0
 10
84.8384632783
 20
51.3069768342
 30
0.0
 10
86.0994254831
 20
51.3236121847
 30
0.0
 10
87.02346572
 20
51.3401984102
 30
0.0
 10
87.6389619275
 20
51.3534926396
 30
0.0
 10
88.1949366444
 20
51.3679099373
 30
0.0
 10
88.6867236305
 20
51.3833321134
 30
0.0
 10
89.1101486732
 20
51.3995722709
 30
0.0
 10
89.4615835318
 20
51.4164665611
 30
0.0
 10
89.7081236956
 20
51.4318197852
 30
0.0
 10
89.8669499545
 20
51.4448311903
 30
0.0
 10
89.9572431083
 20
51.4540149416
 30
0.0
 10
90.0268342581
 20
51.4627270364
 30
0.0
 10
90.0788838407
 20
51.4722825385
 30
0.0
 10
90.1071635221
 20
51.4793129935
 30
0.0
 10
90.1243540515
 20
51.4881517251
 30
0.0
 10
90.1243484182
 20
51.4927674727
 30
0.0
  0
SPLINE
  5
356
100
AcDbEntity
  8
0
100
AcDbSpline
 62
7
  6
BYLAYER
 70
0
 71
3
 72
21
 73
17
 74
0
 42
0.0000001
 43
0.0000001
 44
0.0000000001
 40
0.0
 40
0.0
 40
0.0
 40
0.0
 40
0.1996982202
 40
0.3893221846
 40
0.5619506855
 40
0.7119528801
 40
0.7768837927
 40
0.8343049015
 40
0.883750058
 40
0.9248262719
 40
0.9571540464
 40
0.9804885965
 40
0.9887414589
 40
0.9947045544
 40
0.9983940403
 40
1.0
 40
1.0
 40
1.0
 40
1.0
 10
82.3146955734
 20
51.1152633219
 30
0.0
 10
82.4652058646
 20
51.1155798792
 30
0.0
 10
82.7586327063
 20
51.1167782972
 30
0.0
 10
83.1821564906
 20
51.1202969836
 30
0.0
 10
83.5682054035
 20
51.1253981106
 30
0.0
 10
83.8602567474
 20
51.1310194757
 30
0.0
 10
84.0654577207
 20
51.136334773
 30
0.0
 10
84.1948809305
 20
51.1403933032
 30
0.0
 10
84.3062905055
 20
51.144668867
 30
0.0
 10
84.3988111065
 20
51.1491146232
 30
0.0
 10
84.4714932516
 20
51.1536389631
 30
0.0
 10
84.5196858168
 20
51.1578113327
 30
0.0
 10
84.5475195996
 20
51.1612857675
 30
0.0
 10
84.5612309326
 20
51.1638066526
 30
0.0
 10
84.5686772115
 20
51.1656398476
 30
0.0
 10
84.5731977926
 20
51.1679821278
 30
0.0
 10
84.5731878604
 20
51.1691924834
 30
0.0
  0
SPLINE
  5
357
100
AcDbEntity
  8
0
100
AcDbSpline
 62
7
  6
BYLAYER
 70
0
 71
3
 72
9
 73
5
 74
0
 42
0.0000001
 43
0.0000001
 44
0.0000000001
 40
0.0
 40
0.0
 40
0.0
 40
0.0
 40
0.2798427429
 40
1.0
 40
1.0
 40
1.0
 40
1.0
 10
80.2129018823
 20
51.7670446268
 30
0.0
 10
80.2940877794
 20
51.7678471095
 30
0.0
 10
80.584194888
 20
51.771143241
 30
0.0
 10
80.8742920932
 20
51.7759819234
 30
0.0
 10
81.0831606619
 20
51.7813242133
 30
0.0
  0
SPLINE
  5
358
100
AcDbEntity
  8
0
100
AcDbSpline
 62
7
  6
BYLAYER
 70
0
 71
3
 72
8
 73
4
 74
0
 42
0.0000001
 43
0.0000001
 44
0.0000000001
 40
0.0
 40
0.0
 40
0.0
 40
0.0
 40
1.0
 40
1.0
 40
1.0
 40
1.0
 10
73.7920913259
 20
57.0021467946
 30
0.0
 10
73.5297064935
 20
55.1251543936
 30
0.0
 10
73.2677500509
 20
53.2481020877
 30
0.0
 10
73.0060790654
 20
51.3710100363
 30
0.0
  0
SPLINE
  5
359
100
AcDbEntity
  8
0
100
AcDbSpline
 62
7
  6
BYLAYER
 70
0
 71
3
 72
10
 73
6
 74
0
 42
0.0000001
 43
0.0000001
 44
0.0000000001
 40
0.0
 40
0.0
 40
0.0
 40
0.0
 40
0.152082067
 40
0.371387822
 40
1.0
 40
1.0
 40
1.0
 40
1.0
 10
73.8943341422
 20
57.0191293974
 30
0.0
 10
73.9560474812
 20
57.0261847983
 30
0.0
 10
74.1073310192
 20
57.0380428018
 30
0.0
 10
74.5151168527
 20
57.0607925319
 30
0.0
 10
74.8612975652
 20
57.0722629908
 30
0.0
 10
75.1179334253
 20
57.0797811899
 30
0.0
  0
SPLINE
  5
35A
100
AcDbEntity
  8
0
100
AcDbSpline
 62
7
  6
BYLAYER
 70
0
 71
3
 72
9
 73
5
 74
0
 42
0.0000001
 43
0.0000001
 44
0.0000000001
 40
0.0
 40
0.0
 40
0.0
 40
0.0
 40
0.4423784782
 40
1.0
 40
1.0
 40
1.0
 40
1.0
 10
75.1179334253
 20
57.0797811899
 30
0.0
 10
75.6647776029
 20
57.0958011002
 30
0.0
 10
76.901289345
 20
57.1189327045
 30
0.0
 10
78.1379147697
 20
57.1306741458
 30
0.0
 10
78.8274998714
 20
57.1347368448
 30
0.0
  0
LINE
  5
35B
100
AcDbEntity
  8
0
100
AcDbLine
 62
7
  6
BYLAYER
 10
81.1167456843
 20
57.1395516481
 11
81.0372221207
 21
51.2879349857
  0
SPLINE
  5
35C
100
AcDbEntity
  8
0
100
AcDbSpline
 62
7
  6
BYLAYER
 70
0
 71
3
 72
9
 73
5
 74
0
 42
0.0000001
 43
0.0000001
 44
0.0000000001
 40
0.0
 40
0.0
 40
0.0
 40
0.0
 40
0.5546151492
 40
1.0
 40
1.0
 40
1.0
 40
1.0
 10
81.1167456843
 20
57.1395516481
 30
0.0
 10
82.0129802222
 20
57.1381518376
 30
0.0
 10
83.6289202524
 20
57.128740377
 30
0.0
 10
85.2447676288
 20
57.1038680914
 30
0.0
 10
85.9642298822
 20
57.0844633426
 30
0.0
  0
SPLINE
  5
35D
100
AcDbEntity
  8
0
100
AcDbSpline
 62
7
  6
BYLAYER
 70
0
 71
3
 72
9
 73
5
 74
0
 42
0.0000001
 43
0.0000001
 44
0.0000000001
 40
0.0
 40
0.0
 40
0.0
 40
0.0
 40
0.5885185443
 40
1.0
 40
1.0
 40
1.0
 40
1.0
 10
86.327940175
 20
57.0736950868
 30
0.0
 10
86.5058996883
 20
57.0678964695
 30
0.0
 10
86.8082239979
 20
57.0565422505
 30
0.0
 10
87.1103990724
 20
57.0403133445
 30
0.0
 10
87.2344973653
 20
57.0304192238
 30
0.0
  0
SPLINE
  5
35E
100
AcDbEntity
  8
0
100
AcDbSpline
 62
7
  6
BYLAYER
 70
0
 71
3
 72
8
 73
4
 74
0
 42
0.0000001
 43
0.0000001
 44
0.0000000001
 40
0.0
 40
0.0
 40
0.0
 40
0.0
 40
1.0
 40
1.0
 40
1.0
 40
1.0
 10
87.456654085
 20
56.9808043926
 30
0.0
 10
87.7179092222
 20
55.1129923209
 30
0.0
 10
87.9787391311
 20
53.2451207514
 30
0.0
 10
88.2392858231
 20
51.3772097248
 30
0.0
  0
SPLINE
  5
35F
100
AcDbEntity
  8
0
100
AcDbSpline
 62
7
  6
BYLAYER
 70
0
 71
3
 72
15
 73
11
 74
0
 42
0.0000001
 43
0.0000001
 44
0.0000000001
 40
0.0
 40
0.0
 40
0.0
 40
0.0
 40
0.3739941856
 40
0.5376446281
 40
0.6810500763
 40
0.8012425139
 40
0.8956515604
 40
0.9623498193
 40
0.9848624883
 40
1.0
 40
1.0
 40
1.0
 40
1.0
 10
82.3033044174
 20
56.8745544363
 30
0.0
 10
82.7945345272
 20
56.8778677541
 30
0.0
 10
83.5007055018
 20
56.8848058162
 30
0.0
 10
84.3951455733
 20
56.8997133925
 30
0.0
 10
84.9561954915
 20
56.9122381767
 30
0.0
 10
85.4262512363
 20
56.9261268982
 30
0.0
 10
85.795406198
 20
56.9412944034
 30
0.0
 10
86.0362765327
 20
56.9550946365
 30
0.0
 10
86.1727172054
 20
56.9679113832
 30
0.0
 10
86.2218138525
 20
56.9743588957
 30
0.0
 10
86.2413128599
 20
56.9782482543
 30
0.0
  0
LINE
  5
360
100
AcDbEntity
  8
0
100
AcDbLine
 62
7
  6
BYLAYER
 10
82.3033044174
 20
56.8745544363
 11
82.3791575299
 21
51.2915504812
  0
SPLINE
  5
361
100
AcDbEntity
  8
0
100
AcDbSpline
 62
7
  6
BYLAYER
 70
0
 71
3
 72
8
 73
4
 74
0
 42
0.0000001
 43
0.0000001
 44
0.0000000001
 40
0.0
 40
0.0
 40
0.0
 40
0.0
 40
1.0
 40
1.0
 40
1.0
 40
1.0
 10
73.2345167701
 20
51.3664512891
 30
0.0
 10
73.4940991635
 20
53.2285239393
 30
0.0
 10
73.753962566
 20
55.0905574623
 30
0.0
 10
74.0142480457
 20
56.9525319634
 30
0.0
  0
LINE
  5
362
100
AcDbEntity
  8
0
100
AcDbLine
 62
7
  6
BYLAYER
 10
80.1319997267
 20
56.8433995391
 11
80.2070466735
 21
51.2880883734
  0
SPLINE
  5
363
100
AcDbEntity
  8
0
100
AcDbSpline
 62
7
  6
BYLAYER
 70
0
 71
3
 72
12
 73
8
 74
0
 42
0.0000001
 43
0.0000001
 44
0.0000000001
 40
0.0
 40
0.0
 40
0.0
 40
0.0
 40
0.0626565703
 40
0.1476992821
 40
0.3772348856
 40
0.6694432706
 40
1.0
 40
1.0
 40
1.0
 40
1.0
 10
75.2295892708
 20
56.9550881017
 30
0.0
 10
75.3292990983
 20
56.9481442883
 30
0.0
 10
75.5646349618
 20
56.9361364309
 30
0.0
 10
76.1660109717
 20
56.9142033168
 30
0.0
 10
77.1337938371
 20
56.8933186948
 30
0.0
 10
78.4932995301
 20
56.8762716136
 30
0.0
 10
79.4867477497
 20
56.8709813981
 30
0.0
 10
80.0140586045
 20
56.8697396331
 30
0.0
  0
SPLINE
  5
364
100
AcDbEntity
  8
0
100
AcDbSpline
 62
7
  6
BYLAYER
 70
0
 71
3
 72
11
 73
7
 74
0
 42
0.0000001
 43
0.0000001
 44
0.0000000001
 40
0.0
 40
0.0
 40
0.0
 40
0.0
 40
0.2506743028
 40
0.5007903436
 40
0.7504123473
 40
1.0
 40
1.0
 40
1.0
 40
1.0
 10
81.40063399
 20
30.8908699321
 30
0.0
 10
81.40063399
 20
30.7604668861
 30
0.0
 10
81.45110034
 20
30.4971314489
 30
0.0
 10
81.6703357283
 20
30.1622749461
 30
0.0
 10
82.0012244272
 20
29.9376588916
 30
0.0
 10
82.2642415984
 20
29.8860191122
 30
0.0
 10
82.3940757929
 20
29.8869814291
 30
0.0
  0
SPLINE
  5
365
100
AcDbEntity
  8
0
100
AcDbSpline
 62
7
  6
BYLAYER
 70
0
 71
3
 72
11
 73
7
 74
0
 42
0.0000001
 43
0.0000001
 44
0.0000000001
 40
0.0
 40
0.0
 40
0.0
 40
0.0
 40
0.2506743028
 40
0.5007903436
 40
0.7504123473
 40
1.0
 40
1.0
 40
1.0
 40
1.0
 10
81.7657087838
 20
31.2616413683
 30
0.0
 10
81.7657087838
 20
31.1312383223
 30
0.0
 10
81.8161751338
 20
30.867902885
 30
0.0
 10
82.0354105221
 20
30.5330463823
 30
0.0
 10
82.366299221
 20
30.3084303277
 30
0.0
 10
82.6293163922
 20
30.2567905483
 30
0.0
 10
82.7591505867
 20
30.2577528653
 30
0.0
  0
SPLINE
  5
366
100
AcDbEntity
  8
0
100
AcDbSpline
 62
7
  6
BYLAYER
 70
0
 71
3
 72
11
 73
7
 74
0
 42
0.0000001
 43
0.0000001
 44
0.0000000001
 40
0.0
 40
0.0
 40
0.0
 40
0.0
 40
0.2506743028
 40
0.5007903436
 40
0.7504123473
 40
1.0
 40
1.0
 40
1.0
 40
1.0
 10
82.1307835776
 20
31.6324128044
 30
0.0
 10
82.1307835776
 20
31.5020097584
 30
0.0
 10
82.1812499276
 20
31.2386743212
 30
0.0
 10
82.4004853159
 20
30.9038178184
 30
0.0
 10
82.7313740148
 20
30.6792017639
 30
0.0
 10
82.994391186
 20
30.6275619845
 30
0.0
 10
83.1242253805
 20
30.6285243014
 30
0.0
  0
SPLINE
  5
367
100
AcDbEntity
  8
0
100
AcDbSpline
 62
7
  6
BYLAYER
 70
0
 71
3
 72
11
 73
7
 74
0
 42
0.0000001
 43
0.0000001
 44
0.0000000001
 40
0.0
 40
0.0
 40
0.0
 40
0.0
 40
0.3283821924
 40
0.628256306
 40
0.8510500885
 40
1.0
 40
1.0
 40
1.0
 40
1.0
 10
91.0462676392
 20
20.5860297092
 30
0.0
 10
91.1966636676
 20
20.5863457907
 30
0.0
 10
91.488405058
 20
20.65307554
 30
0.0
 10
91.8063030245
 20
20.8958147277
 30
0.0
 10
91.9772408376
 20
21.1562182509
 30
0.0
 10
92.0385305197
 20
21.3157291374
 30
0.0
 10
92.0591290558
 20
21.3807627773
 30
0.0
  0
SPLINE
  5
368
100
AcDbEntity
  8
0
100
AcDbSpline
 62
7
  6
BYLAYER
 70
0
 71
3
 72
11
 73
7
 74
0
 42
0.0000001
 43
0.0000001
 44
0.0000000001
 40
0.0
 40
0.0
 40
0.0
 40
0.0
 40
0.2506743028
 40
0.5007903436
 40
0.7504123473
 40
1.0
 40
1.0
 40
1.0
 40
1.0
 10
82.4958583714
 20
32.0031842406
 30
0.0
 10
82.4958583714
 20
31.8727811946
 30
0.0
 10
82.5463247214
 20
31.6094457574
 30
0.0
 10
82.7655601097
 20
31.2745892546
 30
0.0
 10
83.0964488086
 20
31.0499732
 30
0.0
 10
83.3594659798
 20
30.9983334206
 30
0.0
 10
83.4893001743
 20
30.9992957376
 30
0.0
  0
SPLINE
  5
369
100
AcDbEntity
  8
0
100
AcDbSpline
 62
7
  6
BYLAYER
 70
0
 71
3
 72
11
 73
7
 74
0
 42
0.0000001
 43
0.0000001
 44
0.0000000001
 40
0.0
 40
0.0
 40
0.0
 40
0.0
 40
0.2506743028
 40
0.5007903436
 40
0.7504123473
 40
1.0
 40
1.0
 40
1.0
 40
1.0
 10
82.8609331652
 20
32.3739556767
 30
0.0
 10
82.8609331652
 20
32.2435526307
 30
0.0
 10
82.9113995152
 20
31.9802171935
 30
0.0
 10
83.1306349035
 20
31.6453606907
 30
0.0
 10
83.4615236024
 20
31.4207446362
 30
0.0
 10
83.7245407736
 20
31.3691048568
 30
0.0
 10
83.8543749681
 20
31.3700671737
 30
0.0
  0
SPLINE
  5
36A
100
AcDbEntity
  8
0
100
AcDbSpline
 62
7
  6
BYLAYER
 70
0
 71
3
 72
11
 73
7
 74
0
 42
0.0000001
 43
0.0000001
 44
0.0000000001
 40
0.0
 40
0.0
 40
0.0
 40
0.0
 40
0.2506743028
 40
0.5007903436
 40
0.7504123473
 40
1.0
 40
1.0
 40
1.0
 40
1.0
 10
83.226007959
 20
32.7447271129
 30
0.0
 10
83.226007959
 20
32.6143240669
 30
0.0
 10
83.276474309
 20
32.3509886297
 30
0.0
 10
83.4957096973
 20
32.0161321269
 30
0.0
 10
83.8265983962
 20
31.7915160723
 30
0.0
 10
84.0896155674
 20
31.7398762929
 30
0.0
 10
84.2194497619
 20
31.7408386099
 30
0.0
  0
SPLINE
  5
36B
100
AcDbEntity
  8
0
100
AcDbSpline
 62
7
  6
BYLAYER
 70
0
 71
3
 72
11
 73
7
 74
0
 42
0.0000001
 43
0.0000001
 44
0.0000000001
 40
0.0
 40
0.0
 40
0.0
 40
0.0
 40
0.2506743028
 40
0.5007903436
 40
0.7504123473
 40
1.0
 40
1.0
 40
1.0
 40
1.0
 10
83.5910827528
 20
33.115498549
 30
0.0
 10
83.5910827528
 20
32.985095503
 30
0.0
 10
83.6415491027
 20
32.7217600658
 30
0.0
 10
83.8607844911
 20
32.386903563
 30
0.0
 10
84.19167319
 20
32.1622875085
 30
0.0
 10
84.4546903612
 20
32.1106477291
 30
0.0
 10
84.5845245557
 20
32.111610046
 30
0.0
  0
SPLINE
  5
36C
100
AcDbEntity
  8
0
100
AcDbSpline
 62
7
  6
BYLAYER
 70
0
 71
3
 72
11
 73
7
 74
0
 42
0.0000001
 43
0.0000001
 44
0.0000000001
 40
0.0
 40
0.0
 40
0.0
 40
0.0
 40
0.2506743028
 40
0.5007903436
 40
0.7504123473
 40
1.0
 40
1.0
 40
1.0
 40
1.0
 10
83.9561575466
 20
33.4862699852
 30
0.0
 10
83.9561575466
 20
33.3558669392
 30
0.0
 10
84.0066238965
 20
33.092531502
 30
0.0
 10
84.2258592849
 20
32.7576749992
 30
0.0
 10
84.5567479838
 20
32.5330589446
 30
0.0
 10
84.819765155
 20
32.4814191652
 30
0.0
 10
84.9495993495
 20
32.4823814822
 30
0.0
  0
SPLINE
  5
36D
100
AcDbEntity
  8
0
100
AcDbSpline
 62
7
  6
BYLAYER
 70
0
 71
3
 72
11
 73
7
 74
0
 42
0.0000001
 43
0.0000001
 44
0.0000000001
 40
0.0
 40
0.0
 40
0.0
 40
0.0
 40
0.2506743028
 40
0.5007903436
 40
0.7504123473
 40
1.0
 40
1.0
 40
1.0
 40
1.0
 10
84.3212323404
 20
33.8570414213
 30
0.0
 10
84.3212323404
 20
33.7266383753
 30
0.0
 10
84.3716986903
 20
33.4633029381
 30
0.0
 10
84.5909340787
 20
33.1284464353
 30
0.0
 10
84.9218227776
 20
32.9038303808
 30
0.0
 10
85.1848399488
 20
32.8521906014
 30
0.0
 10
85.3146741433
 20
32.8531529183
 30
0.0
  0
SPLINE
  5
36E
100
AcDbEntity
  8
0
100
AcDbSpline
 62
7
  6
BYLAYER
 70
0
 71
3
 72
11
 73
7
 74
0
 42
0.0000001
 43
0.0000001
 44
0.0000000001
 40
0.0
 40
0.0
 40
0.0
 40
0.0
 40
0.2506743028
 40
0.5007903436
 40
0.7504123473
 40
1.0
 40
1.0
 40
1.0
 40
1.0
 10
84.6863071342
 20
34.2278128575
 30
0.0
 10
84.6863071342
 20
34.0974098115
 30
0.0
 10
84.7367734841
 20
33.8340743743
 30
0.0
 10
84.9560088725
 20
33.4992178715
 30
0.0
 10
85.2868975714
 20
33.274601817
 30
0.0
 10
85.5499147426
 20
33.2229620376
 30
0.0
 10
85.6797489371
 20
33.2239243545
 30
0.0
  0
SPLINE
  5
36F
100
AcDbEntity
  8
0
100
AcDbSpline
 62
7
  6
BYLAYER
 70
0
 71
3
 72
9
 73
5
 74
0
 42
0.0000001
 43
0.0000001
 44
0.0000000001
 40
0.0
 40
0.0
 40
0.0
 40
0.0
 40
0.4994102855
 40
1.0
 40
1.0
 40
1.0
 40
1.0
 10
95.2596370478
 20
29.9396539341
 30
0.0
 10
95.4245862779
 20
29.9784680467
 30
0.0
 10
95.7396578918
 20
30.1466668248
 30
0.0
 10
95.9275796961
 20
30.4494715126
 30
0.0
 10
95.9788147694
 20
30.6114145255
 30
0.0
  0
SPLINE
  5
370
100
AcDbEntity
  8
0
100
AcDbSpline
 62
7
  6
BYLAYER
 70
0
 71
3
 72
9
 73
5
 74
0
 42
0.0000001
 43
0.0000001
 44
0.0000000001
 40
0.0
 40
0.0
 40
0.0
 40
0.0
 40
0.4995232726
 40
1.0
 40
1.0
 40
1.0
 40
1.0
 10
96.1978413269
 20
32.9016559989
 30
0.0
 10
96.3439501722
 20
32.9360367909
 30
0.0
 10
96.6241928589
 20
33.0750091707
 30
0.0
 10
96.8121623417
 20
33.3244147149
 30
0.0
 10
96.8741430045
 20
33.4614341287
 30
0.0
  0
SPLINE
  5
371
100
AcDbEntity
  8
0
100
AcDbSpline
 62
7
  6
BYLAYER
 70
0
 71
3
 72
9
 73
5
 74
0
 42
0.0000001
 43
0.0000001
 44
0.0000000001
 40
0.0
 40
0.0
 40
0.0
 40
0.0
 40
0.4994102855
 40
1.0
 40
1.0
 40
1.0
 40
1.0
 10
95.3769125827
 20
30.3099041922
 30
0.0
 10
95.5418618128
 20
30.3487183048
 30
0.0
 10
95.8569334267
 20
30.5169170829
 30
0.0
 10
96.0448552309
 20
30.8197217707
 30
0.0
 10
96.0960903043
 20
30.9816647836
 30
0.0
  0
SPLINE
  5
372
100
AcDbEntity
  8
0
100
AcDbSpline
 62
7
  6
BYLAYER
 70
0
 71
3
 72
9
 73
5
 74
0
 42
0.0000001
 43
0.0000001
 44
0.0000000001
 40
0.0
 40
0.0
 40
0.0
 40
0.0
 40
0.4994102855
 40
1.0
 40
1.0
 40
1.0
 40
1.0
 10
96.080565792
 20
32.5314057408
 30
0.0
 10
96.2455150221
 20
32.5702198534
 30
0.0
 10
96.560586636
 20
32.7384186315
 30
0.0
 10
96.7485084402
 20
33.0412233193
 30
0.0
 10
96.7997435136
 20
33.2031663322
 30
0.0
  0
SPLINE
  5
373
100
AcDbEntity
  8
0
100
AcDbSpline
 62
7
  6
BYLAYER
 70
0
 71
3
 72
9
 73
5
 74
0
 42
0.0000001
 43
0.0000001
 44
0.0000000001
 40
0.0
 40
0.0
 40
0.0
 40
0.0
 40
0.4994102855
 40
1.0
 40
1.0
 40
1.0
 40
1.0
 10
95.4941881176
 20
30.6801544503
 30
0.0
 10
95.6591373476
 20
30.7189685629
 30
0.0
 10
95.9742089615
 20
30.887167341
 30
0.0
 10
96.1621307658
 20
31.1899720288
 30
0.0
 10
96.2133658392
 20
31.3519150417
 30
0.0
  0
SPLINE
  5
374
100
AcDbEntity
  8
0
100
AcDbSpline
 62
7
  6
BYLAYER
 70
0
 71
3
 72
9
 73
5
 74
0
 42
0.0000001
 43
0.0000001
 44
0.0000000001
 40
0.0
 40
0.0
 40
0.0
 40
0.0
 40
0.4994102855
 40
1.0
 40
1.0
 40
1.0
 40
1.0
 10
95.9632902571
 20
32.1611554827
 30
0.0
 10
96.1282394872
 20
32.1999695953
 30
0.0
 10
96.4433111011
 20
32.3681683734
 30
0.0
 10
96.6312329054
 20
32.6709730612
 30
0.0
 10
96.6824679787
 20
32.832916074
 30
0.0
  0
SPLINE
  5
375
100
AcDbEntity
  8
0
100
AcDbSpline
 62
7
  6
BYLAYER
 70
0
 71
3
 72
9
 73
5
 74
0
 42
0.0000001
 43
0.0000001
 44
0.0000000001
 40
0.0
 40
0.0
 40
0.0
 40
0.0
 40
0.4994102855
 40
1.0
 40
1.0
 40
1.0
 40
1.0
 10
95.8460147222
 20
31.7909052246
 30
0.0
 10
96.0109639523
 20
31.8297193372
 30
0.0
 10
96.3260355662
 20
31.9979181153
 30
0.0
 10
96.5139573705
 20
32.3007228031
 30
0.0
 10
96.5651924438
 20
32.4626658159
 30
0.0
  0
SPLINE
  5
376
100
AcDbEntity
  8
0
100
AcDbSpline
 62
7
  6
BYLAYER
 70
0
 71
3
 72
9
 73
5
 74
0
 42
0.0000001
 43
0.0000001
 44
0.0000000001
 40
0.0
 40
0.0
 40
0.0
 40
0.0
 40
0.4994102855
 40
1.0
 40
1.0
 40
1.0
 40
1.0
 10
95.6114636525
 20
31.0504047084
 30
0.0
 10
95.7764128825
 20
31.089218821
 30
0.0
 10
96.0914844964
 20
31.2574175991
 30
0.0
 10
96.2794063007
 20
31.5602222869
 30
0.0
 10
96.3306413741
 20
31.7221652998
 30
0.0
  0
SPLINE
  5
377
100
AcDbEntity
  8
0
100
AcDbSpline
 62
7
  6
BYLAYER
 70
0
 71
3
 72
9
 73
5
 74
0
 42
0.0000001
 43
0.0000001
 44
0.0000000001
 40
0.0
 40
0.0
 40
0.0
 40
0.0
 40
0.4994102855
 40
1.0
 40
1.0
 40
1.0
 40
1.0
 10
95.7287391874
 20
31.4206549665
 30
0.0
 10
95.8936884174
 20
31.4594690791
 30
0.0
 10
96.2087600313
 20
31.6276678572
 30
0.0
 10
96.3966818356
 20
31.930472545
 30
0.0
 10
96.447916909
 20
32.0924155579
 30
0.0
  0
SPLINE
  5
378
100
AcDbEntity
  8
0
100
AcDbSpline
 62
7
  6
BYLAYER
 70
0
 71
3
 72
27
 73
23
 74
0
 42
0.0000001
 43
0.0000001
 44
0.0000000001
 40
0.0
 40
0.0
 40
0.0
 40
0.0
 40
0.000600154
 40
0.0016598865
 40
0.0055045408
 40
0.0117564857
 40
0.0204255385
 40
0.0314985404
 40
0.0449548857
 40
0.0607583192
 40
0.0788651498
 40
0.0992307848
 40
0.1218013373
 40
0.1732985024
 40
0.2328073408
 40
0.2996792336
 40
0.3731922355
 40
0.4525474006
 40
0.5368853615
 40
0.6252967483
 40
0.8104423453
 40
1.0
 40
1.0
 40
1.0
 40
1.0
 10
61.2244415412
 20
50.4930023612
 30
0.0
 10
61.2244442955
 20
50.488742346
 30
0.0
 10
61.2332073178
 20
50.4784699961
 30
0.0
 10
61.2684576397
 20
50.4630341766
 30
0.0
 10
61.346509615
 20
50.4443435472
 30
0.0
 10
61.4777306542
 20
50.424247558
 30
0.0
 10
61.6613076176
 20
50.4033934502
 30
0.0
 10
61.8959704594
 20
50.3826325206
 30
0.0
 10
62.1815523407
 20
50.3619642217
 30
0.0
 10
62.5171463377
 20
50.3415699682
 30
0.0
 10
62.9018923052
 20
50.3215121208
 30
0.0
 10
63.3347447058
 20
50.3018783666
 30
0.0
 10
64.0045225095
 20
50.2751641427
 30
0.0
 10
64.9521722471
 20
50.2439325689
 30
0.0
 10
66.2143458014
 20
50.2103773439
 30
0.0
 10
67.63290658
 20
50.179734823
 30
0.0
 10
69.192430069
 20
50.1523708673
 30
0.0
 10
70.8760031185
 20
50.1286137126
 30
0.0
 10
72.6653846667
 20
50.1087290871
 30
0.0
 10
75.2057092983
 20
50.0873776167
 30
0.0
 10
78.492969518
 20
50.0721095721
 30
0.0
 10
81.1527001697
 20
50.0716821183
 30
0.0
 10
82.4982163419
 20
50.074512044
 30
0.0
  0
SPLINE
  5
379
100
AcDbEntity
  8
0
100
AcDbSpline
 62
7
  6
BYLAYER
 70
0
 71
3
 72
17
 73
13
 74
0
 42
0.0000001
 43
0.0000001
 44
0.0000000001
 40
0.0
 40
0.0
 40
0.0
 40
0.0
 40
0.2174152126
 40
0.4143477481
 40
0.5869069505
 40
0.7317896256
 40
0.8469834991
 40
0.9306773733
 40
0.9602890668
 40
0.9816575676
 40
0.9947783919
 40
1.0
 40
1.0
 40
1.0
 40
1.0
 10
92.5695585173
 20
47.8738931491
 30
0.0
 10
92.5350737065
 20
47.8734320476
 30
0.0
 10
92.4693555374
 20
47.872432393
 30
0.0
 10
92.3762694396
 20
47.8706042088
 30
0.0
 10
92.2947146305
 20
47.8685482909
 30
0.0
 10
92.2260841963
 20
47.8663074826
 30
0.0
 10
92.171705259
 20
47.8639204469
 30
0.0
 10
92.1353076845
 20
47.8617304124
 30
0.0
 10
92.1143210413
 20
47.8597725156
 30
0.0
 10
92.1037471298
 20
47.8584910451
 30
0.0
 10
92.0984438359
 20
47.8573062818
 30
0.0
 10
92.0946698382
 20
47.8562758119
 30
0.0
 10
92.0946416914
 20
47.8554480029
 30
0.0
  0
SPLINE
  5
37A
100
AcDbEntity
  8
0
100
AcDbSpline
 62
7
  6
BYLAYER
 70
0
 71
3
 72
11
 73
7
 74
0
 42
0.0000001
 43
0.0000001
 44
0.0000000001
 40
0.0
 40
0.0
 40
0.0
 40
0.0
 40
0.2504073215
 40
0.500552219
 40
0.7502732185
 40
1.0
 40
1.0
 40
1.0
 40
1.0
 10
96.5182797332
 20
32.3145664936
 30
0.0
 10
96.4889484883
 20
32.2218513189
 30
0.0
 10
96.4029953851
 20
32.0439410609
 30
0.0
 10
96.2035311569
 20
31.8260232402
 30
0.0
 10
95.9495563903
 20
31.6754505349
 30
0.0
 10
95.7577265843
 20
31.6291200686
 30
0.0
 10
95.6611287973
 20
31.6205199012
 30
0.0
  0
SPLINE
  5
37B
100
AcDbEntity
  8
0
100
AcDbSpline
 62
7
  6
BYLAYER
 70
0
 71
3
 72
11
 73
7
 74
0
 42
0.0000001
 43
0.0000001
 44
0.0000000001
 40
0.0
 40
0.0
 40
0.0
 40
0.0
 40
0.2504073215
 40
0.500552219
 40
0.7502732185
 40
1.0
 40
1.0
 40
1.0
 40
1.0
 10
96.8701063378
 20
33.4253172679
 30
0.0
 10
96.840775093
 20
33.3326020932
 30
0.0
 10
96.7548219897
 20
33.1546918352
 30
0.0
 10
96.5553577615
 20
32.9367740145
 30
0.0
 10
96.301382995
 20
32.7862013092
 30
0.0
 10
96.1095531889
 20
32.7398708429
 30
0.0
 10
96.012955402
 20
32.7312706755
 30
0.0
  0
SPLINE
  5
37C
100
AcDbEntity
  8
0
100
AcDbSpline
 62
7
  6
BYLAYER
 70
0
 71
3
 72
11
 73
7
 74
0
 42
0.0000001
 43
0.0000001
 44
0.0000000001
 40
0.0
 40
0.0
 40
0.0
 40
0.0
 40
0.2512299912
 40
0.5015230125
 40
0.7509959358
 40
1.0
 40
1.0
 40
1.0
 40
1.0
 10
91.1219944077
 20
20.6934744406
 30
0.0
 10
91.2255825971
 20
20.6944360902
 30
0.0
 10
91.433511737
 20
20.728718584
 30
0.0
 10
91.7131365732
 20
20.8728653891
 30
0.0
 10
91.9341698222
 20
21.0954871603
 30
0.0
 10
92.0281678104
 20
21.2828568143
 30
0.0
 10
92.0591212709
 20
21.3807547198
 30
0.0
  0
SPLINE
  5
37D
100
AcDbEntity
  8
0
100
AcDbSpline
 62
7
  6
BYLAYER
 70
0
 71
3
 72
13
 73
9
 74
0
 42
0.0000001
 43
0.0000001
 44
0.0000000001
 40
0.0
 40
0.0
 40
0.0
 40
0.0
 40
0.3464808997
 40
0.656080281
 40
0.782943352
 40
0.8847902199
 40
0.9580204402
 40
1.0
 40
1.0
 40
1.0
 40
1.0
 10
86.7689284869
 20
45.8948816134
 30
0.0
 10
86.5807491953
 20
45.8944858297
 30
0.0
 10
86.2244212554
 20
45.8951952182
 30
0.0
 10
85.7991928799
 20
45.8994333485
 30
0.0
 10
85.5069011914
 20
45.9053145599
 30
0.0
 10
85.342939295
 20
45.9098577334
 30
0.0
 10
85.2252414166
 20
45.9153388729
 30
0.0
 10
85.1626813785
 20
45.9191797041
 30
0.0
 10
85.1401234083
 20
45.9224917518
 30
0.0
  0
SPLINE
  5
37E
100
AcDbEntity
  8
0
100
AcDbSpline
 62
7
  6
BYLAYER
 70
0
 71
3
 72
9
 73
5
 74
0
 42
0.0000001
 43
0.0000001
 44
0.0000000001
 40
0.0
 40
0.0
 40
0.0
 40
0.0
 40
0.4927369709
 40
1.0
 40
1.0
 40
1.0
 40
1.0
 10
72.7349929974
 20
23.0981005539
 30
0.0
 10
72.7248737106
 20
23.2913088275
 30
0.0
 10
72.5901259022
 20
23.6842342395
 30
0.0
 10
72.2663979553
 20
23.9471335901
 30
0.0
 10
72.0826544613
 20
24.0240081914
 30
0.0
  0
SPLINE
  5
37F
100
AcDbEntity
  8
0
100
AcDbSpline
 62
7
  6
BYLAYER
 70
0
 71
3
 72
11
 73
7
 74
0
 42
0.0000001
 43
0.0000001
 44
0.0000000001
 40
0.0
 40
0.0
 40
0.0
 40
0.0
 40
0.3212353856
 40
0.5967621025
 40
0.8209744215
 40
1.0
 40
1.0
 40
1.0
 40
1.0
 10
72.6248725684
 20
26.520194599
 30
0.0
 10
72.7067609195
 20
26.5002516134
 30
0.0
 10
72.8567336971
 20
26.4531075366
 30
0.0
 10
73.0503286006
 20
26.3558502562
 30
0.0
 10
73.1900889136
 20
26.2429382488
 30
0.0
 10
73.2487156656
 20
26.1506019934
 30
0.0
 10
73.262526363
 20
26.1057077096
 30
0.0
  0
SPLINE
  5
380
100
AcDbEntity
  8
0
100
AcDbSpline
 62
7
  6
BYLAYER
 70
0
 71
3
 72
8
 73
4
 74
0
 42
0.0000001
 43
0.0000001
 44
0.0000000001
 40
0.0
 40
0.0
 40
0.0
 40
0.0
 40
1.0
 40
1.0
 40
1.0
 40
1.0
 10
72.6248725684
 20
26.520194599
 30
0.0
 10
72.5767783678
 20
26.5319073999
 30
0.0
 10
72.5269618248
 20
26.5377479449
 30
0.0
 10
72.4774636283
 20
26.538160701
 30
0.0
  0
SPLINE
  5
381
100
AcDbEntity
  8
0
100
AcDbSpline
 62
7
  6
BYLAYER
 70
0
 71
3
 72
27
 73
23
 74
0
 42
0.0000001
 43
0.0000001
 44
0.0000000001
 40
0.0
 40
0.0
 40
0.0
 40
0.0
 40
0.1895533532
 40
0.374697453
 40
0.4631078009
 40
0.547446164
 40
0.6268016436
 40
0.7003168551
 40
0.7671892
 40
0.8266974265
 40
0.8781980799
 40
0.9007666801
 40
0.9211320552
 40
0.9392416372
 40
0.955043872
 40
0.9684982768
 40
0.9795740681
 40
0.9882432078
 40
0.9944921431
 40
0.9983387693
 40
0.9993998127
 40
1.0
 40
1.0
 40
1.0
 40
1.0
 10
82.8217924337
 20
50.0022469637
 30
0.0
 10
81.2439647159
 20
49.9989284341
 30
0.0
 10
78.1249928936
 20
49.9994300999
 30
0.0
 10
74.2701366405
 20
50.0173325018
 30
0.0
 10
71.2911596924
 20
50.0423718977
 30
0.0
 10
69.1927855747
 20
50.0656875273
 30
0.0
 10
67.2184642885
 20
50.0935504188
 30
0.0
 10
65.3896132672
 20
50.1256366929
 30
0.0
 10
63.7260745112
 20
50.16157063
 30
0.0
 10
62.2459178953
 20
50.2009259228
 30
0.0
 10
61.1346174721
 20
50.2375424146
 30
0.0
 10
60.3491702053
 20
50.268875161
 30
0.0
 10
59.8415673429
 20
50.2919020855
 30
0.0
 10
59.3903712849
 20
50.3154170103
 30
0.0
 10
58.9968293032
 20
50.3393342131
 30
0.0
 10
58.6619358808
 20
50.3635807651
 30
0.0
 10
58.3867426574
 20
50.3879174599
 30
0.0
 10
58.1714646214
 20
50.4123679141
 30
0.0
 10
58.0175953989
 20
50.4359454464
 30
0.0
 10
57.9260623509
 20
50.4578802007
 30
0.0
 10
57.8846940983
 20
50.4759502575
 30
0.0
 10
57.8743930544
 20
50.4880064381
 30
0.0
 10
57.8743981274
 20
50.4930023597
 30
0.0
  0
SPLINE
  5
382
100
AcDbEntity
  8
0
100
AcDbSpline
 62
7
  6
BYLAYER
 70
0
 71
3
 72
11
 73
7
 74
0
 42
0.0000001
 43
0.0000001
 44
0.0000000001
 40
0.0
 40
0.0
 40
0.0
 40
0.0
 40
0.2504073215
 40
0.500552219
 40
0.7502732185
 40
1.0
 40
1.0
 40
1.0
 40
1.0
 10
96.0491775936
 20
30.8335654612
 30
0.0
 10
96.0198463488
 20
30.7408502865
 30
0.0
 10
95.9338932455
 20
30.5629400285
 30
0.0
 10
95.7344290173
 20
30.3450222078
 30
0.0
 10
95.4804542508
 20
30.1944495025
 30
0.0
 10
95.2886244447
 20
30.1481190362
 30
0.0
 10
95.1920266578
 20
30.1395188688
 30
0.0
  0
SPLINE
  5
383
100
AcDbEntity
  8
0
100
AcDbSpline
 62
7
  6
BYLAYER
 70
0
 71
3
 72
26
 73
22
 74
0
 42
0.0000001
 43
0.0000001
 44
0.0000000001
 40
0.0
 40
0.0
 40
0.0
 40
0.0
 40
0.1998127388
 40
0.3892437311
 40
0.4780471229
 40
0.5618970179
 40
0.6400745135
 40
0.7119228301
 40
0.7768346066
 40
0.834258769
 40
0.8837110778
 40
0.9247736593
 40
0.9420499133
 40
0.9571093549
 40
0.9699183039
 40
0.980452388
 40
0.9886993804
 40
0.9946545031
 40
0.9983381365
 40
0.9993754111
 40
1.0
 40
1.0
 40
1.0
 40
1.0
 10
82.4982163419
 20
50.074512044
 30
0.0
 10
83.6669216069
 20
50.0769700963
 30
0.0
 10
85.9436024636
 20
50.0862444043
 30
0.0
 10
88.7396215579
 20
50.1094960476
 30
0.0
 10
90.8573056195
 20
50.1351005766
 30
0.0
 10
92.3242593257
 20
50.1568756786
 30
0.0
 10
93.691983861
 20
50.1814456046
 30
0.0
 10
94.9488676126
 20
50.208581593
 30
0.0
 10
96.0842765308
 20
50.2380366981
 30
0.0
 10
97.0885823167
 20
50.2695117091
 30
0.0
 10
97.9532508768
 20
50.3027107588
 30
0.0
 10
98.583016148
 20
50.3329111406
 30
0.0
 10
99.0115699308
 20
50.3584703489
 30
0.0
 10
99.2749877027
 20
50.3767447158
 30
0.0
 10
99.4988729601
 20
50.3951836705
 30
0.0
 10
99.6826784636
 20
50.4136816694
 30
0.0
 10
99.8263398474
 20
50.4321341142
 30
0.0
 10
99.9291487616
 20
50.450107342
 30
0.0
 10
99.990132483
 20
50.4664403994
 30
0.0
 10
100.017889401
 20
50.480481048
 30
0.0
 10
100.0243062317
 20
50.4893491287
 30
0.0
 10
100.0243038697
 20
50.4930023585
 30
0.0
  0
SPLINE
  5
384
100
AcDbEntity
  8
0
100
AcDbSpline
 62
7
  6
BYLAYER
 70
0
 71
3
 72
25
 73
21
 74
0
 42
0.0000001
 43
0.0000001
 44
0.0000000001
 40
0.0
 40
0.0
 40
0.0
 40
0.0
 40
0.2007057083
 40
0.3905222921
 40
0.479362714
 40
0.5631681553
 40
0.6412506426
 40
0.7129581481
 40
0.7777042976
 40
0.8349488255
 40
0.884228592
 40
0.9251308727
 40
0.9423378205
 40
0.9573339881
 40
0.9700865876
 40
0.980575892
 40
0.9887886182
 40
0.9947185524
 40
0.9983882563
 40
1.0
 40
1.0
 40
1.0
 40
1.0
 10
78.394726742
 20
51.0750970966
 30
0.0
 10
77.2446638332
 20
51.0779811321
 30
0.0
 10
75.0069421178
 20
51.0879584674
 30
0.0
 10
72.2602324769
 20
51.1118205633
 30
0.0
 10
70.1834406806
 20
51.137713565
 30
0.0
 10
68.7469033396
 20
51.1596003233
 30
0.0
 10
67.4085981983
 20
51.1841786187
 30
0.0
 10
66.1795761482
 20
51.2112429071
 30
0.0
 10
65.0700467753
 20
51.2405354726
 30
0.0
 10
64.0891362279
 20
51.2717846226
 30
0.0
 10
63.2450051745
 20
51.3046782336
 30
0.0
 10
62.6303466583
 20
51.3345868487
 30
0.0
 10
62.2122289497
 20
51.3598517297
 30
0.0
 10
61.9551949624
 20
51.3779489033
 30
0.0
 10
61.7370188864
 20
51.3960846029
 30
0.0
 10
61.557189782
 20
51.4146171654
 30
0.0
 10
61.4185076793
 20
51.4321795014
 30
0.0
 10
61.3149321555
 20
51.4514595033
 30
0.0
 10
61.2584141089
 20
51.4656243278
 30
0.0
 10
61.2244462272
 20
51.4835319994
 30
0.0
 10
61.2244416521
 20
51.4927674731
 30
0.0
  0
SPLINE
  5
385
100
AcDbEntity
  8
0
100
AcDbSpline
 62
7
  6
BYLAYER
 70
0
 71
3
 72
18
 73
14
 74
0
 42
0.0000001
 43
0.0000001
 44
0.0000000001
 40
0.0
 40
0.0
 40
0.0
 40
0.0
 40
0.2275425118
 40
0.4276358441
 40
0.5990414515
 40
0.7407688856
 40
0.8520571458
 40
0.8960640715
 40
0.9322396928
 40
0.9605772216
 40
0.9811033982
 40
0.9939587936
 40
1.0
 40
1.0
 40
1.0
 40
1.0
 10
72.8720304273
 20
51.6117733082
 30
0.0
 10
72.7388376642
 20
51.6076972195
 30
0.0
 10
72.4885359682
 20
51.5994559465
 30
0.0
 10
72.1379885481
 20
51.5857476038
 30
0.0
 10
71.8377522972
 20
51.5715670006
 30
0.0
 10
71.589637826
 20
51.5570254268
 30
0.0
 10
71.4161266087
 20
51.5439615782
 30
0.0
 10
71.304592435
 20
51.5329585939
 30
0.0
 10
71.241374127
 20
51.5252214933
 30
0.0
 10
71.1924515415
 20
51.5179038729
 30
0.0
 10
71.1563285169
 20
51.50986525
 30
0.0
 10
71.1356507244
 20
51.5039376374
 30
0.0
 10
71.1243926749
 20
51.4963053658
 30
0.0
 10
71.1243969927
 20
51.4927674727
 30
0.0
  0
SPLINE
  5
386
100
AcDbEntity
  8
0
100
AcDbSpline
 62
7
  6
BYLAYER
 70
0
 71
3
 72
21
 73
17
 74
0
 42
0.0000001
 43
0.0000001
 44
0.0000000001
 40
0.0
 40
0.0
 40
0.0
 40
0.0
 40
0.1996982202
 40
0.3893221846
 40
0.5619506855
 40
0.7119528801
 40
0.7768837927
 40
0.8343049015
 40
0.883750058
 40
0.9248262719
 40
0.9571540464
 40
0.9804885965
 40
0.9887414589
 40
0.9947045544
 40
0.9983940403
 40
1.0
 40
1.0
 40
1.0
 40
1.0
 10
81.8317461825
 20
51.2231216507
 30
0.0
 10
81.6812358913
 20
51.2228050934
 30
0.0
 10
81.3878090496
 20
51.2216066754
 30
0.0
 10
80.9642852652
 20
51.218087989
 30
0.0
 10
80.5782363524
 20
51.212986862
 30
0.0
 10
80.2861850085
 20
51.2073654969
 30
0.0
 10
80.0809840351
 20
51.2020501996
 30
0.0
 10
79.9515608254
 20
51.1979916694
 30
0.0
 10
79.8401512504
 20
51.1937161056
 30
0.0
 10
79.7476306494
 20
51.1892703494
 30
0.0
 10
79.6749485043
 20
51.1847460095
 30
0.0
 10
79.6267559391
 20
51.1805736399
 30
0.0
 10
79.5989221563
 20
51.1770992051
 30
0.0
 10
79.5852108233
 20
51.1745783199
 30
0.0
 10
79.5777645444
 20
51.1727451249
 30
0.0
 10
79.5732439633
 20
51.1704028448
 30
0.0
 10
79.5732538955
 20
51.1691924892
 30
0.0
  0
SPLINE
  5
387
100
AcDbEntity
  8
0
100
AcDbSpline
 62
7
  6
BYLAYER
 70
0
 71
3
 72
11
 73
7
 74
0
 42
0.0000001
 43
0.0000001
 44
0.0000000001
 40
0.0
 40
0.0
 40
0.0
 40
0.0
 40
0.2504073215
 40
0.500552219
 40
0.7502732185
 40
1.0
 40
1.0
 40
1.0
 40
1.0
 10
96.6355552681
 20
32.6848167517
 30
0.0
 10
96.6062240232
 20
32.592101577
 30
0.0
 10
96.5202709199
 20
32.414191319
 30
0.0
 10
96.3208066918
 20
32.1962734983
 30
0.0
 10
96.0668319252
 20
32.045700793
 30
0.0
 10
95.8750021191
 20
31.9993703267
 30
0.0
 10
95.7784043322
 20
31.9907701593
 30
0.0
  0
SPLINE
  5
388
100
AcDbEntity
  8
0
100
AcDbSpline
 62
7
  6
BYLAYER
 70
0
 71
3
 72
8
 73
4
 74
0
 42
0.0000001
 43
0.0000001
 44
0.0000000001
 40
0.0
 40
0.0
 40
0.0
 40
0.0
 40
1.0
 40
1.0
 40
1.0
 40
1.0
 10
91.0462688745
 20
20.5860299729
 30
0.0
 10
91.0526437962
 20
20.5860436712
 30
0.0
 10
91.059101044
 20
20.5885936983
 30
0.0
 10
91.0643841793
 20
20.5921613718
 30
0.0
  0
SPLINE
  5
389
100
AcDbEntity
  8
0
100
AcDbSpline
 62
7
  6
BYLAYER
 70
0
 71
3
 72
9
 73
5
 74
0
 42
0.0000001
 43
0.0000001
 44
0.0000000001
 40
0.0
 40
0.0
 40
0.0
 40
0.0
 40
0.3866817241
 40
1.0
 40
1.0
 40
1.0
 40
1.0
 10
91.0643841793
 20
20.5921613718
 30
0.0
 10
91.0769494193
 20
20.600646612
 30
0.0
 10
91.0996847909
 20
20.6347098368
 30
0.0
 10
91.1140464234
 20
20.6707773554
 30
0.0
 10
91.1219944077
 20
20.6934744406
 30
0.0
  0
SPLINE
  5
38A
100
AcDbEntity
  8
0
100
AcDbSpline
 62
7
  6
BYLAYER
 70
0
 71
3
 72
11
 73
7
 74
0
 42
0.0000001
 43
0.0000001
 44
0.0000000001
 40
0.0
 40
0.0
 40
0.0
 40
0.0
 40
0.2489322577
 40
0.4983126369
 40
0.7487040237
 40
1.0
 40
1.0
 40
1.0
 40
1.0
 10
73.9139550845
 20
20.5631065495
 30
0.0
 10
73.7984195104
 20
20.5800930842
 30
0.0
 10
73.5711857602
 20
20.656566587
 30
0.0
 10
73.2937791154
 20
20.8837469316
 30
0.0
 10
73.1119265807
 20
21.1939210119
 30
0.0
 10
73.0699508766
 20
21.431386617
 30
0.0
 10
73.0699508766
 20
21.549273085
 30
0.0
  0
SPLINE
  5
38B
100
AcDbEntity
  8
0
100
AcDbSpline
 62
7
  6
BYLAYER
 70
0
 71
3
 72
9
 73
5
 74
0
 42
0.0000001
 43
0.0000001
 44
0.0000000001
 40
0.0
 40
0.0
 40
0.0
 40
0.0
 40
0.500297321
 40
1.0
 40
1.0
 40
1.0
 40
1.0
 10
97.1046574076
 20
34.1658177841
 30
0.0
 10
97.073008462
 20
34.0657764278
 30
0.0
 10
96.9779997923
 20
33.8744785928
 30
0.0
 10
96.8281995355
 20
33.7220443566
 30
0.0
 10
96.7438472701
 20
33.6598473528
 30
0.0
  0
SPLINE
  5
38C
100
AcDbEntity
  8
0
100
AcDbSpline
 62
7
  6
BYLAYER
 70
0
 71
3
 72
11
 73
7
 74
0
 42
0.0000001
 43
0.0000001
 44
0.0000000001
 40
0.0
 40
0.0
 40
0.0
 40
0.0
 40
0.2504073215
 40
0.500552219
 40
0.7502732185
 40
1.0
 40
1.0
 40
1.0
 40
1.0
 10
96.2837286634
 20
31.5740659774
 30
0.0
 10
96.2543974186
 20
31.4813508027
 30
0.0
 10
96.1684443153
 20
31.3034405447
 30
0.0
 10
95.9689800871
 20
31.085522724
 30
0.0
 10
95.7150053206
 20
30.9349500187
 30
0.0
 10
95.5231755145
 20
30.8886195524
 30
0.0
 10
95.4265777275
 20
30.880019385
 30
0.0
  0
SPLINE
  5
38D
100
AcDbEntity
  8
0
100
AcDbSpline
 62
7
  6
BYLAYER
 70
0
 71
3
 72
20
 73
16
 74
0
 42
0.0000001
 43
0.0000001
 44
0.0000000001
 40
0.0
 40
0.0
 40
0.0
 40
0.0
 40
0.0016253293
 40
0.0053233886
 40
0.0195177034
 40
0.0428549128
 40
0.0752143909
 40
0.1162866381
 40
0.1657325884
 40
0.2231819174
 40
0.2881096886
 40
0.4380872005
 40
0.6107120578
 40
0.80036465
 40
1.0
 40
1.0
 40
1.0
 40
1.0
 10
97.2295707554
 20
45.9463901668
 30
0.0
 10
97.2295552292
 20
45.9456553432
 30
0.0
 10
97.226838637
 20
45.9442829776
 30
0.0
 10
97.2189878506
 20
45.9423127003
 30
0.0
 10
97.1997491417
 20
45.9397255065
 30
0.0
 10
97.1686858357
 20
45.9370818674
 30
0.0
 10
97.1248211321
 20
45.934329053
 30
0.0
 10
97.0693894186
 20
45.9316755733
 30
0.0
 10
97.0025002876
 20
45.9291060736
 30
0.0
 10
96.9248465109
 20
45.9266757575
 30
0.0
 10
96.8017228504
 20
45.9234844183
 30
0.0
 10
96.6265111175
 20
45.9201126688
 30
0.0
 10
96.3948835816
 20
45.9170517618
 30
0.0
 10
96.1407899812
 20
45.9149423738
 30
0.0
 10
95.9647515322
 20
45.9142225153
 30
0.0
 10
95.8744749376
 20
45.9140326431
 30
0.0
  0
SPLINE
  5
38E
100
AcDbEntity
  8
0
100
AcDbSpline
 62
7
  6
BYLAYER
 70
0
 71
3
 72
12
 73
8
 74
0
 42
0.0000001
 43
0.0000001
 44
0.0000000001
 40
0.0
 40
0.0
 40
0.0
 40
0.0
 40
0.3489717459
 40
0.644446305
 40
0.8664634999
 40
0.945002224
 40
1.0
 40
1.0
 40
1.0
 40
1.0
 10
78.9454409935
 20
57.1083967509
 30
0.0
 10
78.499681392
 20
57.105390129
 30
0.0
 10
77.6765022575
 20
57.0975447013
 30
0.0
 10
76.5698716586
 20
57.0784067439
 30
0.0
 10
75.8087351044
 20
57.0575572704
 30
0.0
 10
75.3550543864
 20
57.0364778307
 30
0.0
 10
75.1847986962
 20
57.0252732079
 30
0.0
 10
75.1148629865
 20
57.0186028605
 30
0.0
  0
SPLINE
  5
38F
100
AcDbEntity
  8
0
100
AcDbSpline
 62
7
  6
BYLAYER
 70
0
 71
3
 72
9
 73
5
 74
0
 42
0.0000001
 43
0.0000001
 44
0.0000000001
 40
0.0
 40
0.0
 40
0.0
 40
0.0
 40
0.3135324586
 40
1.0
 40
1.0
 40
1.0
 40
1.0
 10
75.1148629865
 20
57.0186028605
 30
0.0
 10
75.1035910408
 20
57.0175277617
 30
0.0
 10
75.0676785064
 20
57.0138281649
 30
0.0
 10
75.0317451202
 20
57.0095524259
 30
0.0
 10
75.0074325511
 20
57.0047029329
 30
0.0
  0
LINE
  5
390
100
AcDbEntity
  8
0
100
AcDbLine
 62
7
  6
BYLAYER
 10
81.1550672982
 20
51.2879167867
 11
81.2346868064
 21
57.1132115541
  0
SPLINE
  5
391
100
AcDbEntity
  8
0
100
AcDbSpline
 62
7
  6
BYLAYER
 70
0
 71
3
 72
12
 73
8
 74
0
 42
0.0000001
 43
0.0000001
 44
0.0000000001
 40
0.0
 40
0.0
 40
0.0
 40
0.0
 40
0.0626565703
 40
0.1476992821
 40
0.3772348856
 40
0.6694432706
 40
1.0
 40
1.0
 40
1.0
 40
1.0
 10
86.0191561401
 20
57.0278630855
 30
0.0
 10
85.9194463126
 20
57.0348068989
 30
0.0
 10
85.6841104492
 20
57.0468147563
 30
0.0
 10
85.0827344393
 20
57.0687478704
 30
0.0
 10
84.1149515739
 20
57.0896324924
 30
0.0
 10
82.7554458809
 20
57.1066795736
 30
0.0
 10
81.7619976612
 20
57.1119697892
 30
0.0
 10
81.2346868064
 20
57.1132115541
 30
0.0
  0
SPLINE
  5
392
100
AcDbEntity
  8
0
100
AcDbSpline
 62
7
  6
BYLAYER
 70
0
 71
3
 72
22
 73
18
 74
0
 42
0.0000001
 43
0.0000001
 44
0.0000000001
 40
0.0
 40
0.0
 40
0.0
 40
0.0
 40
0.2154468403
 40
0.409362039
 40
0.5791668066
 40
0.6543081856
 40
0.722580949
 40
0.7837610888
 40
0.8376445539
 40
0.8840437466
 40
0.9228178373
 40
0.9538392209
 40
0.9770193477
 40
0.985661719
 40
0.9923443731
 40
0.9970919403
 40
1.0
 40
1.0
 40
1.0
 40
1.0
 10
93.7486152724
 20
26.5957795839
 30
0.0
 10
94.4406906296
 20
26.6063741892
 30
0.0
 10
95.7556421657
 20
26.6288521046
 30
0.0
 10
97.6158784058
 20
26.6690160697
 30
0.0
 10
99.0252792808
 20
26.7073561583
 30
0.0
 10
100.0309943039
 20
26.740685528
 30
0.0
 10
100.687819809
 20
26.7654979471
 30
0.0
 10
101.2762649328
 20
26.7910496033
 30
0.0
 10
101.7943363804
 20
26.817223709
 30
0.0
 10
102.2402804977
 20
26.8439285038
 30
0.0
 10
102.6126289685
 20
26.8709323226
 30
0.0
 10
102.9100580398
 20
26.8981757037
 30
0.0
 10
103.1106566391
 20
26.9223079861
 30
0.0
 10
103.2325543665
 20
26.9429673124
 30
0.0
 10
103.2957728709
 20
26.9567433579
 30
0.0
 10
103.3394797015
 20
26.9702810037
 30
0.0
 10
103.3623691659
 20
26.9812195368
 30
0.0
 10
103.3689675008
 20
26.9878336151
 30
0.0
  0
LINE
  5
393
100
AcDbEntity
  8
0
100
AcDbLine
 62
7
  6
BYLAYER
 10
82.496303779
 20
51.2920661798
 11
82.4212455396
 21
56.8482143424
  0
SPLINE
  5
394
100
AcDbEntity
  8
0
100
AcDbSpline
 62
7
  6
BYLAYER
 70
0
 71
3
 72
18
 73
14
 74
0
 42
0.0000001
 43
0.0000001
 44
0.0000000001
 40
0.0
 40
0.0
 40
0.0
 40
0.0
 40
0.0117696582
 40
0.0314352162
 40
0.0589307766
 40
0.0941142191
 40
0.1367688179
 40
0.1866629863
 40
0.3069345438
 40
0.4520947671
 40
0.6186657329
 40
0.8028161149
 40
1.0
 40
1.0
 40
1.0
 40
1.0
 10
87.456654085
 20
56.9808043926
 30
0.0
 10
87.4377223685
 20
56.9751108757
 30
0.0
 10
87.3852604439
 20
56.9671281055
 30
0.0
 10
87.2870049855
 20
56.9562848946
 30
0.0
 10
87.1490007287
 20
56.9458528657
 30
0.0
 10
86.9724131387
 20
56.9352970821
 30
0.0
 10
86.7580932248
 20
56.9250631341
 30
0.0
 10
86.4009029402
 20
56.9109440296
 30
0.0
 10
85.8714757681
 20
56.8951759237
 30
0.0
 10
85.1460205584
 20
56.8791914452
 30
0.0
 10
84.3132003954
 20
56.8656984729
 30
0.0
 10
83.3929513243
 20
56.8550516686
 30
0.0
 10
82.7524466399
 20
56.8501656177
 30
0.0
 10
82.4212455396
 20
56.8482143424
 30
0.0
  0
SPLINE
  5
395
100
AcDbEntity
  8
0
100
AcDbSpline
 62
7
  6
BYLAYER
 70
0
 71
3
 72
11
 73
7
 74
0
 42
0.0000001
 43
0.0000001
 44
0.0000000001
 40
0.0
 40
0.0
 40
0.0
 40
0.0
 40
0.2672688115
 40
0.5295461158
 40
0.7782026104
 40
1.0
 40
1.0
 40
1.0
 40
1.0
 10
86.7689284869
 20
36.4301465219
 30
0.0
 10
86.637858536
 20
36.2436829236
 30
0.0
 10
86.3756408925
 20
35.8760311439
 30
0.0
 10
85.9891139841
 20
35.336528421
 30
0.0
 10
85.6321430786
 20
34.8238005218
 30
0.0
 10
85.4149514169
 20
34.4858748188
 30
0.0
 10
85.3225896896
 20
34.3208149295
 30
0.0
  0
SPLINE
  5
396
100
AcDbEntity
  8
0
100
AcDbSpline
 62
7
  6
BYLAYER
 70
0
 71
3
 72
9
 73
5
 74
0
 42
0.0000001
 43
0.0000001
 44
0.0000000001
 40
0.0
 40
0.0
 40
0.0
 40
0.0
 40
0.2663128153
 40
1.0
 40
1.0
 40
1.0
 40
1.0
 10
85.3225896896
 20
34.3208149295
 30
0.0
 10
85.2994323236
 20
34.3492130751
 30
0.0
 10
85.2182253796
 20
34.4602900564
 30
0.0
 10
85.1613289825
 20
34.5900116623
 30
0.0
 10
85.1401234083
 20
34.6887104997
 30
0.0
  0
SPLINE
  5
397
100
AcDbEntity
  8
0
100
AcDbSpline
 62
7
  6
BYLAYER
 70
0
 71
3
 72
11
 73
7
 74
0
 42
0.0000001
 43
0.0000001
 44
0.0000000001
 40
0.0
 40
0.0
 40
0.0
 40
0.0
 40
0.2504073778
 40
0.5005523029
 40
0.7502733369
 40
1.0
 40
1.0
 40
1.0
 40
1.0
 10
96.9873818727
 20
33.795567526
 30
0.0
 10
96.9580482367
 20
33.7028447928
 30
0.0
 10
96.8720858158
 20
33.5249205771
 30
0.0
 10
96.6725970459
 20
33.3069916468
 30
0.0
 10
96.4185918602
 20
33.1564218773
 30
0.0
 10
96.2267420041
 20
33.110103812
 30
0.0
 10
96.1301355644
 20
33.1015124473
 30
0.0
  0
SPLINE
  5
398
100
AcDbEntity
  8
0
100
AcDbSpline
 62
7
  6
BYLAYER
 70
0
 71
3
 72
13
 73
9
 74
0
 42
0.0000001
 43
0.0000001
 44
0.0000000001
 40
0.0
 40
0.0
 40
0.0
 40
0.0
 40
0.3350749851
 40
0.6309397233
 40
0.7552543092
 40
0.8597506845
 40
0.9419920398
 40
1.0
 40
1.0
 40
1.0
 40
1.0
 10
80.1319997267
 20
56.8433995391
 30
0.0
 10
79.4485139655
 20
56.8444670616
 30
0.0
 10
78.1615279976
 20
56.8506273635
 30
0.0
 10
76.6210433118
 20
56.8690929561
 30
0.0
 10
75.5510283641
 20
56.8908931949
 30
0.0
 10
74.9167670799
 20
56.9083412596
 30
0.0
 10
74.4179094104
 20
56.9275039202
 30
0.0
 10
74.1321985074
 20
56.9431279975
 30
0.0
 10
74.0142480457
 20
56.9525319634
 30
0.0
  0
SPLINE
  5
399
100
AcDbEntity
  8
0
100
AcDbSpline
 62
7
  6
BYLAYER
 70
0
 71
3
 72
11
 73
7
 74
0
 42
0.0000001
 43
0.0000001
 44
0.0000000001
 40
0.0
 40
0.0
 40
0.0
 40
0.0
 40
0.2504073227
 40
0.5005522202
 40
0.7502732238
 40
1.0
 40
1.0
 40
1.0
 40
1.0
 10
95.9319020588
 20
30.4633152031
 30
0.0
 10
95.902570814
 20
30.3706000284
 30
0.0
 10
95.8166177118
 20
30.1926897684
 30
0.0
 10
95.617153479
 20
29.9747719569
 30
0.0
 10
95.3631787241
 20
29.8241992207
 30
0.0
 10
95.1713489068
 20
29.7778688122
 30
0.0
 10
95.0747511232
 20
29.7692686355
 30
0.0
  0
SPLINE
  5
39A
100
AcDbEntity
  8
0
100
AcDbSpline
 62
7
  6
BYLAYER
 70
0
 71
3
 72
26
 73
22
 74
0
 42
0.0000001
 43
0.0000001
 44
0.0000000001
 40
0.0
 40
0.0
 40
0.0
 40
0.0
 40
0.0006252804
 40
0.0016641321
 40
0.0053483664
 40
0.0113
 40
0.0195474152
 40
0.0300845787
 40
0.0428923346
 40
0.0579487164
 40
0.0752265779
 40
0.1162887015
 40
0.1657409065
 40
0.2231624591
 40
0.288075175
 40
0.3599220379
 40
0.4381001298
 40
0.5219473202
 40
0.6107530757
 40
0.8001825328
 40
1.0
 40
1.0
 40
1.0
 40
1.0
 10
103.3743472835
 20
50.4930023599
 30
0.0
 10
103.3743429285
 20
50.4887135402
 30
0.0
 10
103.366780467
 20
50.478319121
 30
0.0
 10
103.3342125239
 20
50.4618692038
 30
0.0
 10
103.2627056419
 20
50.4427026136
 30
0.0
 10
103.1421648162
 20
50.4216146883
 30
0.0
 10
102.9736932534
 20
50.399982797
 30
0.0
 10
102.7581317432
 20
50.3782977751
 30
0.0
 10
102.4955937849
 20
50.3566701741
 30
0.0
 10
102.1867069732
 20
50.3352350984
 30
0.0
 10
101.6841620722
 20
50.3052712942
 30
0.0
 10
100.9456406579
 20
50.2698496059
 30
0.0
 10
99.9316806341
 20
50.2309228379
 30
0.0
 10
98.7539613299
 20
50.1940078154
 30
0.0
 10
97.4225086297
 20
50.159471701
 30
0.0
 10
95.9485828039
 20
50.1276451494
 30
0.0
 10
94.3447007584
 20
50.0988365524
 30
0.0
 10
92.6244283743
 20
50.0732971261
 30
0.0
 10
90.1410704989
 20
50.0432751196
 30
0.0
 10
86.8621902227
 20
50.0160046834
 30
0.0
 10
84.1923448859
 20
50.0051295464
 30
0.0
 10
82.8217924337
 20
50.0022469637
 30
0.0
  0
SPLINE
  5
39B
100
AcDbEntity
  8
0
100
AcDbSpline
 62
7
  6
BYLAYER
 70
0
 71
3
 72
9
 73
5
 74
0
 42
0.0000001
 43
0.0000001
 44
0.0000000001
 40
0.0
 40
0.0
 40
0.0
 40
0.0
 40
0.4482737238
 40
1.0
 40
1.0
 40
1.0
 40
1.0
 10
85.7665711443
 20
33.6333336659
 30
0.0
 10
85.6659874901
 20
33.7059317392
 30
0.0
 10
85.4743403861
 20
33.9142931251
 30
0.0
 10
85.3615071273
 20
34.1731843427
 30
0.0
 10
85.3225896896
 20
34.3208149295
 30
0.0
  0
SPLINE
  5
39C
100
AcDbEntity
  8
0
100
AcDbSpline
 62
7
  6
BYLAYER
 70
0
 71
3
 72
11
 73
7
 74
0
 42
0.0000001
 43
0.0000001
 44
0.0000000001
 40
0.0
 40
0.0
 40
0.0
 40
0.0
 40
0.2504073215
 40
0.500552219
 40
0.7502732185
 40
1.0
 40
1.0
 40
1.0
 40
1.0
 10
96.7528308029
 20
33.0550670098
 30
0.0
 10
96.7234995581
 20
32.9623518351
 30
0.0
 10
96.6375464548
 20
32.7844415771
 30
0.0
 10
96.4380822267
 20
32.5665237564
 30
0.0
 10
96.1841074601
 20
32.4159510511
 30
0.0
 10
95.992277654
 20
32.3696205848
 30
0.0
 10
95.8956798671
 20
32.3610204174
 30
0.0
  0
SPLINE
  5
39D
100
AcDbEntity
  8
0
100
AcDbSpline
 62
7
  6
BYLAYER
 70
0
 71
3
 72
9
 73
5
 74
0
 42
0.0000001
 43
0.0000001
 44
0.0000000001
 40
0.0
 40
0.0
 40
0.0
 40
0.0
 40
0.4748751503
 40
1.0
 40
1.0
 40
1.0
 40
1.0
 10
96.4842388026
 20
33.6558875442
 30
0.0
 10
96.6177769846
 20
33.7233695725
 30
0.0
 10
96.8776092166
 20
33.9110261101
 30
0.0
 10
97.0662670967
 20
34.1721466101
 30
0.0
 10
97.1384796411
 20
34.3210088343
 30
0.0
  0
SPLINE
  5
39E
100
AcDbEntity
  8
0
100
AcDbSpline
 62
7
  6
BYLAYER
 70
0
 71
3
 72
11
 73
7
 74
0
 42
0.0000001
 43
0.0000001
 44
0.0000000001
 40
0.0
 40
0.0
 40
0.0
 40
0.0
 40
0.2496022353
 40
0.4992221521
 40
0.7493325701
 40
1.0
 40
1.0
 40
1.0
 40
1.0
 10
82.2480458754
 20
29.7386728546
 30
0.0
 10
82.1182040764
 20
29.7377105456
 30
0.0
 10
81.8551807717
 20
29.7893578302
 30
0.0
 10
81.5242917612
 20
30.0139787991
 30
0.0
 10
81.3050666002
 20
30.3488331945
 30
0.0
 10
81.2546040725
 20
30.6121618687
 30
0.0
 10
81.2546040725
 20
30.7425613577
 30
0.0
  0
SPLINE
  5
39F
100
AcDbEntity
  8
0
100
AcDbSpline
 62
7
  6
BYLAYER
 70
0
 71
3
 72
11
 73
7
 74
0
 42
0.0000001
 43
0.0000001
 44
0.0000000001
 40
0.0
 40
0.0
 40
0.0
 40
0.0
 40
0.2496022364
 40
0.4992221506
 40
0.7493325699
 40
1.0
 40
1.0
 40
1.0
 40
1.0
 10
82.6131206692
 20
30.1094442908
 30
0.0
 10
82.4832788703
 20
30.1084819175
 30
0.0
 10
82.2202555689
 20
30.1601293062
 30
0.0
 10
81.8893665519
 20
30.384750224
 30
0.0
 10
81.670141395
 20
30.7196046336
 30
0.0
 10
81.6196788663
 20
30.982933305
 30
0.0
 10
81.6196788663
 20
31.1133327938
 30
0.0
  0
SPLINE
  5
3A0
100
AcDbEntity
  8
0
100
AcDbSpline
 62
7
  6
BYLAYER
 70
0
 71
3
 72
9
 73
5
 74
0
 42
0.0000001
 43
0.0000001
 44
0.0000000001
 40
0.0
 40
0.0
 40
0.0
 40
0.0
 40
0.2439938836
 40
1.0
 40
1.0
 40
1.0
 40
1.0
 10
97.1263915226
 20
34.4084002411
 30
0.0
 10
97.1218032498
 20
34.4200081432
 30
0.0
 10
97.1026421729
 20
34.4674417221
 30
0.0
 10
97.0821536419
 20
34.5143342227
 30
0.0
 10
97.0660879882
 20
34.5495138613
 30
0.0
  0
SPLINE
  5
3A1
100
AcDbEntity
  8
0
100
AcDbSpline
 62
7
  6
BYLAYER
 70
0
 71
3
 72
10
 73
6
 74
0
 42
0.0000001
 43
0.0000001
 44
0.0000000001
 40
0.0
 40
0.0
 40
0.0
 40
0.0
 40
0.2238213369
 40
0.4704206549
 40
1.0
 40
1.0
 40
1.0
 40
1.0
 10
97.0660879882
 20
34.5495138613
 30
0.0
 10
96.9965110312
 20
34.7018694548
 30
0.0
 10
96.8291914225
 20
35.0123215982
 30
0.0
 10
96.4344981753
 20
35.6481896369
 30
0.0
 10
96.1028239797
 20
36.1254026706
 30
0.0
 10
95.8744749376
 20
36.4492975516
 30
0.0
  0
SPLINE
  5
3A2
100
AcDbEntity
  8
0
100
AcDbSpline
 62
7
  6
BYLAYER
 70
0
 71
3
 72
11
 73
7
 74
0
 42
0.0000001
 43
0.0000001
 44
0.0000000001
 40
0.0
 40
0.0
 40
0.0
 40
0.0
 40
0.2496022364
 40
0.4992221506
 40
0.7493325699
 40
1.0
 40
1.0
 40
1.0
 40
1.0
 10
82.978195463
 20
30.4802157269
 30
0.0
 10
82.8483536641
 20
30.4792533537
 30
0.0
 10
82.5853303627
 20
30.5309007424
 30
0.0
 10
82.2544413457
 20
30.7555216602
 30
0.0
 10
82.0352161888
 20
31.0903760698
 30
0.0
 10
81.9847536601
 20
31.3537047411
 30
0.0
 10
81.9847536601
 20
31.48410423
 30
0.0
  0
SPLINE
  5
3A3
100
AcDbEntity
  8
0
100
AcDbSpline
 62
7
  6
BYLAYER
 70
0
 71
3
 72
9
 73
5
 74
0
 42
0.0000001
 43
0.0000001
 44
0.0000000001
 40
0.0
 40
0.0
 40
0.0
 40
0.0
 40
0.2170557997
 40
1.0
 40
1.0
 40
1.0
 40
1.0
 10
81.0932534251
 20
51.851100932
 30
0.0
 10
81.0316944355
 20
51.8526966483
 30
0.0
 10
80.7480632503
 20
51.8591912654
 30
0.0
 10
80.464377687
 20
51.8630736215
 30
0.0
 10
80.2422646461
 20
51.8653447408
 30
0.0
  0
SPLINE
  5
3A4
100
AcDbEntity
  8
0
100
AcDbSpline
 62
7
  6
BYLAYER
 70
0
 71
3
 72
18
 73
14
 74
0
 42
0.0000001
 43
0.0000001
 44
0.0000000001
 40
0.0
 40
0.0
 40
0.0
 40
0.0
 40
0.0144071804
 40
0.0361614912
 40
0.0651918806
 40
0.1013665463
 40
0.1445229894
 40
0.1944613145
 40
0.3136929976
 40
0.4567956195
 40
0.621022855
 40
0.8032683767
 40
1.0
 40
1.0
 40
1.0
 40
1.0
 10
57.9807456431
 20
26.9508975228
 30
0.0
 10
58.0487405306
 20
26.9357120498
 30
0.0
 10
58.2221548897
 20
26.9109294062
 30
0.0
 10
58.5356846254
 20
26.8788420918
 30
0.0
 10
58.9550923622
 20
26.8471624656
 30
0.0
 10
59.4781449358
 20
26.8156218853
 30
0.0
 10
60.1025212526
 20
26.7848190933
 30
0.0
 10
61.1284111722
 20
26.7423569211
 30
0.0
 10
62.6377553858
 20
26.6941729769
 30
0.0
 10
64.6999191826
 20
26.644236699
 30
0.0
 10
67.0670087716
 20
26.6006543253
 30
0.0
 10
69.6935815906
 20
26.564334946
 30
0.0
 10
71.5261455832
 20
26.5460696516
 30
0.0
 10
72.4774636283
 20
26.538160701
 30
0.0
  0
SPLINE
  5
3A5
100
AcDbEntity
  8
0
100
AcDbSpline
 62
7
  6
BYLAYER
 70
0
 71
3
 72
11
 73
7
 74
0
 42
0.0000001
 43
0.0000001
 44
0.0000000001
 40
0.0
 40
0.0
 40
0.0
 40
0.0
 40
0.2496022364
 40
0.4992221506
 40
0.7493325699
 40
1.0
 40
1.0
 40
1.0
 40
1.0
 10
83.3432702568
 20
30.8509871631
 30
0.0
 10
83.2134284579
 20
30.8500247898
 30
0.0
 10
82.9504051565
 20
30.9016721786
 30
0.0
 10
82.6195161395
 20
31.1262930963
 30
0.0
 10
82.4002909826
 20
31.4611475059
 30
0.0
 10
82.3498284539
 20
31.7244761773
 30
0.0
 10
82.3498284539
 20
31.8548756661
 30
0.0
  0
SPLINE
  5
3A6
100
AcDbEntity
  8
0
100
AcDbSpline
 62
7
  6
BYLAYER
 70
0
 71
3
 72
11
 73
7
 74
0
 42
0.0000001
 43
0.0000001
 44
0.0000000001
 40
0.0
 40
0.0
 40
0.0
 40
0.0
 40
0.2496022364
 40
0.4992221506
 40
0.7493325699
 40
1.0
 40
1.0
 40
1.0
 40
1.0
 10
83.7083450506
 20
31.2217585993
 30
0.0
 10
83.5785032517
 20
31.220796226
 30
0.0
 10
83.3154799503
 20
31.2724436147
 30
0.0
 10
82.9845909333
 20
31.4970645325
 30
0.0
 10
82.7653657764
 20
31.8319189421
 30
0.0
 10
82.7149032477
 20
32.0952476134
 30
0.0
 10
82.7149032477
 20
32.2256471023
 30
0.0
  0
SPLINE
  5
3A7
100
AcDbEntity
  8
0
100
AcDbSpline
 62
7
  6
BYLAYER
 70
0
 71
3
 72
23
 73
19
 74
0
 42
0.0000001
 43
0.0000001
 44
0.0000000001
 40
0.0
 40
0.0
 40
0.0
 40
0.0
 40
0.0016145625
 40
0.0054627637
 40
0.0117080148
 40
0.020369078
 40
0.0314438451
 40
0.044907635
 40
0.0788227099
 40
0.1217443001
 40
0.1732521353
 40
0.2327570672
 40
0.2996273922
 40
0.373157991
 40
0.4525107495
 40
0.6252278183
 40
0.8105176308
 40
1.0
 40
1.0
 40
1.0
 40
1.0
 10
84.5731878604
 20
51.1691924834
 30
0.0
 10
84.5731757423
 20
51.1706692078
 30
0.0
 10
84.567168638
 20
51.1731652588
 30
0.0
 10
84.5579200148
 20
51.1753224379
 30
0.0
 10
84.5403146697
 20
51.1781157891
 30
0.0
 10
84.5169793235
 20
51.1807164166
 30
0.0
 10
84.4866216126
 20
51.1834247296
 30
0.0
 10
84.4333445765
 20
51.1872607441
 30
0.0
 10
84.3508341435
 20
51.1917517676
 30
0.0
 10
84.2335579924
 20
51.1966506143
 30
0.0
 10
84.0928302995
 20
51.2012869346
 30
0.0
 10
83.9301863821
 20
51.2056123882
 30
0.0
 10
83.7473821663
 20
51.2095618763
 30
0.0
 10
83.5464130782
 20
51.2130858055
 30
0.0
 10
83.2486288427
 20
51.217288985
 30
0.0
 10
82.8486098721
 20
51.2211032235
 30
0.0
 10
82.3478477054
 20
51.2234292367
 30
0.0
 10
82.0050575601
 20
51.2234861638
 30
0.0
 10
81.8317461825
 20
51.2231216507
 30
0.0
  0
SPLINE
  5
3A8
100
AcDbEntity
  8
0
100
AcDbSpline
 62
7
  6
BYLAYER
 70
0
 71
3
 72
11
 73
7
 74
0
 42
0.0000001
 43
0.0000001
 44
0.0000000001
 40
0.0
 40
0.0
 40
0.0
 40
0.0
 40
0.2496022364
 40
0.4992221506
 40
0.7493325699
 40
1.0
 40
1.0
 40
1.0
 40
1.0
 10
84.0734198444
 20
31.5925300354
 30
0.0
 10
83.9435780455
 20
31.5915676621
 30
0.0
 10
83.6805547441
 20
31.6432150509
 30
0.0
 10
83.3496657271
 20
31.8678359686
 30
0.0
 10
83.1304405701
 20
32.2026903782
 30
0.0
 10
83.0799780415
 20
32.4660190496
 30
0.0
 10
83.0799780415
 20
32.5964185384
 30
0.0
  0
SPLINE
  5
3A9
100
AcDbEntity
  8
0
100
AcDbSpline
 62
7
  6
BYLAYER
 70
0
 71
3
 72
11
 73
7
 74
0
 42
0.0000001
 43
0.0000001
 44
0.0000000001
 40
0.0
 40
0.0
 40
0.0
 40
0.0
 40
0.2496022364
 40
0.4992221506
 40
0.7493325699
 40
1.0
 40
1.0
 40
1.0
 40
1.0
 10
84.4384946382
 20
31.9633014716
 30
0.0
 10
84.3086528393
 20
31.9623390983
 30
0.0
 10
84.0456295379
 20
32.013986487
 30
0.0
 10
83.7147405209
 20
32.2386074048
 30
0.0
 10
83.4955153639
 20
32.5734618144
 30
0.0
 10
83.4450528353
 20
32.8367904857
 30
0.0
 10
83.4450528353
 20
32.9671899746
 30
0.0
  0
SPLINE
  5
3AA
100
AcDbEntity
  8
0
100
AcDbSpline
 62
7
  6
BYLAYER
 70
0
 71
3
 72
11
 73
7
 74
0
 42
0.0000001
 43
0.0000001
 44
0.0000000001
 40
0.0
 40
0.0
 40
0.0
 40
0.0
 40
0.2496022364
 40
0.4992221506
 40
0.7493325699
 40
1.0
 40
1.0
 40
1.0
 40
1.0
 10
84.803569432
 20
32.3340729077
 30
0.0
 10
84.6737276331
 20
32.3331105344
 30
0.0
 10
84.4107043317
 20
32.3847579232
 30
0.0
 10
84.0798153147
 20
32.6093788409
 30
0.0
 10
83.8605901577
 20
32.9442332505
 30
0.0
 10
83.8101276291
 20
33.2075619219
 30
0.0
 10
83.8101276291
 20
33.3379614107
 30
0.0
  0
SPLINE
  5
3AB
100
AcDbEntity
  8
0
100
AcDbSpline
 62
7
  6
BYLAYER
 70
0
 71
3
 72
11
 73
7
 74
0
 42
0.0000001
 43
0.0000001
 44
0.0000000001
 40
0.0
 40
0.0
 40
0.0
 40
0.0
 40
0.2496022364
 40
0.4992221506
 40
0.7493325699
 40
1.0
 40
1.0
 40
1.0
 40
1.0
 10
85.1686442258
 20
32.7048443439
 30
0.0
 10
85.0388024269
 20
32.7038819706
 30
0.0
 10
84.7757791255
 20
32.7555293593
 30
0.0
 10
84.4448901085
 20
32.9801502771
 30
0.0
 10
84.2256649515
 20
33.3150046867
 30
0.0
 10
84.1752024229
 20
33.578333358
 30
0.0
 10
84.1752024229
 20
33.7087328469
 30
0.0
  0
SPLINE
  5
3AC
100
AcDbEntity
  8
0
100
AcDbSpline
 62
7
  6
BYLAYER
 70
0
 71
3
 72
11
 73
7
 74
0
 42
0.0000001
 43
0.0000001
 44
0.0000000001
 40
0.0
 40
0.0
 40
0.0
 40
0.0
 40
0.2496022364
 40
0.4992221506
 40
0.7493325699
 40
1.0
 40
1.0
 40
1.0
 40
1.0
 10
85.5337190196
 20
33.07561578
 30
0.0
 10
85.4038772206
 20
33.0746534067
 30
0.0
 10
85.1408539193
 20
33.1263007955
 30
0.0
 10
84.8099649023
 20
33.3509217132
 30
0.0
 10
84.5907397453
 20
33.6857761229
 30
0.0
 10
84.5402772167
 20
33.9491047942
 30
0.0
 10
84.5402772167
 20
34.079504283
 30
0.0
  0
SPLINE
  5
3AD
100
AcDbEntity
  8
0
100
AcDbSpline
 62
7
  6
BYLAYER
 70
0
 71
3
 72
11
 73
7
 74
0
 42
0.0000001
 43
0.0000001
 44
0.0000000001
 40
0.0
 40
0.0
 40
0.0
 40
0.0
 40
0.2496479555
 40
0.4993140428
 40
0.7494243806
 40
1.0
 40
1.0
 40
1.0
 40
1.0
 10
85.7167188601
 20
33.4623484549
 30
0.0
 10
85.6036957916
 20
33.4830465587
 30
0.0
 10
85.3830047654
 20
33.5653338623
 30
0.0
 10
85.1168374629
 20
33.7954924709
 30
0.0
 10
84.9446192356
 20
34.102553791
 30
0.0
 10
84.9053520105
 20
34.3349460752
 30
0.0
 10
84.9053520105
 20
34.4502757192
 30
0.0
  0
SPLINE
  5
3AE
100
AcDbEntity
  8
0
100
AcDbSpline
 62
7
  6
BYLAYER
 70
0
 71
3
 72
9
 73
5
 74
0
 42
0.0000001
 43
0.0000001
 44
0.0000000001
 40
0.0
 40
0.0
 40
0.0
 40
0.0
 40
0.2541484214
 40
1.0
 40
1.0
 40
1.0
 40
1.0
 10
72.0826544613
 20
24.0240081914
 30
0.0
 10
72.0621943416
 20
24.0325683259
 30
0.0
 10
71.9805397475
 20
24.0634667949
 30
0.0
 10
71.8949720975
 20
24.0837423666
 30
0.0
 10
71.8305745922
 20
24.0931971001
 30
0.0
  0
SPLINE
  5
3AF
100
AcDbEntity
  8
0
100
AcDbSpline
 62
7
  6
BYLAYER
 70
0
 71
3
 72
11
 73
7
 74
0
 42
0.0000001
 43
0.0000001
 44
0.0000000001
 40
0.0
 40
0.0
 40
0.0
 40
0.0
 40
0.2504073215
 40
0.500552219
 40
0.7502732185
 40
1.0
 40
1.0
 40
1.0
 40
1.0
 10
96.4010041983
 20
31.9443162355
 30
0.0
 10
96.3716729535
 20
31.8516010608
 30
0.0
 10
96.2857198502
 20
31.6736908028
 30
0.0
 10
96.086255622
 20
31.4557729821
 30
0.0
 10
95.8322808554
 20
31.3052002768
 30
0.0
 10
95.6404510494
 20
31.2588698105
 30
0.0
 10
95.5438532624
 20
31.2502696431
 30
0.0
  0
SPLINE
  5
3B0
100
AcDbEntity
  8
0
100
AcDbSpline
 62
7
  6
BYLAYER
 70
0
 71
3
 72
11
 73
7
 74
0
 42
0.0000001
 43
0.0000001
 44
0.0000000001
 40
0.0
 40
0.0
 40
0.0
 40
0.0
 40
0.2504073215
 40
0.500552219
 40
0.7502732185
 40
1.0
 40
1.0
 40
1.0
 40
1.0
 10
96.1664531285
 20
31.2038157193
 30
0.0
 10
96.1371218837
 20
31.1111005446
 30
0.0
 10
96.0511687804
 20
30.9331902866
 30
0.0
 10
95.8517045522
 20
30.7152724659
 30
0.0
 10
95.5977297857
 20
30.5646997606
 30
0.0
 10
95.4058999796
 20
30.5183692943
 30
0.0
 10
95.3093021927
 20
30.5097691269
 30
0.0
  0
SPLINE
  5
3B1
100
AcDbEntity
  8
0
100
AcDbSpline
 62
7
  6
BYLAYER
 70
0
 71
3
 72
18
 73
14
 74
0
 42
0.0000001
 43
0.0000001
 44
0.0000000001
 40
0.0
 40
0.0
 40
0.0
 40
0.0
 40
0.0059357818
 40
0.0187661775
 40
0.0393062593
 40
0.0676889054
 40
0.10394049
 40
0.1480457454
 40
0.2595140248
 40
0.4013949202
 40
0.5728827191
 40
0.7728371619
 40
1.0
 40
1.0
 40
1.0
 40
1.0
 10
90.1243484182
 20
51.4927674727
 30
0.0
 10
90.1243438477
 20
51.4965123683
 30
0.0
 10
90.1119996915
 20
51.5044042455
 30
0.0
 10
90.0898681917
 20
51.5105441313
 30
0.0
 10
90.0507887151
 20
51.5188956074
 30
0.0
 10
89.9979914208
 20
51.5264930125
 30
0.0
 10
89.929696802
 20
51.5345245413
 30
0.0
 10
89.8092793025
 20
51.5459341347
 30
0.0
 10
89.6220384786
 20
51.5594725419
 30
0.0
 10
89.3544453855
 20
51.5745076171
 30
0.0
 10
89.0309060733
 20
51.5891262252
 30
0.0
 10
88.6535078664
 20
51.6032196529
 30
0.0
 10
88.3841685543
 20
51.6116587878
 30
0.0
 10
88.2409115137
 20
51.6158232018
 30
0.0
  0
SPLINE
  5
3B2
100
AcDbEntity
  8
0
100
AcDbSpline
 62
7
  6
BYLAYER
 70
0
 71
3
 72
11
 73
7
 74
0
 42
0.0000001
 43
0.0000001
 44
0.0000000001
 40
0.0
 40
0.0
 40
0.0
 40
0.0
 40
0.2493114968
 40
0.499937557
 40
0.7506232802
 40
1.0
 40
1.0
 40
1.0
 40
1.0
 10
73.2904900442
 20
21.6441601587
 30
0.0
 10
73.2936656427
 20
21.5156461831
 30
0.0
 10
73.3514698883
 20
21.2565607878
 30
0.0
 10
73.5770732681
 20
20.9308184896
 30
0.0
 10
73.9071399811
 20
20.7115168234
 30
0.0
 10
74.167373113
 20
20.658747012
 30
0.0
 10
74.2959582468
 20
20.6580854697
 30
0.0
  0
SPLINE
  5
3B3
100
AcDbEntity
  8
0
100
AcDbSpline
 62
7
  6
BYLAYER
 70
0
 71
3
 72
9
 73
5
 74
0
 42
0.0000001
 43
0.0000001
 44
0.0000000001
 40
0.0
 40
0.0
 40
0.0
 40
0.0
 40
0.5498969739
 40
1.0
 40
1.0
 40
1.0
 40
1.0
 10
74.2959582397
 20
20.6580854697
 30
0.0
 10
74.265972291
 20
20.6265641784
 30
0.0
 10
74.2049831547
 20
20.5738313668
 30
0.0
 10
74.1256024816
 20
20.5504432806
 30
0.0
 10
74.0899921424
 20
20.5503669734
 30
0.0
  0
SPLINE
  5
3B4
100
AcDbEntity
  8
0
100
AcDbSpline
 62
7
  6
BYLAYER
 70
0
 71
3
 72
26
 73
22
 74
0
 42
0.0000001
 43
0.0000001
 44
0.0000000001
 40
0.0
 40
0.0
 40
0.0
 40
0.0
 40
0.0006246224
 40
0.0016619126
 40
0.0053453355
 40
0.0113003945
 40
0.019547458
 40
0.0300814918
 40
0.0428901253
 40
0.0579493533
 40
0.0752254274
 40
0.1162872692
 40
0.1657387114
 40
0.2231619334
 40
0.2880726939
 40
0.3599202722
 40
0.4380971941
 40
0.5219470517
 40
0.6107504374
 40
0.8001836728
 40
1.0
 40
1.0
 40
1.0
 40
1.0
 10
100.0243037589
 20
51.4927674724
 30
0.0
 10
100.0243055687
 20
51.4891140469
 30
0.0
 10
100.0178878557
 20
51.480246549
 30
0.0
 10
99.9901322389
 20
51.4662058662
 30
0.0
 10
99.929150181
 20
51.4498717701
 30
0.0
 10
99.8263423794
 20
51.4318993331
 30
0.0
 10
99.6826812162
 20
51.4134470898
 30
0.0
 10
99.4988774344
 20
51.3949493364
 30
0.0
 10
99.2749956058
 20
51.3765101265
 30
0.0
 10
99.011581976
 20
51.3582360835
 30
0.0
 10
98.5830348255
 20
51.3326772958
 30
0.0
 10
97.9532800331
 20
51.302477019
 30
0.0
 10
97.0886263959
 20
51.2692783537
 30
0.0
 10
96.0843371598
 20
51.2378035823
 30
0.0
 10
94.9489440499
 20
51.2083484662
 30
0.0
 10
93.6920739622
 20
51.1812125921
 30
0.0
 10
92.3243573773
 20
51.1566423423
 30
0.0
 10
90.8574073362
 20
51.1348671796
 30
0.0
 10
88.7397104953
 20
51.1092619001
 30
0.0
 10
85.9436574324
 20
51.0860098593
 30
0.0
 10
83.6669425523
 20
51.0767352533
 30
0.0
 10
82.4982163419
 20
51.0742771569
 30
0.0
  0
SPLINE
  5
3B5
100
AcDbEntity
  8
0
100
AcDbSpline
 62
7
  6
BYLAYER
 70
0
 71
3
 72
11
 73
7
 74
0
 42
0.0000001
 43
0.0000001
 44
0.0000000001
 40
0.0
 40
0.0
 40
0.0
 40
0.0
 40
0.1152168272
 40
0.3312960147
 40
0.6335900091
 40
1.0
 40
1.0
 40
1.0
 40
1.0
 10
73.262526363
 20
47.814820883
 30
0.0
 10
73.2382832646
 20
47.8183803476
 30
0.0
 10
73.1677132885
 20
47.8212394981
 30
0.0
 10
73.0331808715
 20
47.8263609517
 30
0.0
 10
72.8449795088
 20
47.8296187126
 30
0.0
 10
72.7027939209
 20
47.8313106191
 30
0.0
 10
72.6248725683
 20
47.8319449503
 30
0.0
  0
SPLINE
  5
3B6
100
AcDbEntity
  8
0
100
AcDbSpline
 62
7
  6
BYLAYER
 70
0
 71
3
 72
9
 73
5
 74
0
 42
0.0000001
 43
0.0000001
 44
0.0000000001
 40
0.0
 40
0.0
 40
0.0
 40
0.0
 40
0.5479803613
 40
1.0
 40
1.0
 40
1.0
 40
1.0
 10
73.2904900442
 20
21.6441601587
 30
0.0
 10
73.2588044924
 20
21.6119799654
 30
0.0
 10
73.1930971024
 20
21.5582303282
 30
0.0
 10
73.1068083117
 20
21.5438604379
 30
0.0
 10
73.0699508766
 20
21.549273085
 30
0.0
  0
ELLIPSE
  5
3B7
100
AcDbEntity
  8
0
100
AcDbEllipse
 62
7
  6
BYLAYER
 10
94.9127530384
 20
30.5574724292
 30
0.0
 11
-0.174419743
 21
0.9995351733
 31
0.0
 40
0.9816343738
 41
-3.3091753823
 42
-2.0579340274
  0
ELLIPSE
  5
3B8
100
AcDbEntity
  8
0
100
AcDbEllipse
 62
7
  6
BYLAYER
 10
96.1574176203
 20
36.5152170929
 30
0.0
 11
-0.0030610197
 21
3.0000001934
 31
0.0
 40
0.0469573876
 41
-2.9949281361
 42
-2.8348611984
  0
ELLIPSE
  5
3B9
100
AcDbEntity
  8
0
100
AcDbEllipse
 62
7
  6
BYLAYER
 10
82.0318475744
 20
30.530380963
 30
0.0
 11
0.2695603577
 21
0.9791275131
 31
0.0
 40
0.979863408
 41
-4.4384862528
 42
-2.8760350498
  0
ELLIPSE
  5
3BA
100
AcDbEntity
  8
0
100
AcDbEllipse
 62
7
  6
BYLAYER
 10
85.9064465353
 20
36.4936569753
 30
0.0
 11
-0.0096219254
 21
2.9999863592
 31
0.0
 40
0.146176764
 41
-2.9951403777
 42
-2.83507344
  0
ENDSEC
  0
SECTION
  2
OBJECTS
  0
DICTIONARY
  5
C
100
AcDbDictionary
280
0
281
1
  3
ACAD_GROUP
350
D
  3
ACAD_MLINESTYLE
350
17
  3
ACAD_LAYOUT
350
1A
  3
ACAD_PLOTSETTINGS
350
19
  3
ACAD_PLOTSTYLENAME
350
E
  0
DICTIONARY
  5
D
102
{ACAD_REACTORS
330
C
102
}
100
AcDbDictionary
280
0
281
1
  0
ACDBDICTIONARYWDFLT
  5
E
102
{ACAD_REACTORS
330
C
102
}
100
AcDbDictionary
281
1
  3
Normal
350
F
100
AcDbDictionaryWithDefault
340
F
  0
DICTIONARY
  5
17
102
{ACAD_REACTORS
330
C
102
}
100
AcDbDictionary
280
0
281
1
  3
Standard
350
18
  0
DICTIONARY
  5
19
102
{ACAD_REACTORS
330
C
102
}
100
AcDbDictionary
281
1
  0
DICTIONARY
  5
1A
102
{ACAD_REACTORS
330
C
102
}
100
AcDbDictionary
281
1
  3
Model
350
3BB
  3
Layout1
350
3BC
  0
ACDBPLACEHOLDER
  5
F
102
{ACAD_REACTORS
330
E
102
}
  0
MLINESTYLE
  5
18
102
{ACAD_REACTORS
330
17
102
}
100
AcDbMlineStyle
  2
STANDARD
 70
0
  3

 62
256
 51
90.0
 52
90.0
 71
2
 49
0.5
 62
256
  6
BYLAYER
 49
-0.5
 62
256
  6
BYLAYER
  0
LAYOUT
  5
3BB
102
{ACAD_REACTORS
330
1A
102
}
100
AcDbPlotSettings
  1

  2
none_device
  4

  6

 40
0.0
 41
0.0
 42
0.0
 43
0.0
 44
210.0
 45
297.0
 46
0.0
 47
0.0
 48
0.0
 49
0.0
140
0.0
141
0.0
142
1.0
143
1.0
 70
1024
 72
1
 73
0
 74
0
  7

 75
0
147
1.0
148
0.0
149
0.0
100
AcDbLayout
  1
Model
 70
0
 71
0
 10
0.0
 20
0.0
 11
210.0
 21
297.0
 12
0.0
 22
0.0
 32
0.0
 14
0.0
 24
0.0
 34
0.0
 15
0.0
 25
0.0
 35
0.0
146
0.0
 13
0.0
 23
0.0
 33
0.0
 16
1.0
 26
0.0
 36
0.0
 17
0.0
 27
1.0
 37
0.0
 76
0
330
210
345
0
346
0
  0
LAYOUT
  5
3BC
102
{ACAD_REACTORS
330
1A
102
}
100
AcDbPlotSettings
  1

  2
none_device
  4

  6

 40
0.0
 41
0.0
 42
0.0
 43
0.0
 44
210.0
 45
297.0
 46
0.0
 47
0.0
 48
0.0
 49
0.0
140
0.0
141
0.0
142
1.0
143
1.0
 70
0
 72
1
 73
0
 74
0
  7

 75
0
147
1.0
148
0.0
149
0.0
100
AcDbLayout
  1
Layout1
 70
0
 71
1
 10
0.0
 20
0.0
 11
210.0
 21
297.0
 12
0.0
 22
0.0
 32
0.0
 14
0.0
 24
0.0
 34
0.0
 15
0.0
 25
0.0
 35
0.0
146
0.0
 13
0.0
 23
0.0
 33
0.0
 16
1.0
 26
0.0
 36
0.0
 17
0.0
 27
1.0
 37
0.0
 76
0
330
211
345
0
346
0
  0
ENDSEC
  0
EOF
