999
DXF file: C:\Users\sesa63760\Dev\_Creo\CAD\MCADID0000572_3D-CAD\drw0001_1.dxf
999
Pro/ENGINEER 2019471 by Parametric Technology Corporation
  0
SECTION
  2
HEADER
  9
$ACADVER
  1
AC1024
  9
$DWGCODEPAGE
  3
ANSI_1252
  9
$EXTMAX
 10
212.6229077714
 20
300.709540991
 30
0.0
  9
$EXTMIN
 10
0.0
 20
0.0
 30
0.0
  9
$LIMMIN
 10
0.0
 20
0.0
  9
$LIMMAX
 10
212.6229077714
 20
300.709540991
  9
$VIEWCTR
 10
106.3114538857
 20
150.3547704955
  9
$VIEWSIZE
 40
300.709540991
  9
$CLAYER
  8
0
  9
$LTSCALE
 40
19.6018071165
  9
$CELTYPE
  6
BYLAYER
  9
$DIMSCALE
 40
1.0
  9
$DIMASZ
 40
2.5312250925
  9
$DIMEXO
 40
1.0
  9
$DIMDLI
 40
13.543066735
  9
$DIMEXE
 40
1.0
  9
$DIMCEN
 40
3.2075684372
  9
$DIMLFAC
 40
1.0
  9
$DIMBLK
  1
_FILLED
  9
$DIMALT
 70
0
  9
$DIMALTF
 40
0.0393700787
  9
$DIMTXT
 40
3.5437151295
  9
$DIMTOL
 70
1
  9
$DIMLIM
 70
0
  9
$DIMTFAC
 40
1.0
  9
$DIMTP
 40
0.01
  9
$DIMTM
 40
0.01
  9
$DIMGAP
 40
0.625
  9
$DIMDSEP
 70
46
  9
$AUNITS
 70
0
  9
$PDMODE
 70
3
  9
$PDSIZE
 40
0.3125
  9
$HANDSEED
  5
4C2
  9
$TILEMODE
 70
1
  9
$MEASUREMENT
 70
1
  9
$INSUNITS
 70
4
  0
ENDSEC
  0
SECTION
  2
CLASSES
  0
CLASS
  1
ACDBDICTIONARYWDFLT
  2
AcDbDictionaryWithDefault
  3
AutoCAD 2000
 90
0
 91
1
280
0
281
0
  0
CLASS
  1
ACDBPLACEHOLDER
  2
AcDbPlaceHolder
  3
AutoCAD 2000
 90
0
 91
1
280
0
281
0
  0
CLASS
  1
LAYOUT
  2
AcDbLayout
  3
AutoCAD 2000
 90
0
 91
0
280
0
281
0
  0
ENDSEC
  0
SECTION
  2
TABLES
  0
TABLE
  2
VPORT
  5
8
100
AcDbSymbolTable
 70
2
  0
VPORT
  5
1F4
100
AcDbSymbolTableRecord
100
AcDbViewportTableRecord
  2
*ACTIVE
 70
0
 10
0.0
 20
0.0
 11
1.0
 21
1.0
 12
106.3114538857
 22
150.3547704955
 13
0.0
 23
0.0
 14
1.0
 24
1.0
 15
0.0
 25
0.0
 16
0.0
 26
0.0
 36
1.0
 17
0.0
 27
0.0
 37
0.0
 40
300.709540991
 41
0.7070707071
 42
50.0
 43
0.0
 44
0.0
 50
0.0
 51
0.0
 71
0
 72
100
 73
1
 74
1
 75
0
 76
0
 77
0
 78
0
  0
ENDTAB
  0
TABLE
  2
LTYPE
  5
5
100
AcDbSymbolTable
 70
6
  0
LTYPE
  5
14
100
AcDbSymbolTableRecord
100
AcDbLinetypeTableRecord
  2
BYBLOCK
 70
0
  3

 72
65
 73
0
 40
0.0
  0
LTYPE
  5
15
100
AcDbSymbolTableRecord
100
AcDbLinetypeTableRecord
  2
BYLAYER
 70
0
  3

 72
65
 73
0
 40
0.0
  0
LTYPE
  5
16
100
AcDbSymbolTableRecord
100
AcDbLinetypeTableRecord
  2
CONTINUOUS
 70
64
  3
Solid line
 72
65
 73
0
 40
0.0
  0
LTYPE
  5
1F5
100
AcDbSymbolTableRecord
100
AcDbLinetypeTableRecord
  2
CENTER
 70
64
  3
____ _ ____ _ ____ _ ____ _ ____ _ ____ _ ____
 72
65
 73
4
 40
0.6
 49
0.375
 74
0
 49
-0.075
 74
0
 49
0.075
 74
0
 49
-0.075
 74
0
  0
LTYPE
  5
1F6
100
AcDbSymbolTableRecord
100
AcDbLinetypeTableRecord
  2
HIDDEN
 70
64
  3
- - - - - - - - - - - - - - - - - - - -
 72
65
 73
2
 40
0.2
 49
0.1
 74
0
 49
-0.1
 74
0
  0
LTYPE
  5
1F7
100
AcDbSymbolTableRecord
100
AcDbLinetypeTableRecord
  2
PHANTOM
 70
64
  3
_____ _ _ _____ _ _ _____ _ _ _____
 72
65
 73
6
 40
0.8
 49
0.45
 74
0
 49
-0.05
 74
0
 49
0.1
 74
0
 49
-0.05
 74
0
 49
0.1
 74
0
 49
-0.05
 74
0
  0
LTYPE
  5
1F8
100
AcDbSymbolTableRecord
100
AcDbLinetypeTableRecord
  2
DOT
 70
64
  3
. . . . . . . . . . . . . . . . . . . .
 72
65
 73
2
 40
0.2
 49
0.1
 74
0
 49
-0.1
 74
0
  0
LTYPE
  5
1F9
100
AcDbSymbolTableRecord
100
AcDbLinetypeTableRecord
  2
DASHED
 70
64
  3
- - - - - - - - - - - - - - - - - - - -
 72
65
 73
2
 40
0.2
 49
0.1
 74
0
 49
-0.1
 74
0
  0
ENDTAB
  0
TABLE
  2
LAYER
  5
2
100
AcDbSymbolTable
 70
36
  0
LAYER
  5
10
100
AcDbSymbolTableRecord
100
AcDbLayerTableRecord
  2
0
 70
0
 62
7
  6
CONTINUOUS
370
-3
390
F
  0
LAYER
  5
1FA
100
AcDbSymbolTableRecord
100
AcDbLayerTableRecord
  2
DEFAULT_1
 70
0
 62
7
  6
CENTER
370
-3
390
F
  0
LAYER
  5
1FB
100
AcDbSymbolTableRecord
100
AcDbLayerTableRecord
  2
DEFAULT_2
 70
0
 62
8
  6
HIDDEN
370
-3
390
F
  0
LAYER
  5
1FC
100
AcDbSymbolTableRecord
100
AcDbLayerTableRecord
  2
DEFAULT_3
 70
0
 62
7
  6
PHANTOM
370
-3
390
F
  0
LAYER
  5
1FD
100
AcDbSymbolTableRecord
100
AcDbLayerTableRecord
  2
00_COMPONENTS
 70
0
 62
7
  6
CONTINUOUS
370
-3
390
F
  0
LAYER
  5
1FE
100
AcDbSymbolTableRecord
100
AcDbLayerTableRecord
  2
01_1_DEFAULT_DATUMS
 70
0
 62
7
  6
CONTINUOUS
370
-3
390
F
  0
LAYER
  5
1FF
100
AcDbSymbolTableRecord
100
AcDbLayerTableRecord
  2
01_PLANES
 70
0
 62
7
  6
CONTINUOUS
370
-3
390
F
  0
LAYER
  5
200
100
AcDbSymbolTableRecord
100
AcDbLayerTableRecord
  2
02_COORD_SYS
 70
0
 62
7
  6
CONTINUOUS
370
-3
390
F
  0
LAYER
  5
201
100
AcDbSymbolTableRecord
100
AcDbLayerTableRecord
  2
03_AXES
 70
0
 62
7
  6
CONTINUOUS
370
-3
390
F
  0
LAYER
  5
202
100
AcDbSymbolTableRecord
100
AcDbLayerTableRecord
  2
04_POINTS
 70
0
 62
7
  6
CONTINUOUS
370
-3
390
F
  0
LAYER
  5
203
100
AcDbSymbolTableRecord
100
AcDbLayerTableRecord
  2
05_CURVES
 70
0
 62
7
  6
CONTINUOUS
370
-3
390
F
  0
LAYER
  5
204
100
AcDbSymbolTableRecord
100
AcDbLayerTableRecord
  2
06_SURFS
 70
0
 62
7
  6
CONTINUOUS
370
-3
390
F
  0
LAYER
  5
205
100
AcDbSymbolTableRecord
100
AcDbLayerTableRecord
  2
07_COSMETICS
 70
0
 62
7
  6
CONTINUOUS
370
-3
390
F
  0
LAYER
  5
206
100
AcDbSymbolTableRecord
100
AcDbLayerTableRecord
  2
10_NOTES
 70
0
 62
7
  6
CONTINUOUS
370
-3
390
F
  0
LAYER
  5
207
100
AcDbSymbolTableRecord
100
AcDbLayerTableRecord
  2
11_NOTES_PUB
 70
0
 62
7
  6
CONTINUOUS
370
-3
390
F
  0
LAYER
  5
208
100
AcDbSymbolTableRecord
100
AcDbLayerTableRecord
  2
13_REF_GTOL
 70
0
 62
7
  6
CONTINUOUS
370
-3
390
F
  0
LAYER
  5
209
100
AcDbSymbolTableRecord
100
AcDbLayerTableRecord
  2
16_MISC
 70
0
 62
7
  6
CONTINUOUS
370
-3
390
F
  0
LAYER
  5
20A
100
AcDbSymbolTableRecord
100
AcDbLayerTableRecord
  2
17_NO_PRINT
 70
0
 62
7
  6
CONTINUOUS
370
-3
390
F
  0
LAYER
  5
20B
100
AcDbSymbolTableRecord
100
AcDbLayerTableRecord
  2
18_DATUM_CAMS_JOINTS
 70
0
 62
7
  6
CONTINUOUS
370
-3
390
F
  0
LAYER
  5
20C
100
AcDbSymbolTableRecord
100
AcDbLayerTableRecord
  2
19_DATUM_FUNCTIONAL
 70
0
 62
7
  6
CONTINUOUS
370
-3
390
F
  0
LAYER
  5
20D
100
AcDbSymbolTableRecord
100
AcDbLayerTableRecord
  2
20_DATUM_KINEMATIC_SCHEME
 70
0
 62
7
  6
CONTINUOUS
370
-3
390
F
  0
ENDTAB
  0
TABLE
  2
STYLE
  5
3
100
AcDbSymbolTable
 70
1
  0
STYLE
  5
11
100
AcDbSymbolTableRecord
100
AcDbTextStyleTableRecord
  2
STANDARD
 70
0
 40
0.0
 41
0.8
 50
0.0
 71
0
 42
0.2
  3
txt
  4

  0
STYLE
  5
20E
100
AcDbSymbolTableRecord
100
AcDbTextStyleTableRecord
  2
TEXTSTYLE_1
 70
0
 40
0.0
 41
0.8
 50
0.0
 71
0
 42
0.2
  3
gdt
  4

  0
ENDTAB
  0
TABLE
  2
VIEW
  5
6
100
AcDbSymbolTable
 70
0
  0
ENDTAB
  0
TABLE
  2
UCS
  5
7
100
AcDbSymbolTable
 70
0
  0
ENDTAB
  0
TABLE
  2
APPID
  5
9
100
AcDbSymbolTable
 70
1
  0
APPID
  5
20F
100
AcDbSymbolTableRecord
100
AcDbRegAppTableRecord
  2
ACAD
 70
0
  0
ENDTAB
  0
TABLE
  2
BLOCK_RECORD
  5
1
100
AcDbSymbolTable
 70
0
  0
BLOCK_RECORD
  5
210
100
AcDbSymbolTableRecord
100
AcDbBlockTableRecord
  2
*Model_Space
  0
BLOCK_RECORD
  5
211
100
AcDbSymbolTableRecord
100
AcDbBlockTableRecord
  2
*Paper_Space
  0
BLOCK_RECORD
  5
212
100
AcDbSymbolTableRecord
100
AcDbBlockTableRecord
  2
_FILLED
  0
ENDTAB
  0
TABLE
  2
DIMSTYLE
  5
A
100
AcDbSymbolTable
 70
1
100
AcDbDimStyleTable
 71
0
  0
DIMSTYLE
105
213
100
AcDbSymbolTableRecord
100
AcDbDimStyleTableRecord
  2
STANDARD
 70
0
  3

  4

 40
1.0
 41
2.5312250925
 42
1.0
 43
0.38
 44
1.0
 45
0.0
 46
0.0
 47
0.01
 48
0.01
140
3.5437151295
141
0.09
142
0.0
143
25.4
144
1.0
145
0.0
146
1.0
147
0.625
 71
1
 72
0
 73
0
 74
0
 75
0
 76
0
 77
1
 78
8
 79
2
170
0
171
1
172
0
173
0
174
0
175
0
176
0
177
0
178
0
270
2
179
2
271
2
272
2
273
2
274
2
275
0
280
0
281
0
282
0
283
1
284
8
285
0
286
0
287
3
288
0
340
11
278
46
341
212
342
212
343
212
344
212
  0
ENDTAB
  0
ENDSEC
  0
SECTION
  2
BLOCKS
  0
BLOCK
  5
20
100
AcDbEntity
  8
0
100
AcDbBlockBegin
  2
*Model_Space
 70
0
 10
0.0
 20
0.0
 30
0.0
  3
*Model_Space
  1

  0
ENDBLK
  5
21
100
AcDbEntity
  8
0
100
AcDbBlockEnd
  0
BLOCK
  5
1C
100
AcDbEntity
  8
0
100
AcDbBlockBegin
  2
*Paper_Space
 70
0
 10
0.0
 20
0.0
 30
0.0
  3
*Paper_Space
  1

  0
ENDBLK
  5
1D
100
AcDbEntity
  8
0
100
AcDbBlockEnd
  0
BLOCK
  5
214
100
AcDbEntity
  8
0
100
AcDbBlockBegin
  2
_FILLED
 70
64
 10
0.0
 20
0.0
  3
_FILLED
  1

  0
SOLID
  5
215
100
AcDbEntity
  8
0
  6
BYBLOCK
 62
0
100
AcDbTrace
 10
0.0
 20
0.0
 11
-1.0
 21
0.25
 12
-1.0
 22
-0.25
 13
-1.0
 23
-0.25
  0
ENDBLK
  5
216
100
AcDbEntity
  8
0
  6
BYBLOCK
 62
0
100
AcDbBlockEnd
  0
ENDSEC
  0
SECTION
  2
ENTITIES
  0
LINE
  5
217
100
AcDbEntity
  8
0
100
AcDbLine
 62
7
  6
CONTINUOUS
 10
28.0229879431
 20
215.8888459022
 11
46.6654472953
 21
226.6520105801
  0
LINE
  5
218
100
AcDbEntity
  8
0
100
AcDbLine
 62
7
  6
CONTINUOUS
 10
55.3128370764
 20
231.6445535965
 11
63.6549029477
 21
236.4608188237
  0
LINE
  5
219
100
AcDbEntity
  8
0
100
AcDbLine
 62
7
  6
CONTINUOUS
 10
66.9898517882
 20
238.3862409413
 11
68.4693274317
 21
239.2404115036
  0
LINE
  5
21A
100
AcDbEntity
  8
0
100
AcDbLine
 62
7
  6
CONTINUOUS
 10
28.0229879431
 20
215.8888459022
 11
27.3510168747
 21
211.3777852999
  0
LINE
  5
21B
100
AcDbEntity
  8
0
100
AcDbLine
 62
7
  6
CONTINUOUS
 10
29.9673228577
 20
214.766309011
 11
32.442186288
 21
216.1951635495
  0
LINE
  5
21C
100
AcDbEntity
  8
0
100
AcDbLine
 62
7
  6
CONTINUOUS
 10
26.8646379734
 20
211.6585899369
 11
27.4425471078
 21
211.9922439396
  0
LINE
  5
21D
100
AcDbEntity
  8
0
100
AcDbLine
 62
7
  6
CONTINUOUS
 10
29.9673228577
 20
212.3168017596
 11
31.5635154634
 21
213.2383584892
  0
LINE
  5
21E
100
AcDbEntity
  8
0
100
AcDbLine
 62
7
  6
CONTINUOUS
 10
36.6848446389
 20
213.7457190224
 11
34.2099812086
 21
212.3168644839
  0
LINE
  5
21F
100
AcDbEntity
  8
0
100
AcDbLine
 62
7
  6
CONTINUOUS
 10
45.1002536934
 20
221.4405885899
 11
42.8439566278
 21
216.5789326254
  0
LINE
  5
220
100
AcDbEntity
  8
0
100
AcDbLine
 62
7
  6
CONTINUOUS
 10
34.8817472234
 20
207.4383074903
 11
36.2959548978
 21
208.2547957981
  0
LINE
  5
221
100
AcDbEntity
  8
0
100
AcDbLine
 62
7
  6
CONTINUOUS
 10
29.9673228577
 20
214.766309011
 11
29.9673228577
 21
212.3168017596
  0
LINE
  5
222
100
AcDbEntity
  8
0
100
AcDbLine
 62
7
  6
CONTINUOUS
 10
29.9673228577
 20
209.8672945082
 11
29.9673228577
 21
141.934293403
  0
LINE
  5
223
100
AcDbEntity
  8
0
100
AcDbLine
 62
7
  6
CONTINUOUS
 10
31.5635154634
 20
213.827337902
 11
31.5635154634
 21
212.5209340346
  0
LINE
  5
224
100
AcDbEntity
  8
0
100
AcDbLine
 62
7
  6
CONTINUOUS
 10
32.442186288
 20
216.1951635495
 11
32.442186288
 21
215.0520601655
  0
LINE
  5
225
100
AcDbEntity
  8
0
100
AcDbLine
 62
7
  6
CONTINUOUS
 10
34.2099812086
 20
212.3168644839
 11
34.2099812086
 21
209.8673572325
  0
LINE
  5
226
100
AcDbEntity
  8
0
100
AcDbLine
 62
7
  6
CONTINUOUS
 10
34.8817472234
 20
207.4383074903
 11
34.8817472234
 21
186.7807963369
  0
LINE
  5
227
100
AcDbEntity
  8
0
100
AcDbLine
 62
7
  6
CONTINUOUS
 10
62.0707457866
 20
231.2384482828
 11
59.814448721
 21
226.3767923183
  0
LINE
  5
228
100
AcDbEntity
  8
0
100
AcDbLine
 62
7
  6
CONTINUOUS
 10
73.8079638987
 20
222.1149974256
 11
64.6156140149
 21
216.8078234253
  0
LINE
  5
229
100
AcDbEntity
  8
0
100
AcDbLine
 62
7
  6
CONTINUOUS
 10
64.6156228468
 20
210.6840251225
 11
61.7871839462
 21
209.0510349095
  0
LINE
  5
22A
100
AcDbEntity
  8
0
100
AcDbLine
 62
7
  6
CONTINUOUS
 10
41.4030119117
 20
196.5772028943
 11
40.7507402783
 21
196.2006159391
  0
LINE
  5
22B
100
AcDbEntity
  8
0
100
AcDbLine
 62
7
  6
CONTINUOUS
 10
40.7507402783
 20
194.3799302096
 11
40.7507402783
 21
196.2006159391
  0
LINE
  5
22C
100
AcDbEntity
  8
0
100
AcDbLine
 62
7
  6
CONTINUOUS
 10
42.8439566278
 20
216.5789326254
 11
42.8439566278
 21
214.129425374
  0
LINE
  5
22D
100
AcDbEntity
  8
0
100
AcDbLine
 62
7
  6
CONTINUOUS
 10
43.2192929264
 20
213.3207130789
 11
43.2192929264
 21
215.7702203303
  0
LINE
  5
22E
100
AcDbEntity
  8
0
100
AcDbLine
 62
7
  6
CONTINUOUS
 10
60.2306408971
 20
213.8892864533
 11
62.4869379627
 21
218.7509424178
  0
LINE
  5
22F
100
AcDbEntity
  8
0
100
AcDbLine
 62
7
  6
CONTINUOUS
 10
62.4869379627
 20
216.3014351664
 11
60.2306408971
 21
211.4397792019
  0
LINE
  5
230
100
AcDbEntity
  8
0
100
AcDbLine
 62
7
  6
CONTINUOUS
 10
46.583510568
 20
187.5480927066
 11
48.8232225854
 21
189.5845784741
  0
LINE
  5
231
100
AcDbEntity
  8
0
100
AcDbLine
 62
7
  6
CONTINUOUS
 10
39.1043305903
 20
193.429380807
 11
42.2862978578
 21
195.2664794995
  0
LINE
  5
232
100
AcDbEntity
  8
0
100
AcDbLine
 62
7
  6
CONTINUOUS
 10
37.9401217967
 20
192.1798791512
 11
39.3543294711
 21
192.996367459
  0
LINE
  5
233
100
AcDbEntity
  8
0
100
AcDbLine
 62
7
  6
CONTINUOUS
 10
76.6364793424
 20
209.8677305984
 11
85.8288292262
 21
215.1749045988
  0
LINE
  5
234
100
AcDbEntity
  8
0
100
AcDbLine
 62
7
  6
CONTINUOUS
 10
48.6090944041
 20
192.5727286491
 11
47.8218375298
 21
192.1182083939
  0
LINE
  5
235
100
AcDbEntity
  8
0
100
AcDbLine
 62
7
  6
CONTINUOUS
 10
41.4401061276
 20
186.1176922782
 11
42.854313802
 21
186.9341805859
  0
LINE
  5
236
100
AcDbEntity
  8
0
100
AcDbLine
 62
7
  6
CONTINUOUS
 10
45.1654472953
 20
217.6649375216
 11
45.1654472953
 21
220.114444773
  0
LINE
  5
237
100
AcDbEntity
  8
0
100
AcDbLine
 62
7
  6
CONTINUOUS
 10
46.6654472953
 20
220.114444773
 11
46.6654472953
 21
228.2794689443
  0
LINE
  5
238
100
AcDbEntity
  8
0
100
AcDbLine
 62
7
  6
CONTINUOUS
 10
47.4154472953
 20
228.2794689443
 11
47.4154472953
 21
229.0959713614
  0
LINE
  5
239
100
AcDbEntity
  8
0
100
AcDbLine
 62
7
  6
CONTINUOUS
 10
47.8218375298
 20
192.1182083939
 11
47.8218375298
 21
188.6740567652
  0
LINE
  5
23A
100
AcDbEntity
  8
0
100
AcDbLine
 62
7
  6
CONTINUOUS
 10
49.2360452042
 20
189.9431050928
 11
49.2360452042
 21
192.2107666246
  0
LINE
  5
23B
100
AcDbEntity
  8
0
100
AcDbLine
 62
7
  6
CONTINUOUS
 10
49.3837325943
 20
212.2112599431
 11
49.3837325943
 21
209.7617526918
  0
LINE
  5
23C
100
AcDbEntity
  8
0
100
AcDbLine
 62
7
  6
CONTINUOUS
 10
50.7844865283
 20
209.5450620106
 11
50.7844865283
 21
211.994569262
  0
LINE
  5
23D
100
AcDbEntity
  8
0
100
AcDbLine
 62
7
  6
CONTINUOUS
 10
77.2011329902
 20
223.6871461462
 11
79.4574300558
 21
228.5488021107
  0
LINE
  5
23E
100
AcDbEntity
  8
0
100
AcDbLine
 62
7
  6
CONTINUOUS
 10
79.4574300558
 20
226.0992948593
 11
77.2535033349
 21
221.3504815708
  0
LINE
  5
23F
100
AcDbEntity
  8
0
100
AcDbLine
 62
7
  6
CONTINUOUS
 10
56.1294918575
 20
182.0368425206
 11
58.3692038749
 21
184.0733282881
  0
LINE
  5
240
100
AcDbEntity
  8
0
100
AcDbLine
 62
7
  6
CONTINUOUS
 10
51.0839784421
 20
191.1438860083
 11
49.8049819082
 21
190.4054614229
  0
LINE
  5
241
100
AcDbEntity
  8
0
100
AcDbLine
 62
7
  6
CONTINUOUS
 10
43.1043126828
 20
186.5011672379
 11
46.2862799503
 21
188.3382659303
  0
LINE
  5
242
100
AcDbEntity
  8
0
100
AcDbLine
 62
7
  6
CONTINUOUS
 10
42.1649773924
 20
184.8621233334
 11
45.7004965785
 21
186.9033441027
  0
LINE
  5
243
100
AcDbEntity
  8
0
100
AcDbLine
 62
7
  6
CONTINUOUS
 10
48.0896538856
 20
186.4397376941
 11
48.5627184284
 21
186.7128600049
  0
LINE
  5
244
100
AcDbEntity
  8
0
100
AcDbLine
 62
7
  6
CONTINUOUS
 10
76.6364793424
 20
201.7027064271
 11
85.8288292262
 21
207.0098804275
  0
LINE
  5
245
100
AcDbEntity
  8
0
100
AcDbLine
 62
7
  6
CONTINUOUS
 10
77.3435978995
 20
200.06973831
 11
88.6572592949
 21
206.601644772
  0
LINE
  5
246
100
AcDbEntity
  8
0
100
AcDbLine
 62
7
  6
CONTINUOUS
 10
58.1550756936
 20
187.0614784631
 11
56.8760791596
 21
186.3230538777
  0
LINE
  5
247
100
AcDbEntity
  8
0
100
AcDbLine
 62
7
  6
CONTINUOUS
 10
77.3435978995
 20
198.0284822672
 11
88.6572592949
 21
204.5603887292
  0
LINE
  5
248
100
AcDbEntity
  8
0
100
AcDbLine
 62
7
  6
CONTINUOUS
 10
145.9981989919
 20
62.5209683562
 11
141.755540641
 21
64.9704128833
  0
LINE
  5
249
100
AcDbEntity
  8
0
100
AcDbLine
 62
7
  6
CONTINUOUS
 10
57.9154472953
 20
228.2794689443
 11
57.9154472953
 21
229.0959713614
  0
LINE
  5
24A
100
AcDbEntity
  8
0
100
AcDbLine
 62
7
  6
CONTINUOUS
 10
58.6654472953
 20
220.114444773
 11
58.6654472953
 21
228.2794689443
  0
LINE
  5
24B
100
AcDbEntity
  8
0
100
AcDbLine
 62
7
  6
CONTINUOUS
 10
58.7820264937
 20
184.4318549067
 11
58.7820264937
 21
186.6995164386
  0
LINE
  5
24C
100
AcDbEntity
  8
0
100
AcDbLine
 62
7
  6
CONTINUOUS
 10
59.2052232617
 20
213.2972648393
 11
59.2052232617
 21
210.8477575879
  0
LINE
  5
24D
100
AcDbEntity
  8
0
100
AcDbLine
 62
7
  6
CONTINUOUS
 10
59.7366681933
 20
122.9511293585
 11
59.7366681933
 21
149.0792067066
  0
LINE
  5
24E
100
AcDbEntity
  8
0
100
AcDbLine
 62
7
  6
CONTINUOUS
 10
59.814448721
 20
226.3767923183
 11
59.814448721
 21
223.9272850669
  0
LINE
  5
24F
100
AcDbEntity
  8
0
100
AcDbLine
 62
7
  6
CONTINUOUS
 10
60.1654472953
 20
217.6649375216
 11
60.1654472953
 21
220.114444773
  0
LINE
  5
250
100
AcDbEntity
  8
0
100
AcDbLine
 62
7
  6
CONTINUOUS
 10
60.1897850196
 20
223.1185727718
 11
60.1897850196
 21
225.5680800232
  0
LINE
  5
251
100
AcDbEntity
  8
0
100
AcDbLine
 62
7
  6
CONTINUOUS
 10
60.2306408971
 20
211.4397792019
 11
60.2306408971
 21
213.8892864533
  0
LINE
  5
252
100
AcDbEntity
  8
0
100
AcDbLine
 62
7
  6
CONTINUOUS
 10
51.0896404549
 20
181.2435775172
 11
51.6049833549
 21
181.5411091032
  0
LINE
  5
253
100
AcDbEntity
  8
0
100
AcDbLine
 62
7
  6
CONTINUOUS
 10
60.6299597316
 20
185.6326358223
 11
59.3509631977
 21
184.8942112369
  0
LINE
  5
254
100
AcDbEntity
  8
0
100
AcDbLine
 62
7
  6
CONTINUOUS
 10
71.6867966414
 20
190.6801044943
 11
74.1616600717
 21
192.1089590328
  0
LINE
  5
255
100
AcDbEntity
  8
0
100
AcDbLine
 62
7
  6
CONTINUOUS
 10
109.6582726998
 20
212.6028155572
 11
112.13313613
 21
214.0316700957
  0
LINE
  5
256
100
AcDbEntity
  8
0
100
AcDbLine
 62
7
  6
CONTINUOUS
 10
68.5401701404
 20
188.0060475752
 11
69.9543778148
 21
188.8225358829
  0
LINE
  5
257
100
AcDbEntity
  8
0
100
AcDbLine
 62
7
  6
CONTINUOUS
 10
57.635635175
 20
180.928487508
 11
58.1086997179
 21
181.2016098189
  0
LINE
  5
258
100
AcDbEntity
  8
0
100
AcDbLine
 62
7
  6
CONTINUOUS
 10
71.6867966414
 20
188.2305972429
 11
73.2829892471
 21
189.1521539725
  0
LINE
  5
259
100
AcDbEntity
  8
0
100
AcDbLine
 62
7
  6
CONTINUOUS
 10
80.8791847968
 20
190.6801265901
 11
112.1331744016
 21
208.7245181912
  0
LINE
  5
25A
100
AcDbEntity
  8
0
100
AcDbLine
 62
7
  6
CONTINUOUS
 10
144.589835211
 20
65.6339141613
 11
140.3471768601
 21
68.0833586884
  0
LINE
  5
25B
100
AcDbEntity
  8
0
100
AcDbLine
 62
7
  6
CONTINUOUS
 10
95.8862946284
 20
100.3218999656
 11
140.3471768601
 21
74.6529783494
  0
LINE
  5
25C
100
AcDbEntity
  8
0
100
AcDbLine
 62
7
  6
CONTINUOUS
 10
65.3128755256
 20
118.4839384674
 11
91.6879993847
 21
103.2563534715
  0
LINE
  5
25D
100
AcDbEntity
  8
0
100
AcDbLine
 62
7
  6
CONTINUOUS
 10
95.1098622469
 20
101.3136890231
 11
83.4290265661
 21
108.0574700831
  0
LINE
  5
25E
100
AcDbEntity
  8
0
100
AcDbLine
 62
7
  6
CONTINUOUS
 10
140.3471768601
 20
76.4116833432
 11
94.8093105606
 21
102.7023879343
  0
LINE
  5
25F
100
AcDbEntity
  8
0
100
AcDbLine
 62
7
  6
CONTINUOUS
 10
63.9793265442
 20
120.5016848314
 11
59.7366681933
 21
122.9511293585
  0
LINE
  5
260
100
AcDbEntity
  8
0
100
AcDbLine
 62
7
  6
CONTINUOUS
 10
82.4207453498
 20
110.2303486612
 11
64.3187363861
 21
120.6813119769
  0
LINE
  5
261
100
AcDbEntity
  8
0
100
AcDbLine
 62
7
  6
CONTINUOUS
 10
94.8093105606
 20
103.1106286888
 11
82.4348874266
 21
110.2548435926
  0
LINE
  5
262
100
AcDbEntity
  8
0
100
AcDbLine
 62
7
  6
CONTINUOUS
 10
42.9260733402
 20
130.8649207415
 11
73.3501367395
 21
113.2987965678
  0
LWPOLYLINE
  5
263
100
AcDbEntity
  8
0
100
AcDbPolyline
 62
7
  6
CONTINUOUS
 90
3
 70
0
 10
83.4149283267
 20
108.0330511691
 10
83.3520186558
 20
108.0712447895
 10
83.4293999623
 20
108.0600514236
  0
LINE
  5
264
100
AcDbEntity
  8
0
100
AcDbLine
 62
7
  6
CONTINUOUS
 10
61.7871839462
 20
209.0510349095
 11
61.7871839462
 21
207.0097788667
  0
LINE
  5
265
100
AcDbEntity
  8
0
100
AcDbLine
 62
7
  6
CONTINUOUS
 10
62.1359393884
 20
227.4627972145
 11
62.1359393884
 21
229.5040532573
  0
LINE
  5
266
100
AcDbEntity
  8
0
100
AcDbLine
 62
7
  6
CONTINUOUS
 10
62.4869379627
 20
218.7509424178
 11
62.4869379627
 21
216.3014351664
  0
LINE
  5
267
100
AcDbEntity
  8
0
100
AcDbLine
 62
7
  6
CONTINUOUS
 10
62.7524045165
 20
202.7247691254
 11
62.7524045165
 21
200.6835130826
  0
LINE
  5
268
100
AcDbEntity
  8
0
100
AcDbLine
 62
7
  6
CONTINUOUS
 10
62.8479250771
 20
166.7156696921
 11
62.8479250771
 21
155.1848060708
  0
LINE
  5
269
100
AcDbEntity
  8
0
100
AcDbLine
 62
7
  6
CONTINUOUS
 10
62.8859393884
 20
229.5040532573
 11
62.8859393884
 21
234.8113189687
  0
LINE
  5
26A
100
AcDbEntity
  8
0
100
AcDbLine
 62
7
  6
CONTINUOUS
 10
62.9186354608
 20
155.2518765547
 11
62.9186354608
 21
166.6748459566
  0
LINE
  5
26B
100
AcDbEntity
  8
0
100
AcDbLine
 62
7
  6
CONTINUOUS
 10
63.736975574
 20
204.2338138617
 11
63.736975574
 21
202.9274099943
  0
LINE
  5
26C
100
AcDbEntity
  8
0
100
AcDbLine
 62
7
  6
CONTINUOUS
 10
63.9793265442
 20
120.5016848314
 11
63.9793265442
 21
146.6297621795
  0
LINE
  5
26D
100
AcDbEntity
  8
0
100
AcDbLine
 62
7
  6
CONTINUOUS
 10
64.3187363861
 20
120.6813119769
 11
64.3187363861
 21
146.8420494217
  0
LINE
  5
26E
100
AcDbEntity
  8
0
100
AcDbLine
 62
7
  6
CONTINUOUS
 10
64.6156140149
 20
216.8078234253
 11
64.6156228468
 21
207.4180718914
  0
LINE
  5
26F
100
AcDbEntity
  8
0
100
AcDbLine
 62
7
  6
CONTINUOUS
 10
65.6359393884
 20
234.8113189687
 11
65.6359393884
 21
236.4443238029
  0
LINE
  5
270
100
AcDbEntity
  8
0
100
AcDbLine
 62
7
  6
CONTINUOUS
 10
66.1678984483
 20
223.6234644755
 11
66.1678984483
 21
225.6647205183
  0
LINE
  5
271
100
AcDbEntity
  8
0
100
AcDbLine
 62
7
  6
CONTINUOUS
 10
66.3542246874
 20
222.0091196361
 11
66.3542246874
 21
219.5596123847
  0
LINE
  5
272
100
AcDbEntity
  8
0
100
AcDbLine
 62
7
  6
CONTINUOUS
 10
66.3860194544
 20
198.5856919791
 11
66.3860194544
 21
200.6269480219
  0
LINE
  5
273
100
AcDbEntity
  8
0
100
AcDbLine
 62
7
  6
CONTINUOUS
 10
67.1612938117
 20
153.0473827528
 11
67.1612938117
 21
152.8024320276
  0
LINE
  5
274
100
AcDbEntity
  8
0
100
AcDbLine
 62
7
  6
CONTINUOUS
 10
67.7549786214
 20
219.3429217036
 11
67.7549786214
 21
221.7924289549
  0
LINE
  5
275
100
AcDbEntity
  8
0
100
AcDbLine
 62
7
  6
CONTINUOUS
 10
68.4783833847
 20
225.664726072
 11
68.4783833847
 21
230.9719917834
  0
LINE
  5
276
100
AcDbEntity
  8
0
100
AcDbLine
 62
7
  6
CONTINUOUS
 10
78.4043213665
 20
186.8017648001
 11
80.8791847968
 21
188.2306193387
  0
LINE
  5
277
100
AcDbEntity
  8
0
100
AcDbLine
 62
7
  6
CONTINUOUS
 10
112.1331744016
 20
206.2750109398
 11
114.6080378319
 21
207.7038654783
  0
LINE
  5
278
100
AcDbEntity
  8
0
100
AcDbLine
 62
7
  6
CONTINUOUS
 10
79.6771082735
 20
187.1283530685
 11
113.3352509249
 21
206.5607747928
  0
LINE
  5
279
100
AcDbEntity
  8
0
100
AcDbLine
 62
7
  6
CONTINUOUS
 10
60.6356217444
 20
175.7323273312
 11
61.1509646444
 21
176.0298589172
  0
LINE
  5
27A
100
AcDbEntity
  8
0
100
AcDbLine
 62
7
  6
CONTINUOUS
 10
114.7494703752
 20
205.7442932838
 11
81.0913277238
 21
186.3118715595
  0
LINE
  5
27B
100
AcDbEntity
  8
0
100
AcDbLine
 62
7
  6
CONTINUOUS
 10
79.6771082735
 20
185.0870970257
 11
78.4043213665
 21
184.3522575487
  0
LINE
  5
27C
100
AcDbEntity
  8
0
100
AcDbLine
 62
7
  6
CONTINUOUS
 10
61.9032600068
 20
174.2127737803
 11
61.2569399714
 21
173.8396229613
  0
LINE
  5
27D
100
AcDbEntity
  8
0
100
AcDbLine
 62
7
  6
CONTINUOUS
 10
51.2964227859
 20
179.3850405672
 11
52.6168955593
 21
179.806981319
  0
LINE
  5
27E
100
AcDbEntity
  8
0
100
AcDbLine
 62
7
  6
CONTINUOUS
 10
27.3967169789
 20
142.4037623278
 11
42.7057338627
 21
133.5652972617
  0
LINE
  5
27F
100
AcDbEntity
  8
0
100
AcDbLine
 62
7
  6
CONTINUOUS
 10
156.0449173738
 20
68.8181593021
 11
146.4283051877
 21
74.3704716824
  0
LINE
  5
280
100
AcDbEntity
  8
0
100
AcDbLine
 62
7
  6
CONTINUOUS
 10
42.618850752
 20
134.6300956106
 11
26.5676069212
 21
143.8970759101
  0
LWPOLYLINE
  5
281
100
AcDbEntity
  8
0
100
AcDbPolyline
 62
7
  6
CONTINUOUS
 90
3
 70
0
 10
91.7041955058
 20
103.2824665795
 10
91.7525873906
 20
103.2210399866
 10
91.688043545
 20
103.256429873
  0
LINE
  5
282
100
AcDbEntity
  8
0
100
AcDbLine
 62
7
  6
CONTINUOUS
 10
68.5401701404
 20
167.3485364218
 11
68.5401701404
 21
188.0060475752
  0
LINE
  5
283
100
AcDbEntity
  8
0
100
AcDbLine
 62
7
  6
CONTINUOUS
 10
69.736975574
 20
204.2338138617
 11
69.736975574
 21
202.9274099943
  0
LINE
  5
284
100
AcDbEntity
  8
0
100
AcDbLine
 62
7
  6
CONTINUOUS
 10
69.9543778148
 20
188.8225358829
 11
69.9543778148
 21
168.1650247295
  0
LINE
  5
285
100
AcDbEntity
  8
0
100
AcDbLine
 62
7
  6
CONTINUOUS
 10
70.7935507653
 20
230.9719973483
 11
70.7935507653
 21
225.664731637
  0
LINE
  5
286
100
AcDbEntity
  8
0
100
AcDbLine
 62
7
  6
CONTINUOUS
 10
71.6867966414
 20
190.6801044943
 11
71.6867966414
 21
188.2305972429
  0
LINE
  5
287
100
AcDbEntity
  8
0
100
AcDbLine
 62
7
  6
CONTINUOUS
 10
73.1040357017
 20
225.6647371907
 11
73.1040357017
 21
223.6234811479
  0
LINE
  5
288
100
AcDbEntity
  8
0
100
AcDbLine
 62
7
  6
CONTINUOUS
 10
73.2829892471
 20
189.7411333853
 11
73.2829892471
 21
188.4347295179
  0
LINE
  5
289
100
AcDbEntity
  8
0
100
AcDbLine
 62
7
  6
CONTINUOUS
 10
73.6359393884
 20
234.8113189687
 11
73.6359393884
 21
236.4443238029
  0
LINE
  5
28A
100
AcDbEntity
  8
0
100
AcDbLine
 62
7
  6
CONTINUOUS
 10
74.1616600717
 20
192.1089590328
 11
74.1616600717
 21
190.9658556489
  0
LINE
  5
28B
100
AcDbEntity
  8
0
100
AcDbLine
 62
7
  6
CONTINUOUS
 10
74.1616806794
 20
186.8017546021
 11
74.1616806794
 21
161.2452289459
  0
LINE
  5
28C
100
AcDbEntity
  8
0
100
AcDbLine
 62
7
  6
CONTINUOUS
 10
74.5151589989
 20
209.8677254994
 11
74.5151589989
 21
201.7027013281
  0
LINE
  5
28D
100
AcDbEntity
  8
0
100
AcDbLine
 62
7
  6
CONTINUOUS
 10
76.1757153548
 20
223.0951245322
 11
76.1757153548
 21
221.9727286741
  0
LINE
  5
28E
100
AcDbEntity
  8
0
100
AcDbLine
 62
7
  6
CONTINUOUS
 10
76.3537202386
 20
159.979680856
 11
76.3537202386
 21
147.740252944
  0
LINE
  5
28F
100
AcDbEntity
  8
0
100
AcDbLine
 62
7
  6
CONTINUOUS
 10
76.3859393884
 20
229.5040532573
 11
76.3859393884
 21
234.8113189687
  0
LINE
  5
290
100
AcDbEntity
  8
0
100
AcDbLine
 62
7
  6
CONTINUOUS
 10
76.6364793424
 20
209.8677305984
 11
76.6364793424
 21
201.7027064271
  0
LINE
  5
291
100
AcDbEntity
  8
0
100
AcDbLine
 62
7
  6
CONTINUOUS
 10
86.2531680716
 20
174.3716422392
 11
86.3054932374
 21
174.4367358458
  0
LINE
  5
292
100
AcDbEntity
  8
0
100
AcDbLine
 62
7
  6
CONTINUOUS
 10
62.8479250771
 20
155.1848060708
 11
62.9186354608
 21
155.2518765547
  0
LINE
  5
293
100
AcDbEntity
  8
0
100
AcDbLine
 62
7
  6
CONTINUOUS
 10
107.4663008519
 20
194.5991079533
 11
88.3744972471
 21
183.5765157988
  0
LINE
  5
294
100
AcDbEntity
  8
0
100
AcDbLine
 62
7
  6
CONTINUOUS
 10
69.9543778148
 20
168.1650247295
 11
68.5401701404
 21
167.3485364218
  0
LINE
  5
295
100
AcDbEntity
  8
0
100
AcDbLine
 62
7
  6
CONTINUOUS
 10
68.9602403896
 20
165.9676522097
 11
67.5460327152
 21
165.151163902
  0
LINE
  5
296
100
AcDbEntity
  8
0
100
AcDbLine
 62
7
  6
CONTINUOUS
 10
93.8739983586
 20
179.403042992
 11
93.0269689896
 21
178.9140132769
  0
LINE
  5
297
100
AcDbEntity
  8
0
100
AcDbLine
 62
7
  6
CONTINUOUS
 10
85.3058708885
 20
174.456261819
 11
84.8389486214
 21
174.1866857316
  0
LINE
  5
298
100
AcDbEntity
  8
0
100
AcDbLine
 62
7
  6
CONTINUOUS
 10
60.8424040753
 20
173.8737903812
 11
62.1628768488
 21
174.2957311329
  0
LINE
  5
299
100
AcDbEntity
  8
0
100
AcDbLine
 62
7
  6
CONTINUOUS
 10
62.7524045165
 20
200.6835130826
 11
61.7871839462
 21
207.0097788667
  0
LINE
  5
29A
100
AcDbEntity
  8
0
100
AcDbLine
 62
7
  6
CONTINUOUS
 10
61.7871839462
 20
209.0510349095
 11
62.7524045165
 21
202.7247691254
  0
LINE
  5
29B
100
AcDbEntity
  8
0
100
AcDbLine
 62
7
  6
CONTINUOUS
 10
77.1359393884
 20
227.4627972145
 11
77.1359393884
 21
229.5040532573
  0
LINE
  5
29C
100
AcDbEntity
  8
0
100
AcDbLine
 62
7
  6
CONTINUOUS
 10
77.2011329902
 20
221.3807169194
 11
77.2011329902
 21
223.6871461462
  0
LINE
  5
29D
100
AcDbEntity
  8
0
100
AcDbLine
 62
7
  6
CONTINUOUS
 10
77.3435978995
 20
200.06973831
 11
77.3435978995
 21
198.0284822672
  0
LINE
  5
29E
100
AcDbEntity
  8
0
100
AcDbLine
 62
7
  6
CONTINUOUS
 10
78.4043007587
 20
190.9658658469
 11
78.4043007587
 21
192.1089692309
  0
LINE
  5
29F
100
AcDbEntity
  8
0
100
AcDbLine
 62
7
  6
CONTINUOUS
 10
78.4043213665
 20
161.245239144
 11
78.4043213665
 21
186.8017648001
  0
LINE
  5
2A0
100
AcDbEntity
  8
0
100
AcDbLine
 62
7
  6
CONTINUOUS
 10
79.2829892471
 20
189.7411333853
 11
79.2829892471
 21
188.4347295179
  0
LINE
  5
2A1
100
AcDbEntity
  8
0
100
AcDbLine
 62
7
  6
CONTINUOUS
 10
79.4574300558
 20
228.5488021107
 11
79.4574300558
 21
226.0992948593
  0
LINE
  5
2A2
100
AcDbEntity
  8
0
100
AcDbLine
 62
7
  6
CONTINUOUS
 10
79.6771082735
 20
166.4708419152
 11
79.6771082735
 21
187.1283530685
  0
LINE
  5
2A3
100
AcDbEntity
  8
0
100
AcDbLine
 62
7
  6
CONTINUOUS
 10
80.8791847968
 20
190.6801265901
 11
80.8791847968
 21
188.2306193387
  0
LINE
  5
2A4
100
AcDbEntity
  8
0
100
AcDbLine
 62
7
  6
CONTINUOUS
 10
81.0913277238
 20
186.3118715595
 11
81.0913277238
 21
165.6543604061
  0
LINE
  5
2A5
100
AcDbEntity
  8
0
100
AcDbLine
 62
7
  6
CONTINUOUS
 10
82.4207453498
 20
136.391086106
 11
82.4207453498
 21
110.2303486612
  0
LINE
  5
2A6
100
AcDbEntity
  8
0
100
AcDbLine
 62
7
  6
CONTINUOUS
 10
82.4348874266
 20
136.3829209407
 11
82.4348874266
 21
110.2548435926
  0
LINE
  5
2A7
100
AcDbEntity
  8
0
100
AcDbLine
 62
7
  6
CONTINUOUS
 10
80.6122451325
 20
153.1038369705
 11
81.6246652052
 21
157.3252283924
  0
LINE
  5
2A8
100
AcDbEntity
  8
0
100
AcDbLine
 62
7
  6
CONTINUOUS
 10
67.1612938117
 20
152.8024320276
 11
66.5801080873
 21
152.251163519
  0
LINE
  5
2A9
100
AcDbEntity
  8
0
100
AcDbLine
 62
7
  6
CONTINUOUS
 10
66.6915952999
 20
151.9496067412
 11
67.5928106352
 21
152.7982520347
  0
LINE
  5
2AA
100
AcDbEntity
  8
0
100
AcDbLine
 62
7
  6
CONTINUOUS
 10
88.3744972471
 20
172.145481959
 11
98.1061974644
 21
177.7640481608
  0
LINE
  5
2AB
100
AcDbEntity
  8
0
100
AcDbLine
 62
7
  6
CONTINUOUS
 10
102.6223625357
 20
180.3714417163
 11
107.4663008519
 21
183.1680741135
  0
LINE
  5
2AC
100
AcDbEntity
  8
0
100
AcDbLine
 62
7
  6
CONTINUOUS
 10
114.6080378319
 20
182.1473398222
 11
113.6433033595
 21
181.5903534397
  0
LINE
  5
2AD
100
AcDbEntity
  8
0
100
AcDbLine
 62
7
  6
CONTINUOUS
 10
82.1974738264
 20
163.4352036655
 11
78.4043213665
 21
161.245239144
  0
LINE
  5
2AE
100
AcDbEntity
  8
0
100
AcDbLine
 62
7
  6
CONTINUOUS
 10
116.6586389598
 20
183.2495976267
 11
113.5375286645
 21
181.4476345138
  0
LINE
  5
2AF
100
AcDbEntity
  8
0
100
AcDbLine
 62
7
  6
CONTINUOUS
 10
82.3032523171
 20
163.4146242993
 11
76.3537202386
 21
159.979680856
  0
LINE
  5
2B0
100
AcDbEntity
  8
0
100
AcDbLine
 62
7
  6
CONTINUOUS
 10
166.7527686077
 20
81.3225977136
 11
163.358641927
 21
83.2821533353
  0
LINE
  5
2B1
100
AcDbEntity
  8
0
100
AcDbLine
 62
7
  6
CONTINUOUS
 10
183.1020473853
 20
75.3476327737
 11
168.2527431572
 21
83.9206886187
  0
LINE
  5
2B2
100
AcDbEntity
  8
0
100
AcDbLine
 62
7
  6
CONTINUOUS
 10
59.7366681933
 20
149.0792067066
 11
63.9793265442
 21
146.6297621795
  0
LINE
  5
2B3
100
AcDbEntity
  8
0
100
AcDbLine
 62
7
  6
CONTINUOUS
 10
94.8093105606
 20
128.8304652824
 11
140.3471768601
 21
102.5397606913
  0
LINE
  5
2B4
100
AcDbEntity
  8
0
100
AcDbLine
 62
7
  6
CONTINUOUS
 10
82.4348874266
 20
136.3829209407
 11
94.8735725372
 21
129.2016052068
  0
LINE
  5
2B5
100
AcDbEntity
  8
0
100
AcDbLine
 62
7
  6
CONTINUOUS
 10
64.3187363861
 20
146.8420494217
 11
82.4207453498
 21
136.391086106
  0
LINE
  5
2B6
100
AcDbEntity
  8
0
100
AcDbLine
 62
7
  6
CONTINUOUS
 10
44.2339741366
 20
187.1533736892
 11
44.286288904
 21
187.0882938116
  0
LINE
  5
2B7
100
AcDbEntity
  8
0
100
AcDbLine
 62
7
  6
CONTINUOUS
 10
85.8288292262
 20
207.0098804275
 11
85.8288203943
 21
216.3996319614
  0
LINE
  5
2B8
100
AcDbEntity
  8
0
100
AcDbLine
 62
7
  6
CONTINUOUS
 10
86.7074676671
 20
214.0316735546
 11
86.7074676671
 21
212.7252696872
  0
LINE
  5
2B9
100
AcDbEntity
  8
0
100
AcDbLine
 62
7
  6
CONTINUOUS
 10
88.6572592949
 20
206.601644772
 11
88.6572592949
 21
204.5603887292
  0
LINE
  5
2BA
100
AcDbEntity
  8
0
100
AcDbLine
 62
7
  6
CONTINUOUS
 10
89.7886872577
 20
183.4839813634
 11
89.7886872577
 21
181.6633103979
  0
LINE
  5
2BB
100
AcDbEntity
  8
0
100
AcDbLine
 62
7
  6
CONTINUOUS
 10
90.8493312377
 20
185.0053533404
 11
90.8493312377
 21
181.0509611638
  0
LINE
  5
2BC
100
AcDbEntity
  8
0
100
AcDbLine
 62
7
  6
CONTINUOUS
 10
89.8584175749
 20
147.7844474176
 11
90.8511432615
 21
151.990666981
  0
LINE
  5
2BD
100
AcDbEntity
  8
0
100
AcDbLine
 62
7
  6
CONTINUOUS
 10
89.8632963868
 20
147.8048715484
 11
90.8708376476
 21
152.0058388395
  0
LINE
  5
2BE
100
AcDbEntity
  8
0
100
AcDbLine
 62
7
  6
CONTINUOUS
 10
76.3537202386
 20
147.740252944
 11
78.9221240842
 21
150.1764451936
  0
LINE
  5
2BF
100
AcDbEntity
  8
0
100
AcDbLine
 62
7
  6
CONTINUOUS
 10
84.4854261424
 20
163.6947207425
 11
111.3553719565
 21
179.2079985896
  0
LINE
  5
2C0
100
AcDbEntity
  8
0
100
AcDbLine
 62
7
  6
CONTINUOUS
 10
107.8198409946
 20
175.4520877268
 11
85.1925182038
 21
162.3882748029
  0
LINE
  5
2C1
100
AcDbEntity
  8
0
100
AcDbLine
 62
7
  6
CONTINUOUS
 10
97.3138613083
 20
134.2436905335
 11
84.7903122203
 21
141.4740013992
  0
LINE
  5
2C2
100
AcDbEntity
  8
0
100
AcDbLine
 62
7
  6
CONTINUOUS
 10
84.7936042637
 20
141.4986434255
 11
66.6915952999
 21
151.9496067412
  0
LINE
  5
2C3
100
AcDbEntity
  8
0
100
AcDbLine
 62
7
  6
CONTINUOUS
 10
66.5801080873
 20
152.251163519
 11
42.594892114
 21
166.0987211442
  0
LINE
  5
2C4
100
AcDbEntity
  8
0
100
AcDbLine
 62
7
  6
CONTINUOUS
 10
140.3471768601
 20
109.7956959753
 11
97.5400290764
 21
134.5098551625
  0
LINE
  5
2C5
100
AcDbEntity
  8
0
100
AcDbLine
 62
7
  6
CONTINUOUS
 10
43.3090667143
 20
166.465316007
 11
62.8479250771
 21
155.1848060708
  0
LINE
  5
2C6
100
AcDbEntity
  8
0
100
AcDbLine
 62
7
  6
CONTINUOUS
 10
62.9186354608
 20
155.2518765547
 11
67.1612938117
 21
152.8024320276
  0
LINE
  5
2C7
100
AcDbEntity
  8
0
100
AcDbLine
 62
7
  6
CONTINUOUS
 10
76.3537202386
 20
147.740252944
 11
67.1612938117
 21
153.0473827528
  0
LINE
  5
2C8
100
AcDbEntity
  8
0
100
AcDbLine
 62
7
  6
CONTINUOUS
 10
140.3471768601
 20
110.868085346
 11
144.589835211
 21
108.4186408189
  0
LINE
  5
2C9
100
AcDbEntity
  8
0
100
AcDbLine
 62
7
  6
CONTINUOUS
 10
188.1019625501
 20
84.0079357906
 11
173.252658322
 21
92.5809916355
  0
LINE
  5
2CA
100
AcDbEntity
  8
0
100
AcDbLine
 62
7
  6
CONTINUOUS
 10
100.4869000656
 20
137.1174137001
 11
140.9916433341
 21
113.7325183075
  0
LINE
  5
2CB
100
AcDbEntity
  8
0
100
AcDbLine
 62
7
  6
CONTINUOUS
 10
78.5735281974
 20
149.8457936883
 11
87.9246469352
 21
144.4470449039
  0
LINE
  5
2CC
100
AcDbEntity
  8
0
100
AcDbLine
 62
7
  6
CONTINUOUS
 10
87.9399017903
 20
144.4614621573
 11
100.5302872324
 21
137.1925641775
  0
LINE
  5
2CD
100
AcDbEntity
  8
0
100
AcDbLine
 62
7
  6
CONTINUOUS
 10
47.8218375298
 20
192.1182083939
 11
46.4582921876
 21
193.8144667959
  0
LINE
  5
2CE
100
AcDbEntity
  8
0
100
AcDbLine
 62
7
  6
CONTINUOUS
 10
94.8093105606
 20
102.7023879343
 11
94.8093105606
 21
128.8304652824
  0
LINE
  5
2CF
100
AcDbEntity
  8
0
100
AcDbLine
 62
7
  6
CONTINUOUS
 10
99.8599947389
 20
215.7871540432
 11
99.8599947389
 21
212.9293955832
  0
LINE
  5
2D0
100
AcDbEntity
  8
0
100
AcDbLine
 62
7
  6
CONTINUOUS
 10
100.3952330401
 20
190.5166494177
 11
100.3952330401
 21
188.2489648916
  0
LINE
  5
2D1
100
AcDbEntity
  8
0
100
AcDbLine
 62
7
  6
CONTINUOUS
 10
84.7903122203
 20
141.4740013992
 11
87.9399017903
 21
144.4614621573
  0
LINE
  5
2D2
100
AcDbEntity
  8
0
100
AcDbLine
 62
7
  6
CONTINUOUS
 10
87.9246535381
 20
144.4470249968
 11
84.7936042637
 21
141.4986434255
  0
LINE
  5
2D3
100
AcDbEntity
  8
0
100
AcDbLine
 62
7
  6
CONTINUOUS
 10
116.7435656082
 20
169.6795472175
 11
94.0879586639
 21
156.5994045275
  0
LINE
  5
2D4
100
AcDbEntity
  8
0
100
AcDbLine
 62
7
  6
CONTINUOUS
 10
116.7294235315
 20
169.6550522861
 11
94.1021007406
 21
156.5912393622
  0
LINE
  5
2D5
100
AcDbEntity
  8
0
100
AcDbLine
 62
7
  6
CONTINUOUS
 10
174.7526328715
 20
95.1790825406
 11
171.3585061908
 21
97.1386381623
  0
LINE
  5
2D6
100
AcDbEntity
  8
0
100
AcDbLine
 62
7
  6
CONTINUOUS
 10
102.4488041281
 20
140.5155487964
 11
89.8584175749
 21
147.7844474176
  0
LINE
  5
2D7
100
AcDbEntity
  8
0
100
AcDbLine
 62
7
  6
CONTINUOUS
 10
89.8632758456
 20
147.8048673134
 11
80.6304291162
 21
153.1353332667
  0
LINE
  5
2D8
100
AcDbEntity
  8
0
100
AcDbLine
 62
7
  6
CONTINUOUS
 10
142.9968931003
 20
117.205835956
 11
102.4921948181
 21
140.5907053763
  0
LINE
  5
2D9
100
AcDbEntity
  8
0
100
AcDbLine
 62
7
  6
CONTINUOUS
 10
149.398141304
 20
116.7469175017
 11
145.1554829531
 21
119.1963620288
  0
LINE
  5
2DA
100
AcDbEntity
  8
0
100
AcDbLine
 62
7
  6
CONTINUOUS
 10
38.2758739041
 20
180.902029113
 11
65.1460434597
 21
165.3888804413
  0
LINE
  5
2DB
100
AcDbEntity
  8
0
100
AcDbLine
 62
7
  6
CONTINUOUS
 10
76.3537202386
 20
159.979680856
 11
67.5085821194
 21
165.0863102936
  0
LINE
  5
2DC
100
AcDbEntity
  8
0
100
AcDbLine
 62
7
  6
CONTINUOUS
 10
103.2769711772
 20
144.4465855213
 11
146.084049034
 21
119.7324667055
  0
LINE
  5
2DD
100
AcDbEntity
  8
0
100
AcDbLine
 62
7
  6
CONTINUOUS
 10
81.6212997257
 20
157.319399079
 11
90.8511432615
 21
151.990666981
  0
LINE
  5
2DE
100
AcDbEntity
  8
0
100
AcDbLine
 62
7
  6
CONTINUOUS
 10
90.8708376476
 20
152.0058388395
 11
103.3943866437
 21
144.7755280269
  0
LINE
  5
2DF
100
AcDbEntity
  8
0
100
AcDbLine
 62
7
  6
CONTINUOUS
 10
88.6572592949
 20
206.601644772
 11
87.6920387246
 21
212.9279105561
  0
LINE
  5
2E0
100
AcDbEntity
  8
0
100
AcDbLine
 62
7
  6
CONTINUOUS
 10
107.8599947389
 20
215.7871540432
 11
107.8599947389
 21
212.9293955832
  0
LINE
  5
2E1
100
AcDbEntity
  8
0
100
AcDbLine
 62
7
  6
CONTINUOUS
 10
102.4921948181
 20
140.5907053763
 11
103.2769711772
 21
144.4465855213
  0
LINE
  5
2E2
100
AcDbEntity
  8
0
100
AcDbLine
 62
7
  6
CONTINUOUS
 10
106.8300757933
 20
149.6511569894
 11
129.4573985841
 21
162.7149699133
  0
LINE
  5
2E3
100
AcDbEntity
  8
0
100
AcDbLine
 62
7
  6
CONTINUOUS
 10
188.8545307102
 20
99.5183088414
 11
189.4202184903
 21
99.1917162378
  0
LINE
  5
2E4
100
AcDbEntity
  8
0
100
AcDbLine
 62
7
  6
CONTINUOUS
 10
42.1649773924
 20
184.8621233334
 11
47.0114279481
 21
182.0640871004
  0
LINE
  5
2E5
100
AcDbEntity
  8
0
100
AcDbLine
 62
7
  6
CONTINUOUS
 10
51.5251721791
 20
179.4581346081
 11
56.5574092376
 21
176.5528369144
  0
LINE
  5
2E6
100
AcDbEntity
  8
0
100
AcDbLine
 62
7
  6
CONTINUOUS
 10
61.0711534686
 20
173.9468844221
 11
61.2569399714
 21
173.8396229613
  0
LINE
  5
2E7
100
AcDbEntity
  8
0
100
AcDbLine
 62
7
  6
CONTINUOUS
 10
80.671247413
 20
164.2734684056
 11
82.0854668633
 21
163.4569868966
  0
LINE
  5
2E8
100
AcDbEntity
  8
0
100
AcDbLine
 62
7
  6
CONTINUOUS
 10
106.5407834345
 20
149.4099250236
 11
94.1021007406
 21
156.5912393622
  0
LINE
  5
2E9
100
AcDbEntity
  8
0
100
AcDbLine
 62
7
  6
CONTINUOUS
 10
94.0879586639
 20
156.5994045275
 11
84.7262630704
 21
162.0042597243
  0
LINE
  5
2EA
100
AcDbEntity
  8
0
100
AcDbLine
 62
7
  6
CONTINUOUS
 10
152.3679420927
 20
123.3604523983
 11
106.8300757933
 21
149.6511569894
  0
LINE
  5
2EB
100
AcDbEntity
  8
0
100
AcDbLine
 62
7
  6
CONTINUOUS
 10
81.0913277238
 20
165.6543604061
 11
79.6771082735
 21
166.4708419152
  0
LINE
  5
2EC
100
AcDbEntity
  8
0
100
AcDbLine
 62
7
  6
CONTINUOUS
 10
46.0894610764
 20
186.6787804254
 11
45.7004965785
 21
186.9033441027
  0
LINE
  5
2ED
100
AcDbEntity
  8
0
100
AcDbLine
 62
7
  6
CONTINUOUS
 10
109.6582726998
 20
211.4597121732
 11
109.6582726998
 21
212.6028155572
  0
LINE
  5
2EE
100
AcDbEntity
  8
0
100
AcDbLine
 62
7
  6
CONTINUOUS
 10
112.13313613
 20
214.0316700957
 11
112.13313613
 21
211.9525598751
  0
LINE
  5
2EF
100
AcDbEntity
  8
0
100
AcDbLine
 62
7
  6
CONTINUOUS
 10
112.1331744016
 20
208.7245181912
 11
112.1331744016
 21
206.2750109398
  0
LINE
  5
2F0
100
AcDbEntity
  8
0
100
AcDbLine
 62
7
  6
CONTINUOUS
 10
114.6080378319
 20
207.7038654783
 11
114.6080378319
 21
205.8259475535
  0
LINE
  5
2F1
100
AcDbEntity
  8
0
100
AcDbLine
 62
7
  6
CONTINUOUS
 10
114.6080378319
 20
184.1850025038
 11
114.6080378319
 21
182.1473398222
  0
LINE
  5
2F2
100
AcDbEntity
  8
0
100
AcDbLine
 62
7
  6
CONTINUOUS
 10
114.7494703752
 20
185.0867821304
 11
114.7494703752
 21
205.7442932838
  0
LINE
  5
2F3
100
AcDbEntity
  8
0
100
AcDbLine
 62
7
  6
CONTINUOUS
 10
114.7796018752
 20
210.2349899096
 11
114.7796018752
 21
208.9285860422
  0
LINE
  5
2F4
100
AcDbEntity
  8
0
100
AcDbLine
 62
7
  6
CONTINUOUS
 10
115.4867086564
 20
183.3720620858
 11
115.4867086564
 21
208.9285877419
  0
LINE
  5
2F5
100
AcDbEntity
  8
0
100
AcDbLine
 62
7
  6
CONTINUOUS
 10
116.6586389598
 20
171.3518981672
 11
116.6586389598
 21
183.2495976267
  0
LINE
  5
2F6
100
AcDbEntity
  8
0
100
AcDbLine
 62
7
  6
CONTINUOUS
 10
97.5400290764
 20
134.5098551625
 11
100.4869000656
 21
137.1174137001
  0
LINE
  5
2F7
100
AcDbEntity
  8
0
100
AcDbLine
 62
7
  6
CONTINUOUS
 10
61.2569399714
 20
185.2706568011
 11
42.1649773924
 21
196.2931571732
  0
LINE
  5
2F8
100
AcDbEntity
  8
0
100
AcDbLine
 62
7
  6
CONTINUOUS
 10
88.3744972471
 20
172.145481959
 11
84.8389486214
 21
174.1866857316
  0
LINE
  5
2F9
100
AcDbEntity
  8
0
100
AcDbLine
 62
7
  6
CONTINUOUS
 10
87.4351957689
 20
173.7845165403
 11
84.2532020057
 21
175.6215999357
  0
LINE
  5
2FA
100
AcDbEntity
  8
0
100
AcDbLine
 62
7
  6
CONTINUOUS
 10
89.0994109774
 20
173.4010501821
 11
87.6851915271
 21
174.2175316912
  0
LINE
  5
2FB
100
AcDbEntity
  8
0
100
AcDbLine
 62
7
  6
CONTINUOUS
 10
74.1616806794
 20
184.3522473507
 11
69.9543778148
 21
186.7812798401
  0
LINE
  5
2FC
100
AcDbEntity
  8
0
100
AcDbLine
 62
7
  6
CONTINUOUS
 10
34.8817472234
 20
207.0300144656
 11
26.8646379734
 21
211.6585899369
  0
LINE
  5
2FD
100
AcDbEntity
  8
0
100
AcDbLine
 62
7
  6
CONTINUOUS
 10
68.5401701404
 20
188.0060475752
 11
34.8817472234
 21
207.4383074903
  0
LINE
  5
2FE
100
AcDbEntity
  8
0
100
AcDbLine
 62
7
  6
CONTINUOUS
 10
36.2959548978
 20
208.2547957981
 11
69.9543778148
 21
188.8225358829
  0
LINE
  5
2FF
100
AcDbEntity
  8
0
100
AcDbLine
 62
7
  6
CONTINUOUS
 10
29.9673228577
 20
212.3168017596
 11
34.2099812086
 21
209.8673572325
  0
LINE
  5
300
100
AcDbEntity
  8
0
100
AcDbLine
 62
7
  6
CONTINUOUS
 10
71.6867966414
 20
188.2305972429
 11
74.1616806794
 21
186.8017546021
  0
LINE
  5
301
100
AcDbEntity
  8
0
100
AcDbLine
 62
7
  6
CONTINUOUS
 10
28.0229879431
 20
215.8888459022
 11
29.9673228577
 21
214.766309011
  0
LINE
  5
302
100
AcDbEntity
  8
0
100
AcDbLine
 62
7
  6
CONTINUOUS
 10
34.2099812086
 20
212.3168644839
 11
71.6867966414
 21
190.6801044943
  0
LINE
  5
303
100
AcDbEntity
  8
0
100
AcDbLine
 62
7
  6
CONTINUOUS
 10
92.5993515928
 20
179.4632622939
 11
91.1851321425
 21
180.279743803
  0
LINE
  5
304
100
AcDbEntity
  8
0
100
AcDbLine
 62
7
  6
CONTINUOUS
 10
111.3876939931
 20
174.5088185028
 11
111.4343829122
 21
174.368055568
  0
LINE
  5
305
100
AcDbEntity
  8
0
100
AcDbLine
 62
7
  6
CONTINUOUS
 10
43.1633158744
 20
166.4479890014
 11
43.3090667143
 21
166.465316007
  0
LINE
  5
306
100
AcDbEntity
  8
0
100
AcDbLine
 62
7
  6
CONTINUOUS
 10
83.4992317424
 20
174.617644169
 11
86.2531680716
 21
174.3716422392
  0
LINE
  5
307
100
AcDbEntity
  8
0
100
AcDbLine
 62
7
  6
CONTINUOUS
 10
98.3349795895
 20
177.6909452505
 11
97.014506405
 21
178.112876958
  0
LINE
  5
308
100
AcDbEntity
  8
0
100
AcDbLine
 62
7
  6
CONTINUOUS
 10
81.0913277238
 20
186.3118715595
 11
79.6771082735
 21
187.1283530685
  0
LINE
  5
309
100
AcDbEntity
  8
0
100
AcDbLine
 62
7
  6
CONTINUOUS
 10
91.4975053024
 20
180.6410235028
 11
92.7552944422
 21
179.9148550325
  0
LINE
  5
30A
100
AcDbEntity
  8
0
100
AcDbLine
 62
7
  6
CONTINUOUS
 10
91.4351279008
 20
180.7127589538
 11
88.2531341376
 21
182.5498423492
  0
LINE
  5
30B
100
AcDbEntity
  8
0
100
AcDbLine
 62
7
  6
CONTINUOUS
 10
79.2829892471
 20
189.1521624209
 11
80.8791847968
 21
188.2306193387
  0
LINE
  5
30C
100
AcDbEntity
  8
0
100
AcDbLine
 62
7
  6
CONTINUOUS
 10
89.0014480472
 20
183.9384838513
 11
89.7886872577
 21
183.4839813634
  0
LINE
  5
30D
100
AcDbEntity
  8
0
100
AcDbLine
 62
7
  6
CONTINUOUS
 10
179.8036063042
 20
132.1785098337
 11
189.4202184903
 21
126.6261974533
  0
LINE
  5
30E
100
AcDbEntity
  8
0
100
AcDbLine
 62
7
  6
CONTINUOUS
 10
98.5417536755
 20
179.5494817875
 11
98.0259099673
 21
179.8472975538
  0
LINE
  5
30F
100
AcDbEntity
  8
0
100
AcDbLine
 62
7
  6
CONTINUOUS
 10
116.7294235315
 20
169.6550522861
 11
129.1038376119
 21
162.5108426093
  0
LINE
  5
310
100
AcDbEntity
  8
0
100
AcDbLine
 62
7
  6
CONTINUOUS
 10
107.2824279547
 20
175.1418140156
 11
116.7435656082
 21
169.6795472175
  0
LINE
  5
311
100
AcDbEntity
  8
0
100
AcDbLine
 62
7
  6
CONTINUOUS
 10
78.4043007587
 20
192.1089692309
 11
80.8791847968
 21
190.6801265901
  0
LINE
  5
312
100
AcDbEntity
  8
0
100
AcDbLine
 62
7
  6
CONTINUOUS
 10
129.4573985841
 20
162.7149699133
 11
174.9952648836
 21
136.4242653222
  0
LINE
  5
313
100
AcDbEntity
  8
0
100
AcDbLine
 62
7
  6
CONTINUOUS
 10
91.4763114774
 20
185.3673383899
 11
92.7552944422
 21
184.6289339358
  0
LINE
  5
314
100
AcDbEntity
  8
0
100
AcDbLine
 62
7
  6
CONTINUOUS
 10
43.2192929264
 20
213.3207130789
 11
49.3837325943
 21
209.7617526918
  0
LINE
  5
315
100
AcDbEntity
  8
0
100
AcDbLine
 62
7
  6
CONTINUOUS
 10
130.8102209329
 20
163.1490036625
 11
119.1293828106
 21
169.892786132
  0
LINE
  5
316
100
AcDbEntity
  8
0
100
AcDbLine
 62
7
  6
CONTINUOUS
 10
109.0489848746
 20
175.8590422958
 11
111.3876939931
 21
174.5088185028
  0
LINE
  5
317
100
AcDbEntity
  8
0
100
AcDbLine
 62
7
  6
CONTINUOUS
 10
132.0573544698
 20
162.972514913
 11
176.5182757027
 21
137.3035707799
  0
LINE
  5
318
100
AcDbEntity
  8
0
100
AcDbLine
 62
7
  6
CONTINUOUS
 10
49.3837325943
 20
212.2112599431
 11
43.2192929264
 21
215.7702203303
  0
LINE
  5
319
100
AcDbEntity
  8
0
100
AcDbLine
 62
7
  6
CONTINUOUS
 10
127.4232154971
 20
165.1368321537
 11
108.9237046578
 21
175.8175635418
  0
LWPOLYLINE
  5
31A
100
AcDbEntity
  8
0
100
AcDbPolyline
 62
7
  6
CONTINUOUS
 90
3
 70
0
 10
127.4165959454
 20
165.1405833659
 10
127.4795056163
 20
165.1023897454
 10
127.4091537639
 20
165.1125662863
  0
LINE
  5
31B
100
AcDbEntity
  8
0
100
AcDbLine
 62
7
  6
CONTINUOUS
 10
103.0478338716
 20
185.8540329854
 11
100.8081390734
 21
187.8904698851
  0
LWPOLYLINE
  5
31C
100
AcDbEntity
  8
0
100
AcDbPolyline
 62
7
  6
CONTINUOUS
 90
3
 70
0
 10
119.1273287663
 20
169.8911679554
 10
119.0789368815
 20
169.9525945484
 10
119.1434807271
 20
169.9172046619
  0
LINE
  5
31D
100
AcDbEntity
  8
0
100
AcDbLine
 62
7
  6
CONTINUOUS
 10
140.3471768601
 20
68.0833586884
 11
140.3471768601
 21
76.4116833432
  0
LINE
  5
31E
100
AcDbEntity
  8
0
100
AcDbLine
 62
7
  6
CONTINUOUS
 10
140.3471768601
 20
102.5397606913
 11
140.3471768601
 21
110.868085346
  0
LINE
  5
31F
100
AcDbEntity
  8
0
100
AcDbLine
 62
7
  6
CONTINUOUS
 10
89.7886872577
 20
183.4839813634
 11
88.4251838633
 21
183.6057795556
  0
LINE
  5
320
100
AcDbEntity
  8
0
100
AcDbLine
 62
7
  6
CONTINUOUS
 10
107.8808813919
 20
183.2022413278
 11
106.5604082074
 21
183.6241730353
  0
LINE
  5
321
100
AcDbEntity
  8
0
100
AcDbLine
 62
7
  6
CONTINUOUS
 10
101.5417027744
 20
184.7456635976
 11
101.0684706291
 21
185.0188781232
  0
LINE
  5
322
100
AcDbEntity
  8
0
100
AcDbLine
 62
7
  6
CONTINUOUS
 10
64.6156228468
 20
207.4180718914
 11
67.2435090592
 21
205.9008954024
  0
LINE
  5
323
100
AcDbEntity
  8
0
100
AcDbLine
 62
7
  6
CONTINUOUS
 10
69.6662320449
 20
204.5021672779
 11
74.5151589989
 21
201.7027013281
  0
LINE
  5
324
100
AcDbEntity
  8
0
100
AcDbLine
 62
7
  6
CONTINUOUS
 10
106.8199307703
 20
183.5412476117
 11
107.4663008519
 21
183.1680741135
  0
LINE
  5
325
100
AcDbEntity
  8
0
100
AcDbLine
 62
7
  6
CONTINUOUS
 10
182.2077240232
 20
140.5883556917
 11
186.450382374
 21
138.1389111646
  0
LINE
  5
326
100
AcDbEntity
  8
0
100
AcDbLine
 62
7
  6
CONTINUOUS
 10
98.5473498496
 20
189.4497799286
 11
99.8263328143
 21
188.7113754745
  0
LINE
  5
327
100
AcDbEntity
  8
0
100
AcDbLine
 62
7
  6
CONTINUOUS
 10
108.0876554778
 20
185.0607778648
 11
107.5718117697
 21
185.358593631
  0
LINE
  5
328
100
AcDbEntity
  8
0
100
AcDbLine
 62
7
  6
CONTINUOUS
 10
189.8503246861
 20
138.4757007796
 11
185.6076663353
 21
140.9251453067
  0
LINE
  5
329
100
AcDbEntity
  8
0
100
AcDbLine
 62
7
  6
CONTINUOUS
 10
101.0222132798
 20
190.8786344671
 11
102.3011962446
 21
190.140230013
  0
LINE
  5
32A
100
AcDbEntity
  8
0
100
AcDbLine
 62
7
  6
CONTINUOUS
 10
116.6586389598
 20
183.2495976267
 11
115.4867086564
 21
183.9261965961
  0
LINE
  5
32B
100
AcDbEntity
  8
0
100
AcDbLine
 62
7
  6
CONTINUOUS
 10
112.593735674
 20
191.3653290627
 11
110.3540408758
 21
193.4017659624
  0
LINE
  5
32C
100
AcDbEntity
  8
0
100
AcDbLine
 62
7
  6
CONTINUOUS
 10
144.589835211
 20
65.6339141613
 11
144.589835211
 21
108.4186408189
  0
LINE
  5
32D
100
AcDbEntity
  8
0
100
AcDbLine
 62
7
  6
CONTINUOUS
 10
146.4283051877
 20
101.804952898
 11
146.4283051877
 21
74.3704716824
  0
LINE
  5
32E
100
AcDbEntity
  8
0
100
AcDbLine
 62
7
  6
CONTINUOUS
 10
64.6156228468
 20
215.5830960627
 11
74.5151589989
 21
209.8677254994
  0
LINE
  5
32F
100
AcDbEntity
  8
0
100
AcDbLine
 62
7
  6
CONTINUOUS
 10
81.6468907016
 20
205.8902634005
 11
82.0004455642
 21
205.6861430233
  0
LINE
  5
330
100
AcDbEntity
  8
0
100
AcDbLine
 62
7
  6
CONTINUOUS
 10
80.4826670096
 20
207.1397600604
 11
81.2624959111
 21
206.6895358196
  0
LINE
  5
331
100
AcDbEntity
  8
0
100
AcDbLine
 62
7
  6
CONTINUOUS
 10
111.0876045768
 20
190.2569596749
 11
110.6143724315
 21
190.5301742004
  0
LINE
  5
332
100
AcDbEntity
  8
0
100
AcDbLine
 62
7
  6
CONTINUOUS
 10
59.9205659036
 20
220.8246211816
 11
62.1116016641
 21
219.5596547128
  0
LINE
  5
333
100
AcDbEntity
  8
0
100
AcDbLine
 62
7
  6
CONTINUOUS
 10
81.982641559
 20
209.7378509655
 11
82.7641377506
 21
209.2866641362
  0
LINE
  5
334
100
AcDbEntity
  8
0
100
AcDbLine
 62
7
  6
CONTINUOUS
 10
108.2274605983
 20
194.8835921874
 11
109.3722346167
 21
194.2226715518
  0
LINE
  5
335
100
AcDbEntity
  8
0
100
AcDbLine
 62
7
  6
CONTINUOUS
 10
83.6468567676
 20
209.3543846073
 11
84.0004116301
 21
209.15026423
  0
LINE
  5
336
100
AcDbEntity
  8
0
100
AcDbLine
 62
7
  6
CONTINUOUS
 10
60.1897850196
 20
223.1185727718
 11
66.3542246874
 21
219.5596123847
  0
LINE
  5
337
100
AcDbEntity
  8
0
100
AcDbLine
 62
7
  6
CONTINUOUS
 10
66.3542246874
 20
222.0091196361
 11
60.1897850196
 21
225.5680800232
  0
LINE
  5
338
100
AcDbEntity
  8
0
100
AcDbLine
 62
7
  6
CONTINUOUS
 10
145.1554829531
 20
119.1963620288
 11
152.3679420927
 21
123.3604523983
  0
LINE
  5
339
100
AcDbEntity
  8
0
100
AcDbLine
 62
7
  6
CONTINUOUS
 10
174.9952648836
 20
136.4242653222
 11
182.2077240232
 21
140.5883556917
  0
LINE
  5
33A
100
AcDbEntity
  8
0
100
AcDbLine
 62
7
  6
CONTINUOUS
 10
44.286288904
 20
187.0882938116
 11
46.3898515322
 21
187.2762081076
  0
LINE
  5
33B
100
AcDbEntity
  8
0
100
AcDbLine
 62
7
  6
CONTINUOUS
 10
77.3435978995
 20
198.0284822672
 11
66.3860194544
 21
198.5856919791
  0
LINE
  5
33C
100
AcDbEntity
  8
0
100
AcDbLine
 62
7
  6
CONTINUOUS
 10
66.3860194544
 20
200.6269480219
 11
77.3435978995
 21
200.06973831
  0
LINE
  5
33D
100
AcDbEntity
  8
0
100
AcDbLine
 62
7
  6
CONTINUOUS
 10
85.8288203943
 20
216.3996319614
 11
75.9292842422
 21
222.1150025246
  0
LINE
  5
33E
100
AcDbEntity
  8
0
100
AcDbLine
 62
7
  6
CONTINUOUS
 10
146.4283051877
 20
101.804952898
 11
156.0449173738
 21
118.4615062636
  0
LINE
  5
33F
100
AcDbEntity
  8
0
100
AcDbLine
 62
7
  6
CONTINUOUS
 10
149.398141304
 20
116.7469175017
 11
186.450382374
 21
138.1389111646
  0
LINE
  5
340
100
AcDbEntity
  8
0
100
AcDbLine
 62
7
  6
CONTINUOUS
 10
179.8036063042
 20
132.1785098337
 11
156.0449173738
 21
118.4615062636
  0
LINE
  5
341
100
AcDbEntity
  8
0
100
AcDbLine
 62
7
  6
CONTINUOUS
 10
42.091846563
 20
196.3204189057
 11
40.7507402783
 21
196.2006159391
  0
LINE
  5
342
100
AcDbEntity
  8
0
100
AcDbLine
 62
7
  6
CONTINUOUS
 10
76.6364793424
 20
201.7027064271
 11
74.5151589989
 21
201.7027013281
  0
LINE
  5
343
100
AcDbEntity
  8
0
100
AcDbLine
 62
7
  6
CONTINUOUS
 10
114.7494703752
 20
205.7442932838
 11
113.3352509249
 21
206.5607747928
  0
LINE
  5
344
100
AcDbEntity
  8
0
100
AcDbLine
 62
7
  6
CONTINUOUS
 10
112.1331744016
 20
208.7245181912
 11
109.6582903636
 21
210.153360832
  0
LINE
  5
345
100
AcDbEntity
  8
0
100
AcDbLine
 62
7
  6
CONTINUOUS
 10
76.786018602
 20
230.6831240254
 11
79.0820937572
 21
229.3575144057
  0
LINE
  5
346
100
AcDbEntity
  8
0
100
AcDbLine
 62
7
  6
CONTINUOUS
 10
112.13313613
 20
214.0316700957
 11
107.3989763286
 21
216.7648766981
  0
LINE
  5
347
100
AcDbEntity
  8
0
100
AcDbLine
 62
7
  6
CONTINUOUS
 10
105.5534547945
 20
217.830364948
 11
76.3859393884
 21
234.6698568591
  0
LINE
  5
348
100
AcDbEntity
  8
0
100
AcDbLine
 62
7
  6
CONTINUOUS
 10
69.4137873371
 20
238.6951396587
 11
68.4693274317
 21
239.2404115036
  0
LINE
  5
349
100
AcDbEntity
  8
0
100
AcDbLine
 62
7
  6
CONTINUOUS
 10
74.5151589989
 20
209.8677254994
 11
76.6364793424
 21
209.8677305984
  0
LINE
  5
34A
100
AcDbEntity
  8
0
100
AcDbLine
 62
7
  6
CONTINUOUS
 10
59.2052232617
 20
210.8477575879
 11
50.7844865283
 21
209.5450620106
  0
LINE
  5
34B
100
AcDbEntity
  8
0
100
AcDbLine
 62
7
  6
CONTINUOUS
 10
50.7844865283
 20
211.994569262
 11
59.2052232617
 21
213.2972648393
  0
LINE
  5
34C
100
AcDbEntity
  8
0
100
AcDbLine
 62
7
  6
CONTINUOUS
 10
69.4646747593
 20
219.6074132401
 11
67.7549786214
 21
219.3429217036
  0
LINE
  5
34D
100
AcDbEntity
  8
0
100
AcDbLine
 62
7
  6
CONTINUOUS
 10
75.9292842422
 20
222.1150025246
 11
73.8079638987
 21
222.1149974256
  0
LINE
  5
34E
100
AcDbEntity
  8
0
100
AcDbLine
 62
7
  6
CONTINUOUS
 10
73.1040357017
 20
223.6234811479
 11
66.1678984483
 21
223.6234644755
  0
LINE
  5
34F
100
AcDbEntity
  8
0
100
AcDbLine
 62
7
  6
CONTINUOUS
 10
188.8545307102
 20
126.952790057
 11
188.8545307102
 21
99.5183088414
  0
LINE
  5
350
100
AcDbEntity
  8
0
100
AcDbLine
 62
7
  6
CONTINUOUS
 10
189.4202184903
 20
99.1917162378
 11
189.4202184903
 21
126.6261974533
  0
LINE
  5
351
100
AcDbEntity
  8
0
100
AcDbLine
 62
7
  6
CONTINUOUS
 10
67.7549786214
 20
221.7924289549
 11
76.1757153548
 21
223.0951245322
  0
LINE
  5
352
100
AcDbEntity
  8
0
100
AcDbLine
 62
7
  6
CONTINUOUS
 10
66.1678984483
 20
225.6647205183
 11
68.4783833847
 21
225.664726072
  0
LINE
  5
353
100
AcDbEntity
  8
0
100
AcDbLine
 62
7
  6
CONTINUOUS
 10
70.7935507653
 20
225.664731637
 11
73.1040357017
 21
225.6647371907
  0
LINE
  5
354
100
AcDbEntity
  8
0
100
AcDbLine
 62
7
  6
CONTINUOUS
 10
68.4783833847
 20
230.9719917834
 11
70.7935507653
 21
230.9719973483
  0
LINE
  5
355
100
AcDbEntity
  8
0
100
AcDbLine
 62
7
  6
CONTINUOUS
 10
191.2586884671
 20
135.3627549744
 11
191.2586884671
 21
92.5780283168
  0
LINE
  5
356
100
AcDbEntity
  8
0
100
AcDbLine
 62
7
  6
CONTINUOUS
 10
181.9501940813
 20
87.5595806232
 11
188.8545307102
 21
99.5183088414
  0
LINE
  5
357
100
AcDbEntity
  8
0
100
AcDbLine
 62
7
  6
CONTINUOUS
 10
189.4202184903
 20
99.1917162378
 11
182.5158818614
 21
87.2329880195
  0
LINE
  5
358
100
AcDbEntity
  8
0
100
AcDbLine
 62
7
  6
CONTINUOUS
 10
174.6624526893
 20
80.2201248128
 11
155.4792295937
 21
69.1447519057
  0
LINE
  5
359
100
AcDbEntity
  8
0
100
AcDbLine
 62
7
  6
CONTINUOUS
 10
156.0449173738
 20
68.8181593021
 11
175.2281404694
 21
79.8935322092
  0
LINE
  5
35A
100
AcDbEntity
  8
0
100
AcDbLine
 62
7
  6
CONTINUOUS
 10
177.0666575248
 20
78.8320879054
 11
149.398141304
 21
62.8577579712
  0
ARC
  5
35B
100
AcDbEntity
  8
0
100
AcDbCircle
 62
7
  6
CONTINUOUS
 10
339.2795678229
 20
162.8711736912
 40
297.9491830736
100
AcDbArc
 50
179.6530319219
 51
180.0011073703
  0
ARC
  5
35C
100
AcDbEntity
  8
0
100
AcDbCircle
 62
7
  6
CONTINUOUS
 10
52.5673322765
 20
225.7057081214
 40
16.2586906508
100
AcDbArc
 50
258.708006814
 51
263.704575237
  0
ARC
  5
35D
100
AcDbEntity
  8
0
100
AcDbCircle
 62
7
  6
CONTINUOUS
 10
69.5378243696
 20
235.5035678144
 40
16.2586906509
100
AcDbArc
 50
258.708006814
 51
263.704575237
  0
ARC
  5
35E
100
AcDbEntity
  8
0
100
AcDbCircle
 62
7
  6
CONTINUOUS
 10
52.5360343215
 20
227.9528959497
 40
16.0541617764
100
AcDbArc
 50
258.6761582775
 51
263.7364237736
  0
ARC
  5
35F
100
AcDbEntity
  8
0
100
AcDbCircle
 62
7
  6
CONTINUOUS
 10
69.5065264146
 20
237.7507556426
 40
16.0541617764
100
AcDbArc
 50
258.6761582775
 51
263.7364237736
  0
ARC
  5
360
100
AcDbEntity
  8
0
100
AcDbCircle
 62
7
  6
CONTINUOUS
 10
54.7283184982
 20
222.2731743102
 40
10.0304350399
100
AcDbArc
 50
296.5085953077
 51
299.9538958529
  0
ARC
  5
361
100
AcDbEntity
  8
0
100
AcDbCircle
 62
7
  6
CONTINUOUS
 10
71.6988105913
 20
232.0710340031
 40
10.0304350399
100
AcDbArc
 50
296.5085953077
 51
299.9538958529
  0
ARC
  5
362
100
AcDbEntity
  8
0
100
AcDbCircle
 62
7
  6
CONTINUOUS
 10
54.81046681
 20
219.6706615178
 40
9.8568513241
100
AcDbArc
 50
296.4782492513
 51
299.9842419093
  0
ARC
  5
363
100
AcDbEntity
  8
0
100
AcDbCircle
 62
7
  6
CONTINUOUS
 10
67.4601354741
 20
223.0602270744
 40
9.7958533664
100
AcDbArc
 50
117.8384397393
 51
119.9822164381
  0
ARC
  5
364
100
AcDbEntity
  8
0
100
AcDbCircle
 62
7
  6
CONTINUOUS
 10
50.4870023449
 20
213.2671179827
 40
9.7904186804
100
AcDbArc
 50
117.8696895449
 51
119.982722126
  0
ARC
  5
365
100
AcDbEntity
  8
0
100
AcDbCircle
 62
7
  6
CONTINUOUS
 10
50.0932312998
 20
213.9496411579
 40
9.0024507111
100
AcDbArc
 50
119.9827745882
 51
123.6848389693
  0
ARC
  5
366
100
AcDbEntity
  8
0
100
AcDbCircle
 62
7
  6
CONTINUOUS
 10
67.063723393
 20
223.7475008508
 40
9.0024507111
100
AcDbArc
 50
119.9827745882
 51
123.6848389693
  0
ARC
  5
367
100
AcDbEntity
  8
0
100
AcDbCircle
 62
7
  6
CONTINUOUS
 10
55.2376632906
 20
221.3802338853
 40
9.0024507112
100
AcDbArc
 50
299.9827745882
 51
303.6848389692
  0
ARC
  5
368
100
AcDbEntity
  8
0
100
AcDbCircle
 62
7
  6
CONTINUOUS
 10
72.2081553838
 20
231.1780935782
 40
9.0024507112
100
AcDbArc
 50
299.9827745882
 51
303.6848389692
  0
ARC
  5
369
100
AcDbEntity
  8
0
100
AcDbCircle
 62
7
  6
CONTINUOUS
 10
55.3260003952
 20
218.7884409962
 40
8.835062457
100
AcDbArc
 50
299.9476925528
 51
303.7199210046
  0
ARC
  5
36A
100
AcDbEntity
  8
0
100
AcDbCircle
 62
7
  6
CONTINUOUS
 10
49.2180965732
 20
192.9838756139
 40
7.0246973729
100
AcDbArc
 50
236.4866183773
 51
239.9505301938
  0
ARC
  5
36B
100
AcDbEntity
  8
0
100
AcDbCircle
 62
7
  6
CONTINUOUS
 10
104.0848256843
 20
189.0227741539
 40
6.7610566387
100
AcDbArc
 50
300.0092656966
 51
301.508732225
  0
ARC
  5
36C
100
AcDbEntity
  8
0
100
AcDbCircle
 62
7
  6
CONTINUOUS
 10
69.2089029156
 20
146.6270183486
 40
5.2295770912
100
AcDbArc
 50
177.3156593151
 51
179.9699383074
  0
ARC
  5
36D
100
AcDbEntity
  8
0
100
AcDbCircle
 62
7
  6
CONTINUOUS
 10
76.2829922539
 20
189.0011589351
 40
5.1562245781
100
AcDbArc
 50
263.5258730156
 51
276.4737961813
  0
ARC
  5
36E
100
AcDbEntity
  8
0
100
AcDbCircle
 62
7
  6
CONTINUOUS
 10
34.5592209756
 20
217.2022256599
 40
5.1068003866
100
AcDbArc
 50
266.0731906643
 51
266.2771437935
  0
ARC
  5
36F
100
AcDbEntity
  8
0
100
AcDbCircle
 62
7
  6
CONTINUOUS
 10
111.7838972098
 20
213.6098665042
 40
5.1067891922
100
AcDbArc
 50
273.7231339528
 51
273.9272435419
  0
ARC
  5
370
100
AcDbEntity
  8
0
100
AcDbCircle
 62
7
  6
CONTINUOUS
 10
34.5587602129
 20
217.1955975442
 40
5.1001562774
100
AcDbArc
 50
265.6065755674
 51
266.0732555269
  0
ARC
  5
371
100
AcDbEntity
  8
0
100
AcDbCircle
 62
7
  6
CONTINUOUS
 10
111.7843582247
 20
213.6032354497
 40
5.1001421339
100
AcDbArc
 50
273.9271786807
 51
274.3938670824
  0
ARC
  5
372
100
AcDbEntity
  8
0
100
AcDbCircle
 62
7
  6
CONTINUOUS
 10
50.6553179068
 20
228.0538457908
 40
3.6024865404
100
AcDbArc
 50
129.8108218451
 51
131.6285498659
  0
ARC
  5
373
100
AcDbEntity
  8
0
100
AcDbCircle
 62
7
  6
CONTINUOUS
 10
84.9184886861
 20
211.5172183826
 40
3.2685552596
100
AcDbArc
 50
54.1481884919
 51
56.1930200839
  0
ARC
  5
374
100
AcDbEntity
  8
0
100
AcDbCircle
 62
7
  6
CONTINUOUS
 10
84.4517981093
 20
212.8709991432
 40
2.7543134926
100
AcDbArc
 50
58.7062448429
 51
60.0042197213
  0
ARC
  5
375
100
AcDbEntity
  8
0
100
AcDbCircle
 62
7
  6
CONTINUOUS
 10
109.5363543723
 20
186.3678137516
 40
2.0660341193
100
AcDbArc
 50
189.5582097366
 51
191.6454332382
  0
ARC
  5
376
100
AcDbEntity
  8
0
100
AcDbCircle
 62
7
  6
CONTINUOUS
 10
99.9904525698
 20
180.8565176743
 40
2.0660341192
100
AcDbArc
 50
189.5582097365
 51
191.6454332383
  0
ARC
  5
377
100
AcDbEntity
  8
0
100
AcDbCircle
 62
7
  6
CONTINUOUS
 10
49.6426479725
 20
182.5503001181
 40
2.0642975999
100
AcDbArc
 50
348.2951726533
 51
350.4397728068
  0
ARC
  5
378
100
AcDbEntity
  8
0
100
AcDbCircle
 62
7
  6
CONTINUOUS
 10
59.1886292621
 20
177.0390499321
 40
2.0642975998
100
AcDbArc
 50
348.2951726533
 51
350.4397728068
  0
ARC
  5
379
100
AcDbEntity
  8
0
100
AcDbCircle
 62
7
  6
CONTINUOUS
 10
92.486607416
 20
104.6399413426
 40
1.5975181822
100
AcDbArc
 50
240.0064248873
 51
244.1898616722
  0
ARC
  5
37A
100
AcDbEntity
  8
0
100
AcDbCircle
 62
7
  6
CONTINUOUS
 10
126.6177809638
 20
163.7572869316
 40
1.5974570214
100
AcDbArc
 50
55.8426551298
 51
59.9947687919
  0
ARC
  5
37B
100
AcDbEntity
  8
0
100
AcDbCircle
 62
7
  6
CONTINUOUS
 10
38.7244329218
 20
190.8213898778
 40
0.9686216446
100
AcDbArc
 50
119.9994246274
 51
121.1501284932
  0
ARC
  5
37C
100
AcDbEntity
  8
0
100
AcDbCircle
 62
7
  6
CONTINUOUS
 10
91.8150796643
 20
178.1047901153
 40
0.9685859766
100
AcDbArc
 50
58.8593659041
 51
60.0018216589
  0
ARC
  5
37D
100
AcDbEntity
  8
0
100
AcDbCircle
 62
7
  6
CONTINUOUS
 10
82.4435469255
 20
206.3638835624
 40
0.8162385304
100
AcDbArc
 50
213.2929199836
 51
214.5333680426
  0
SPLINE
  5
37E
100
AcDbEntity
  8
0
100
AcDbSpline
 62
7
  6
CONTINUOUS
 70
0
 71
3
 72
18
 73
14
 74
0
 42
0.0000001
 43
0.0000001
 44
0.0000000001
 40
0.0
 40
0.0
 40
0.0
 40
0.0
 40
0.1260240661
 40
0.2643678792
 40
0.408692361
 40
0.5516500214
 40
0.6861091271
 40
0.7483794462
 40
0.8066152127
 40
0.8605996432
 40
0.9104288479
 40
0.9565870489
 40
1.0
 40
1.0
 40
1.0
 40
1.0
 10
55.4233053467
 20
180.0654289266
 30
0.0
 10
55.4233053467
 20
179.6820825399
 30
0.0
 10
55.5246658979
 20
178.8769893996
 30
0.0
 10
55.9069477064
 20
177.6883695025
 30
0.0
 10
56.5003647991
 20
176.5312364513
 30
0.0
 10
57.2610812896
 20
175.4918114755
 30
0.0
 10
58.0075137006
 20
174.767659021
 30
0.0
 10
58.6421970888
 20
174.3195034652
 30
0.0
 10
59.1094443823
 20
174.0648140095
 30
0.0
 10
59.5713362627
 20
173.8879050874
 30
0.0
 10
60.0197595189
 20
173.7926705195
 30
0.0
 10
60.4462829417
 20
173.7819291015
 30
0.0
 10
60.716606273
 20
173.8336090414
 30
0.0
 10
60.8423935363
 20
173.8738119746
 30
0.0
  0
SPLINE
  5
37F
100
AcDbEntity
  8
0
100
AcDbSpline
 62
7
  6
CONTINUOUS
 70
0
 71
3
 72
11
 73
7
 74
0
 42
0.0000001
 43
0.0000001
 44
0.0000000001
 40
0.0
 40
0.0
 40
0.0
 40
0.0
 40
0.2897894332
 40
0.5490567506
 40
0.7822291216
 40
1.0
 40
1.0
 40
1.0
 40
1.0
 10
61.2569605791
 20
176.6974427018
 30
0.0
 10
61.2569605791
 20
176.5200489346
 30
0.0
 10
61.2301601704
 20
176.1827863652
 30
0.0
 10
61.0934447571
 20
175.7194420337
 30
0.0
 10
60.8635838944
 20
175.3434189354
 30
0.0
 10
60.6475039811
 20
175.1618677761
 30
0.0
 10
60.5320626192
 20
175.0952024491
 30
0.0
  0
SPLINE
  5
380
100
AcDbEntity
  8
0
100
AcDbSpline
 62
7
  6
CONTINUOUS
 70
0
 71
3
 72
11
 73
7
 74
0
 42
0.0000001
 43
0.0000001
 44
0.0000000001
 40
0.0
 40
0.0
 40
0.0
 40
0.0
 40
0.2177689138
 40
0.4509403876
 40
0.7102101045
 40
1.0
 40
1.0
 40
1.0
 40
1.0
 10
57.635641114
 20
180.9284772224
 30
0.0
 10
57.5366921919
 20
180.8713363125
 30
0.0
 10
57.3514830903
 20
180.7157212947
 30
0.0
 10
57.1544561007
 20
180.3934186172
 30
0.0
 10
57.0372724732
 20
179.99626486
 30
0.0
 10
57.0142992843
 20
179.7071816251
 30
0.0
 10
57.0142992843
 20
179.5551296832
 30
0.0
  0
SPLINE
  5
381
100
AcDbEntity
  8
0
100
AcDbSpline
 62
7
  6
CONTINUOUS
 70
0
 71
3
 72
12
 73
8
 74
0
 42
0.0000001
 43
0.0000001
 44
0.0000000001
 40
0.0
 40
0.0
 40
0.0
 40
0.0
 40
0.24598788
 40
0.4949046066
 40
0.7473667995
 40
0.8745375055
 40
1.0
 40
1.0
 40
1.0
 40
1.0
 10
66.1329272178
 20
175.9641804399
 30
0.0
 10
65.8120581534
 20
175.8164082722
 30
0.0
 10
65.1653884809
 20
175.5214918482
 30
0.0
 10
64.1839878871
 20
175.0869598364
 30
0.0
 10
63.3522595766
 20
174.7358641045
 30
0.0
 10
62.676499068
 20
174.4721699787
 30
0.0
 10
62.3345022535
 20
174.3505738669
 30
0.0
 10
62.1628762815
 20
174.2957302455
 30
0.0
  0
SPLINE
  5
382
100
AcDbEntity
  8
0
100
AcDbSpline
 62
7
  6
CONTINUOUS
 70
0
 71
3
 72
9
 73
5
 74
0
 42
0.0000001
 43
0.0000001
 44
0.0000000001
 40
0.0
 40
0.0
 40
0.0
 40
0.0
 40
0.5164118446
 40
1.0
 40
1.0
 40
1.0
 40
1.0
 10
59.3509631977
 20
184.8942112369
 30
0.0
 10
59.1782460311
 20
184.7574319954
 30
0.0
 10
58.8461741157
 20
184.4895634802
 30
0.0
 10
58.5218485023
 20
184.2121263008
 30
0.0
 10
58.3692035299
 20
184.0733281978
 30
0.0
  0
SPLINE
  5
383
100
AcDbEntity
  8
0
100
AcDbSpline
 62
7
  6
CONTINUOUS
 70
0
 71
3
 72
17
 73
13
 74
0
 42
0.0000001
 43
0.0000001
 44
0.0000000001
 40
0.0
 40
0.0
 40
0.0
 40
0.0
 40
0.0428585896
 40
0.0874886164
 40
0.1353233296
 40
0.1872868727
 40
0.3045519755
 40
0.4382202868
 40
0.5825647604
 40
0.7297203277
 40
0.8713075678
 40
1.0
 40
1.0
 40
1.0
 40
1.0
 10
38.2401305234
 20
191.6602456922
 30
0.0
 10
38.3116244668
 20
191.7015217067
 30
0.0
 10
38.4692193313
 20
191.767037265
 30
0.0
 10
38.7293738487
 20
191.8051602655
 30
0.0
 10
39.0087530051
 20
191.7845972479
 30
0.0
 10
39.4146920711
 20
191.6766300421
 30
0.0
 10
39.933605361
 20
191.3928611673
 30
0.0
 10
40.5069374681
 20
190.8851252129
 30
0.0
 10
41.0137241649
 20
190.236449645
 30
0.0
 10
41.4125465126
 20
189.4992454097
 30
0.0
 10
41.671385025
 20
188.7339764117
 30
0.0
 10
41.7407321651
 20
188.212772977
 30
0.0
 10
41.7407321651
 20
187.9648875266
 30
0.0
  0
SPLINE
  5
384
100
AcDbEntity
  8
0
100
AcDbSpline
 62
7
  6
CONTINUOUS
 70
0
 71
3
 72
12
 73
8
 74
0
 42
0.0000001
 43
0.0000001
 44
0.0000000001
 40
0.0
 40
0.0
 40
0.0
 40
0.0
 40
0.1081597158
 40
0.2183621399
 40
0.4513573357
 40
0.7104307796
 40
1.0
 40
1.0
 40
1.0
 40
1.0
 10
37.940128767
 20
192.1798670791
 30
0.0
 10
37.8827493194
 20
192.146731607
 30
0.0
 10
37.7724147161
 20
192.0697391557
 30
0.0
 10
37.5745037899
 20
191.8750635011
 30
0.0
 10
37.3784816602
 20
191.5555064473
 30
0.0
 10
37.2421201282
 20
191.0923262993
 30
0.0
 10
37.2152299241
 20
190.7550215488
 30
0.0
 10
37.2152299241
 20
190.5776283555
 30
0.0
  0
SPLINE
  5
385
100
AcDbEntity
  8
0
100
AcDbSpline
 62
7
  6
CONTINUOUS
 70
0
 71
3
 72
12
 73
8
 74
0
 42
0.0000001
 43
0.0000001
 44
0.0000000001
 40
0.0
 40
0.0
 40
0.0
 40
0.0
 40
0.2895802184
 40
0.5486333627
 40
0.7816359182
 40
0.8918377609
 40
1.0
 40
1.0
 40
1.0
 40
1.0
 10
65.1460434597
 20
165.3888804413
 30
0.0
 10
65.3567357501
 20
165.2672399426
 30
0.0
 10
65.7757707065
 20
165.0678782333
 30
0.0
 10
66.4193741793
 20
164.9122796713
 30
0.0
 10
66.9333118011
 20
164.9259020852
 30
0.0
 10
67.3002134511
 20
165.0275330419
 30
0.0
 10
67.4673324406
 20
165.1057360203
 30
0.0
 10
67.5460286179
 20
165.1511709987
 30
0.0
  0
SPLINE
  5
386
100
AcDbEntity
  8
0
100
AcDbSpline
 62
7
  6
CONTINUOUS
 70
0
 71
3
 72
15
 73
11
 74
0
 42
0.0000001
 43
0.0000001
 44
0.0000000001
 40
0.0
 40
0.0
 40
0.0
 40
0.0
 40
0.1141555516
 40
0.2373276756
 40
0.3669773296
 40
0.5000011
 40
0.6330247168
 40
0.7626739247
 40
0.885845342
 40
1.0
 40
1.0
 40
1.0
 40
1.0
 10
34.8817472234
 20
186.7807963369
 30
0.0
 10
34.8817472234
 20
186.5124951773
 30
0.0
 10
34.9308903979
 20
185.9541801015
 30
0.0
 10
35.1267986768
 20
185.1119011852
 30
0.0
 10
35.4406324367
 20
184.258740191
 30
0.0
 10
35.8606630844
 20
183.4267787035
 30
0.0
 10
36.3711506902
 20
182.6470440548
 30
0.0
 10
36.9530946458
 20
181.9486809668
 30
0.0
 10
37.5845757146
 20
181.3578872419
 30
0.0
 10
38.0435187889
 20
181.0361763665
 30
0.0
 10
38.2758739041
 20
180.902029113
 30
0.0
  0
SPLINE
  5
387
100
AcDbEntity
  8
0
100
AcDbSpline
 62
7
  6
CONTINUOUS
 70
0
 71
3
 72
21
 73
17
 74
0
 42
0.0000001
 43
0.0000001
 44
0.0000000001
 40
0.0
 40
0.0
 40
0.0
 40
0.0
 40
0.0624059336
 40
0.1287802775
 40
0.198399858
 40
0.2704081466
 40
0.4174472014
 40
0.5616807736
 40
0.6303080181
 40
0.6954238822
 40
0.7563980741
 40
0.812860221
 40
0.8647836888
 40
0.9125795186
 40
0.9571736294
 40
1.0
 40
1.0
 40
1.0
 40
1.0
 10
61.2569399714
 20
185.2706568011
 30
0.0
 10
61.5084213734
 20
185.1254672306
 30
0.0
 10
62.0080424511
 20
184.7915669563
 30
0.0
 10
62.7155758487
 20
184.1961776205
 30
0.0
 10
63.3919356217
 20
183.5017235781
 30
0.0
 10
64.2383260419
 20
182.4567699723
 30
0.0
 10
65.1278628287
 20
181.0094206333
 30
0.0
 10
65.7591162617
 20
179.4482080649
 30
0.0
 10
66.0709184554
 20
178.1909793427
 30
0.0
 10
66.1981319556
 20
177.2920830776
 30
0.0
 10
66.2198057617
 20
176.4407809522
 30
0.0
 10
66.1350002415
 20
175.6545707404
 30
0.0
 10
65.9445207487
 20
174.9496289213
 30
0.0
 10
65.6503329178
 20
174.3408195576
 30
0.0
 10
65.256639367
 20
173.8430027186
 30
0.0
 10
64.9294919519
 20
173.5926120177
 30
0.0
 10
64.7569125465
 20
173.4929734033
 30
0.0
  0
SPLINE
  5
388
100
AcDbEntity
  8
0
100
AcDbSpline
 62
7
  6
CONTINUOUS
 70
0
 71
3
 72
10
 73
6
 74
0
 42
0.0000001
 43
0.0000001
 44
0.0000000001
 40
0.0
 40
0.0
 40
0.0
 40
0.0
 40
0.2352955031
 40
0.4771460935
 40
1.0
 40
1.0
 40
1.0
 40
1.0
 10
39.1043330288
 20
193.4293765828
 30
0.0
 10
39.0241496077
 20
193.3830833635
 30
0.0
 10
38.8709847571
 20
193.271679358
 30
0.0
 10
38.6047281497
 20
192.9791328829
 30
0.0
 10
38.4705747808
 20
192.7012712344
 30
0.0
 10
38.4070572664
 20
192.5055813475
 30
0.0
  0
SPLINE
  5
389
100
AcDbEntity
  8
0
100
AcDbSpline
 62
7
  6
CONTINUOUS
 70
0
 71
3
 72
12
 73
8
 74
0
 42
0.0000001
 43
0.0000001
 44
0.0000000001
 40
0.0
 40
0.0
 40
0.0
 40
0.0
 40
0.289581202
 40
0.5486347013
 40
0.7816368512
 40
0.8918382666
 40
1.0
 40
1.0
 40
1.0
 40
1.0
 10
69.9543778148
 20
168.1650247295
 30
0.0
 10
69.9543778148
 20
167.9217322672
 30
0.0
 10
69.917515958
 20
167.4591426052
 30
0.0
 10
69.7304665115
 20
166.8239469899
 30
0.0
 10
69.4616954757
 20
166.3856621756
 30
0.0
 10
69.1902232415
 20
166.1187250161
 30
0.0
 10
69.0389342036
 20
166.0130952955
 30
0.0
 10
68.9602362923
 20
165.9676593065
 30
0.0
  0
SPLINE
  5
38A
100
AcDbEntity
  8
0
100
AcDbSpline
 62
7
  6
CONTINUOUS
 70
0
 71
3
 72
11
 73
7
 74
0
 42
0.0000001
 43
0.0000001
 44
0.0000000001
 40
0.0
 40
0.0
 40
0.0
 40
0.0
 40
0.2177689138
 40
0.4509403876
 40
0.7102101045
 40
1.0
 40
1.0
 40
1.0
 40
1.0
 10
48.0896598245
 20
186.4397274084
 30
0.0
 10
47.9907109025
 20
186.3825864985
 30
0.0
 10
47.8055018009
 20
186.2269714807
 30
0.0
 10
47.6084748112
 20
185.9046688033
 30
0.0
 10
47.4912911837
 20
185.507515046
 30
0.0
 10
47.4683179948
 20
185.2184318111
 30
0.0
 10
47.4683179948
 20
185.0663798692
 30
0.0
  0
SPLINE
  5
38B
100
AcDbEntity
  8
0
100
AcDbSpline
 62
7
  6
CONTINUOUS
 70
0
 71
3
 72
18
 73
14
 74
0
 42
0.0000001
 43
0.0000001
 44
0.0000000001
 40
0.0
 40
0.0
 40
0.0
 40
0.0
 40
0.0428483717
 40
0.0874661025
 40
0.1352879326
 40
0.1872396155
 40
0.2437305431
 40
0.3047358314
 40
0.4383696647
 40
0.5826768886
 40
0.7297921552
 40
0.8713433041
 40
1.0
 40
1.0
 40
1.0
 40
1.0
 10
47.4861091736
 20
186.6686184223
 30
0.0
 10
47.5723918476
 20
186.7184451272
 30
0.0
 10
47.7626147033
 20
186.7974681868
 30
0.0
 10
48.0765867245
 20
186.8435186317
 30
0.0
 10
48.4137614522
 20
186.8186944463
 30
0.0
 10
48.7666161874
 20
186.7249218135
 30
0.0
 10
49.1282787188
 20
186.5651157555
 30
0.0
 10
49.6275297914
 20
186.2595500286
 30
0.0
 10
50.2222562761
 20
185.732799983
 30
0.0
 10
50.8334536979
 20
184.9503134477
 30
0.0
 10
51.3149420708
 20
184.0604831362
 30
0.0
 10
51.627271125
 20
183.1369033756
 30
0.0
 10
51.7109792896
 20
182.5078613708
 30
0.0
 10
51.7109792896
 20
182.2086928879
 30
0.0
  0
SPLINE
  5
38C
100
AcDbEntity
  8
0
100
AcDbSpline
 62
7
  6
CONTINUOUS
 70
0
 71
3
 72
11
 73
7
 74
0
 42
0.0000001
 43
0.0000001
 44
0.0000000001
 40
0.0
 40
0.0
 40
0.0
 40
0.0
 40
0.2190098651
 40
0.4554836677
 40
0.7151567722
 40
1.0
 40
1.0
 40
1.0
 40
1.0
 10
46.5835195478
 20
187.5480794712
 30
0.0
 10
46.4673319411
 20
187.442449097
 30
0.0
 10
46.2567332678
 20
187.1869273705
 30
0.0
 10
46.0358623803
 20
186.7196515187
 30
0.0
 10
45.9038448758
 20
186.1721972851
 30
0.0
 10
45.8773240572
 20
185.7809071184
 30
0.0
 10
45.8773240572
 20
185.5766791127
 30
0.0
  0
SPLINE
  5
38D
100
AcDbEntity
  8
0
100
AcDbSpline
 62
7
  6
CONTINUOUS
 70
0
 71
3
 72
13
 73
9
 74
0
 42
0.0000001
 43
0.0000001
 44
0.0000000001
 40
0.0
 40
0.0
 40
0.0
 40
0.0
 40
0.1080954013
 40
0.2182277661
 40
0.3322536475
 40
0.4517064024
 40
0.7105885478
 40
1.0
 40
1.0
 40
1.0
 40
1.0
 10
38.6650048172
 20
196.6398067311
 30
0.0
 10
38.7797698889
 20
196.7060662752
 30
0.0
 10
39.0234241931
 20
196.8201996862
 30
0.0
 10
39.417694568
 20
196.9291966722
 30
0.0
 10
39.8380072598
 20
196.9760930588
 30
0.0
 10
40.4430892047
 20
196.9550105598
 30
0.0
 10
41.2471189892
 20
196.7614013586
 30
0.0
 10
41.8577071399
 20
196.4705557229
 30
0.0
 10
42.1649773924
 20
196.2931571732
 30
0.0
  0
SPLINE
  5
38E
100
AcDbEntity
  8
0
100
AcDbSpline
 62
7
  6
CONTINUOUS
 70
0
 71
3
 72
11
 73
7
 74
0
 42
0.0000001
 43
0.0000001
 44
0.0000000001
 40
0.0
 40
0.0
 40
0.0
 40
0.0
 40
0.2190098651
 40
0.4554836677
 40
0.7151567722
 40
1.0
 40
1.0
 40
1.0
 40
1.0
 10
56.1295008373
 20
182.0368292851
 30
0.0
 10
56.0133132306
 20
181.931198911
 30
0.0
 10
55.8027145572
 20
181.6756771845
 30
0.0
 10
55.5818436698
 20
181.2084013327
 30
0.0
 10
55.4498261653
 20
180.6609470991
 30
0.0
 10
55.4233053467
 20
180.2696569323
 30
0.0
 10
55.4233053467
 20
180.0654289266
 30
0.0
  0
SPLINE
  5
38F
100
AcDbEntity
  8
0
100
AcDbSpline
 62
7
  6
CONTINUOUS
 70
0
 71
3
 72
18
 73
14
 74
0
 42
0.0000001
 43
0.0000001
 44
0.0000000001
 40
0.0
 40
0.0
 40
0.0
 40
0.0
 40
0.0428483717
 40
0.0874661025
 40
0.1352879326
 40
0.1872396155
 40
0.2437305431
 40
0.3047358314
 40
0.4383696647
 40
0.5826768886
 40
0.7297921552
 40
0.8713433041
 40
1.0
 40
1.0
 40
1.0
 40
1.0
 10
57.0320904631
 20
181.1573682363
 30
0.0
 10
57.1183731371
 20
181.2071949412
 30
0.0
 10
57.3085959928
 20
181.2862180008
 30
0.0
 10
57.6225680139
 20
181.3322684457
 30
0.0
 10
57.9597427417
 20
181.3074442603
 30
0.0
 10
58.3125974769
 20
181.2136716275
 30
0.0
 10
58.6742600083
 20
181.0538655695
 30
0.0
 10
59.1735110808
 20
180.7482998426
 30
0.0
 10
59.7682375656
 20
180.221549797
 30
0.0
 10
60.3794349874
 20
179.4390632617
 30
0.0
 10
60.8609233603
 20
178.5492329502
 30
0.0
 10
61.1732524145
 20
177.6256531896
 30
0.0
 10
61.2569605791
 20
176.9966111848
 30
0.0
 10
61.2569605791
 20
176.6974427018
 30
0.0
  0
SPLINE
  5
390
100
AcDbEntity
  8
0
100
AcDbSpline
 62
7
  6
CONTINUOUS
 70
0
 71
3
 72
17
 73
13
 74
0
 42
0.0000001
 43
0.0000001
 44
0.0000000001
 40
0.0
 40
0.0
 40
0.0
 40
0.0
 40
0.1286894184
 40
0.2702754234
 40
0.4174277438
 40
0.5617747655
 40
0.6954471371
 40
0.8127114826
 40
0.8646769314
 40
0.9125112108
 40
0.9571404173
 40
1.0
 40
1.0
 40
1.0
 40
1.0
 10
57.0142992843
 20
179.5551296832
 30
0.0
 10
57.0142992843
 20
179.2987021974
 30
0.0
 10
57.0860417669
 20
178.7595361607
 30
0.0
 10
57.3537715842
 20
177.9678816635
 30
0.0
 10
57.7663660887
 20
177.2052675156
 30
0.0
 10
58.2906249415
 20
176.5342198933
 30
0.0
 10
58.8837117791
 20
176.0089254213
 30
0.0
 10
59.4205538291
 20
175.7154264313
 30
0.0
 10
59.8404771497
 20
175.6036828857
 30
0.0
 10
60.1294981366
 20
175.5824258907
 30
0.0
 10
60.3986121708
 20
175.6218926164
 30
0.0
 10
60.5616593439
 20
175.6896293243
 30
0.0
 10
60.6356158054
 20
175.7323376168
 30
0.0
  0
SPLINE
  5
391
100
AcDbEntity
  8
0
100
AcDbSpline
 62
7
  6
CONTINUOUS
 70
0
 71
3
 72
11
 73
7
 74
0
 42
0.0000001
 43
0.0000001
 44
0.0000000001
 40
0.0
 40
0.0
 40
0.0
 40
0.0
 40
0.2897733987
 40
0.5490669313
 40
0.782226121
 40
1.0
 40
1.0
 40
1.0
 40
1.0
 10
41.7407321651
 20
187.9648875266
 30
0.0
 10
41.7407321651
 20
187.8179130787
 30
0.0
 10
41.7185116257
 20
187.5384673825
 30
0.0
 10
41.6052598478
 20
187.1545443427
 30
0.0
 10
41.4147680591
 20
186.8430027958
 30
0.0
 10
41.2357556569
 20
186.6925526749
 30
0.0
 10
41.1400974009
 20
186.6373257372
 30
0.0
  0
SPLINE
  5
392
100
AcDbEntity
  8
0
100
AcDbSpline
 62
7
  6
CONTINUOUS
 70
0
 71
3
 72
18
 73
14
 74
0
 42
0.0000001
 43
0.0000001
 44
0.0000000001
 40
0.0
 40
0.0
 40
0.0
 40
0.0
 40
0.1286548206
 40
0.2702040109
 40
0.4173189172
 40
0.5616285013
 40
0.6952644302
 40
0.7562701443
 40
0.8127610144
 40
0.8647123396
 40
0.9125338666
 40
0.9571514574
 40
1.0
 40
1.0
 40
1.0
 40
1.0
 10
37.2152299241
 20
190.5776283555
 30
0.0
 10
37.2152299241
 20
190.2784642377
 30
0.0
 10
37.2989359377
 20
189.6494313192
 30
0.0
 10
37.6112561841
 20
188.725858867
 30
0.0
 10
38.0927432383
 20
187.8360277812
 30
0.0
 10
38.7039421328
 20
187.0535301706
 30
0.0
 10
39.2986774721
 20
186.5267725996
 30
0.0
 10
39.7979331327
 20
186.221203424
 30
0.0
 10
40.1595962344
 20
186.0613982844
 30
0.0
 10
40.5124496814
 20
185.9676279583
 30
0.0
 10
40.8496222986
 20
185.9428020252
 30
0.0
 10
41.1635939415
 20
185.9888528688
 30
0.0
 10
41.3538160524
 20
186.0678775997
 30
0.0
 10
41.4400991573
 20
186.1177043503
 30
0.0
  0
SPLINE
  5
393
100
AcDbEntity
  8
0
100
AcDbSpline
 62
7
  6
CONTINUOUS
 70
0
 71
3
 72
10
 73
6
 74
0
 42
0.0000001
 43
0.0000001
 44
0.0000000001
 40
0.0
 40
0.0
 40
0.0
 40
0.0
 40
0.5229464116
 40
0.7647587228
 40
1.0
 40
1.0
 40
1.0
 40
1.0
 10
41.9528665427
 20
186.3598267769
 30
0.0
 10
42.1545583795
 20
186.3166212248
 30
0.0
 10
42.4630244069
 20
186.2934270683
 30
0.0
 10
42.8504850886
 20
186.3777166778
 30
0.0
 10
43.0239540056
 20
186.454778468
 30
0.0
 10
43.1043102443
 20
186.5011714621
 30
0.0
  0
SPLINE
  5
394
100
AcDbEntity
  8
0
100
AcDbSpline
 62
7
  6
CONTINUOUS
 70
0
 71
3
 72
17
 73
13
 74
0
 42
0.0000001
 43
0.0000001
 44
0.0000000001
 40
0.0
 40
0.0
 40
0.0
 40
0.0
 40
0.1286894184
 40
0.2702754234
 40
0.4174277438
 40
0.5617747655
 40
0.6954471371
 40
0.8127114826
 40
0.8646769314
 40
0.9125112108
 40
0.9571404173
 40
1.0
 40
1.0
 40
1.0
 40
1.0
 10
47.4683179948
 20
185.0663798692
 30
0.0
 10
47.4683179948
 20
184.8099523834
 30
0.0
 10
47.5400604774
 20
184.2707863467
 30
0.0
 10
47.8077902947
 20
183.4791318495
 30
0.0
 10
48.2203847992
 20
182.7165177017
 30
0.0
 10
48.744643652
 20
182.0454700793
 30
0.0
 10
49.3377304896
 20
181.5201756073
 30
0.0
 10
49.8745725396
 20
181.2266766174
 30
0.0
 10
50.2944958602
 20
181.1149330717
 30
0.0
 10
50.5835168471
 20
181.0936760767
 30
0.0
 10
50.8526308813
 20
181.1331428025
 30
0.0
 10
51.0156780544
 20
181.2008795103
 30
0.0
 10
51.0896345159
 20
181.2435878028
 30
0.0
  0
SPLINE
  5
395
100
AcDbEntity
  8
0
100
AcDbSpline
 62
7
  6
CONTINUOUS
 70
0
 71
3
 72
11
 73
7
 74
0
 42
0.0000001
 43
0.0000001
 44
0.0000000001
 40
0.0
 40
0.0
 40
0.0
 40
0.0
 40
0.2897894332
 40
0.5490567506
 40
0.7822291216
 40
1.0
 40
1.0
 40
1.0
 40
1.0
 10
51.7109792896
 20
182.2086928879
 30
0.0
 10
51.7109792896
 20
182.0312991206
 30
0.0
 10
51.684178881
 20
181.6940365512
 30
0.0
 10
51.5474634676
 20
181.2306922197
 30
0.0
 10
51.317602605
 20
180.8546691214
 30
0.0
 10
51.1015226916
 20
180.6731179621
 30
0.0
 10
50.9860813297
 20
180.6064526351
 30
0.0
  0
SPLINE
  5
396
100
AcDbEntity
  8
0
100
AcDbSpline
 62
7
  6
CONTINUOUS
 70
0
 71
3
 72
18
 73
14
 74
0
 42
0.0000001
 43
0.0000001
 44
0.0000000001
 40
0.0
 40
0.0
 40
0.0
 40
0.0
 40
0.1260240661
 40
0.2643678792
 40
0.408692361
 40
0.5516500214
 40
0.6861091271
 40
0.7483794462
 40
0.8066152127
 40
0.8605996432
 40
0.9104288479
 40
0.9565870489
 40
1.0
 40
1.0
 40
1.0
 40
1.0
 10
45.8773240572
 20
185.5766791127
 30
0.0
 10
45.8773240572
 20
185.1933327259
 30
0.0
 10
45.9786846084
 20
184.3882395857
 30
0.0
 10
46.3609664169
 20
183.1996196885
 30
0.0
 10
46.9543835096
 20
182.0424866374
 30
0.0
 10
47.7151000001
 20
181.0030616615
 30
0.0
 10
48.4615324111
 20
180.278909207
 30
0.0
 10
49.0962157993
 20
179.8307536512
 30
0.0
 10
49.5634630928
 20
179.5760641955
 30
0.0
 10
50.0253549733
 20
179.3991552734
 30
0.0
 10
50.4737782294
 20
179.3039207055
 30
0.0
 10
50.9003016522
 20
179.2931792876
 30
0.0
 10
51.1706249835
 20
179.3448592274
 30
0.0
 10
51.2964122468
 20
179.3850621606
 30
0.0
  0
SPLINE
  5
397
100
AcDbEntity
  8
0
100
AcDbSpline
 62
7
  6
CONTINUOUS
 70
0
 71
3
 72
9
 73
5
 74
0
 42
0.0000001
 43
0.0000001
 44
0.0000000001
 40
0.0
 40
0.0
 40
0.0
 40
0.0
 40
0.5164118446
 40
1.0
 40
1.0
 40
1.0
 40
1.0
 10
49.8049819082
 20
190.4054614229
 30
0.0
 10
49.6322647417
 20
190.2686821814
 30
0.0
 10
49.3001928262
 20
190.0008136662
 30
0.0
 10
48.9758672128
 20
189.7233764868
 30
0.0
 10
48.8232222405
 20
189.5845783839
 30
0.0
  0
SPLINE
  5
398
100
AcDbEntity
  8
0
100
AcDbSpline
 62
7
  6
CONTINUOUS
 70
0
 71
3
 72
12
 73
8
 74
0
 42
0.0000001
 43
0.0000001
 44
0.0000000001
 40
0.0
 40
0.0
 40
0.0
 40
0.0
 40
0.2471893105
 40
0.4969673726
 40
0.7493019648
 40
0.875661122
 40
1.0
 40
1.0
 40
1.0
 40
1.0
 10
55.610245271
 20
181.0307784631
 30
0.0
 10
55.3670935583
 20
180.92153355
 30
0.0
 10
54.8773270334
 20
180.7039205755
 30
0.0
 10
54.1350213952
 20
180.3846582154
 30
0.0
 10
53.5075376852
 20
180.1282950038
 30
0.0
 10
53.0001022756
 20
179.9364507502
 30
0.0
 10
52.744617671
 20
179.847794617
 30
0.0
 10
52.616894992
 20
179.8069804315
 30
0.0
  0
SPLINE
  5
399
100
AcDbEntity
  8
0
100
AcDbSpline
 62
7
  6
CONTINUOUS
 70
0
 71
3
 72
27
 73
23
 74
0
 42
0.0000001
 43
0.0000001
 44
0.0000000001
 40
0.0
 40
0.0
 40
0.0
 40
0.0
 40
0.0562936243
 40
0.1126372675
 40
0.1690819598
 40
0.2257262083
 40
0.2827745349
 40
0.3406985563
 40
0.3703577429
 40
0.4008249716
 40
0.4325335493
 40
0.4658957001
 40
0.5008016191
 40
0.5363957127
 40
0.5718322032
 40
0.6067623299
 40
0.675016342
 40
0.741689936
 40
0.8072617081
 40
0.8720473339
 40
0.936248705
 40
1.0
 40
1.0
 40
1.0
 40
1.0
 10
62.3432232156
 20
184.4221890484
 30
0.0
 10
62.2688745239
 20
184.3077048475
 30
0.0
 10
62.123218835
 20
184.0765902308
 30
0.0
 10
61.9164850614
 20
183.7223999145
 30
0.0
 10
61.7249507901
 20
183.3587355231
 30
0.0
 10
61.5540209254
 20
182.9828650986
 30
0.0
 10
61.4128330148
 20
182.5908473928
 30
0.0
 10
61.3343116803
 20
182.2473179579
 30
0.0
 10
61.3124403716
 20
181.9612864852
 30
0.0
 10
61.3251359168
 20
181.7380955183
 30
0.0
 10
61.3790251865
 20
181.5111795148
 30
0.0
 10
61.4873058928
 20
181.2915695084
 30
0.0
 10
61.6527060935
 20
181.0982787271
 30
0.0
 10
61.8603898151
 20
180.9442016221
 30
0.0
 10
62.0907563945
 20
180.8283405679
 30
0.0
 10
62.4082430815
 20
180.7160509037
 30
0.0
 10
62.8131470281
 20
180.6322441959
 30
0.0
 10
63.297448117
 20
180.58474405
 30
0.0
 10
63.7753504055
 20
180.5715725175
 30
0.0
 10
64.2471560047
 20
180.5820443702
 30
0.0
 10
64.7137885731
 20
180.6098055924
 30
0.0
 10
65.0228909531
 20
180.6372069654
 30
0.0
 10
65.1767086288
 20
180.652660517
 30
0.0
  0
SPLINE
  5
39A
100
AcDbEntity
  8
0
100
AcDbSpline
 62
7
  6
CONTINUOUS
 70
0
 71
3
 72
12
 73
8
 74
0
 42
0.0000001
 43
0.0000001
 44
0.0000000001
 40
0.0
 40
0.0
 40
0.0
 40
0.0
 40
0.1081617394
 40
0.2183631591
 40
0.4513653165
 40
0.7104188067
 40
1.0
 40
1.0
 40
1.0
 40
1.0
 10
67.5460286179
 20
165.1511709987
 30
0.0
 10
67.6247265377
 20
165.1966069832
 30
0.0
 10
67.7760155766
 20
165.3022367195
 30
0.0
 10
68.0474878255
 20
165.5691738844
 30
0.0
 10
68.3162588461
 20
166.0074587135
 30
0.0
 10
68.5033082928
 20
166.6426543178
 30
0.0
 10
68.5401701404
 20
167.1052439666
 30
0.0
 10
68.5401701404
 20
167.3485364218
 30
0.0
  0
SPLINE
  5
39B
100
AcDbEntity
  8
0
100
AcDbSpline
 62
7
  6
CONTINUOUS
 70
0
 71
3
 72
12
 73
8
 74
0
 42
0.0000001
 43
0.0000001
 44
0.0000000001
 40
0.0
 40
0.0
 40
0.0
 40
0.0
 40
0.1081593386
 40
0.2183587446
 40
0.4513618558
 40
0.7104187393
 40
1.0
 40
1.0
 40
1.0
 40
1.0
 10
43.1043102443
 20
186.5011714621
 30
0.0
 10
43.1698905922
 20
186.5390337207
 30
0.0
 10
43.2959645083
 20
186.6270539153
 30
0.0
 10
43.5221870416
 20
186.8495030781
 30
0.0
 10
43.7461686406
 20
187.2147385928
 30
0.0
 10
43.9020417657
 20
187.7440733258
 30
0.0
 10
43.9327605372
 20
188.1295670686
 30
0.0
 10
43.9327605372
 20
188.3323110044
 30
0.0
  0
SPLINE
  5
39C
100
AcDbEntity
  8
0
100
AcDbSpline
 62
7
  6
CONTINUOUS
 70
0
 71
3
 72
33
 73
29
 74
0
 42
0.0000001
 43
0.0000001
 44
0.0000000001
 40
0.0
 40
0.0
 40
0.0
 40
0.0
 40
0.0436717847
 40
0.0844294618
 40
0.1211836099
 40
0.1375573078
 40
0.1522205019
 40
0.1648559062
 40
0.1703632426
 40
0.1753655915
 40
0.1800240383
 40
0.1846836724
 40
0.1961258111
 40
0.2041569841
 40
0.2142254745
 40
0.2408864904
 40
0.2750660235
 40
0.3140750363
 40
0.3556366652
 40
0.3984191641
 40
0.4417384292
 40
0.4852516178
 40
0.5722551245
 40
0.6588455631
 40
0.744895556
 40
0.8304089863
 40
0.9154274248
 40
1.0
 40
1.0
 40
1.0
 40
1.0
 10
58.3692035299
 20
184.0733281978
 30
0.0
 10
58.3109834915
 20
184.0203894684
 30
0.0
 10
58.1996471092
 20
183.9166723869
 30
0.0
 10
58.0454088311
 20
183.7620539579
 30
0.0
 10
57.9326823306
 20
183.6356375342
 30
0.0
 10
57.859190121
 20
183.5379326269
 30
0.0
 10
57.8172190372
 20
183.4712827141
 30
0.0
 10
57.7923236115
 20
183.4172116758
 30
0.0
 10
57.7824124782
 20
183.3765444796
 30
0.0
 10
57.7808173896
 20
183.3490560211
 30
0.0
 10
57.785880446
 20
183.3233780199
 30
0.0
 10
57.805293174
 20
183.2904083598
 30
0.0
 10
57.8466898067
 20
183.2693765738
 30
0.0
 10
57.8987960515
 20
183.2595961405
 30
0.0
 10
57.9797284044
 20
183.2558519742
 30
0.0
 10
58.1071509327
 20
183.2702793505
 30
0.0
 10
58.283277587
 20
183.3074398669
 30
0.0
 10
58.4827657294
 20
183.3621687173
 30
0.0
 10
58.6947973829
 20
183.4289129448
 30
0.0
 10
58.9123874117
 20
183.5035943527
 30
0.0
 10
59.1318589149
 20
183.5834708901
 30
0.0
 10
59.4246783574
 20
183.6946991592
 30
0.0
 10
59.7880982033
 20
183.8395326414
 30
0.0
 10
60.2201786463
 20
184.018942421
 30
0.0
 10
60.6478939104
 20
184.2017902948
 30
0.0
 10
61.0715490763
 20
184.3868851413
 30
0.0
 10
61.4916021963
 20
184.5735496061
 30
0.0
 10
61.7702125058
 20
184.6990652653
 30
0.0
 10
61.9090180656
 20
184.7619517663
 30
0.0
  0
SPLINE
  5
39D
100
AcDbEntity
  8
0
100
AcDbSpline
 62
7
  6
CONTINUOUS
 70
0
 71
3
 72
17
 73
13
 74
0
 42
0.0000001
 43
0.0000001
 44
0.0000000001
 40
0.0
 40
0.0
 40
0.0
 40
0.0
 40
0.1315535964
 40
0.2612959226
 40
0.3887710009
 40
0.5133483891
 40
0.6341801245
 40
0.7504535095
 40
0.807364842
 40
0.8649188589
 40
0.9269665502
 40
1.0
 40
1.0
 40
1.0
 40
1.0
 10
66.1297543337
 20
176.0503674099
 30
0.0
 10
65.9914999687
 20
176.0291554625
 30
0.0
 10
65.7163540702
 20
175.9904246686
 30
0.0
 10
65.3052963588
 20
175.9459912617
 30
0.0
 10
64.9000716011
 20
175.9197301241
 30
0.0
 10
64.5031667023
 20
175.9180043054
 30
0.0
 10
64.1196463537
 20
175.9514682548
 30
0.0
 10
63.8128959049
 20
176.0259985201
 30
0.0
 10
63.5927422471
 20
176.1372853513
 30
0.0
 10
63.4472512567
 20
176.2598043955
 30
0.0
 10
63.3408200329
 20
176.4402772119
 30
0.0
 10
63.320171451
 20
176.5862468985
 30
0.0
 10
63.320171451
 20
176.663898482
 30
0.0
  0
SPLINE
  5
39E
100
AcDbEntity
  8
0
100
AcDbSpline
 62
7
  6
CONTINUOUS
 70
0
 71
3
 72
14
 73
10
 74
0
 42
0.0000001
 43
0.0000001
 44
0.0000000001
 40
0.0
 40
0.0
 40
0.0
 40
0.0
 40
0.1103473166
 40
0.2204132181
 40
0.3329880888
 40
0.4505624516
 40
0.5750610322
 40
0.7078342453
 40
1.0
 40
1.0
 40
1.0
 40
1.0
 10
60.8423935363
 20
173.8738119746
 30
0.0
 10
60.9418909449
 20
173.9056123935
 30
0.0
 10
61.135175675
 20
173.9882892026
 30
0.0
 10
61.3962691867
 20
174.1684025165
 30
0.0
 10
61.6223554493
 20
174.4004739267
 30
0.0
 10
61.8102077366
 20
174.6806984915
 30
0.0
 10
61.9579830811
 20
175.004862494
 30
0.0
 10
62.1040115169
 20
175.50543815
 30
0.0
 10
62.1408477356
 20
175.9105750951
 30
0.0
 10
62.1408477356
 20
176.1871417587
 30
0.0
  0
SPLINE
  5
39F
100
AcDbEntity
  8
0
100
AcDbSpline
 62
7
  6
CONTINUOUS
 70
0
 71
3
 72
18
 73
14
 74
0
 42
0.0000001
 43
0.0000001
 44
0.0000000001
 40
0.0
 40
0.0
 40
0.0
 40
0.0
 40
0.0428483717
 40
0.0874661025
 40
0.1352879326
 40
0.1872396155
 40
0.2437305431
 40
0.3047358314
 40
0.4383696647
 40
0.5826768886
 40
0.7297921552
 40
0.8713433041
 40
1.0
 40
1.0
 40
1.0
 40
1.0
 10
60.5320626192
 20
175.0952024491
 30
0.0
 10
60.4457799451
 20
175.0453757441
 30
0.0
 10
60.2555570895
 20
174.9663526846
 30
0.0
 10
59.9415850683
 20
174.9203022397
 30
0.0
 10
59.6044103405
 20
174.945126425
 30
0.0
 10
59.2515556053
 20
175.0388990578
 30
0.0
 10
58.8898930739
 20
175.1987051158
 30
0.0
 10
58.3906420014
 20
175.5042708427
 30
0.0
 10
57.7959155166
 20
176.0310208883
 30
0.0
 10
57.1847180948
 20
176.8135074236
 30
0.0
 10
56.7032297219
 20
177.7033377352
 30
0.0
 10
56.3909006678
 20
178.6269174957
 30
0.0
 10
56.3071925031
 20
179.2559595005
 30
0.0
 10
56.3071925031
 20
179.5551279835
 30
0.0
  0
SPLINE
  5
3A0
100
AcDbEntity
  8
0
100
AcDbSpline
 62
7
  6
CONTINUOUS
 70
0
 71
3
 72
9
 73
5
 74
0
 42
0.0000001
 43
0.0000001
 44
0.0000000001
 40
0.0
 40
0.0
 40
0.0
 40
0.0
 40
0.2565793853
 40
1.0
 40
1.0
 40
1.0
 40
1.0
 10
65.4376964626
 20
175.5571160442
 30
0.0
 10
65.4865965467
 20
175.5363034815
 30
0.0
 10
65.6783655323
 20
175.4580210576
 30
0.0
 10
65.8749755227
 20
175.3914260577
 30
0.0
 10
66.0232217245
 20
175.3497845653
 30
0.0
  0
SPLINE
  5
3A1
100
AcDbEntity
  8
0
100
AcDbSpline
 62
7
  6
CONTINUOUS
 70
0
 71
3
 72
11
 73
7
 74
0
 42
0.0000001
 43
0.0000001
 44
0.0000000001
 40
0.0
 40
0.0
 40
0.0
 40
0.0
 40
0.2833571739
 40
0.540436489
 40
0.7762631212
 40
1.0
 40
1.0
 40
1.0
 40
1.0
 10
58.9107409194
 20
180.8959410177
 30
0.0
 10
58.7970290041
 20
180.9475909417
 30
0.0
 10
58.5718167581
 20
181.0295658137
 30
0.0
 10
58.230914386
 20
181.0814667065
 30
0.0
 10
57.912847659
 20
181.0528711085
 30
0.0
 10
57.7210387527
 20
180.9777925528
 30
0.0
 10
57.635641114
 20
180.9284772224
 30
0.0
  0
SPLINE
  5
3A2
100
AcDbEntity
  8
0
100
AcDbSpline
 62
7
  6
CONTINUOUS
 70
0
 71
3
 72
11
 73
7
 74
0
 42
0.0000001
 43
0.0000001
 44
0.0000000001
 40
0.0
 40
0.0
 40
0.0
 40
0.0
 40
0.2296517625
 40
0.4683644036
 40
0.7234838883
 40
1.0
 40
1.0
 40
1.0
 40
1.0
 10
51.0896345159
 20
181.2435878028
 30
0.0
 10
51.1617624293
 20
181.2852401474
 30
0.0
 10
51.2986544843
 20
181.3892620085
 30
0.0
 10
51.4646153652
 20
181.5953569115
 30
0.0
 10
51.5902640142
 20
181.846935018
 30
0.0
 10
51.6436546243
 20
182.0333183659
 30
0.0
 10
51.6640199936
 20
182.1315164827
 30
0.0
  0
SPLINE
  5
3A3
100
AcDbEntity
  8
0
100
AcDbSpline
 62
7
  6
CONTINUOUS
 70
0
 71
3
 72
9
 73
5
 74
0
 42
0.0000001
 43
0.0000001
 44
0.0000000001
 40
0.0
 40
0.0
 40
0.0
 40
0.0
 40
0.2453100136
 40
1.0
 40
1.0
 40
1.0
 40
1.0
 10
51.6782757089
 20
182.2074527763
 30
0.0
 10
51.6811353178
 20
182.2244106882
 30
0.0
 10
51.6919555679
 20
182.293678742
 30
0.0
 10
51.6994982097
 20
182.3634503022
 30
0.0
 10
51.7035093372
 20
182.4162051767
 30
0.0
  0
SPLINE
  5
3A4
100
AcDbEntity
  8
0
100
AcDbSpline
 62
7
  6
CONTINUOUS
 70
0
 71
3
 72
14
 73
10
 74
0
 42
0.0000001
 43
0.0000001
 44
0.0000000001
 40
0.0
 40
0.0
 40
0.0
 40
0.0
 40
0.0946116218
 40
0.1941452176
 40
0.3023707623
 40
0.4214080764
 40
0.5518281297
 40
0.692970665
 40
1.0
 40
1.0
 40
1.0
 40
1.0
 10
41.1400974009
 20
186.6373257372
 30
0.0
 10
41.0592374253
 20
186.5906423769
 30
0.0
 10
40.8781657114
 20
186.5190739032
 30
0.0
 10
40.5780449866
 20
186.4895045871
 30
0.0
 10
40.2561548853
 20
186.5347521631
 30
0.0
 10
39.921177633
 20
186.6517014563
 30
0.0
 10
39.5811564757
 20
186.836336973
 30
0.0
 10
39.120047677
 20
187.1751862672
 30
0.0
 10
38.8130645825
 20
187.4999949937
 30
0.0
 10
38.6263502916
 20
187.7386240353
 30
0.0
  0
SPLINE
  5
3A5
100
AcDbEntity
  8
0
100
AcDbSpline
 62
7
  6
CONTINUOUS
 70
0
 71
3
 72
11
 73
7
 74
0
 42
0.0000001
 43
0.0000001
 44
0.0000000001
 40
0.0
 40
0.0
 40
0.0
 40
0.0
 40
0.2618132365
 40
0.5229084363
 40
0.7721130537
 40
1.0
 40
1.0
 40
1.0
 40
1.0
 10
38.6263502916
 20
187.7386240353
 30
0.0
 10
38.4747026099
 20
187.9324364146
 30
0.0
 10
38.2012826939
 20
188.3434278806
 30
0.0
 10
37.8900891752
 20
189.0019199425
 30
0.0
 10
37.6913551533
 20
189.6695422551
 30
0.0
 10
37.6394957592
 20
190.1184827978
 30
0.0
 10
37.6394957592
 20
190.3326839028
 30
0.0
  0
SPLINE
  5
3A6
100
AcDbEntity
  8
0
100
AcDbSpline
 62
7
  6
CONTINUOUS
 70
0
 71
3
 72
18
 73
14
 74
0
 42
0.0000001
 43
0.0000001
 44
0.0000000001
 40
0.0
 40
0.0
 40
0.0
 40
0.0
 40
0.0428483717
 40
0.0874661025
 40
0.1352879326
 40
0.1872396155
 40
0.2437305431
 40
0.3047358314
 40
0.4383696647
 40
0.5826768886
 40
0.7297921552
 40
0.8713433041
 40
1.0
 40
1.0
 40
1.0
 40
1.0
 10
39.3543355585
 20
192.9963569161
 30
0.0
 10
39.4406182325
 20
193.046183621
 30
0.0
 10
39.6308410882
 20
193.1252066806
 30
0.0
 10
39.9448131094
 20
193.1712571254
 30
0.0
 10
40.2819878372
 20
193.1464329401
 30
0.0
 10
40.6348425723
 20
193.0526603073
 30
0.0
 10
40.9965051038
 20
192.8928542493
 30
0.0
 10
41.4957561763
 20
192.5872885224
 30
0.0
 10
42.0904826611
 20
192.0605384768
 30
0.0
 10
42.7016800828
 20
191.2780519415
 30
0.0
 10
43.1831684558
 20
190.3882216299
 30
0.0
 10
43.4954975099
 20
189.4646418694
 30
0.0
 10
43.5792056746
 20
188.8355998646
 30
0.0
 10
43.5792056746
 20
188.5364313816
 30
0.0
  0
SPLINE
  5
3A7
100
AcDbEntity
  8
0
100
AcDbSpline
 62
7
  6
CONTINUOUS
 70
0
 71
3
 72
11
 73
7
 74
0
 42
0.0000001
 43
0.0000001
 44
0.0000000001
 40
0.0
 40
0.0
 40
0.0
 40
0.0
 40
0.2893797247
 40
0.5487755386
 40
0.7822455452
 40
1.0
 40
1.0
 40
1.0
 40
1.0
 10
37.6394957592
 20
190.3326839028
 30
0.0
 10
37.6394957592
 20
190.4776033024
 30
0.0
 10
37.6611277461
 20
190.7533357665
 30
0.0
 10
37.7711094965
 20
191.1328149371
 30
0.0
 10
37.9559864815
 20
191.442323592
 30
0.0
 10
38.1300555213
 20
191.5939410728
 30
0.0
 10
38.2233821039
 20
191.6503506539
 30
0.0
  0
SPLINE
  5
3A8
100
AcDbEntity
  8
0
100
AcDbSpline
 62
7
  6
CONTINUOUS
 70
0
 71
3
 72
18
 73
14
 74
0
 42
0.0000001
 43
0.0000001
 44
0.0000000001
 40
0.0
 40
0.0
 40
0.0
 40
0.0
 40
0.1286548206
 40
0.2702040109
 40
0.4173189172
 40
0.5616285013
 40
0.6952644302
 40
0.7562701443
 40
0.8127610144
 40
0.8647123396
 40
0.9125338666
 40
0.9571514574
 40
1.0
 40
1.0
 40
1.0
 40
1.0
 10
42.1649980002
 20
187.7199430739
 30
0.0
 10
42.1649980002
 20
188.0191071917
 30
0.0
 10
42.0812919865
 20
188.6481401102
 30
0.0
 10
41.7689717402
 20
189.5717125625
 30
0.0
 10
41.287484686
 20
190.4615436482
 30
0.0
 10
40.6762857914
 20
191.2440412588
 30
0.0
 10
40.0815504521
 20
191.7707988298
 30
0.0
 10
39.5822947916
 20
192.0763680054
 30
0.0
 10
39.2206316899
 20
192.236173145
 30
0.0
 10
38.8677782429
 20
192.3299434711
 30
0.0
 10
38.5306056257
 20
192.3547694042
 30
0.0
 10
38.2166339828
 20
192.3087185606
 30
0.0
 10
38.0264118718
 20
192.2296938297
 30
0.0
 10
37.940128767
 20
192.1798670791
 30
0.0
  0
SPLINE
  5
3A9
100
AcDbEntity
  8
0
100
AcDbSpline
 62
7
  6
CONTINUOUS
 70
0
 71
3
 72
18
 73
14
 74
0
 42
0.0000001
 43
0.0000001
 44
0.0000000001
 40
0.0
 40
0.0
 40
0.0
 40
0.0
 40
0.0428483717
 40
0.0874661025
 40
0.1352879326
 40
0.1872396155
 40
0.2437305431
 40
0.3047358314
 40
0.4383696647
 40
0.5826768886
 40
0.7297921552
 40
0.8713433041
 40
1.0
 40
1.0
 40
1.0
 40
1.0
 10
50.9860813297
 20
180.6064526351
 30
0.0
 10
50.8997986557
 20
180.5566259302
 30
0.0
 10
50.7095758
 20
180.4776028706
 30
0.0
 10
50.3956037788
 20
180.4315524257
 30
0.0
 10
50.058429051
 20
180.4563766111
 30
0.0
 10
49.7055743159
 20
180.5501492438
 30
0.0
 10
49.3439117844
 20
180.7099553018
 30
0.0
 10
48.8446607119
 20
181.0155210287
 30
0.0
 10
48.2499342271
 20
181.5422710743
 30
0.0
 10
47.6387368054
 20
182.3247576097
 30
0.0
 10
47.1572484324
 20
183.2145879212
 30
0.0
 10
46.8449193783
 20
184.1381676817
 30
0.0
 10
46.7612112136
 20
184.7672096865
 30
0.0
 10
46.7612112136
 20
185.0663781695
 30
0.0
  0
SPLINE
  5
3AA
100
AcDbEntity
  8
0
100
AcDbSpline
 62
7
  6
CONTINUOUS
 70
0
 71
3
 72
11
 73
7
 74
0
 42
0.0000001
 43
0.0000001
 44
0.0000000001
 40
0.0
 40
0.0
 40
0.0
 40
0.0
 40
0.2897894332
 40
0.5490567506
 40
0.7822291216
 40
1.0
 40
1.0
 40
1.0
 40
1.0
 10
43.5792056746
 20
188.5364313816
 30
0.0
 10
43.5792056746
 20
188.3590376144
 30
0.0
 10
43.5524052659
 20
188.021775045
 30
0.0
 10
43.4156898525
 20
187.5584307135
 30
0.0
 10
43.1858289899
 20
187.1824076152
 30
0.0
 10
42.9697490766
 20
187.0008564559
 30
0.0
 10
42.8543077146
 20
186.9341911289
 30
0.0
  0
SPLINE
  5
3AB
100
AcDbEntity
  8
0
100
AcDbSpline
 62
7
  6
CONTINUOUS
 70
0
 71
3
 72
18
 73
14
 74
0
 42
0.0000001
 43
0.0000001
 44
0.0000000001
 40
0.0
 40
0.0
 40
0.0
 40
0.0
 40
0.128653193
 40
0.2702040856
 40
0.4173190292
 40
0.5616287656
 40
0.6952634159
 40
0.7562696782
 40
0.8127618161
 40
0.8647121797
 40
0.9125329512
 40
0.95715095
 40
1.0
 40
1.0
 40
1.0
 40
1.0
 10
43.9327605372
 20
188.3323110044
 30
0.0
 10
43.9327605372
 20
188.6742088394
 30
0.0
 10
43.8370926325
 20
189.3931026223
 30
0.0
 10
43.480174962
 20
190.4486241065
 30
0.0
 10
42.9298740425
 20
191.4655624451
 30
0.0
 10
42.2313952192
 20
192.3598723023
 30
0.0
 10
41.5516664984
 20
192.9618451305
 30
0.0
 10
40.9810995973
 20
193.3110841451
 30
0.0
 10
40.5677763322
 20
193.4937425963
 30
0.0
 10
40.1645059863
 20
193.6008809328
 30
0.0
 10
39.7791733595
 20
193.6292367032
 30
0.0
 10
39.4203377615
 20
193.5766520286
 30
0.0
 10
39.2029494535
 20
193.4863119407
 30
0.0
 10
39.1043330288
 20
193.4293765828
 30
0.0
  0
SPLINE
  5
3AC
100
AcDbEntity
  8
0
100
AcDbSpline
 62
7
  6
CONTINUOUS
 70
0
 71
3
 72
14
 73
10
 74
0
 42
0.0000001
 43
0.0000001
 44
0.0000000001
 40
0.0
 40
0.0
 40
0.0
 40
0.0
 40
0.1103473166
 40
0.2204132181
 40
0.3329880888
 40
0.4505624516
 40
0.5750610322
 40
0.7078342453
 40
1.0
 40
1.0
 40
1.0
 40
1.0
 10
51.2964122468
 20
179.3850621606
 30
0.0
 10
51.3959096554
 20
179.4168625795
 30
0.0
 10
51.5891943855
 20
179.4995393886
 30
0.0
 10
51.8502878972
 20
179.6796527025
 30
0.0
 10
52.0763741598
 20
179.9117241127
 30
0.0
 10
52.2642264471
 20
180.1919486775
 30
0.0
 10
52.4120017916
 20
180.5161126801
 30
0.0
 10
52.5580302274
 20
181.016688336
 30
0.0
 10
52.5948664461
 20
181.4218252811
 30
0.0
 10
52.5948664461
 20
181.6983919447
 30
0.0
  0
SPLINE
  5
3AD
100
AcDbEntity
  8
0
100
AcDbSpline
 62
7
  6
CONTINUOUS
 70
0
 71
3
 72
34
 73
30
 74
0
 42
0.0000001
 43
0.0000001
 44
0.0000000001
 40
0.0
 40
0.0
 40
0.0
 40
0.0
 40
0.0433538602
 40
0.0837388426
 40
0.1200132983
 40
0.1360801004
 40
0.1503704549
 40
0.1625632966
 40
0.1678445091
 40
0.1726569473
 40
0.1772310964
 40
0.1820115382
 40
0.187607036
 40
0.1946221565
 40
0.2035280571
 40
0.2146029771
 40
0.2432469768
 40
0.2788198939
 40
0.3185175982
 40
0.3602922184
 40
0.4030227164
 40
0.4461487151
 40
0.4893933118
 40
0.5757535506
 40
0.6616482786
 40
0.7469902362
 40
0.8317977414
 40
0.9161174354
 40
1.0
 40
1.0
 40
1.0
 40
1.0
 10
48.8232222405
 20
189.5845783839
 30
0.0
 10
48.7639084689
 20
189.530645137
 30
0.0
 10
48.6506035585
 20
189.425050801
 30
0.0
 10
48.4940317432
 20
189.2677165458
 30
0.0
 10
48.380168648
 20
189.1392056775
 30
0.0
 10
48.3068435287
 20
189.0400221374
 30
0.0
 10
48.2658758863
 20
188.9727580679
 30
0.0
 10
48.242631143
 20
188.9182385075
 30
0.0
 10
48.2351173874
 20
188.877513652
 30
0.0
 10
48.2358621016
 20
188.8501253983
 30
0.0
 10
48.2442590177
 20
188.8247951424
 30
0.0
 10
48.2621029709
 20
188.8028929521
 30
0.0
 10
48.2900098556
 20
188.785957506
 30
0.0
 10
48.3284038567
 20
188.7744737776
 30
0.0
 10
48.378173084
 20
188.7687648769
 30
0.0
 10
48.4682380447
 20
188.76960805
 30
0.0
 10
48.6064922047
 20
188.7896175765
 30
0.0
 10
48.7937197712
 20
188.83306432
 30
0.0
 10
49.0017675087
 20
188.8930516087
 30
0.0
 10
49.2202106515
 20
188.9640457467
 30
0.0
 10
49.4429192816
 20
189.0422105878
 30
0.0
 10
49.6668114341
 20
189.1250789723
 30
0.0
 10
49.964901153
 20
189.2398275349
 30
0.0
 10
50.3345986131
 20
189.3886121178
 30
0.0
 10
50.7740476906
 20
189.5724322263
 30
0.0
 10
51.2090106456
 20
189.7594692114
 30
0.0
 10
51.6398730195
 20
189.9486283701
 30
0.0
 10
52.0671226411
 20
190.1392792966
 30
0.0
 10
52.350534076
 20
190.2674189465
 30
0.0
 10
52.4917394747
 20
190.3316120936
 30
0.0
  0
SPLINE
  5
3AE
100
AcDbEntity
  8
0
100
AcDbSpline
 62
7
  6
CONTINUOUS
 70
0
 71
3
 72
20
 73
16
 74
0
 42
0.0000001
 43
0.0000001
 44
0.0000000001
 40
0.0
 40
0.0
 40
0.0
 40
0.0
 40
0.0635398473
 40
0.1313010369
 40
0.275800894
 40
0.4253203819
 40
0.5704245934
 40
0.6386609216
 40
0.7027877764
 40
0.762231991
 40
0.8167811825
 40
0.8666954973
 40
0.9128172703
 40
0.9566086896
 40
1.0
 40
1.0
 40
1.0
 40
1.0
 10
62.1408477356
 20
176.1871417587
 30
0.0
 10
62.1408477356
 20
176.394983419
 30
0.0
 10
62.1111100109
 20
176.8248083738
 30
0.0
 10
61.9452288317
 20
177.7130708049
 30
0.0
 10
61.5469545504
 20
178.8361186265
 30
0.0
 10
60.8324969599
 20
180.0897479444
 30
0.0
 10
60.0677309056
 20
181.007887142
 30
0.0
 10
59.3855240319
 20
181.6088559854
 30
0.0
 10
58.8694165411
 20
181.9683669412
 30
0.0
 10
58.3504125275
 20
182.2373212904
 30
0.0
 10
57.8398869914
 20
182.4091155187
 30
0.0
 10
57.3489215984
 20
182.478700967
 30
0.0
 10
56.8886125253
 20
182.4420994689
 30
0.0
 10
56.471959475
 20
182.297519541
 30
0.0
 10
56.2345217847
 20
182.1323076437
 30
0.0
 10
56.1295008373
 20
182.0368292851
 30
0.0
  0
SPLINE
  5
3AF
100
AcDbEntity
  8
0
100
AcDbSpline
 62
7
  6
CONTINUOUS
 70
0
 71
3
 72
12
 73
8
 74
0
 42
0.0000001
 43
0.0000001
 44
0.0000000001
 40
0.0
 40
0.0
 40
0.0
 40
0.0
 40
0.2895810392
 40
0.5486360765
 40
0.7816397385
 40
0.8918396265
 40
1.0
 40
1.0
 40
1.0
 40
1.0
 10
47.1147278046
 20
190.1694096968
 30
0.0
 10
47.1147278046
 20
189.9666658657
 30
0.0
 10
47.0840099576
 20
189.5811732599
 30
0.0
 10
46.9281362916
 20
189.0518400487
 30
0.0
 10
46.7041574113
 20
188.6866031163
 30
0.0
 10
46.4779333252
 20
188.4641535994
 30
0.0
 10
46.3518594864
 20
188.3761310857
 30
0.0
 10
46.2862778425
 20
188.3382695852
 30
0.0
  0
SPLINE
  5
3B0
100
AcDbEntity
  8
0
100
AcDbSpline
 62
7
  6
CONTINUOUS
 70
0
 71
3
 72
12
 73
8
 74
0
 42
0.0000001
 43
0.0000001
 44
0.0000000001
 40
0.0
 40
0.0
 40
0.0
 40
0.0
 40
0.1081597158
 40
0.2183621399
 40
0.4513573357
 40
0.7104307796
 40
1.0
 40
1.0
 40
1.0
 40
1.0
 10
41.4400991573
 20
186.1177043503
 30
0.0
 10
41.4974786048
 20
186.1508398225
 30
0.0
 10
41.6078132082
 20
186.2278322737
 30
0.0
 10
41.8057241344
 20
186.4225079283
 30
0.0
 10
42.0017462641
 20
186.7420649821
 30
0.0
 10
42.1381077961
 20
187.2052451301
 30
0.0
 10
42.1649980002
 20
187.5425498806
 30
0.0
 10
42.1649980002
 20
187.7199430739
 30
0.0
  0
SPLINE
  5
3B1
100
AcDbEntity
  8
0
100
AcDbSpline
 62
7
  6
CONTINUOUS
 70
0
 71
3
 72
9
 73
5
 74
0
 42
0.0000001
 43
0.0000001
 44
0.0000000001
 40
0.0
 40
0.0
 40
0.0
 40
0.0
 40
0.2444735579
 40
1.0
 40
1.0
 40
1.0
 40
1.0
 10
40.9013105231
 20
196.7885875283
 30
0.0
 10
40.8906852036
 20
196.7461247485
 30
0.0
 10
40.8498146771
 20
196.57179122
 30
0.0
 10
40.8191301098
 20
196.3951075752
 30
0.0
 10
40.8011439709
 20
196.2610347882
 30
0.0
  0
SPLINE
  5
3B2
100
AcDbEntity
  8
0
100
AcDbSpline
 62
7
  6
CONTINUOUS
 70
0
 71
3
 72
11
 73
7
 74
0
 42
0.0000001
 43
0.0000001
 44
0.0000000001
 40
0.0
 40
0.0
 40
0.0
 40
0.0
 40
0.2296517625
 40
0.4683644036
 40
0.7234838883
 40
1.0
 40
1.0
 40
1.0
 40
1.0
 10
60.6356158054
 20
175.7323376168
 30
0.0
 10
60.7077437188
 20
175.7739899614
 30
0.0
 10
60.8446357738
 20
175.8780118225
 30
0.0
 10
61.0105966547
 20
176.0841067255
 30
0.0
 10
61.1362453037
 20
176.3356848319
 30
0.0
 10
61.1896359138
 20
176.5220681799
 30
0.0
 10
61.2100012831
 20
176.6202662967
 30
0.0
  0
SPLINE
  5
3B3
100
AcDbEntity
  8
0
100
AcDbSpline
 62
7
  6
CONTINUOUS
 70
0
 71
3
 72
9
 73
5
 74
0
 42
0.0000001
 43
0.0000001
 44
0.0000000001
 40
0.0
 40
0.0
 40
0.0
 40
0.0
 40
0.2453100136
 40
1.0
 40
1.0
 40
1.0
 40
1.0
 10
61.2242569984
 20
176.6962025903
 30
0.0
 10
61.2271166072
 20
176.7131605022
 30
0.0
 10
61.2379368574
 20
176.782428556
 30
0.0
 10
61.2454794992
 20
176.8522001162
 30
0.0
 10
61.2494906266
 20
176.9049549907
 30
0.0
  0
SPLINE
  5
3B4
100
AcDbEntity
  8
0
100
AcDbSpline
 62
7
  6
CONTINUOUS
 70
0
 71
3
 72
13
 73
9
 74
0
 42
0.0000001
 43
0.0000001
 44
0.0000000001
 40
0.0
 40
0.0
 40
0.0
 40
0.0
 40
0.1080954013
 40
0.2182277661
 40
0.3322536475
 40
0.4517064024
 40
0.7105885478
 40
1.0
 40
1.0
 40
1.0
 40
1.0
 10
64.7569125465
 20
173.4929734033
 30
0.0
 10
64.6421474748
 20
173.4267138593
 30
0.0
 10
64.3984931706
 20
173.3125804483
 30
0.0
 10
64.0042227957
 20
173.2035834622
 30
0.0
 10
63.5839101039
 20
173.1566870756
 30
0.0
 10
62.9788281591
 20
173.1777695747
 30
0.0
 10
62.1747983745
 20
173.3713787759
 30
0.0
 10
61.5642102239
 20
173.6622244116
 30
0.0
 10
61.2569399714
 20
173.8396229613
 30
0.0
  0
SPLINE
  5
3B5
100
AcDbEntity
  8
0
100
AcDbSpline
 62
7
  6
CONTINUOUS
 70
0
 71
3
 72
11
 73
7
 74
0
 42
0.0000001
 43
0.0000001
 44
0.0000000001
 40
0.0
 40
0.0
 40
0.0
 40
0.0
 40
0.2833571739
 40
0.540436489
 40
0.7762631212
 40
1.0
 40
1.0
 40
1.0
 40
1.0
 10
49.36475963
 20
186.4071912037
 30
0.0
 10
49.2510477146
 20
186.4588411277
 30
0.0
 10
49.0258354686
 20
186.5408159997
 30
0.0
 10
48.6849330965
 20
186.5927168925
 30
0.0
 10
48.3668663696
 20
186.5641212945
 30
0.0
 10
48.1750574633
 20
186.4890427388
 30
0.0
 10
48.0896598245
 20
186.4397274084
 30
0.0
  0
SPLINE
  5
3B6
100
AcDbEntity
  8
0
100
AcDbSpline
 62
7
  6
CONTINUOUS
 70
0
 71
3
 72
11
 73
7
 74
0
 42
0.0000001
 43
0.0000001
 44
0.0000000001
 40
0.0
 40
0.0
 40
0.0
 40
0.0
 40
0.2897894332
 40
0.5490567506
 40
0.7822291216
 40
1.0
 40
1.0
 40
1.0
 40
1.0
 10
46.7612112136
 20
185.0663781695
 30
0.0
 10
46.7612112136
 20
185.2437719367
 30
0.0
 10
46.7880116223
 20
185.5810345061
 30
0.0
 10
46.9247270357
 20
186.0443788377
 30
0.0
 10
47.1545878983
 20
186.420401936
 30
0.0
 10
47.3706678116
 20
186.6019530953
 30
0.0
 10
47.4861091736
 20
186.6686184223
 30
0.0
  0
SPLINE
  5
3B7
100
AcDbEntity
  8
0
100
AcDbSpline
 62
7
  6
CONTINUOUS
 70
0
 71
3
 72
20
 73
16
 74
0
 42
0.0000001
 43
0.0000001
 44
0.0000000001
 40
0.0
 40
0.0
 40
0.0
 40
0.0
 40
0.0635398473
 40
0.1313010369
 40
0.275800894
 40
0.4253203819
 40
0.5704245934
 40
0.6386609216
 40
0.7027877764
 40
0.762231991
 40
0.8167811825
 40
0.8666954973
 40
0.9128172703
 40
0.9566086896
 40
1.0
 40
1.0
 40
1.0
 40
1.0
 10
52.5948664461
 20
181.6983919447
 30
0.0
 10
52.5948664461
 20
181.906233605
 30
0.0
 10
52.5651287214
 20
182.3360585598
 30
0.0
 10
52.3992475422
 20
183.2243209909
 30
0.0
 10
52.0009732609
 20
184.3473688125
 30
0.0
 10
51.2865156704
 20
185.6009981304
 30
0.0
 10
50.5217496161
 20
186.519137328
 30
0.0
 10
49.8395427424
 20
187.1201061714
 30
0.0
 10
49.3234352516
 20
187.4796171272
 30
0.0
 10
48.804431238
 20
187.7485714764
 30
0.0
 10
48.2939057019
 20
187.9203657048
 30
0.0
 10
47.8029403089
 20
187.9899511531
 30
0.0
 10
47.3426312358
 20
187.9533496549
 30
0.0
 10
46.9259781855
 20
187.808769727
 30
0.0
 10
46.6885404952
 20
187.6435578297
 30
0.0
 10
46.5835195478
 20
187.5480794712
 30
0.0
  0
SPLINE
  5
3B8
100
AcDbEntity
  8
0
100
AcDbSpline
 62
7
  6
CONTINUOUS
 70
0
 71
3
 72
11
 73
7
 74
0
 42
0.0000001
 43
0.0000001
 44
0.0000000001
 40
0.0
 40
0.0
 40
0.0
 40
0.0
 40
0.2897894332
 40
0.5490567506
 40
0.7822291216
 40
1.0
 40
1.0
 40
1.0
 40
1.0
 10
56.3071925031
 20
179.5551279835
 30
0.0
 10
56.3071925031
 20
179.7325217507
 30
0.0
 10
56.3339929118
 20
180.0697843201
 30
0.0
 10
56.4707083252
 20
180.5331286517
 30
0.0
 10
56.7005691878
 20
180.9091517499
 30
0.0
 10
56.9166491011
 20
181.0907029092
 30
0.0
 10
57.0320904631
 20
181.1573682363
 30
0.0
  0
SPLINE
  5
3B9
100
AcDbEntity
  8
0
100
AcDbSpline
 62
7
  6
CONTINUOUS
 70
0
 71
3
 72
26
 73
22
 74
0
 42
0.0000001
 43
0.0000001
 44
0.0000000001
 40
0.0
 40
0.0
 40
0.0
 40
0.0
 40
0.0563453067
 40
0.1127398616
 40
0.1692508358
 40
0.2260257317
 40
0.2834276262
 40
0.3126750778
 40
0.3426163419
 40
0.3737469798
 40
0.4067034736
 40
0.4415486564
 40
0.4771632905
 40
0.5124591281
 40
0.5471123249
 40
0.6146849059
 40
0.6806923036
 40
0.7456671326
 40
0.8099248018
 40
0.8736576633
 40
1.0
 40
1.0
 40
1.0
 40
1.0
 10
52.9030394071
 20
190.0941407005
 30
0.0
 10
52.8121390323
 20
189.9578752968
 30
0.0
 10
52.6342926441
 20
189.6824911413
 30
0.0
 10
52.3832968992
 20
189.2591308051
 30
0.0
 10
52.1535993975
 20
188.8222239587
 30
0.0
 10
51.9547767993
 20
188.3670854474
 30
0.0
 10
51.829907789
 20
187.9675008597
 30
0.0
 10
51.7745882726
 20
187.6324451148
 30
0.0
 10
51.7656439889
 20
187.3690339542
 30
0.0
 10
51.8062076005
 20
187.096601139
 30
0.0
 10
51.9197862204
 20
186.8280901518
 30
0.0
 10
52.1165636977
 20
186.594920681
 30
0.0
 10
52.371954984
 20
186.4189733459
 30
0.0
 10
52.6540852078
 20
186.2951820323
 30
0.0
 10
53.0386623786
 20
186.1832535423
 30
0.0
 10
53.5240525554
 20
186.1102973888
 30
0.0
 10
54.1009832486
 20
186.0818353538
 30
0.0
 10
54.6688041533
 20
186.090669274
 30
0.0
 10
55.2288653637
 20
186.124802623
 30
0.0
 10
55.9650296337
 20
186.194653874
 30
0.0
 10
56.5129170982
 20
186.2681334157
 30
0.0
 10
56.8760791596
 20
186.3230538777
 30
0.0
  0
SPLINE
  5
3BA
100
AcDbEntity
  8
0
100
AcDbSpline
 62
7
  6
CONTINUOUS
 70
0
 71
3
 72
18
 73
14
 74
0
 42
0.0000001
 43
0.0000001
 44
0.0000000001
 40
0.0
 40
0.0
 40
0.0
 40
0.0
 40
0.1295176707
 40
0.2569642371
 40
0.3819103821
 40
0.5038527579
 40
0.622371763
 40
0.680503277
 40
0.7382528051
 40
0.7965300197
 40
0.8572842788
 40
0.9238776936
 40
1.0
 40
1.0
 40
1.0
 40
1.0
 10
55.7191679255
 20
181.4568065282
 30
0.0
 10
55.6193134357
 20
181.4486098306
 30
0.0
 10
55.4209094914
 20
181.435568663
 30
0.0
 10
55.1254532193
 20
181.4286871985
 30
0.0
 10
54.8358081111
 20
181.4383092982
 30
0.0
 10
54.5546065494
 20
181.4700687904
 30
0.0
 10
54.3286933395
 20
181.5230711557
 30
0.0
 10
54.1597883774
 20
181.5900295088
 30
0.0
 10
54.0416387172
 20
181.6558012768
 30
0.0
 10
53.9347569638
 20
181.7425361128
 30
0.0
 10
53.8457209885
 20
181.8571961058
 30
0.0
 10
53.7860089394
 20
182.0050564394
 30
0.0
 10
53.7741901615
 20
182.1162631121
 30
0.0
 10
53.7741901615
 20
182.175148668
 30
0.0
  0
SPLINE
  5
3BB
100
AcDbEntity
  8
0
100
AcDbSpline
 62
7
  6
CONTINUOUS
 70
0
 71
3
 72
16
 73
12
 74
0
 42
0.0000001
 43
0.0000001
 44
0.0000000001
 40
0.0
 40
0.0
 40
0.0
 40
0.0
 40
0.2450111448
 40
0.3689264915
 40
0.4940953359
 40
0.6208473344
 40
0.7494895757
 40
0.814455243
 40
0.8793300264
 40
0.9425037136
 40
1.0
 40
1.0
 40
1.0
 40
1.0
 10
56.8760791596
 20
186.3230538777
 30
0.0
 10
56.5703249186
 20
186.0220201311
 30
0.0
 10
56.1152457882
 20
185.5632067182
 30
0.0
 10
55.5236959395
 20
184.9316321328
 30
0.0
 10
55.0862349123
 20
184.4397074938
 30
0.0
 10
54.6617424914
 20
183.925736233
 30
0.0
 10
54.3285823289
 20
183.4735353035
 30
0.0
 10
54.0879522602
 20
183.0898487724
 30
0.0
 10
53.9299157036
 20
182.7904279018
 30
0.0
 10
53.8118152061
 20
182.4869324775
 30
0.0
 10
53.7741901615
 20
182.2758393018
 30
0.0
 10
53.7741901615
 20
182.175148668
 30
0.0
  0
SPLINE
  5
3BC
100
AcDbEntity
  8
0
100
AcDbSpline
 62
7
  6
CONTINUOUS
 70
0
 71
3
 72
15
 73
11
 74
0
 42
0.0000001
 43
0.0000001
 44
0.0000000001
 40
0.0
 40
0.0
 40
0.0
 40
0.0
 40
0.2466740477
 40
0.4975549114
 40
0.6250758178
 40
0.7539347521
 40
0.8184923497
 40
0.8823100621
 40
0.9437468532
 40
1.0
 40
1.0
 40
1.0
 40
1.0
 10
65.5472195654
 20
179.926539727
 30
0.0
 10
65.3192231879
 20
179.6883941412
 30
0.0
 10
64.8662831949
 20
179.2013785572
 30
0.0
 10
64.3243066108
 20
178.5647365522
 30
0.0
 10
63.9174797292
 20
178.022129434
 30
0.0
 10
63.6821165235
 20
177.662793378
 30
0.0
 10
63.5179236667
 20
177.3604787371
 30
0.0
 10
63.4145161051
 20
177.1283813407
 30
0.0
 10
63.3413203889
 20
176.8964478356
 30
0.0
 10
63.320171451
 20
176.7390831836
 30
0.0
 10
63.320171451
 20
176.663898482
 30
0.0
  0
SPLINE
  5
3BD
100
AcDbEntity
  8
0
100
AcDbSpline
 62
7
  6
CONTINUOUS
 70
0
 71
3
 72
9
 73
5
 74
0
 42
0.0000001
 43
0.0000001
 44
0.0000000001
 40
0.0
 40
0.0
 40
0.0
 40
0.0
 40
0.4842934529
 40
1.0
 40
1.0
 40
1.0
 40
1.0
 10
42.1649773924
 20
184.8621233334
 30
0.0
 10
41.9068503413
 20
185.0111496844
 30
0.0
 10
41.394265789
 20
185.3549598687
 30
0.0
 10
40.9240644975
 20
185.7539937926
 30
0.0
 10
40.6924730877
 20
185.9710246802
 30
0.0
  0
SPLINE
  5
3BE
100
AcDbEntity
  8
0
100
AcDbSpline
 62
7
  6
CONTINUOUS
 70
0
 71
3
 72
14
 73
10
 74
0
 42
0.0000001
 43
0.0000001
 44
0.0000000001
 40
0.0
 40
0.0
 40
0.0
 40
0.0
 40
0.3024185634
 40
0.440270599
 40
0.5682941054
 40
0.6867221483
 40
0.7966369766
 40
0.9000799381
 40
1.0
 40
1.0
 40
1.0
 40
1.0
 10
37.4354383639
 20
191.6223382454
 30
0.0
 10
37.3102332257
 20
192.1630358884
 30
0.0
 10
37.1941184187
 20
192.9702958658
 30
0.0
 10
37.2260889002
 20
194.0148897273
 30
0.0
 10
37.339658808
 20
194.7133963541
 30
0.0
 10
37.5422234521
 20
195.338317868
 30
0.0
 10
37.8317241198
 20
195.8783306495
 30
0.0
 10
38.2042032692
 20
196.322010374
 30
0.0
 10
38.5061970492
 20
196.5481191632
 30
0.0
 10
38.6650048172
 20
196.6398067311
 30
0.0
  0
SPLINE
  5
3BF
100
AcDbEntity
  8
0
100
AcDbSpline
 62
7
  6
CONTINUOUS
 70
0
 71
3
 72
11
 73
7
 74
0
 42
0.0000001
 43
0.0000001
 44
0.0000000001
 40
0.0
 40
0.0
 40
0.0
 40
0.0
 40
0.2848443418
 40
0.5445152259
 40
0.7809897299
 40
1.0
 40
1.0
 40
1.0
 40
1.0
 10
113.2999281166
 20
189.3939081235
 30
0.0
 10
113.2999281166
 20
189.5981379467
 30
0.0
 10
113.2734086723
 20
189.9894295052
 30
0.0
 10
113.1413890287
 20
190.5368855984
 30
0.0
 10
112.9205190122
 20
191.0041642107
 30
0.0
 10
112.7099156301
 20
191.2596853705
 30
0.0
 10
112.5937268504
 20
191.3653160505
 30
0.0
  0
SPLINE
  5
3C0
100
AcDbEntity
  8
0
100
AcDbSpline
 62
7
  6
CONTINUOUS
 70
0
 71
3
 72
18
 73
14
 74
0
 42
0.0000001
 43
0.0000001
 44
0.0000000001
 40
0.0
 40
0.0
 40
0.0
 40
0.0
 40
0.1286550902
 40
0.2702045902
 40
0.4173197676
 40
0.561629525
 40
0.6952654826
 40
0.7562711427
 40
0.8127619086
 40
0.8647130767
 40
0.9125343952
 40
0.9571517344
 40
1.0
 40
1.0
 40
1.0
 40
1.0
 10
107.4663214596
 20
186.025893854
 30
0.0
 10
107.4663214596
 20
186.325057549
 30
0.0
 10
107.5500264984
 20
186.9540895878
 30
0.0
 10
107.8623429806
 20
187.877661687
 30
0.0
 10
108.3438243586
 20
188.7674936976
 30
0.0
 10
108.9550162505
 20
189.5499936457
 30
0.0
 10
109.549745188
 20
190.0767546336
 30
0.0
 10
110.0489959102
 20
190.3823273397
 30
0.0
 10
110.4106554477
 20
190.5421352694
 30
0.0
 10
110.7635056155
 20
190.6359086608
 30
0.0
 10
111.1006753611
 20
190.6607378783
 30
0.0
 10
111.4146446578
 20
190.6146904526
 30
0.0
 10
111.6048656245
 20
190.5356680088
 30
0.0
 10
111.6911482278
 20
190.4858423771
 30
0.0
  0
SPLINE
  5
3C1
100
AcDbEntity
  8
0
100
AcDbSpline
 62
7
  6
CONTINUOUS
 70
0
 71
3
 72
17
 73
13
 74
0
 42
0.0000001
 43
0.0000001
 44
0.0000000001
 40
0.0
 40
0.0
 40
0.0
 40
0.0
 40
0.0428588778
 40
0.0874877443
 40
0.1353219067
 40
0.1872874161
 40
0.3045509819
 40
0.4382211777
 40
0.582566321
 40
0.7297199338
 40
0.8713085832
 40
1.0
 40
1.0
 40
1.0
 40
1.0
 10
108.0876605285
 20
185.0607866079
 30
0.0
 10
108.1616157544
 20
185.0180795764
 30
0.0
 10
108.3246616063
 20
184.9503464184
 30
0.0
 10
108.5937725261
 20
184.9108832076
 30
0.0
 10
108.8827918057
 20
184.9321399167
 30
0.0
 10
109.3027106014
 20
185.0438888195
 30
0.0
 10
109.8395433618
 20
185.3373872774
 30
0.0
 10
110.4326169622
 20
185.862677823
 30
0.0
 10
110.9568707337
 20
186.5337184284
 30
0.0
 10
111.3694631073
 20
187.2963350008
 30
0.0
 10
111.6371980446
 20
188.0879971039
 30
0.0
 10
111.7089415389
 20
188.6271706523
 30
0.0
 10
111.7089415389
 20
188.8836012314
 30
0.0
  0
SPLINE
  5
3C2
100
AcDbEntity
  8
0
100
AcDbSpline
 62
7
  6
CONTINUOUS
 70
0
 71
3
 72
11
 73
7
 74
0
 42
0.0000001
 43
0.0000001
 44
0.0000000001
 40
0.0
 40
0.0
 40
0.0
 40
0.0
 40
0.2177727241
 40
0.4509313669
 40
0.7102281898
 40
1.0
 40
1.0
 40
1.0
 40
1.0
 10
89.3994165873
 20
173.9206869022
 30
0.0
 10
89.3037576022
 20
173.9759114995
 30
0.0
 10
89.1247473497
 20
174.126363572
 30
0.0
 10
88.9342517213
 20
174.4379032265
 30
0.0
 10
88.8210016184
 20
174.821828142
 30
0.0
 10
88.7987801572
 20
175.1012744871
 30
0.0
 10
88.7987801572
 20
175.2482481918
 30
0.0
  0
SPLINE
  5
3C3
100
AcDbEntity
  8
0
100
AcDbSpline
 62
7
  6
CONTINUOUS
 70
0
 71
3
 72
18
 73
14
 74
0
 42
0.0000001
 43
0.0000001
 44
0.0000000001
 40
0.0
 40
0.0
 40
0.0
 40
0.0
 40
0.0428480947
 40
0.0874655739
 40
0.1352871954
 40
0.1872387214
 40
0.2437295447
 40
0.304734779
 40
0.438368641
 40
0.5826760382
 40
0.7297915758
 40
0.8713430344
 40
1.0
 40
1.0
 40
1.0
 40
1.0
 10
89.0994170643
 20
173.4010607243
 30
0.0
 10
89.1856992369
 20
173.3512351383
 30
0.0
 10
89.3759209481
 20
173.2722143655
 30
0.0
 10
89.6898906233
 20
173.226167339
 30
0.0
 10
90.0270624795
 20
173.2509948086
 30
0.0
 10
90.3799139354
 20
173.3447705066
 30
0.0
 10
90.7415729026
 20
173.5045793548
 30
0.0
 10
91.2408190367
 20
173.8101486122
 30
0.0
 10
91.8355391198
 20
174.3369020745
 30
0.0
 10
92.4467295389
 20
175.1193909474
 30
0.0
 10
92.9282122356
 20
176.0092221839
 30
0.0
 10
93.2405375256
 20
176.9328015914
 30
0.0
 10
93.3242447154
 20
177.5618427165
 30
0.0
 10
93.3242447154
 20
177.8610107766
 30
0.0
  0
SPLINE
  5
3C4
100
AcDbEntity
  8
0
100
AcDbSpline
 62
7
  6
CONTINUOUS
 70
0
 71
3
 72
15
 73
11
 74
0
 42
0.0000001
 43
0.0000001
 44
0.0000000001
 40
0.0
 40
0.0
 40
0.0
 40
0.0
 40
0.1141543519
 40
0.237325601
 40
0.366974755
 40
0.4999984147
 40
0.6330222943
 40
0.7626720931
 40
0.8858443543
 40
1.0
 40
1.0
 40
1.0
 40
1.0
 10
111.3553719565
 20
179.2079985896
 30
0.0
 10
111.5877253424
 20
179.3421470787
 30
0.0
 10
112.0466648806
 20
179.6638604503
 30
0.0
 10
112.6781406258
 20
180.2546572531
 30
0.0
 10
113.2600796505
 20
180.9530231574
 30
0.0
 10
113.7705629118
 20
181.7327602226
 30
0.0
 10
114.190589966
 20
182.5647236438
 30
0.0
 10
114.5044210125
 20
183.4178859942
 30
0.0
 10
114.700327601
 20
184.2601656359
 30
0.0
 10
114.7494703752
 20
184.8184809102
 30
0.0
 10
114.7494703752
 20
185.0867821304
 30
0.0
  0
SPLINE
  5
3C5
100
AcDbEntity
  8
0
100
AcDbSpline
 62
7
  6
CONTINUOUS
 70
0
 71
3
 72
13
 73
9
 74
0
 42
0.0000001
 43
0.0000001
 44
0.0000000001
 40
0.0
 40
0.0
 40
0.0
 40
0.0
 40
0.2894091221
 40
0.5482905172
 40
0.6677437784
 40
0.7817700881
 40
0.8919033495
 40
1.0
 40
1.0
 40
1.0
 40
1.0
 10
107.4663008519
 20
194.5991079533
 30
0.0
 10
107.7735637924
 20
194.7765052358
 30
0.0
 10
108.3841387965
 20
195.0673517199
 30
0.0
 10
109.1881539113
 20
195.2609646049
 30
0.0
 10
109.7932288513
 20
195.2820579355
 30
0.0
 10
110.213539151
 20
195.2351641061
 30
0.0
 10
110.6078097813
 20
195.1261738251
 30
0.0
 10
110.8514640342
 20
195.0120411966
 30
0.0
 10
110.9662297279
 20
194.9457827367
 30
0.0
  0
SPLINE
  5
3C6
100
AcDbEntity
  8
0
100
AcDbSpline
 62
7
  6
CONTINUOUS
 70
0
 71
3
 72
10
 73
6
 74
0
 42
0.0000001
 43
0.0000001
 44
0.0000000001
 40
0.0
 40
0.0
 40
0.0
 40
0.0
 40
0.235261379
 40
0.4770848103
 40
1.0
 40
1.0
 40
1.0
 40
1.0
 10
87.4351978767
 20
173.7845201954
 30
0.0
 10
87.5154840716
 20
173.7381702589
 30
0.0
 10
87.6887853173
 20
173.6611617703
 30
0.0
 10
88.0758459278
 20
173.5768594604
 30
0.0
 10
88.3840056461
 20
173.599887386
 30
0.0
 10
88.5855109692
 20
173.6429484361
 30
0.0
  0
SPLINE
  5
3C7
100
AcDbEntity
  8
0
100
AcDbSpline
 62
7
  6
CONTINUOUS
 70
0
 71
3
 72
17
 73
13
 74
0
 42
0.0000001
 43
0.0000001
 44
0.0000000001
 40
0.0
 40
0.0
 40
0.0
 40
0.0
 40
0.0428588778
 40
0.0874877443
 40
0.1353219067
 40
0.1872874161
 40
0.3045509819
 40
0.4382211777
 40
0.582566321
 40
0.7297199338
 40
0.8713085832
 40
1.0
 40
1.0
 40
1.0
 40
1.0
 10
98.5417587261
 20
179.5494905307
 30
0.0
 10
98.615713952
 20
179.5067834992
 30
0.0
 10
98.7787598039
 20
179.4390503412
 30
0.0
 10
99.0478707237
 20
179.3995871303
 30
0.0
 10
99.3368900033
 20
179.4208438394
 30
0.0
 10
99.756808799
 20
179.5325927423
 30
0.0
 10
100.2936415595
 20
179.8260912001
 30
0.0
 10
100.8867151599
 20
180.3513817458
 30
0.0
 10
101.4109689314
 20
181.0224223511
 30
0.0
 10
101.8235613049
 20
181.7850389236
 30
0.0
 10
102.0912962422
 20
182.5767010266
 30
0.0
 10
102.1630397366
 20
183.115874575
 30
0.0
 10
102.1630397366
 20
183.3723051542
 30
0.0
  0
SPLINE
  5
3C8
100
AcDbEntity
  8
0
100
AcDbSpline
 62
7
  6
CONTINUOUS
 70
0
 71
3
 72
12
 73
8
 74
0
 42
0.0000001
 43
0.0000001
 44
0.0000000001
 40
0.0
 40
0.0
 40
0.0
 40
0.0
 40
0.1081592661
 40
0.2183613031
 40
0.4513561008
 40
0.7104298246
 40
1.0
 40
1.0
 40
1.0
 40
1.0
 10
98.6453197496
 20
178.9123583308
 30
0.0
 10
98.5879402322
 20
178.9454932919
 30
0.0
 10
98.4776054393
 20
179.0224848908
 30
0.0
 10
98.2796940492
 20
179.2171595146
 30
0.0
 10
98.0836714901
 20
179.5367165923
 30
0.0
 10
97.9473098376
 20
179.9998978644
 30
0.0
 10
97.9204196572
 20
180.3372037833
 30
0.0
 10
97.9204196572
 20
180.5145977768
 30
0.0
  0
SPLINE
  5
3C9
100
AcDbEntity
  8
0
100
AcDbSpline
 62
7
  6
CONTINUOUS
 70
0
 71
3
 72
12
 73
8
 74
0
 42
0.0000001
 43
0.0000001
 44
0.0000000001
 40
0.0
 40
0.0
 40
0.0
 40
0.0
 40
0.1257677768
 40
0.2531262668
 40
0.5055784715
 40
0.7542790428
 40
1.0
 40
1.0
 40
1.0
 40
1.0
 10
97.0145068237
 20
178.1128763211
 30
0.0
 10
96.8297445079
 20
178.1719165006
 30
0.0
 10
96.4620143099
 20
178.3035583312
 30
0.0
 10
95.7363906712
 20
178.5890093027
 30
0.0
 10
94.8443065304
 20
178.9685807398
 30
0.0
 10
93.7922388595
 20
179.4375945447
 30
0.0
 10
93.0991657822
 20
179.7555857512
 30
0.0
 10
92.7552944422
 20
179.9148550325
 30
0.0
  0
SPLINE
  5
3CA
100
AcDbEntity
  8
0
100
AcDbSpline
 62
7
  6
CONTINUOUS
 70
0
 71
3
 72
18
 73
14
 74
0
 42
0.0000001
 43
0.0000001
 44
0.0000000001
 40
0.0
 40
0.0
 40
0.0
 40
0.0
 40
0.0434131409
 40
0.0895716779
 40
0.139401263
 40
0.1933859083
 40
0.2516216051
 40
0.3138915027
 40
0.4483486123
 40
0.5913041241
 40
0.7356284894
 40
0.8739737944
 40
1.0
 40
1.0
 40
1.0
 40
1.0
 10
98.3349898161
 20
177.6909661435
 30
0.0
 10
98.4607773137
 20
177.6507632914
 30
0.0
 10
98.7311025976
 20
177.5990881153
 30
0.0
 10
99.1576272611
 20
177.6098329443
 30
0.0
 10
99.6060508184
 20
177.7050744929
 30
0.0
 10
100.0679403257
 20
177.8819898817
 30
0.0
 10
100.5351822307
 20
178.1366842578
 30
0.0
 10
101.1698523511
 20
178.5848415439
 30
0.0
 10
101.9162659223
 20
179.308988513
 30
0.0
 10
102.676968664
 20
180.3484026662
 30
0.0
 10
103.2703785937
 20
181.5055323318
 30
0.0
 10
103.6526644369
 20
182.6941582476
 30
0.0
 10
103.7540263143
 20
183.4992602507
 30
0.0
 10
103.7540263143
 20
183.8826120462
 30
0.0
  0
SPLINE
  5
3CB
100
AcDbEntity
  8
0
100
AcDbSpline
 62
7
  6
CONTINUOUS
 70
0
 71
3
 72
9
 73
5
 74
0
 42
0.0000001
 43
0.0000001
 44
0.0000000001
 40
0.0
 40
0.0
 40
0.0
 40
0.0
 40
0.4835873803
 40
1.0
 40
1.0
 40
1.0
 40
1.0
 10
100.8081396394
 20
187.8904697374
 30
0.0
 10
100.6554881061
 20
188.0292722944
 30
0.0
 10
100.3311462737
 20
188.3067166165
 30
0.0
 10
99.9990585352
 20
188.5745924296
 30
0.0
 10
99.8263328143
 20
188.7113754745
 30
0.0
  0
SPLINE
  5
3CC
100
AcDbEntity
  8
0
100
AcDbSpline
 62
7
  6
CONTINUOUS
 70
0
 71
3
 72
21
 73
17
 74
0
 42
0.0000001
 43
0.0000001
 44
0.0000000001
 40
0.0
 40
0.0
 40
0.0
 40
0.0
 40
0.0428266218
 40
0.0874211752
 40
0.1352175795
 40
0.1871416192
 40
0.2436041526
 40
0.3045784502
 40
0.3696940666
 40
0.4383206792
 40
0.5825522947
 40
0.7295900821
 40
0.8015983809
 40
0.8712181601
 40
0.9375934885
 40
1.0
 40
1.0
 40
1.0
 40
1.0
 10
84.8745683711
 20
171.7988071755
 30
0.0
 10
84.7019870378
 20
171.8984447326
 30
0.0
 10
84.3748365258
 20
172.1488371608
 30
0.0
 10
83.9811392416
 20
172.6466585784
 30
0.0
 10
83.6869509402
 20
173.2554761464
 30
0.0
 10
83.4964744261
 20
173.9604260648
 30
0.0
 10
83.4116723151
 20
174.7466414436
 30
0.0
 10
83.4333487702
 20
175.5979444601
 30
0.0
 10
83.5605628021
 20
176.4968368165
 30
0.0
 10
83.8723613722
 20
177.754052586
 30
0.0
 10
84.5036027488
 20
179.315249742
 30
0.0
 10
85.3931206567
 20
180.7625925231
 30
0.0
 10
86.2394995214
 20
181.8075488184
 30
0.0
 10
86.9158558459
 20
182.5020138237
 30
0.0
 10
87.6233909553
 20
183.097413668
 30
0.0
 10
88.1230145985
 20
183.4313230906
 30
0.0
 10
88.3744972471
 20
183.5765157988
 30
0.0
  0
SPLINE
  5
3CD
100
AcDbEntity
  8
0
100
AcDbSpline
 62
7
  6
CONTINUOUS
 70
0
 71
3
 72
12
 73
8
 74
0
 42
0.0000001
 43
0.0000001
 44
0.0000000001
 40
0.0
 40
0.0
 40
0.0
 40
0.0
 40
0.1081620389
 40
0.2183637051
 40
0.4513660653
 40
0.7104193096
 40
1.0
 40
1.0
 40
1.0
 40
1.0
 10
82.0854709605
 20
163.4569939934
 30
0.0
 10
82.1641663973
 20
163.4115601919
 30
0.0
 10
82.3312837413
 20
163.3333595176
 30
0.0
 10
82.6981814565
 20
163.2317327912
 30
0.0
 10
83.2121129769
 20
163.2181149354
 30
0.0
 10
83.8557079112
 20
163.3737171387
 30
0.0
 10
84.2747368471
 20
163.5730799472
 30
0.0
 10
84.4854261424
 20
163.6947207425
 30
0.0
  0
SPLINE
  5
3CE
100
AcDbEntity
  8
0
100
AcDbSpline
 62
7
  6
CONTINUOUS
 70
0
 71
3
 72
12
 73
8
 74
0
 42
0.0000001
 43
0.0000001
 44
0.0000000001
 40
0.0
 40
0.0
 40
0.0
 40
0.0
 40
0.1081612896
 40
0.2183623225
 40
0.4513640816
 40
0.710417852
 40
1.0
 40
1.0
 40
1.0
 40
1.0
 10
80.6712515102
 20
164.2734755024
 30
0.0
 10
80.5925534936
 20
164.3189107838
 30
0.0
 10
80.4412641936
 20
164.4245393513
 30
0.0
 10
80.1697913125
 20
164.6914751057
 30
0.0
 10
79.9010196999
 20
165.1297599654
 30
0.0
 10
79.7139700891
 20
165.7649571119
 30
0.0
 10
79.6771082735
 20
166.2275483629
 30
0.0
 10
79.6771082735
 20
166.4708419152
 30
0.0
  0
SPLINE
  5
3CF
100
AcDbEntity
  8
0
100
AcDbSpline
 62
7
  6
CONTINUOUS
 70
0
 71
3
 72
9
 73
5
 74
0
 42
0.0000001
 43
0.0000001
 44
0.0000000001
 40
0.0
 40
0.0
 40
0.0
 40
0.0
 40
0.4835873803
 40
1.0
 40
1.0
 40
1.0
 40
1.0
 10
110.3540414418
 20
193.4017658147
 30
0.0
 10
110.2013899085
 20
193.5405683717
 30
0.0
 10
109.8770480761
 20
193.8180126938
 30
0.0
 10
109.5449603376
 20
194.0858885068
 30
0.0
 10
109.3722346167
 20
194.2226715518
 30
0.0
  0
SPLINE
  5
3D0
100
AcDbEntity
  8
0
100
AcDbSpline
 62
7
  6
CONTINUOUS
 70
0
 71
3
 72
12
 73
8
 74
0
 42
0.0000001
 43
0.0000001
 44
0.0000000001
 40
0.0
 40
0.0
 40
0.0
 40
0.0
 40
0.1243363243
 40
0.2506944523
 40
0.5030288512
 40
0.7528084875
 40
1.0
 40
1.0
 40
1.0
 40
1.0
 10
106.5604086261
 20
183.6241723984
 30
0.0
 10
106.4327406473
 20
183.6649682736
 30
0.0
 10
106.1773628716
 20
183.7535824191
 30
0.0
 10
105.6701354134
 20
183.9453368476
 30
0.0
 10
105.0429025372
 20
184.2015808109
 30
0.0
 10
104.3008907375
 20
184.520698416
 30
0.0
 10
103.8113167163
 20
184.7382140001
 30
0.0
 10
103.5682603193
 20
184.8474104145
 30
0.0
  0
SPLINE
  5
3D1
100
AcDbEntity
  8
0
100
AcDbSpline
 62
7
  6
CONTINUOUS
 70
0
 71
3
 72
18
 73
14
 74
0
 42
0.0000001
 43
0.0000001
 44
0.0000000001
 40
0.0
 40
0.0
 40
0.0
 40
0.0
 40
0.0434131409
 40
0.0895716779
 40
0.139401263
 40
0.1933859083
 40
0.2516216051
 40
0.3138915027
 40
0.4483486123
 40
0.5913041241
 40
0.7356284894
 40
0.8739737944
 40
1.0
 40
1.0
 40
1.0
 40
1.0
 10
107.8808916185
 20
183.2022622208
 30
0.0
 10
108.0066791161
 20
183.1620593686
 30
0.0
 10
108.2770044
 20
183.1103841926
 30
0.0
 10
108.7035290635
 20
183.1211290216
 30
0.0
 10
109.1519526208
 20
183.2163705701
 30
0.0
 10
109.6138421281
 20
183.3932859589
 30
0.0
 10
110.0810840331
 20
183.6479803351
 30
0.0
 10
110.7157541535
 20
184.0961376212
 30
0.0
 10
111.4621677247
 20
184.8202845903
 30
0.0
 10
112.2228704664
 20
185.8596987435
 30
0.0
 10
112.8162803961
 20
187.016828409
 30
0.0
 10
113.1985662393
 20
188.2054543248
 30
0.0
 10
113.2999281166
 20
189.010556328
 30
0.0
 10
113.2999281166
 20
189.3939081235
 30
0.0
  0
SPLINE
  5
3D2
100
AcDbEntity
  8
0
100
AcDbSpline
 62
7
  6
CONTINUOUS
 70
0
 71
3
 72
12
 73
8
 74
0
 42
0.0000001
 43
0.0000001
 44
0.0000000001
 40
0.0
 40
0.0
 40
0.0
 40
0.0
 40
0.1081592661
 40
0.2183613031
 40
0.4513561008
 40
0.7104298246
 40
1.0
 40
1.0
 40
1.0
 40
1.0
 10
108.191221552
 20
184.4236544081
 30
0.0
 10
108.1338420346
 20
184.4567893691
 30
0.0
 10
108.0235072417
 20
184.5337809681
 30
0.0
 10
107.8255958516
 20
184.7284555919
 30
0.0
 10
107.6295732925
 20
185.0480126695
 30
0.0
 10
107.49321164
 20
185.5111939417
 30
0.0
 10
107.4663214596
 20
185.8484998606
 30
0.0
 10
107.4663214596
 20
186.025893854
 30
0.0
  0
SPLINE
  5
3D3
100
AcDbEntity
  8
0
100
AcDbSpline
 62
7
  6
CONTINUOUS
 70
0
 71
3
 72
11
 73
7
 74
0
 42
0.0000001
 43
0.0000001
 44
0.0000000001
 40
0.0
 40
0.0
 40
0.0
 40
0.0
 40
0.2897925309
 40
0.5490601265
 40
0.782231448
 40
1.0
 40
1.0
 40
1.0
 40
1.0
 10
111.7089415389
 20
188.8836012314
 30
0.0
 10
111.7089415389
 20
189.0356548427
 30
0.0
 10
111.6859691047
 20
189.3247391182
 30
0.0
 10
111.5687839723
 20
189.7218931524
 30
0.0
 10
111.3717595114
 20
190.0441967709
 30
0.0
 10
111.1865487874
 20
190.1998105584
 30
0.0
 10
111.0875995261
 20
190.2569509317
 30
0.0
  0
SPLINE
  5
3D4
100
AcDbEntity
  8
0
100
AcDbSpline
 62
7
  6
CONTINUOUS
 70
0
 71
3
 72
17
 73
13
 74
0
 42
0.0000001
 43
0.0000001
 44
0.0000000001
 40
0.0
 40
0.0
 40
0.0
 40
0.0
 40
0.1286908751
 40
0.27027556
 40
0.4174299496
 40
0.5617767589
 40
0.6954477755
 40
0.8127135225
 40
0.8646767793
 40
0.9125110269
 40
0.9571410396
 40
1.0
 40
1.0
 40
1.0
 40
1.0
 10
88.7987801572
 20
175.2482481918
 30
0.0
 10
88.7987801572
 20
175.4961297736
 30
0.0
 10
88.8681244295
 20
176.0173233614
 30
0.0
 10
89.1269510356
 20
176.7825823324
 30
0.0
 10
89.52576255
 20
177.5197860891
 30
0.0
 10
90.0325451341
 20
178.1684704744
 30
0.0
 10
90.6058760599
 20
178.6762205698
 30
0.0
 10
91.124789206
 20
178.9599971971
 30
0.0
 10
91.5307255633
 20
179.0679699225
 30
0.0
 10
91.8101017234
 20
179.0885321445
 30
0.0
 10
92.0702569453
 20
179.050418841
 30
0.0
 10
92.2278507782
 20
178.9849002527
 30
0.0
 10
92.2993459829
 20
178.9436255739
 30
0.0
  0
SPLINE
  5
3D5
100
AcDbEntity
  8
0
100
AcDbSpline
 62
7
  6
CONTINUOUS
 70
0
 71
3
 72
11
 73
7
 74
0
 42
0.0000001
 43
0.0000001
 44
0.0000000001
 40
0.0
 40
0.0
 40
0.0
 40
0.0
 40
0.2897903937
 40
0.5490579954
 40
0.7822299719
 40
1.0
 40
1.0
 40
1.0
 40
1.0
 10
93.3242447154
 20
177.8610107766
 30
0.0
 10
93.3242447154
 20
178.0384053439
 30
0.0
 10
93.2974443337
 20
178.375669081
 30
0.0
 10
93.1607287875
 20
178.8390145393
 30
0.0
 10
92.9308675761
 20
179.2150374598
 30
0.0
 10
92.7147870357
 20
179.3965874374
 30
0.0
 10
92.5993455059
 20
179.4632517517
 30
0.0
  0
SPLINE
  5
3D6
100
AcDbEntity
  8
0
100
AcDbSpline
 62
7
  6
CONTINUOUS
 70
0
 71
3
 72
10
 73
6
 74
0
 42
0.0000001
 43
0.0000001
 44
0.0000000001
 40
0.0
 40
0.0
 40
0.0
 40
0.0
 40
0.5228926002
 40
0.7647292793
 40
1.0
 40
1.0
 40
1.0
 40
1.0
 10
92.1328219451
 20
179.7876692691
 30
0.0
 10
92.0693447107
 20
179.9836353937
 30
0.0
 10
91.9351857876
 20
180.2619093221
 30
0.0
 10
91.6687102333
 20
180.5548730738
 30
0.0
 10
91.5153935193
 20
180.6664160243
 30
0.0
 10
91.4351257929
 20
180.7127552988
 30
0.0
  0
SPLINE
  5
3D7
100
AcDbEntity
  8
0
100
AcDbSpline
 62
7
  6
CONTINUOUS
 70
0
 71
3
 72
11
 73
7
 74
0
 42
0.0000001
 43
0.0000001
 44
0.0000000001
 40
0.0
 40
0.0
 40
0.0
 40
0.0
 40
0.2897925309
 40
0.5490601265
 40
0.782231448
 40
1.0
 40
1.0
 40
1.0
 40
1.0
 10
102.1630397366
 20
183.3723051542
 30
0.0
 10
102.1630397366
 20
183.5243587654
 30
0.0
 10
102.1400673023
 20
183.8134430409
 30
0.0
 10
102.0228821699
 20
184.2105970752
 30
0.0
 10
101.8258577091
 20
184.5329006936
 30
0.0
 10
101.6406469851
 20
184.6885144811
 30
0.0
 10
101.5416977237
 20
184.7456548545
 30
0.0
  0
SPLINE
  5
3D8
100
AcDbEntity
  8
0
100
AcDbSpline
 62
7
  6
CONTINUOUS
 70
0
 71
3
 72
18
 73
14
 74
0
 42
0.0000001
 43
0.0000001
 44
0.0000000001
 40
0.0
 40
0.0
 40
0.0
 40
0.0
 40
0.1286550902
 40
0.2702045902
 40
0.4173197676
 40
0.561629525
 40
0.6952654826
 40
0.7562711427
 40
0.8127619086
 40
0.8647130767
 40
0.9125343952
 40
0.9571517344
 40
1.0
 40
1.0
 40
1.0
 40
1.0
 10
97.9204196572
 20
180.5145977768
 30
0.0
 10
97.9204196572
 20
180.8137614717
 30
0.0
 10
98.004124696
 20
181.4427935105
 30
0.0
 10
98.3164411782
 20
182.3663656097
 30
0.0
 10
98.7979225562
 20
183.2561976204
 30
0.0
 10
99.4091144481
 20
184.0386975684
 30
0.0
 10
100.0038433857
 20
184.5654585563
 30
0.0
 10
100.5030941078
 20
184.8710312625
 30
0.0
 10
100.8647536453
 20
185.0308391922
 30
0.0
 10
101.2176038131
 20
185.1246125836
 30
0.0
 10
101.5547735587
 20
185.1494418011
 30
0.0
 10
101.8687428554
 20
185.1033943754
 30
0.0
 10
102.0589638221
 20
185.0243719316
 30
0.0
 10
102.1452464254
 20
184.9745462998
 30
0.0
  0
SPLINE
  5
3D9
100
AcDbEntity
  8
0
100
AcDbSpline
 62
7
  6
CONTINUOUS
 70
0
 71
3
 72
11
 73
7
 74
0
 42
0.0000001
 43
0.0000001
 44
0.0000000001
 40
0.0
 40
0.0
 40
0.0
 40
0.0
 40
0.2848443418
 40
0.5445152259
 40
0.7809897299
 40
1.0
 40
1.0
 40
1.0
 40
1.0
 10
103.7540263143
 20
183.8826120462
 30
0.0
 10
103.7540263143
 20
184.0868418694
 30
0.0
 10
103.7275068699
 20
184.4781334279
 30
0.0
 10
103.5954872264
 20
185.0255895211
 30
0.0
 10
103.3746172098
 20
185.4928681334
 30
0.0
 10
103.1640138277
 20
185.7483892932
 30
0.0
 10
103.047825048
 20
185.8540199733
 30
0.0
  0
SPLINE
  5
3DA
100
AcDbEntity
  8
0
100
AcDbSpline
 62
7
  6
CONTINUOUS
 70
0
 71
3
 72
13
 73
9
 74
0
 42
0.0000001
 43
0.0000001
 44
0.0000000001
 40
0.0
 40
0.0
 40
0.0
 40
0.0
 40
0.2894091221
 40
0.5482905172
 40
0.6677437784
 40
0.7817700881
 40
0.8919033495
 40
1.0
 40
1.0
 40
1.0
 40
1.0
 10
88.3744972471
 20
172.145481959
 30
0.0
 10
88.0672343065
 20
171.9680846764
 30
0.0
 10
87.4566593025
 20
171.6772381923
 30
0.0
 10
86.6526441876
 20
171.4836253074
 30
0.0
 10
86.0475692477
 20
171.4625319768
 30
0.0
 10
85.6272589479
 20
171.5094258061
 30
0.0
 10
85.2329883177
 20
171.6184160871
 30
0.0
 10
84.9893340647
 20
171.7325487156
 30
0.0
 10
84.8745683711
 20
171.7988071755
 30
0.0
  0
SPLINE
  5
3DB
100
AcDbEntity
  8
0
100
AcDbSpline
 62
7
  6
CONTINUOUS
 70
0
 71
3
 72
18
 73
14
 74
0
 42
0.0000001
 43
0.0000001
 44
0.0000000001
 40
0.0
 40
0.0
 40
0.0
 40
0.0
 40
0.1286550902
 40
0.2702045902
 40
0.4173197676
 40
0.561629525
 40
0.6952654826
 40
0.7562711427
 40
0.8127619086
 40
0.8647130767
 40
0.9125343952
 40
0.9571517344
 40
1.0
 40
1.0
 40
1.0
 40
1.0
 10
112.4160483201
 20
188.8836029311
 30
0.0
 10
112.4160483201
 20
188.5844392361
 30
0.0
 10
112.3323432814
 20
187.9554071974
 30
0.0
 10
112.0200267991
 20
187.0318350982
 30
0.0
 10
111.5385454211
 20
186.1420030875
 30
0.0
 10
110.9273535293
 20
185.3595031394
 30
0.0
 10
110.3326245917
 20
184.8327421516
 30
0.0
 10
109.8333738696
 20
184.5271694454
 30
0.0
 10
109.471714332
 20
184.3673615157
 30
0.0
 10
109.1188641643
 20
184.2735881243
 30
0.0
 10
108.7816944186
 20
184.2487589068
 30
0.0
 10
108.4677251219
 20
184.2948063325
 30
0.0
 10
108.2775041553
 20
184.3738287763
 30
0.0
 10
108.191221552
 20
184.4236544081
 30
0.0
  0
SPLINE
  5
3DC
100
AcDbEntity
  8
0
100
AcDbSpline
 62
7
  6
CONTINUOUS
 70
0
 71
3
 72
10
 73
6
 74
0
 42
0.0000001
 43
0.0000001
 44
0.0000000001
 40
0.0
 40
0.0
 40
0.0
 40
0.0
 40
0.2372719105
 40
0.4801594835
 40
1.0
 40
1.0
 40
1.0
 40
1.0
 10
84.2532044442
 20
175.6216041599
 30
0.0
 10
84.1795084212
 20
175.6641512243
 30
0.0
 10
84.0383383097
 20
175.7649866899
 30
0.0
 10
83.789387042
 20
176.0253619094
 30
0.0
 10
83.6567802509
 20
176.271687241
 30
0.0
 10
83.5907937345
 20
176.4460569624
 30
0.0
  0
SPLINE
  5
3DD
100
AcDbEntity
  8
0
100
AcDbSpline
 62
7
  6
CONTINUOUS
 70
0
 71
3
 72
11
 73
7
 74
0
 42
0.0000001
 43
0.0000001
 44
0.0000000001
 40
0.0
 40
0.0
 40
0.0
 40
0.0
 40
0.2177534441
 40
0.4512207062
 40
0.7106191132
 40
1.0
 40
1.0
 40
1.0
 40
1.0
 10
92.3159746642
 20
178.93380338
 30
0.0
 10
92.4093188118
 20
178.8774042873
 30
0.0
 10
92.5834211305
 20
178.7257926657
 30
0.0
 10
92.7683418199
 20
178.4162706475
 30
0.0
 10
92.8783452879
 20
178.0367575573
 30
0.0
 10
92.899982413
 20
177.7609977076
 30
0.0
 10
92.899982413
 20
177.6160642843
 30
0.0
  0
SPLINE
  5
3DE
100
AcDbEntity
  8
0
100
AcDbSpline
 62
7
  6
CONTINUOUS
 70
0
 71
3
 72
20
 73
16
 74
0
 42
0.0000001
 43
0.0000001
 44
0.0000000001
 40
0.0
 40
0.0
 40
0.0
 40
0.0
 40
0.0433909591
 40
0.0871824079
 40
0.1333045402
 40
0.1832193407
 40
0.2377688787
 40
0.2972131421
 40
0.3613396382
 40
0.4295751036
 40
0.5746769433
 40
0.7241955944
 40
0.8686967286
 40
0.9364594381
 40
1.0
 40
1.0
 40
1.0
 40
1.0
 10
112.5937268504
 20
191.3653160505
 30
0.0
 10
112.4887068438
 20
191.4607928663
 30
0.0
 10
112.2512684221
 20
191.6259998373
 30
0.0
 10
111.8346162164
 20
191.7705768009
 30
0.0
 10
111.3743051489
 20
191.8071705416
 30
0.0
 10
110.8833392231
 20
191.7375763358
 30
0.0
 10
110.3728157912
 20
191.5657737547
 30
0.0
 10
109.8538179306
 20
191.2968125767
 30
0.0
 10
109.3377205909
 20
190.9372984468
 30
0.0
 10
108.6555315245
 20
190.3363329463
 30
0.0
 10
107.8907848966
 20
189.4182019428
 30
0.0
 10
107.1763365194
 20
188.1645820137
 30
0.0
 10
106.7780620906
 20
187.041532488
 30
0.0
 10
106.6121809738
 20
186.1532621992
 30
0.0
 10
106.5824416631
 20
185.7234318029
 30
0.0
 10
106.5824416631
 20
185.5155886617
 30
0.0
  0
SPLINE
  5
3DF
100
AcDbEntity
  8
0
100
AcDbSpline
 62
7
  6
CONTINUOUS
 70
0
 71
3
 72
11
 73
7
 74
0
 42
0.0000001
 43
0.0000001
 44
0.0000000001
 40
0.0
 40
0.0
 40
0.0
 40
0.0
 40
0.2238748563
 40
0.4597670349
 40
0.7167994583
 40
1.0
 40
1.0
 40
1.0
 40
1.0
 10
101.5416977237
 20
184.7456548545
 30
0.0
 10
101.4566160811
 20
184.7947870739
 30
0.0
 10
101.2656152663
 20
184.8696729137
 30
0.0
 10
100.9489155471
 20
184.8986278072
 30
0.0
 10
100.6094490606
 20
184.8476611484
 30
0.0
 10
100.3851064764
 20
184.7665957411
 30
0.0
 10
100.2718257763
 20
184.7154674053
 30
0.0
  0
SPLINE
  5
3E0
100
AcDbEntity
  8
0
100
AcDbSpline
 62
7
  6
CONTINUOUS
 70
0
 71
3
 72
34
 73
30
 74
0
 42
0.0000001
 43
0.0000001
 44
0.0000000001
 40
0.0
 40
0.0
 40
0.0
 40
0.0
 40
0.0838824857
 40
0.1682020794
 40
0.2530094578
 40
0.338351252
 40
0.424245734
 40
0.5106056672
 40
0.5538500429
 40
0.5969759144
 40
0.6397062925
 40
0.6814812003
 40
0.7211795121
 40
0.7567530885
 40
0.7853979971
 40
0.796473185
 40
0.8053795226
 40
0.8123950779
 40
0.8179907196
 40
0.8227711863
 40
0.8273452804
 40
0.83215739
 40
0.8374385347
 40
0.8496309951
 40
0.863920982
 40
0.8799873531
 40
0.9162616
 40
0.9566462567
 40
1.0
 40
1.0
 40
1.0
 40
1.0
 10
106.6855314212
 20
194.1487996479
 30
0.0
 10
106.8267355329
 20
194.0846080998
 30
0.0
 10
107.1101442775
 20
193.9564715175
 30
0.0
 10
107.5373898015
 20
193.7658252862
 30
0.0
 10
107.9682478567
 20
193.5766708213
 30
0.0
 10
108.4032061314
 20
193.3896385003
 30
0.0
 10
108.8426501778
 20
193.2058232192
 30
0.0
 10
109.2123430043
 20
193.0570425645
 30
0.0
 10
109.5104288472
 20
192.9422969755
 30
0.0
 10
109.7343179766
 20
192.8594304008
 30
0.0
 10
109.9570244416
 20
192.7812669257
 30
0.0
 10
110.1754666426
 20
192.710273332
 30
0.0
 10
110.383514839
 20
192.6502858249
 30
0.0
 10
110.570744048
 20
192.6068375915
 30
0.0
 10
110.7089997617
 20
192.5868262813
 30
0.0
 10
110.7990667579
 20
192.5859813559
 30
0.0
 10
110.848837547
 20
192.591688595
 30
0.0
 10
110.8872340887
 20
192.6031696402
 30
0.0
 10
110.9151419228
 20
192.6201042792
 30
0.0
 10
110.932989781
 20
192.6420034007
 30
0.0
 10
110.9413863873
 20
192.6673328217
 30
0.0
 10
110.9421355487
 20
192.6947196831
 30
0.0
 10
110.9346210445
 20
192.7354428527
 30
0.0
 10
110.9113793913
 20
192.7899609185
 30
0.0
 10
110.8704131132
 20
192.8572225559
 30
0.0
 10
110.7970910788
 20
192.9564042609
 30
0.0
 10
110.6832284376
 20
193.0849108627
 30
0.0
 10
110.5266590197
 20
193.2422422781
 30
0.0
 10
110.4133547005
 20
193.3478336216
 30
0.0
 10
110.3540414418
 20
193.4017658147
 30
0.0
  0
SPLINE
  5
3E1
100
AcDbEntity
  8
0
100
AcDbSpline
 62
7
  6
CONTINUOUS
 70
0
 71
3
 72
26
 73
22
 74
0
 42
0.0000001
 43
0.0000001
 44
0.0000000001
 40
0.0
 40
0.0
 40
0.0
 40
0.0
 40
0.1263424991
 40
0.1900754286
 40
0.2543331486
 40
0.3193079975
 40
0.3853153705
 40
0.4528878535
 40
0.4875412094
 40
0.5228371935
 40
0.5584520379
 40
0.5932971172
 40
0.6262531979
 40
0.6573835621
 40
0.6873245809
 40
0.716572025
 40
0.7739739936
 40
0.8307489773
 40
0.8872599967
 40
0.943654623
 40
1.0
 40
1.0
 40
1.0
 40
1.0
 10
102.3011962446
 20
190.140230013
 30
0.0
 10
102.6643599613
 20
190.0853112899
 30
0.0
 10
103.212249849
 20
190.0118345256
 30
0.0
 10
103.9484170681
 20
189.9419866053
 30
0.0
 10
104.5084802371
 20
189.9078555047
 30
0.0
 10
105.0763026851
 20
189.8990258233
 30
0.0
 10
105.6532345329
 20
189.9274892157
 30
0.0
 10
106.1386252095
 20
190.0004497163
 30
0.0
 10
106.5232041681
 20
190.1123779086
 30
0.0
 10
106.8053354581
 20
190.2361724644
 30
0.0
 10
107.0607273279
 20
190.4121218429
 30
0.0
 10
107.257501519
 20
190.6452938711
 30
0.0
 10
107.3710775862
 20
190.9138043103
 30
0.0
 10
107.41163556
 20
191.1862357846
 30
0.0
 10
107.4026922967
 20
191.4496459701
 30
0.0
 10
107.347368452
 20
191.7847014896
 30
0.0
 10
107.2224959071
 20
192.1842864425
 30
0.0
 10
107.0236658608
 20
192.6394237335
 30
0.0
 10
106.7939650516
 20
193.0763308224
 30
0.0
 10
106.5429635193
 20
193.4996898122
 30
0.0
 10
106.3651141965
 20
193.7750735082
 30
0.0
 10
106.274212045
 20
193.9113384574
 30
0.0
  0
SPLINE
  5
3E2
100
AcDbEntity
  8
0
100
AcDbSpline
 62
7
  6
CONTINUOUS
 70
0
 71
3
 72
12
 73
8
 74
0
 42
0.0000001
 43
0.0000001
 44
0.0000000001
 40
0.0
 40
0.0
 40
0.0
 40
0.0
 40
0.1081592661
 40
0.2183613031
 40
0.4513561008
 40
0.7104298246
 40
1.0
 40
1.0
 40
1.0
 40
1.0
 10
102.1452464254
 20
184.9745462998
 30
0.0
 10
102.2026259427
 20
184.9414113387
 30
0.0
 10
102.3129607357
 20
184.8644197398
 30
0.0
 10
102.5108721258
 20
184.669745116
 30
0.0
 10
102.7068946849
 20
184.3501880383
 30
0.0
 10
102.8432563374
 20
183.8870067662
 30
0.0
 10
102.8701465177
 20
183.5497008473
 30
0.0
 10
102.8701465177
 20
183.3723068539
 30
0.0
  0
SPLINE
  5
3E3
100
AcDbEntity
  8
0
100
AcDbSpline
 62
7
  6
CONTINUOUS
 70
0
 71
3
 72
12
 73
8
 74
0
 42
0.0000001
 43
0.0000001
 44
0.0000000001
 40
0.0
 40
0.0
 40
0.0
 40
0.0
 40
0.1081592661
 40
0.2183613031
 40
0.4513561008
 40
0.7104298246
 40
1.0
 40
1.0
 40
1.0
 40
1.0
 10
111.6911482278
 20
190.4858423771
 30
0.0
 10
111.7485277451
 20
190.452707416
 30
0.0
 10
111.8588625381
 20
190.3757158171
 30
0.0
 10
112.0567739282
 20
190.1810411932
 30
0.0
 10
112.2527964873
 20
189.8614841156
 30
0.0
 10
112.3891581398
 20
189.3983028435
 30
0.0
 10
112.4160483201
 20
189.0609969245
 30
0.0
 10
112.4160483201
 20
188.8836029311
 30
0.0
  0
SPLINE
  5
3E4
100
AcDbEntity
  8
0
100
AcDbSpline
 62
7
  6
CONTINUOUS
 70
0
 71
3
 72
11
 73
7
 74
0
 42
0.0000001
 43
0.0000001
 44
0.0000000001
 40
0.0
 40
0.0
 40
0.0
 40
0.0
 40
0.2238748563
 40
0.4597670349
 40
0.7167994583
 40
1.0
 40
1.0
 40
1.0
 40
1.0
 10
111.0875995261
 20
190.2569509317
 30
0.0
 10
111.0025178835
 20
190.3060831512
 30
0.0
 10
110.8115170687
 20
190.3809689909
 30
0.0
 10
110.4948173495
 20
190.4099238844
 30
0.0
 10
110.155350863
 20
190.3589572256
 30
0.0
 10
109.9310082788
 20
190.2778918184
 30
0.0
 10
109.8177275787
 20
190.2267634826
 30
0.0
  0
SPLINE
  5
3E5
100
AcDbEntity
  8
0
100
AcDbSpline
 62
7
  6
CONTINUOUS
 70
0
 71
3
 72
9
 73
5
 74
0
 42
0.0000001
 43
0.0000001
 44
0.0000000001
 40
0.0
 40
0.0
 40
0.0
 40
0.0
 40
0.2547243066
 40
1.0
 40
1.0
 40
1.0
 40
1.0
 10
107.4737851719
 20
186.2334060569
 30
0.0
 10
107.4751383291
 20
186.2156084758
 30
0.0
 10
107.4812019552
 20
186.1457987613
 30
0.0
 10
107.4903208051
 20
186.0762457853
 30
0.0
 10
107.4990021531
 20
186.0247497387
 30
0.0
  0
SPLINE
  5
3E6
100
AcDbEntity
  8
0
100
AcDbSpline
 62
7
  6
CONTINUOUS
 70
0
 71
3
 72
11
 73
7
 74
0
 42
0.0000001
 43
0.0000001
 44
0.0000000001
 40
0.0
 40
0.0
 40
0.0
 40
0.0
 40
0.2765802428
 40
0.5317166743
 40
0.7704016399
 40
1.0
 40
1.0
 40
1.0
 40
1.0
 10
107.5128485427
 20
185.9507752165
 30
0.0
 10
107.5331547779
 20
185.8523438803
 30
0.0
 10
107.586466865
 20
185.6655176103
 30
0.0
 10
107.7121502516
 20
185.4133255933
 30
0.0
 10
107.8782961086
 20
185.2067478803
 30
0.0
 10
108.0154103066
 20
185.1025090483
 30
0.0
 10
108.0876605285
 20
185.0607866079
 30
0.0
  0
SPLINE
  5
3E7
100
AcDbEntity
  8
0
100
AcDbSpline
 62
7
  6
CONTINUOUS
 70
0
 71
3
 72
9
 73
5
 74
0
 42
0.0000001
 43
0.0000001
 44
0.0000000001
 40
0.0
 40
0.0
 40
0.0
 40
0.0
 40
0.2556422403
 40
1.0
 40
1.0
 40
1.0
 40
1.0
 10
108.8298325199
 20
194.568713112
 30
0.0
 10
108.8237456237
 20
194.613973229
 30
0.0
 10
108.7976290023
 20
194.790695485
 30
0.0
 10
108.7620657656
 20
194.9660581314
 30
0.0
 10
108.7297727527
 20
195.0950483142
 30
0.0
  0
SPLINE
  5
3E8
100
AcDbEntity
  8
0
100
AcDbSpline
 62
7
  6
CONTINUOUS
 70
0
 71
3
 72
17
 73
13
 74
0
 42
0.0000001
 43
0.0000001
 44
0.0000000001
 40
0.0
 40
0.0
 40
0.0
 40
0.0
 40
0.1286908751
 40
0.27027556
 40
0.4174299496
 40
0.5617767589
 40
0.6954477755
 40
0.8127135225
 40
0.8646767793
 40
0.9125110269
 40
0.9571410396
 40
1.0
 40
1.0
 40
1.0
 40
1.0
 10
92.899982413
 20
177.6160642843
 30
0.0
 10
92.899982413
 20
177.3681827025
 30
0.0
 10
92.8306381407
 20
176.8469891147
 30
0.0
 10
92.5718115346
 20
176.0817301436
 30
0.0
 10
92.1730000202
 20
175.344526387
 30
0.0
 10
91.6662174361
 20
174.6958420017
 30
0.0
 10
91.0928865103
 20
174.1880919063
 30
0.0
 10
90.5739733642
 20
173.9043152789
 30
0.0
 10
90.1680370069
 20
173.7963425535
 30
0.0
 10
89.8886608468
 20
173.7757803316
 30
0.0
 10
89.6285056249
 20
173.8138936351
 30
0.0
 10
89.470911792
 20
173.8794122233
 30
0.0
 10
89.3994165873
 20
173.9206869022
 30
0.0
  0
SPLINE
  5
3E9
100
AcDbEntity
  8
0
100
AcDbSpline
 62
7
  6
CONTINUOUS
 70
0
 71
3
 72
18
 73
14
 74
0
 42
0.0000001
 43
0.0000001
 44
0.0000000001
 40
0.0
 40
0.0
 40
0.0
 40
0.0
 40
0.0428480947
 40
0.0874655739
 40
0.1352871954
 40
0.1872387214
 40
0.2437295447
 40
0.304734779
 40
0.438368641
 40
0.5826760382
 40
0.7297915758
 40
0.8713430344
 40
1.0
 40
1.0
 40
1.0
 40
1.0
 10
92.5993455059
 20
179.4632517517
 30
0.0
 10
92.5130633333
 20
179.5130773378
 30
0.0
 10
92.3228416221
 20
179.5920981106
 30
0.0
 10
92.0088719469
 20
179.6381451371
 30
0.0
 10
91.6717000907
 20
179.6133176675
 30
0.0
 10
91.3188486348
 20
179.5195419695
 30
0.0
 10
90.9571896676
 20
179.3597331213
 30
0.0
 10
90.4579435336
 20
179.0541638638
 30
0.0
 10
89.8632234504
 20
178.5274104015
 30
0.0
 10
89.2520330313
 20
177.7449215287
 30
0.0
 10
88.7705503346
 20
176.8550902922
 30
0.0
 10
88.4582250446
 20
175.9315108847
 30
0.0
 10
88.3745178549
 20
175.3024697596
 30
0.0
 10
88.3745178549
 20
175.0033016995
 30
0.0
  0
SPLINE
  5
3EA
100
AcDbEntity
  8
0
100
AcDbSpline
 62
7
  6
CONTINUOUS
 70
0
 71
3
 72
11
 73
7
 74
0
 42
0.0000001
 43
0.0000001
 44
0.0000000001
 40
0.0
 40
0.0
 40
0.0
 40
0.0
 40
0.2897903937
 40
0.5490579954
 40
0.7822299719
 40
1.0
 40
1.0
 40
1.0
 40
1.0
 10
88.3745178549
 20
175.0033016995
 30
0.0
 10
88.3745178549
 20
174.8259071321
 30
0.0
 10
88.4013182365
 20
174.4886433951
 30
0.0
 10
88.5380337827
 20
174.0252979368
 30
0.0
 10
88.7678949941
 20
173.6492750162
 30
0.0
 10
88.9839755345
 20
173.4677250387
 30
0.0
 10
89.0994170643
 20
173.4010607243
 30
0.0
  0
SPLINE
  5
3EB
100
AcDbEntity
  8
0
100
AcDbSpline
 62
7
  6
CONTINUOUS
 70
0
 71
3
 72
18
 73
14
 74
0
 42
0.0000001
 43
0.0000001
 44
0.0000000001
 40
0.0
 40
0.0
 40
0.0
 40
0.0
 40
0.1286550902
 40
0.2702045902
 40
0.4173197676
 40
0.561629525
 40
0.6952654826
 40
0.7562711427
 40
0.8127619086
 40
0.8647130767
 40
0.9125343952
 40
0.9571517344
 40
1.0
 40
1.0
 40
1.0
 40
1.0
 10
86.9602984046
 20
175.8197832085
 30
0.0
 10
86.9602984046
 20
176.1189469035
 30
0.0
 10
87.0440034433
 20
176.7479789423
 30
0.0
 10
87.3563199256
 20
177.6715510415
 30
0.0
 10
87.8378013036
 20
178.5613830522
 30
0.0
 10
88.4489931954
 20
179.3438830002
 30
0.0
 10
89.043722133
 20
179.8706439881
 30
0.0
 10
89.5429728551
 20
180.1762166942
 30
0.0
 10
89.9046323927
 20
180.336024624
 30
0.0
 10
90.2574825604
 20
180.4297980154
 30
0.0
 10
90.5946523061
 20
180.4546272328
 30
0.0
 10
90.9086216028
 20
180.4085798071
 30
0.0
 10
91.0988425694
 20
180.3295573633
 30
0.0
 10
91.1851251727
 20
180.2797317316
 30
0.0
  0
SPLINE
  5
3EC
100
AcDbEntity
  8
0
100
AcDbSpline
 62
7
  6
CONTINUOUS
 70
0
 71
3
 72
20
 73
16
 74
0
 42
0.0000001
 43
0.0000001
 44
0.0000000001
 40
0.0
 40
0.0
 40
0.0
 40
0.0
 40
0.0433909591
 40
0.0871824079
 40
0.1333045402
 40
0.1832193407
 40
0.2377688787
 40
0.2972131421
 40
0.3613396382
 40
0.4295751036
 40
0.5746769433
 40
0.7241955944
 40
0.8686967286
 40
0.9364594381
 40
1.0
 40
1.0
 40
1.0
 40
1.0
 10
103.047825048
 20
185.8540199733
 30
0.0
 10
102.9428050414
 20
185.949496789
 30
0.0
 10
102.7053666197
 20
186.11470376
 30
0.0
 10
102.288714414
 20
186.2592807236
 30
0.0
 10
101.8284033465
 20
186.2958744643
 30
0.0
 10
101.3374374207
 20
186.2262802586
 30
0.0
 10
100.8269139888
 20
186.0544776775
 30
0.0
 10
100.3079161282
 20
185.7855164994
 30
0.0
 10
99.7918187885
 20
185.4260023695
 30
0.0
 10
99.1096297222
 20
184.8250368691
 30
0.0
 10
98.3448830942
 20
183.9069058655
 30
0.0
 10
97.6304347171
 20
182.6532859364
 30
0.0
 10
97.2321602882
 20
181.5302364108
 30
0.0
 10
97.0662791714
 20
180.641966122
 30
0.0
 10
97.0365398607
 20
180.2121357256
 30
0.0
 10
97.0365398607
 20
180.0042925844
 30
0.0
  0
SPLINE
  5
3ED
100
AcDbEntity
  8
0
100
AcDbSpline
 62
7
  6
CONTINUOUS
 70
0
 71
3
 72
12
 73
8
 74
0
 42
0.0000001
 43
0.0000001
 44
0.0000000001
 40
0.0
 40
0.0
 40
0.0
 40
0.0
 40
0.2895819939
 40
0.5486373114
 40
0.7816405751
 40
0.8918400761
 40
1.0
 40
1.0
 40
1.0
 40
1.0
 10
86.606746486
 20
175.6156611316
 30
0.0
 10
86.606746486
 20
175.4129163863
 30
0.0
 10
86.6374643063
 20
175.0274224453
 30
0.0
 10
86.7933381091
 20
174.498087949
 30
0.0
 10
87.0173174826
 20
174.132850991
 30
0.0
 10
87.2435420957
 20
173.9104026497
 30
0.0
 10
87.3696161521
 20
173.82238111
 30
0.0
 10
87.4351978767
 20
173.7845201954
 30
0.0
  0
SPLINE
  5
3EE
100
AcDbEntity
  8
0
100
AcDbSpline
 62
7
  6
CONTINUOUS
 70
0
 71
3
 72
9
 73
5
 74
0
 42
0.0000001
 43
0.0000001
 44
0.0000000001
 40
0.0
 40
0.0
 40
0.0
 40
0.0
 40
0.2372766727
 40
1.0
 40
1.0
 40
1.0
 40
1.0
 10
83.6090772548
 20
173.655868225
 30
0.0
 10
83.7112233517
 20
173.6845841634
 30
0.0
 10
84.1372801403
 20
173.8213039389
 30
0.0
 10
84.5435678737
 20
174.0161485954
 30
0.0
 10
84.8389486214
 20
174.1866857316
 30
0.0
  0
SPLINE
  5
3EF
100
AcDbEntity
  8
0
100
AcDbSpline
 62
7
  6
CONTINUOUS
 70
0
 71
3
 72
12
 73
8
 74
0
 42
0.0000001
 43
0.0000001
 44
0.0000000001
 40
0.0
 40
0.0
 40
0.0
 40
0.0
 40
0.1081592661
 40
0.2183613031
 40
0.4513561008
 40
0.7104298246
 40
1.0
 40
1.0
 40
1.0
 40
1.0
 10
87.6851984969
 20
174.2175437626
 30
0.0
 10
87.6278189796
 20
174.2506787237
 30
0.0
 10
87.5174841866
 20
174.3276703226
 30
0.0
 10
87.3195727965
 20
174.5223449464
 30
0.0
 10
87.1235502374
 20
174.841902024
 30
0.0
 10
86.9871885849
 20
175.3050832962
 30
0.0
 10
86.9602984046
 20
175.6423892151
 30
0.0
 10
86.9602984046
 20
175.8197832085
 30
0.0
  0
SPLINE
  5
3F0
100
AcDbEntity
  8
0
100
AcDbSpline
 62
7
  6
CONTINUOUS
 70
0
 71
3
 72
10
 73
6
 74
0
 42
0.0000001
 43
0.0000001
 44
0.0000000001
 40
0.0
 40
0.0
 40
0.0
 40
0.0
 40
0.5183517103
 40
0.7617532443
 40
1.0
 40
1.0
 40
1.0
 40
1.0
 10
87.259877466
 20
182.7190632964
 30
0.0
 10
87.4351110173
 20
182.7431797186
 30
0.0
 10
87.7005816401
 20
182.7450513988
 30
0.0
 10
88.0323939015
 20
182.6596522075
 30
0.0
 10
88.182722692
 20
182.5904874902
 30
0.0
 10
88.2531316991
 20
182.5498381249
 30
0.0
  0
SPLINE
  5
3F1
100
AcDbEntity
  8
0
100
AcDbSpline
 62
7
  6
CONTINUOUS
 70
0
 71
3
 72
14
 73
10
 74
0
 42
0.0000001
 43
0.0000001
 44
0.0000000001
 40
0.0
 40
0.0
 40
0.0
 40
0.0
 40
0.1075120476
 40
0.2171452506
 40
0.3308173445
 40
0.4501043346
 40
0.5761604565
 40
0.7097137379
 40
1.0
 40
1.0
 40
1.0
 40
1.0
 10
110.9662297279
 20
194.9457827367
 30
0.0
 10
111.083684626
 20
194.8779717001
 30
0.0
 10
111.3093643233
 20
194.7198522887
 30
0.0
 10
111.6063743522
 20
194.4240572963
 30
0.0
 10
111.8605112644
 20
194.0723240499
 30
0.0
 10
112.0692771448
 20
193.6687567474
 30
0.0
 10
112.2310187137
 20
193.2176028231
 30
0.0
 10
112.3865015488
 20
192.5403331417
 30
0.0
 10
112.4209514014
 20
192.0023884257
 30
0.0
 10
112.4151916352
 20
191.6362430172
 30
0.0
  0
SPLINE
  5
3F2
100
AcDbEntity
  8
0
100
AcDbSpline
 62
7
  6
CONTINUOUS
 70
0
 71
3
 72
16
 73
12
 74
0
 42
0.0000001
 43
0.0000001
 44
0.0000000001
 40
0.0
 40
0.0
 40
0.0
 40
0.0
 40
0.2450113438
 40
0.3689267636
 40
0.4940956562
 40
0.6208476679
 40
0.7494898734
 40
0.8144554983
 40
0.8793302285
 40
0.9425038301
 40
1.0
 40
1.0
 40
1.0
 40
1.0
 10
102.3011962446
 20
190.140230013
 30
0.0
 10
102.6069529958
 20
189.8391977715
 30
0.0
 10
103.0620358771
 20
189.3803865903
 30
0.0
 10
103.6535906834
 20
188.7488148171
 30
0.0
 10
104.0910553377
 20
188.2568922974
 30
0.0
 10
104.5155512749
 20
187.7429231068
 30
0.0
 10
104.8487142484
 20
187.2907237527
 30
0.0
 10
105.0893463669
 20
186.9070382959
 30
0.0
 10
105.2473842729
 20
186.6076181432
 30
0.0
 10
105.3654857377
 20
186.3041232441
 30
0.0
 10
105.4031110716
 20
186.0930302354
 30
0.0
 10
105.4031110716
 20
185.9923397155
 30
0.0
  0
SPLINE
  5
3F3
100
AcDbEntity
  8
0
100
AcDbSpline
 62
7
  6
CONTINUOUS
 70
0
 71
3
 72
18
 73
14
 74
0
 42
0.0000001
 43
0.0000001
 44
0.0000000001
 40
0.0
 40
0.0
 40
0.0
 40
0.0
 40
0.1295224177
 40
0.2569741219
 40
0.3819256571
 40
0.5038732451
 40
0.6223962036
 40
0.680528313
 40
0.7382767078
 40
0.7965501743
 40
0.8572976469
 40
0.9238829062
 40
1.0
 40
1.0
 40
1.0
 40
1.0
 10
103.4568215937
 20
185.2740946536
 30
0.0
 10
103.5567351965
 20
185.2658793515
 30
0.0
 10
103.7552572379
 20
185.2528014891
 30
0.0
 10
104.0508914729
 20
185.2458668601
 30
0.0
 10
104.3407145244
 20
185.2554386502
 30
0.0
 10
104.6220935684
 20
185.2871525346
 30
0.0
 10
104.8481565099
 20
185.3401218525
 30
0.0
 10
105.0171818764
 20
185.4070623709
 30
0.0
 10
105.1354195854
 20
185.4728262185
 30
0.0
 10
105.2423881322
 20
185.5595633979
 30
0.0
 10
105.331506285
 20
185.6742463783
 30
0.0
 10
105.3912805291
 20
185.8221644357
 30
0.0
 10
105.4031110716
 20
185.933424832
 30
0.0
 10
105.4031110716
 20
185.9923397155
 30
0.0
  0
SPLINE
  5
3F4
100
AcDbEntity
  8
0
100
AcDbSpline
 62
7
  6
CONTINUOUS
 70
0
 71
3
 72
18
 73
14
 74
0
 42
0.0000001
 43
0.0000001
 44
0.0000000001
 40
0.0
 40
0.0
 40
0.0
 40
0.0
 40
0.0428487902
 40
0.0874668805
 40
0.1352879169
 40
0.1872385004
 40
0.2437306642
 40
0.3047366468
 40
0.4383695117
 40
0.5826771303
 40
0.7297921214
 40
0.8713447434
 40
1.0
 40
1.0
 40
1.0
 40
1.0
 10
91.4351257929
 20
180.7127552988
 30
0.0
 10
91.3365089172
 20
180.7696877008
 30
0.0
 10
91.1191228937
 20
180.8600292888
 30
0.0
 10
90.7602865719
 20
180.9126068182
 30
0.0
 10
90.3749544587
 20
180.8842463412
 30
0.0
 10
89.9716854133
 20
180.7771029836
 30
0.0
 10
89.5583661059
 20
180.5944397681
 30
0.0
 10
88.987810167
 20
180.2451977783
 30
0.0
 10
88.3080977092
 20
179.6432287783
 30
0.0
 10
87.6096319658
 20
178.7489270559
 30
0.0
 10
87.0593358471
 20
177.7319919209
 30
0.0
 10
86.7024158244
 20
176.6764646237
 30
0.0
 10
86.606746486
 20
175.9575632585
 30
0.0
 10
86.606746486
 20
175.6156611316
 30
0.0
  0
SPLINE
  5
3F5
100
AcDbEntity
  8
0
100
AcDbSpline
 62
7
  6
CONTINUOUS
 70
0
 71
3
 72
9
 73
5
 74
0
 42
0.0000001
 43
0.0000001
 44
0.0000000001
 40
0.0
 40
0.0
 40
0.0
 40
0.0
 40
0.2547243066
 40
1.0
 40
1.0
 40
1.0
 40
1.0
 10
97.9278833695
 20
180.7221099797
 30
0.0
 10
97.9292365268
 20
180.7043123986
 30
0.0
 10
97.9353001528
 20
180.634502684
 30
0.0
 10
97.9444190027
 20
180.564949708
 30
0.0
 10
97.9531003507
 20
180.5134536614
 30
0.0
  0
SPLINE
  5
3F6
100
AcDbEntity
  8
0
100
AcDbSpline
 62
7
  6
CONTINUOUS
 70
0
 71
3
 72
11
 73
7
 74
0
 42
0.0000001
 43
0.0000001
 44
0.0000000001
 40
0.0
 40
0.0
 40
0.0
 40
0.0
 40
0.2765802428
 40
0.5317166743
 40
0.7704016399
 40
1.0
 40
1.0
 40
1.0
 40
1.0
 10
97.9669467403
 20
180.4394791393
 30
0.0
 10
97.9872529755
 20
180.341047803
 30
0.0
 10
98.0405650626
 20
180.154221533
 30
0.0
 10
98.1662484492
 20
179.9020295161
 30
0.0
 10
98.3323943062
 20
179.695451803
 30
0.0
 10
98.4695085043
 20
179.591212971
 30
0.0
 10
98.5417587261
 20
179.5494905307
 30
0.0
  0
SPLINE
  5
3F7
100
AcDbEntity
  8
0
100
AcDbSpline
 62
7
  6
CONTINUOUS
 70
0
 71
3
 72
14
 73
10
 74
0
 42
0.0000001
 43
0.0000001
 44
0.0000000001
 40
0.0
 40
0.0
 40
0.0
 40
0.0
 40
0.2921644645
 40
0.4249366609
 40
0.5494353046
 40
0.6670097899
 40
0.7795847644
 40
0.8896513228
 40
1.0
 40
1.0
 40
1.0
 40
1.0
 10
106.5824416631
 20
185.5155886617
 30
0.0
 10
106.5824416631
 20
185.2390235668
 30
0.0
 10
106.6192774604
 20
184.833889578
 30
0.0
 10
106.7653020054
 20
184.3333155978
 30
0.0
 10
106.913076319
 20
184.0091526383
 30
0.0
 10
107.1009247247
 20
183.7289255842
 30
0.0
 10
107.3270118381
 20
183.4968541531
 30
0.0
 10
107.5881065
 20
183.3167397057
 30
0.0
 10
107.7813930723
 20
183.23406288
 30
0.0
 10
107.8808916185
 20
183.2022622208
 30
0.0
  0
SPLINE
  5
3F8
100
AcDbEntity
  8
0
100
AcDbSpline
 62
7
  6
CONTINUOUS
 70
0
 71
3
 72
18
 73
14
 74
0
 42
0.0000001
 43
0.0000001
 44
0.0000000001
 40
0.0
 40
0.0
 40
0.0
 40
0.0
 40
0.1286550902
 40
0.2702045902
 40
0.4173197676
 40
0.561629525
 40
0.6952654826
 40
0.7562711427
 40
0.8127619086
 40
0.8647130767
 40
0.9125343952
 40
0.9571517344
 40
1.0
 40
1.0
 40
1.0
 40
1.0
 10
102.8701465177
 20
183.3723068539
 30
0.0
 10
102.8701465177
 20
183.0731431589
 30
0.0
 10
102.786441479
 20
182.4441111201
 30
0.0
 10
102.4741249967
 20
181.5205390209
 30
0.0
 10
101.9926436187
 20
180.6307070102
 30
0.0
 10
101.3814517269
 20
179.8482070622
 30
0.0
 10
100.7867227893
 20
179.3214460743
 30
0.0
 10
100.2874720672
 20
179.0158733681
 30
0.0
 10
99.9258125296
 20
178.8560654384
 30
0.0
 10
99.5729623619
 20
178.762292047
 30
0.0
 10
99.2357926162
 20
178.7374628295
 30
0.0
 10
98.9218233195
 20
178.7835102553
 30
0.0
 10
98.7316023529
 20
178.862532699
 30
0.0
 10
98.6453197496
 20
178.9123583308
 30
0.0
  0
SPLINE
  5
3F9
100
AcDbEntity
  8
0
100
AcDbSpline
 62
7
  6
CONTINUOUS
 70
0
 71
3
 72
12
 73
8
 74
0
 42
0.0000001
 43
0.0000001
 44
0.0000000001
 40
0.0
 40
0.0
 40
0.0
 40
0.0
 40
0.2895821567
 40
0.5486359363
 40
0.7816376878
 40
0.8918387163
 40
1.0
 40
1.0
 40
1.0
 40
1.0
 10
81.0913277238
 20
165.6543604061
 30
0.0
 10
81.0913277238
 20
165.4110668468
 30
0.0
 10
81.1281895486
 20
164.9484755825
 30
0.0
 10
81.3152391592
 20
164.3132784251
 30
0.0
 10
81.584010787
 20
163.8749935801
 30
0.0
 10
81.8554836534
 20
163.6080578312
 30
0.0
 10
82.0067729524
 20
163.5024292794
 30
0.0
 10
82.0854709605
 20
163.4569939934
 30
0.0
  0
SPLINE
  5
3FA
100
AcDbEntity
  8
0
100
AcDbSpline
 62
7
  6
CONTINUOUS
 70
0
 71
3
 72
14
 73
10
 74
0
 42
0.0000001
 43
0.0000001
 44
0.0000000001
 40
0.0
 40
0.0
 40
0.0
 40
0.0
 40
0.2921644645
 40
0.4249366609
 40
0.5494353046
 40
0.6670097899
 40
0.7795847644
 40
0.8896513228
 40
1.0
 40
1.0
 40
1.0
 40
1.0
 10
97.0365398607
 20
180.0042925844
 30
0.0
 10
97.0365398607
 20
179.7277274895
 30
0.0
 10
97.073375658
 20
179.3225935007
 30
0.0
 10
97.2194002031
 20
178.8220195205
 30
0.0
 10
97.3671745166
 20
178.4978565611
 30
0.0
 10
97.5550229223
 20
178.2176295069
 30
0.0
 10
97.7811100357
 20
177.9855580759
 30
0.0
 10
98.0422046976
 20
177.8054436284
 30
0.0
 10
98.2354912699
 20
177.7227668027
 30
0.0
 10
98.3349898161
 20
177.6909661435
 30
0.0
  0
SPLINE
  5
3FB
100
AcDbEntity
  8
0
100
AcDbSpline
 62
7
  6
CONTINUOUS
 70
0
 71
3
 72
34
 73
30
 74
0
 42
0.0000001
 43
0.0000001
 44
0.0000000001
 40
0.0
 40
0.0
 40
0.0
 40
0.0
 40
0.0838824857
 40
0.1682020794
 40
0.2530094578
 40
0.338351252
 40
0.424245734
 40
0.5106056672
 40
0.5538500429
 40
0.5969759144
 40
0.6397062925
 40
0.6814812003
 40
0.7211795121
 40
0.7567530885
 40
0.7853979971
 40
0.796473185
 40
0.8053795226
 40
0.8123950779
 40
0.8179907196
 40
0.8227711863
 40
0.8273452804
 40
0.83215739
 40
0.8374385347
 40
0.8496309951
 40
0.863920982
 40
0.8799873531
 40
0.9162616
 40
0.9566462567
 40
1.0
 40
1.0
 40
1.0
 40
1.0
 10
97.1396296188
 20
188.6375035707
 30
0.0
 10
97.2808337305
 20
188.5733120225
 30
0.0
 10
97.5642424751
 20
188.4451754403
 30
0.0
 10
97.9914879991
 20
188.2545292089
 30
0.0
 10
98.4223460543
 20
188.0653747441
 30
0.0
 10
98.857304329
 20
187.8783424231
 30
0.0
 10
99.2967483754
 20
187.694527142
 30
0.0
 10
99.6664412019
 20
187.5457464872
 30
0.0
 10
99.9645270448
 20
187.4310008983
 30
0.0
 10
100.1884161742
 20
187.3481343236
 30
0.0
 10
100.4111226392
 20
187.2699708484
 30
0.0
 10
100.6295648402
 20
187.1989772548
 30
0.0
 10
100.8376130366
 20
187.1389897477
 30
0.0
 10
101.0248422456
 20
187.0955415143
 30
0.0
 10
101.1630979593
 20
187.075530204
 30
0.0
 10
101.2531649555
 20
187.0746852786
 30
0.0
 10
101.3029357446
 20
187.0803925178
 30
0.0
 10
101.3413322863
 20
187.0918735629
 30
0.0
 10
101.3692401205
 20
187.1088082019
 30
0.0
 10
101.3870879786
 20
187.1307073234
 30
0.0
 10
101.395484585
 20
187.1560367444
 30
0.0
 10
101.3962337463
 20
187.1834236059
 30
0.0
 10
101.3887192421
 20
187.2241467754
 30
0.0
 10
101.3654775889
 20
187.2786648412
 30
0.0
 10
101.3245113108
 20
187.3459264786
 30
0.0
 10
101.2511892764
 20
187.4451081837
 30
0.0
 10
101.1373266352
 20
187.5736147854
 30
0.0
 10
100.9807572173
 20
187.7309462009
 30
0.0
 10
100.8674528981
 20
187.8365375443
 30
0.0
 10
100.8081396394
 20
187.8904697374
 30
0.0
  0
SPLINE
  5
3FC
100
AcDbEntity
  8
0
100
AcDbSpline
 62
7
  6
CONTINUOUS
 70
0
 71
3
 72
16
 73
12
 74
0
 42
0.0000001
 43
0.0000001
 44
0.0000000001
 40
0.0
 40
0.0
 40
0.0
 40
0.0
 40
0.2450113438
 40
0.3689267636
 40
0.4940956562
 40
0.6208476679
 40
0.7494898734
 40
0.8144554983
 40
0.8793302285
 40
0.9425038301
 40
1.0
 40
1.0
 40
1.0
 40
1.0
 10
92.7552944422
 20
184.6289339358
 30
0.0
 10
93.0610511935
 20
184.3279016943
 30
0.0
 10
93.5161340747
 20
183.8690905131
 30
0.0
 10
94.107688881
 20
183.2375187398
 30
0.0
 10
94.5451535353
 20
182.7455962202
 30
0.0
 10
94.9696494725
 20
182.2316270295
 30
0.0
 10
95.302812446
 20
181.7794276754
 30
0.0
 10
95.5434445645
 20
181.3957422186
 30
0.0
 10
95.7014824705
 20
181.096322066
 30
0.0
 10
95.8195839353
 20
180.7928271668
 30
0.0
 10
95.8572092692
 20
180.5817341581
 30
0.0
 10
95.8572092692
 20
180.4810436382
 30
0.0
  0
SPLINE
  5
3FD
100
AcDbEntity
  8
0
100
AcDbSpline
 62
7
  6
CONTINUOUS
 70
0
 71
3
 72
26
 73
22
 74
0
 42
0.0000001
 43
0.0000001
 44
0.0000000001
 40
0.0
 40
0.0
 40
0.0
 40
0.0
 40
0.1263424991
 40
0.1900754286
 40
0.2543331486
 40
0.3193079975
 40
0.3853153705
 40
0.4528878535
 40
0.4875412094
 40
0.5228371935
 40
0.5584520379
 40
0.5932971172
 40
0.6262531979
 40
0.6573835621
 40
0.6873245809
 40
0.716572025
 40
0.7739739936
 40
0.8307489773
 40
0.8872599967
 40
0.943654623
 40
1.0
 40
1.0
 40
1.0
 40
1.0
 10
92.7552944422
 20
184.6289339358
 30
0.0
 10
93.1184581589
 20
184.5740152127
 30
0.0
 10
93.6663480466
 20
184.5005384483
 30
0.0
 10
94.4025152657
 20
184.430690528
 30
0.0
 10
94.9625784347
 20
184.3965594275
 30
0.0
 10
95.5304008828
 20
184.387729746
 30
0.0
 10
96.1073327305
 20
184.4161931385
 30
0.0
 10
96.5927234071
 20
184.489153639
 30
0.0
 10
96.9773023657
 20
184.6010818313
 30
0.0
 10
97.2594336557
 20
184.7248763871
 30
0.0
 10
97.5148255255
 20
184.9008257656
 30
0.0
 10
97.7115997166
 20
185.1339977938
 30
0.0
 10
97.8251757838
 20
185.4025082331
 30
0.0
 10
97.8657337576
 20
185.6749397073
 30
0.0
 10
97.8567904943
 20
185.9383498928
 30
0.0
 10
97.8014666496
 20
186.2734054123
 30
0.0
 10
97.6765941047
 20
186.6729903652
 30
0.0
 10
97.4777640585
 20
187.1281276562
 30
0.0
 10
97.2480632492
 20
187.5650347451
 30
0.0
 10
96.997061717
 20
187.9883937349
 30
0.0
 10
96.8192123941
 20
188.2637774309
 30
0.0
 10
96.7283102426
 20
188.4000423801
 30
0.0
  0
SPLINE
  5
3FE
100
AcDbEntity
  8
0
100
AcDbSpline
 62
7
  6
CONTINUOUS
 70
0
 71
3
 72
19
 73
15
 74
0
 42
0.0000001
 43
0.0000001
 44
0.0000000001
 40
0.0
 40
0.0
 40
0.0
 40
0.0
 40
0.1318501306
 40
0.2619737461
 40
0.3899207637
 40
0.5150519871
 40
0.6364689662
 40
0.6954942172
 40
0.7532749965
 40
0.8100292134
 40
0.8669192804
 40
0.8965479413
 40
0.9279892261
 40
1.0
 40
1.0
 40
1.0
 40
1.0
 10
92.7552944422
 20
179.9148550325
 30
0.0
 10
92.906368177
 20
179.889153421
 30
0.0
 10
93.2071461987
 20
179.8415400659
 30
0.0
 10
93.6567528249
 20
179.7840503796
 30
0.0
 10
94.1006159121
 20
179.7451513381
 30
0.0
 10
94.5358975644
 20
179.7315501014
 30
0.0
 10
94.8914441807
 20
179.7503115644
 30
0.0
 10
95.1649918222
 20
179.7951493631
 30
0.0
 10
95.3601550387
 20
179.8481499064
 30
0.0
 10
95.5435405981
 20
179.9284214087
 30
0.0
 10
95.6790586392
 20
180.0294033879
 30
0.0
 10
95.7655321192
 20
180.1367744616
 30
0.0
 10
95.8379612982
 20
180.2745093408
 30
0.0
 10
95.8572092692
 20
180.3973482502
 30
0.0
 10
95.8572092692
 20
180.4810436382
 30
0.0
  0
SPLINE
  5
3FF
100
AcDbEntity
  8
0
100
AcDbSpline
 62
7
  6
CONTINUOUS
 70
0
 71
3
 72
11
 73
7
 74
0
 42
0.0000001
 43
0.0000001
 44
0.0000000001
 40
0.0
 40
0.0
 40
0.0
 40
0.0
 40
0.22364517
 40
0.4615142525
 40
0.719615073
 40
1.0
 40
1.0
 40
1.0
 40
1.0
 10
27.3966366014
 20
142.4035949606
 30
0.0
 10
27.2824971308
 20
142.4694926179
 30
0.0
 10
27.0670885267
 20
142.642874973
 30
0.0
 10
26.8189879103
 20
142.9920943862
 30
0.0
 10
26.6456094364
 20
143.4191788642
 30
0.0
 10
26.5855807002
 20
143.7328225331
 30
0.0
 10
26.5676069212
 20
143.8970759101
 30
0.0
  0
SPLINE
  5
400
100
AcDbEntity
  8
0
100
AcDbSpline
 62
7
  6
CONTINUOUS
 70
0
 71
3
 72
11
 73
7
 74
0
 42
0.0000001
 43
0.0000001
 44
0.0000000001
 40
0.0
 40
0.0
 40
0.0
 40
0.0
 40
0.2368169205
 40
0.4825917025
 40
0.7371052518
 40
1.0
 40
1.0
 40
1.0
 40
1.0
 10
26.8646379734
 20
211.6585899369
 30
0.0
 10
26.1444209703
 20
206.3457890825
 30
0.0
 10
25.0633738799
 20
195.4638594732
 30
0.0
 10
24.4947520561
 20
178.7756058189
 30
0.0
 10
24.9502863087
 20
161.4939868184
 30
0.0
 10
25.9201849944
 20
149.8135410887
 30
0.0
 10
26.5676069212
 20
143.8970759101
 30
0.0
  0
SPLINE
  5
401
100
AcDbEntity
  8
0
100
AcDbSpline
 62
7
  6
CONTINUOUS
 70
0
 71
3
 72
9
 73
5
 74
0
 42
0.0000001
 43
0.0000001
 44
0.0000000001
 40
0.0
 40
0.0
 40
0.0
 40
0.0
 40
0.2603782916
 40
1.0
 40
1.0
 40
1.0
 40
1.0
 10
30.1397486685
 20
141.0665006126
 30
0.0
 10
30.1553819861
 20
141.0335294067
 30
0.0
 10
30.2201540877
 20
140.9092570669
 30
0.0
 10
30.3053581509
 20
140.7951883096
 30
0.0
 10
30.3788141783
 20
140.7220593313
 30
0.0
  0
SPLINE
  5
402
100
AcDbEntity
  8
0
100
AcDbSpline
 62
7
  6
CONTINUOUS
 70
0
 71
3
 72
9
 73
5
 74
0
 42
0.0000001
 43
0.0000001
 44
0.0000000001
 40
0.0
 40
0.0
 40
0.0
 40
0.0
 40
0.2527452273
 40
1.0
 40
1.0
 40
1.0
 40
1.0
 10
30.3788141783
 20
140.7220593313
 30
0.0
 10
30.3946351606
 20
140.7063087889
 30
0.0
 10
30.4591555538
 20
140.6459567069
 30
0.0
 10
30.5315097625
 20
140.5939552809
 30
0.0
 10
30.5886708459
 20
140.5609540576
 30
0.0
  0
SPLINE
  5
403
100
AcDbEntity
  8
0
100
AcDbSpline
 62
7
  6
CONTINUOUS
 70
0
 71
3
 72
13
 73
9
 74
0
 42
0.0000001
 43
0.0000001
 44
0.0000000001
 40
0.0
 40
0.0
 40
0.0
 40
0.0
 40
0.1142466307
 40
0.237544229
 40
0.5000005226
 40
0.7624565301
 40
0.8857537943
 40
1.0
 40
1.0
 40
1.0
 40
1.0
 10
113.9009133869
 20
211.4597223713
 30
0.0
 10
113.7557044253
 20
211.5435569077
 30
0.0
 10
113.4381239226
 20
211.6914505491
 30
0.0
 10
112.7342928299
 20
211.9052120559
 30
0.0
 10
111.7795897201
 20
212.0090535385
 30
0.0
 10
110.8248875283
 20
211.9052076417
 30
0.0
 10
110.1210590732
 20
211.6914426727
 30
0.0
 10
109.8034805165
 20
211.5435474449
 30
0.0
 10
109.6582726998
 20
211.4597121732
 30
0.0
  0
SPLINE
  5
404
100
AcDbEntity
  8
0
100
AcDbSpline
 62
7
  6
CONTINUOUS
 70
0
 71
3
 72
14
 73
10
 74
0
 42
0.0000001
 43
0.0000001
 44
0.0000000001
 40
0.0
 40
0.0
 40
0.0
 40
0.0
 40
0.0957392945
 40
0.1960578689
 40
0.30454131
 40
0.4233191735
 40
0.553123256
 40
0.6935421622
 40
1.0
 40
1.0
 40
1.0
 40
1.0
 10
73.6359119304
 20
236.4443238027
 30
0.0
 10
73.6359109881
 20
236.5674102718
 30
0.0
 10
73.6000956775
 20
236.8206954902
 30
0.0
 10
73.4434174774
 20
237.1837433722
 30
0.0
 10
73.1905301591
 20
237.5244876271
 30
0.0
 10
72.8497233536
 20
237.8354649154
 30
0.0
 10
72.4298157668
 20
238.1104974191
 30
0.0
 10
71.7590750875
 20
238.4300985729
 30
0.0
 10
71.1991823591
 20
238.5829149048
 30
0.0
 10
70.8112452863
 20
238.6517405447
 30
0.0
  0
SPLINE
  5
405
100
AcDbEntity
  8
0
100
AcDbSpline
 62
7
  6
CONTINUOUS
 70
0
 71
3
 72
11
 73
7
 74
0
 42
0.0000001
 43
0.0000001
 44
0.0000000001
 40
0.0
 40
0.0
 40
0.0
 40
0.0
 40
0.260153143
 40
0.5216020698
 40
0.7717920974
 40
1.0
 40
1.0
 40
1.0
 40
1.0
 10
70.8112452863
 20
238.6517405447
 30
0.0
 10
70.4598034946
 20
238.7140913946
 30
0.0
 10
69.7437001397
 20
238.7804110141
 30
0.0
 10
68.6826691756
 20
238.7153660583
 30
0.0
 10
67.6878725557
 20
238.4928487175
 30
0.0
 10
67.0786543696
 20
238.2338366531
 30
0.0
 10
66.8075004878
 20
238.077286821
 30
0.0
  0
SPLINE
  5
406
100
AcDbEntity
  8
0
100
AcDbSpline
 62
7
  6
CONTINUOUS
 70
0
 71
3
 72
13
 73
9
 74
0
 42
0.0000001
 43
0.0000001
 44
0.0000000001
 40
0.0
 40
0.0
 40
0.0
 40
0.0
 40
0.1142483233
 40
0.2375469957
 40
0.4999994774
 40
0.7624522452
 40
0.8857512516
 40
1.0
 40
1.0
 40
1.0
 40
1.0
 10
78.4043213665
 20
184.3522575487
 30
0.0
 10
78.2591109416
 20
184.2684207713
 30
0.0
 10
77.9415265114
 20
184.1205260728
 30
0.0
 10
77.237697728
 20
183.9067639703
 30
0.0
 10
76.2830043462
 20
183.8029230289
 30
0.0
 10
75.3283100463
 20
183.9067595561
 30
0.0
 10
74.6244786254
 20
184.1205181964
 30
0.0
 10
74.3068922492
 20
184.2684113084
 30
0.0
 10
74.1616806794
 20
184.3522473507
 30
0.0
  0
SPLINE
  5
407
100
AcDbEntity
  8
0
100
AcDbSpline
 62
7
  6
CONTINUOUS
 70
0
 71
3
 72
11
 73
7
 74
0
 42
0.0000001
 43
0.0000001
 44
0.0000000001
 40
0.0
 40
0.0
 40
0.0
 40
0.0
 40
0.2897781767
 40
0.5490726313
 40
0.7822276909
 40
1.0
 40
1.0
 40
1.0
 40
1.0
 10
109.6582903636
 20
210.153360832
 30
0.0
 10
109.5266180027
 20
210.2293801853
 30
0.0
 10
109.2877624859
 20
210.3938252851
 30
0.0
 10
109.0023911278
 20
210.6938568639
 30
0.0
 10
108.8218216139
 20
211.0256480568
 30
0.0
 10
108.7796239291
 20
211.2638321635
 30
0.0
 10
108.7796239276
 20
211.3780932936
 30
0.0
  0
SPLINE
  5
408
100
AcDbEntity
  8
0
100
AcDbSpline
 62
7
  6
CONTINUOUS
 70
0
 71
3
 72
15
 73
11
 74
0
 42
0.0000001
 43
0.0000001
 44
0.0000000001
 40
0.0
 40
0.0
 40
0.0
 40
0.0
 40
0.0933564697
 40
0.192039241
 40
0.3000218815
 40
0.4193885318
 40
0.5505041666
 40
0.6923753351
 40
0.8430958291
 40
1.0
 40
1.0
 40
1.0
 40
1.0
 10
76.3859279193
 20
234.8113189717
 30
0.0
 10
76.3859348886
 20
235.0398283001
 30
0.0
 10
76.3120295883
 20
235.5125529191
 30
0.0
 10
75.9914378427
 20
236.1826121202
 30
0.0
 10
75.4783620276
 20
236.8024506472
 30
0.0
 10
74.79214139
 20
237.3567246912
 30
0.0
 10
73.9537034996
 20
237.8322817922
 30
0.0
 10
72.9874179272
 20
238.2166856299
 30
0.0
 10
71.9216781233
 20
238.4989786828
 30
0.0
 10
71.1756260581
 20
238.612243158
 30
0.0
 10
70.7934953921
 20
238.650646154
 30
0.0
  0
SPLINE
  5
409
100
AcDbEntity
  8
0
100
AcDbSpline
 62
7
  6
CONTINUOUS
 70
0
 71
3
 72
10
 73
6
 74
0
 42
0.0000001
 43
0.0000001
 44
0.0000000001
 40
0.0
 40
0.0
 40
0.0
 40
0.0
 40
0.2380982603
 40
0.4814216677
 40
1.0
 40
1.0
 40
1.0
 40
1.0
 10
77.1359191321
 20
229.5040532403
 30
0.0
 10
77.1359045321
 20
229.6575884572
 30
0.0
 10
77.1069329032
 20
229.9688203134
 30
0.0
 10
76.9318718237
 20
230.592201252
 30
0.0
 10
76.6763810463
 20
231.0241497597
 30
0.0
 10
76.4702427228
 20
231.2874562203
 30
0.0
  0
SPLINE
  5
40A
100
AcDbEntity
  8
0
100
AcDbSpline
 62
7
  6
CONTINUOUS
 70
0
 71
3
 72
18
 73
14
 74
0
 42
0.0000001
 43
0.0000001
 44
0.0000000001
 40
0.0
 40
0.0
 40
0.0
 40
0.0
 40
0.0428473854
 40
0.0874642904
 40
0.1352855905
 40
0.1872370585
 40
0.2437280374
 40
0.3047335978
 40
0.4383684003
 40
0.5826764803
 40
0.7297923549
 40
0.8713437444
 40
1.0
 40
1.0
 40
1.0
 40
1.0
 10
57.9154292413
 20
229.0959713629
 30
0.0
 10
57.9154443855
 20
229.2454223808
 30
0.0
 10
57.8754318834
 20
229.5517901823
 30
0.0
 10
57.6997732288
 20
229.9941804079
 30
0.0
 10
57.4146435111
 20
230.4135575211
 30
0.0
 10
57.0281846605
 20
230.801592645
 30
0.0
 10
56.5493388651
 20
231.1515452249
 30
0.0
 10
55.7779504176
 20
231.5709100001
 30
0.0
 10
54.6476271257
 20
231.9484107918
 30
0.0
 10
53.1727405018
 20
232.1555074933
 30
0.0
 10
51.6556956687
 20
232.1136033735
 30
0.0
 10
50.221682502
 20
231.8266479102
 30
0.0
 10
49.3417516133
 20
231.4636098349
 30
0.0
 10
48.9531212382
 20
231.2392353226
 30
0.0
  0
SPLINE
  5
40B
100
AcDbEntity
  8
0
100
AcDbSpline
 62
7
  6
CONTINUOUS
 70
0
 71
3
 72
11
 73
7
 74
0
 42
0.0000001
 43
0.0000001
 44
0.0000000001
 40
0.0
 40
0.0
 40
0.0
 40
0.0
 40
0.2208679447
 40
0.4553888858
 40
0.7134828703
 40
1.0
 40
1.0
 40
1.0
 40
1.0
 10
58.6654260821
 20
228.2794689444
 30
0.0
 10
58.6654476103
 20
228.4916227333
 30
0.0
 10
58.5933851891
 20
228.9316931083
 30
0.0
 10
58.2822841774
 20
229.5517969678
 30
0.0
 10
57.7867122646
 20
230.120940367
 30
0.0
 10
57.3680415397
 20
230.4401331143
 30
0.0
 10
57.1367788628
 20
230.5893299077
 30
0.0
  0
SPLINE
  5
40C
100
AcDbEntity
  8
0
100
AcDbSpline
 62
7
  6
CONTINUOUS
 70
0
 71
3
 72
11
 73
7
 74
0
 42
0.0000001
 43
0.0000001
 44
0.0000000001
 40
0.0
 40
0.0
 40
0.0
 40
0.0
 40
0.2272379022
 40
0.4647383973
 40
0.7206518845
 40
1.0
 40
1.0
 40
1.0
 40
1.0
 10
60.1654394336
 20
220.1144447678
 30
0.0
 10
60.1654342876
 20
220.3383660253
 30
0.0
 10
60.1023822699
 20
220.7984313355
 30
0.0
 10
59.8259446488
 20
221.4598620667
 30
0.0
 10
59.3790610613
 20
222.0830851461
 30
0.0
 10
58.993945846
 20
222.447947434
 30
0.0
 10
58.7803440065
 20
222.6215801537
 30
0.0
  0
SPLINE
  5
40D
100
AcDbEntity
  8
0
100
AcDbSpline
 62
7
  6
CONTINUOUS
 70
0
 71
3
 72
11
 73
7
 74
0
 42
0.0000001
 43
0.0000001
 44
0.0000000001
 40
0.0
 40
0.0
 40
0.0
 40
0.0
 40
0.2897733512
 40
0.5490657165
 40
0.7822241652
 40
1.0
 40
1.0
 40
1.0
 40
1.0
 10
74.1616600717
 20
190.9658556489
 30
0.0
 10
74.029991713
 20
190.8898373403
 30
0.0
 10
73.7911410976
 20
190.7253965712
 30
0.0
 10
73.5057739845
 20
190.4253693307
 30
0.0
 10
73.3252014039
 20
190.0935809808
 30
0.0
 10
73.2830032607
 20
189.8553952707
 30
0.0
 10
73.2830032622
 20
189.7411333853
 30
0.0
  0
SPLINE
  5
40E
100
AcDbEntity
  8
0
100
AcDbSpline
 62
7
  6
CONTINUOUS
 70
0
 71
3
 72
11
 73
7
 74
0
 42
0.0000001
 43
0.0000001
 44
0.0000000001
 40
0.0
 40
0.0
 40
0.0
 40
0.0
 40
0.2897733512
 40
0.5490657165
 40
0.7822241652
 40
1.0
 40
1.0
 40
1.0
 40
1.0
 10
32.442186288
 20
215.0520601655
 30
0.0
 10
32.3105179293
 20
214.976041857
 30
0.0
 10
32.071667314
 20
214.8116010879
 30
0.0
 10
31.7863002008
 20
214.5115738474
 30
0.0
 10
31.6057276203
 20
214.1797854975
 30
0.0
 10
31.563529477
 20
213.9415997874
 30
0.0
 10
31.5635294785
 20
213.827337902
 30
0.0
  0
SPLINE
  5
40F
100
AcDbEntity
  8
0
100
AcDbSpline
 62
7
  6
CONTINUOUS
 70
0
 71
3
 72
11
 73
7
 74
0
 42
0.0000001
 43
0.0000001
 44
0.0000000001
 40
0.0
 40
0.0
 40
0.0
 40
0.0
 40
0.2177753738
 40
0.4509336309
 40
0.7102261693
 40
1.0
 40
1.0
 40
1.0
 40
1.0
 10
107.8599760522
 20
215.7871540432
 30
0.0
 10
107.8599760502
 20
215.9395048638
 30
0.0
 10
107.8037105746
 20
216.2570894749
 30
0.0
 10
107.5629419254
 20
216.6994782247
 30
0.0
 10
107.1824447134
 20
217.0995175106
 30
0.0
 10
106.8639711824
 20
217.3187727065
 30
0.0
 10
106.6884100878
 20
217.4201306586
 30
0.0
  0
SPLINE
  5
410
100
AcDbEntity
  8
0
100
AcDbSpline
 62
7
  6
CONTINUOUS
 70
0
 71
3
 72
11
 73
7
 74
0
 42
0.0000001
 43
0.0000001
 44
0.0000000001
 40
0.0
 40
0.0
 40
0.0
 40
0.0
 40
0.2242718271
 40
0.4624182716
 40
0.7198934372
 40
1.0
 40
1.0
 40
1.0
 40
1.0
 10
87.6920387246
 20
212.9279105561
 30
0.0
 10
87.6746166181
 20
213.042098836
 30
0.0
 10
87.6080103512
 20
213.2736471179
 30
0.0
 10
87.425426988
 20
213.5994502041
 30
0.0
 10
87.1636565136
 20
213.904189186
 30
0.0
 10
86.9497699543
 20
214.081978501
 30
0.0
 10
86.8328516455
 20
214.1664952547
 30
0.0
  0
SPLINE
  5
411
100
AcDbEntity
  8
0
100
AcDbSpline
 62
7
  6
CONTINUOUS
 70
0
 71
3
 72
11
 73
7
 74
0
 42
0.0000001
 43
0.0000001
 44
0.0000000001
 40
0.0
 40
0.0
 40
0.0
 40
0.0
 40
0.2177845113
 40
0.450917848
 40
0.7103083905
 40
1.0
 40
1.0
 40
1.0
 40
1.0
 10
82.0004501429
 20
205.6861509996
 30
0.0
 10
82.0664267194
 20
205.6480722924
 30
0.0
 10
82.2179996574
 20
205.5930491575
 30
0.0
 10
82.469777149
 20
205.5866819854
 30
0.0
 10
82.7381016709
 20
205.6514844947
 30
0.0
 10
82.9126754658
 20
205.7345348008
 30
0.0
 10
83.0004285972
 20
205.7851987924
 30
0.0
  0
SPLINE
  5
412
100
AcDbEntity
  8
0
100
AcDbSpline
 62
7
  6
CONTINUOUS
 70
0
 71
3
 72
17
 73
13
 74
0
 42
0.0000001
 43
0.0000001
 44
0.0000000001
 40
0.0
 40
0.0
 40
0.0
 40
0.0
 40
0.0428590382
 40
0.0874850278
 40
0.1353193459
 40
0.1872814037
 40
0.3045420728
 40
0.4382079173
 40
0.5825499624
 40
0.7297142529
 40
0.8713069433
 40
1.0
 40
1.0
 40
1.0
 40
1.0
 10
81.6468941077
 20
205.8902693078
 30
0.0
 10
81.5975851558
 20
205.918732218
 30
0.0
 10
81.5041449486
 20
205.9903006091
 30
0.0
 10
81.3916389892
 20
206.1324993282
 30
0.0
 10
81.3075964142
 20
206.3064551228
 30
0.0
 10
81.232103339
 20
206.5861253297
 30
0.0
 10
81.2226360506
 20
206.993893192
 30
0.0
 10
81.3281858431
 20
207.5113911001
 30
0.0
 10
81.5408447098
 20
208.0377670794
 30
0.0
 10
81.8436170198
 20
208.5301990785
 30
0.0
 10
82.2114298469
 20
208.9487047917
 30
0.0
 10
82.4988205827
 20
209.1698508213
 30
0.0
 10
82.6468737346
 20
209.2553288382
 30
0.0
  0
SPLINE
  5
413
100
AcDbEntity
  8
0
100
AcDbSpline
 62
7
  6
CONTINUOUS
 70
0
 71
3
 72
17
 73
13
 74
0
 42
0.0000001
 43
0.0000001
 44
0.0000000001
 40
0.0
 40
0.0
 40
0.0
 40
0.0
 40
0.12868996
 40
0.2702722062
 40
0.4174312903
 40
0.5617781732
 40
0.6954492761
 40
0.8127130379
 40
0.8646790319
 40
0.9125109796
 40
0.9571404657
 40
1.0
 40
1.0
 40
1.0
 40
1.0
 10
68.8582870856
 20
205.4585463233
 30
0.0
 10
68.6362129376
 20
205.5867579919
 30
0.0
 10
68.1334198763
 20
205.7942153756
 30
0.0
 10
67.3139497136
 20
205.9581405729
 30
0.0
 10
66.4472094688
 20
205.9821537625
 30
0.0
 10
65.6039258327
 20
205.8636681804
 30
0.0
 10
64.8524664678
 20
205.6126864504
 30
0.0
 10
64.3298858546
 20
205.2945156544
 30
0.0
 10
64.0231212572
 20
204.9867510364
 30
0.0
 10
63.8602598663
 20
204.747054563
 30
0.0
 10
63.7597936367
 20
204.4942956935
 30
0.0
 10
63.7370021806
 20
204.3192157922
 30
0.0
 10
63.7369871191
 20
204.233813861
 30
0.0
  0
SPLINE
  5
414
100
AcDbEntity
  8
0
100
AcDbSpline
 62
7
  6
CONTINUOUS
 70
0
 71
3
 72
11
 73
7
 74
0
 42
0.0000001
 43
0.0000001
 44
0.0000000001
 40
0.0
 40
0.0
 40
0.0
 40
0.0
 40
0.217780861
 40
0.4509234132
 40
0.7102539949
 40
1.0
 40
1.0
 40
1.0
 40
1.0
 10
69.7369640289
 20
204.2338138624
 30
0.0
 10
69.7369841808
 20
204.3480793837
 30
0.0
 10
69.6947303489
 20
204.5862555586
 30
0.0
 10
69.5141908544
 20
204.9180725734
 30
0.0
 10
69.228786875
 20
205.2180749314
 30
0.0
 10
68.9899447198
 20
205.3825354724
 30
0.0
 10
68.8582870856
 20
205.4585463233
 30
0.0
  0
SPLINE
  5
415
100
AcDbEntity
  8
0
100
AcDbSpline
 62
7
  6
CONTINUOUS
 70
0
 71
3
 72
11
 73
7
 74
0
 42
0.0000001
 43
0.0000001
 44
0.0000000001
 40
0.0
 40
0.0
 40
0.0
 40
0.0
 40
0.2897011399
 40
0.5490888176
 40
0.7822183492
 40
1.0
 40
1.0
 40
1.0
 40
1.0
 10
82.6468737346
 20
209.2553288382
 30
0.0
 10
82.7346298281
 20
209.3059945399
 30
0.0
 10
82.9092057742
 20
209.3890455941
 30
0.0
 10
83.1775325599
 20
209.4538486798
 30
0.0
 10
83.4293047588
 20
209.4474744329
 30
0.0
 10
83.580879915
 20
209.3924609592
 30
0.0
 10
83.6468533615
 20
209.3543787
 30
0.0
  0
SPLINE
  5
416
100
AcDbEntity
  8
0
100
AcDbSpline
 62
7
  6
CONTINUOUS
 70
0
 71
3
 72
17
 73
13
 74
0
 42
0.0000001
 43
0.0000001
 44
0.0000000001
 40
0.0
 40
0.0
 40
0.0
 40
0.0
 40
0.1286920618
 40
0.2702783064
 40
0.4174365418
 40
0.5617781925
 40
0.6954479477
 40
0.8127116203
 40
0.8646743896
 40
0.9125102982
 40
0.9571382578
 40
1.0
 40
1.0
 40
1.0
 40
1.0
 10
83.0004285972
 20
205.7851987924
 30
0.0
 10
83.1484805887
 20
205.8706761393
 30
0.0
 10
83.4358639133
 20
206.0918153359
 30
0.0
 10
83.8036666367
 20
206.5103055826
 30
0.0
 10
84.1064363268
 20
207.0027184798
 30
0.0
 10
84.3191027073
 20
207.5290881304
 30
0.0
 10
84.4246621472
 20
208.0465915892
 30
0.0
 10
84.4152088877
 20
208.4543719861
 30
0.0
 10
84.3397098002
 20
208.7340468361
 30
0.0
 10
84.2556770724
 20
208.9080143856
 30
0.0
 10
84.1431612322
 20
209.0502154432
 30
0.0
 10
84.0497208431
 20
209.1217945551
 30
0.0
 10
84.0004070515
 20
209.1502562537
 30
0.0
  0
SPLINE
  5
417
100
AcDbEntity
  8
0
100
AcDbSpline
 62
7
  6
CONTINUOUS
 70
0
 71
3
 72
11
 73
7
 74
0
 42
0.0000001
 43
0.0000001
 44
0.0000000001
 40
0.0
 40
0.0
 40
0.0
 40
0.0
 40
0.2897733512
 40
0.5490657165
 40
0.7822241652
 40
1.0
 40
1.0
 40
1.0
 40
1.0
 10
101.0315558384
 20
217.4201170612
 30
0.0
 10
100.8559980268
 20
217.3187593165
 30
0.0
 10
100.5375305396
 20
217.0995049577
 30
0.0
 10
100.1570410554
 20
216.699468637
 30
0.0
 10
99.9162776147
 20
216.2570841705
 30
0.0
 10
99.8600134237
 20
215.9395032237
 30
0.0
 10
99.8600134257
 20
215.7871540432
 30
0.0
  0
SPLINE
  5
418
100
AcDbEntity
  8
0
100
AcDbSpline
 62
7
  6
CONTINUOUS
 70
0
 71
3
 72
15
 73
11
 74
0
 42
0.0000001
 43
0.0000001
 44
0.0000000001
 40
0.0
 40
0.0
 40
0.0
 40
0.0
 40
0.1141447985
 40
0.2373324971
 40
0.3669747555
 40
0.5000005214
 40
0.6330262147
 40
0.7626682613
 40
0.8858556261
 40
1.0
 40
1.0
 40
1.0
 40
1.0
 10
106.6884100878
 20
217.4201306586
 30
0.0
 10
106.4947981391
 20
217.5319100406
 30
0.0
 10
106.0713760729
 20
217.7290548506
 30
0.0
 10
105.3819028149
 20
217.9386562539
 30
0.0
 10
104.6353960712
 20
218.067599441
 30
0.0
 10
103.8599781931
 20
218.1111544012
 30
0.0
 10
103.0845609349
 20
218.0675957607
 30
0.0
 10
102.3380560225
 20
217.9386490291
 30
0.0
 10
101.6485857328
 20
217.7290443483
 30
0.0
 10
101.2251662607
 20
217.5318974234
 30
0.0
 10
101.0315558384
 20
217.4201170612
 30
0.0
  0
SPLINE
  5
419
100
AcDbEntity
  8
0
100
AcDbSpline
 62
7
  6
CONTINUOUS
 70
0
 71
3
 72
11
 73
7
 74
0
 42
0.0000001
 43
0.0000001
 44
0.0000000001
 40
0.0
 40
0.0
 40
0.0
 40
0.0
 40
0.2191895662
 40
0.4529220188
 40
0.7116628037
 40
1.0
 40
1.0
 40
1.0
 40
1.0
 10
86.707456122
 20
214.0316735553
 30
0.0
 10
86.7074756049
 20
214.1421459356
 30
0.0
 10
86.6681532629
 20
214.3718784029
 30
0.0
 10
86.4994540402
 20
214.6936954643
 30
0.0
 10
86.2317122633
 20
214.9867611223
 30
0.0
 10
86.0066360096
 20
215.1491099859
 30
0.0
 10
85.8824600908
 20
215.2246025741
 30
0.0
  0
SPLINE
  5
41A
100
AcDbEntity
  8
0
100
AcDbSpline
 62
7
  6
CONTINUOUS
 70
0
 71
3
 72
11
 73
7
 74
0
 42
0.0000001
 43
0.0000001
 44
0.0000000001
 40
0.0
 40
0.0
 40
0.0
 40
0.0
 40
0.2177796629
 40
0.4509238111
 40
0.7102593659
 40
1.0
 40
1.0
 40
1.0
 40
1.0
 10
37.5634975925
 20
214.97044129
 30
0.0
 10
37.5635177599
 20
214.8561782075
 30
0.0
 10
37.5212621815
 20
214.618006601
 30
0.0
 10
37.3407329133
 20
214.286188013
 30
0.0
 10
37.0553326575
 20
213.9861893709
 30
0.0
 10
36.8164971986
 20
213.8217282095
 30
0.0
 10
36.6848446389
 20
213.7457190224
 30
0.0
  0
SPLINE
  5
41B
100
AcDbEntity
  8
0
100
AcDbSpline
 62
7
  6
CONTINUOUS
 70
0
 71
3
 72
9
 73
5
 74
0
 42
0.0000001
 43
0.0000001
 44
0.0000000001
 40
0.0
 40
0.0
 40
0.0
 40
0.0
 40
0.2444296014
 40
1.0
 40
1.0
 40
1.0
 40
1.0
 10
62.4869379627
 20
218.7509424178
 30
0.0
 10
62.4640391812
 20
218.8199702645
 30
0.0
 10
62.3620405133
 20
219.099583458
 30
0.0
 10
62.2275146898
 20
219.3670312378
 30
0.0
 10
62.1116016641
 20
219.5596547128
 30
0.0
  0
SPLINE
  5
41C
100
AcDbEntity
  8
0
100
AcDbSpline
 62
7
  6
CONTINUOUS
 70
0
 71
3
 72
11
 73
7
 74
0
 42
0.0000001
 43
0.0000001
 44
0.0000000001
 40
0.0
 40
0.0
 40
0.0
 40
0.0
 40
0.2793877914
 40
0.5352676595
 40
0.7727688331
 40
1.0
 40
1.0
 40
1.0
 40
1.0
 10
46.5502802249
 20
222.6213556052
 30
0.0
 10
46.3366698064
 20
222.4477220897
 30
0.0
 10
45.9515936667
 20
222.0828876811
 30
0.0
 10
45.504872699
 20
221.4596545222
 30
0.0
 10
45.2284766347
 20
220.7983449645
 30
0.0
 10
45.1654500118
 20
220.3383334231
 30
0.0
 10
45.165455157
 20
220.1144447782
 30
0.0
  0
SPLINE
  5
41D
100
AcDbEntity
  8
0
100
AcDbSpline
 62
7
  6
CONTINUOUS
 70
0
 71
3
 72
11
 73
7
 74
0
 42
0.0000001
 43
0.0000001
 44
0.0000000001
 40
0.0
 40
0.0
 40
0.0
 40
0.0
 40
0.2846861367
 40
0.5420911666
 40
0.7773862295
 40
1.0
 40
1.0
 40
1.0
 40
1.0
 10
48.0708010384
 20
230.5071772042
 30
0.0
 10
47.8569972492
 20
230.3601652693
 30
0.0
 10
47.4703396435
 20
230.0476435755
 30
0.0
 10
47.0153537606
 20
229.4970772817
 30
0.0
 10
46.7309581796
 20
228.9020799765
 30
0.0
 10
46.6654890971
 20
228.4823644821
 30
0.0
 10
46.6654685084
 20
228.2794689442
 30
0.0
  0
SPLINE
  5
41E
100
AcDbEntity
  8
0
100
AcDbSpline
 62
7
  6
CONTINUOUS
 70
0
 71
3
 72
9
 73
5
 74
0
 42
0.0000001
 43
0.0000001
 44
0.0000000001
 40
0.0
 40
0.0
 40
0.0
 40
0.0
 40
0.2588906838
 40
1.0
 40
1.0
 40
1.0
 40
1.0
 10
48.9531212382
 20
231.2392353226
 30
0.0
 10
48.8981656066
 20
231.2075068633
 30
0.0
 10
48.6883093146
 20
231.0808615029
 30
0.0
 10
48.4883322008
 20
230.9374667319
 30
0.0
 10
48.3488086109
 20
230.821141247
 30
0.0
  0
SPLINE
  5
41F
100
AcDbEntity
  8
0
100
AcDbSpline
 62
7
  6
CONTINUOUS
 70
0
 71
3
 72
11
 73
7
 74
0
 42
0.0000001
 43
0.0000001
 44
0.0000000001
 40
0.0
 40
0.0
 40
0.0
 40
0.0
 40
0.2766006214
 40
0.5317424179
 40
0.7704184616
 40
1.0
 40
1.0
 40
1.0
 40
1.0
 10
48.2621906015
 20
230.7465862117
 30
0.0
 10
48.1306553191
 20
230.6296519822
 30
0.0
 10
47.8939289472
 20
230.3853062133
 30
0.0
 10
47.6214100574
 20
229.9739873989
 30
0.0
 10
47.4535278422
 20
229.5412214529
 30
0.0
 10
47.4154801518
 20
229.2420512653
 30
0.0
 10
47.4154653492
 20
229.0959713599
 30
0.0
  0
SPLINE
  5
420
100
AcDbEntity
  8
0
100
AcDbSpline
 62
7
  6
CONTINUOUS
 70
0
 71
3
 72
11
 73
7
 74
0
 42
0.0000001
 43
0.0000001
 44
0.0000000001
 40
0.0
 40
0.0
 40
0.0
 40
0.0
 40
0.2228964003
 40
0.4583021121
 40
0.7156030448
 40
1.0
 40
1.0
 40
1.0
 40
1.0
 10
115.4866866041
 20
208.9285877419
 30
0.0
 10
115.4866866028
 20
209.0292926946
 30
0.0
 10
115.454422037
 20
209.2375098739
 30
0.0
 10
115.3143670208
 20
209.5329890324
 30
0.0
 10
115.0900519615
 20
209.8067358751
 30
0.0
 10
114.8992472028
 20
209.9624247581
 30
0.0
 10
114.7937226026
 20
210.0357357155
 30
0.0
  0
SPLINE
  5
421
100
AcDbEntity
  8
0
100
AcDbSpline
 62
7
  6
CONTINUOUS
 70
0
 71
3
 72
11
 73
7
 74
0
 42
0.0000001
 43
0.0000001
 44
0.0000000001
 40
0.0
 40
0.0
 40
0.0
 40
0.0
 40
0.2219807049
 40
0.4569660397
 40
0.714599061
 40
1.0
 40
1.0
 40
1.0
 40
1.0
 10
115.4866866041
 20
206.4790804905
 30
0.0
 10
115.4866866054
 20
206.3759915624
 30
0.0
 10
115.4527849785
 20
206.1625461259
 30
0.0
 10
115.3059672617
 20
205.8605684846
 30
0.0
 10
115.0713419483
 20
205.5819124213
 30
0.0
 10
114.8723352791
 20
205.4244374043
 30
0.0
 10
114.762342013
 20
205.350486366
 30
0.0
  0
SPLINE
  5
422
100
AcDbEntity
  8
0
100
AcDbSpline
 62
7
  6
CONTINUOUS
 70
0
 71
3
 72
9
 73
5
 74
0
 42
0.0000001
 43
0.0000001
 44
0.0000000001
 40
0.0
 40
0.0
 40
0.0
 40
0.0
 40
0.2444296014
 40
1.0
 40
1.0
 40
1.0
 40
1.0
 10
79.4574300558
 20
228.5488021107
 30
0.0
 10
79.4345312743
 20
228.6178299574
 30
0.0
 10
79.3325326064
 20
228.8974431509
 30
0.0
 10
79.198006783
 20
229.1648909308
 30
0.0
 10
79.0820937572
 20
229.3575144057
 30
0.0
  0
SPLINE
  5
423
100
AcDbEntity
  8
0
100
AcDbSpline
 62
7
  6
CONTINUOUS
 70
0
 71
3
 72
11
 73
7
 74
0
 42
0.0000001
 43
0.0000001
 44
0.0000000001
 40
0.0
 40
0.0
 40
0.0
 40
0.0
 40
0.2177753738
 40
0.4509336309
 40
0.7102261693
 40
1.0
 40
1.0
 40
1.0
 40
1.0
 10
79.282975232
 20
189.7411333853
 30
0.0
 10
79.2829752306
 20
189.8553965008
 30
0.0
 10
79.2407761238
 20
190.0935849591
 30
0.0
 10
79.0601996369
 20
190.4253765215
 30
0.0
 10
78.7748267279
 20
190.7254059859
 30
0.0
 10
78.5359715797
 20
190.8898473828
 30
0.0
 10
78.4043007587
 20
190.9658658469
 30
0.0
  0
SPLINE
  5
424
100
AcDbEntity
  8
0
100
AcDbSpline
 62
7
  6
CONTINUOUS
 70
0
 71
3
 72
10
 73
6
 74
0
 42
0.0000001
 43
0.0000001
 44
0.0000000001
 40
0.0
 40
0.0
 40
0.0
 40
0.0
 40
0.5197482181
 40
0.7626662032
 40
1.0
 40
1.0
 40
1.0
 40
1.0
 10
62.8497896765
 20
231.347768134
 30
0.0
 10
62.6296443504
 20
231.0776829324
 30
0.0
 10
62.3554689539
 20
230.6324932798
 30
0.0
 10
62.167166582
 20
229.9859942682
 30
0.0
 10
62.1359445147
 20
229.6631619171
 30
0.0
 10
62.1359596447
 20
229.5040532743
 30
0.0
  0
SPLINE
  5
425
100
AcDbEntity
  8
0
100
AcDbSpline
 62
7
  6
CONTINUOUS
 70
0
 71
3
 72
11
 73
7
 74
0
 42
0.0000001
 43
0.0000001
 44
0.0000000001
 40
0.0
 40
0.0
 40
0.0
 40
0.0
 40
0.2177753738
 40
0.4509336309
 40
0.7102261693
 40
1.0
 40
1.0
 40
1.0
 40
1.0
 10
114.7795878602
 20
210.2349899096
 30
0.0
 10
114.7795878587
 20
210.3492530251
 30
0.0
 10
114.737388752
 20
210.5874414835
 30
0.0
 10
114.5568122651
 20
210.9192330458
 30
0.0
 10
114.2714393561
 20
211.2192625102
 30
0.0
 10
114.0325842078
 20
211.3837039071
 30
0.0
 10
113.9009133869
 20
211.4597223713
 30
0.0
  0
SPLINE
  5
426
100
AcDbEntity
  8
0
100
AcDbSpline
 62
7
  6
CONTINUOUS
 70
0
 71
3
 72
12
 73
8
 74
0
 42
0.0000001
 43
0.0000001
 44
0.0000000001
 40
0.0
 40
0.0
 40
0.0
 40
0.0
 40
0.2895810204
 40
0.548637375
 40
0.7816378622
 40
0.8918387092
 40
1.0
 40
1.0
 40
1.0
 40
1.0
 10
64.8629487437
 20
237.5669440617
 30
0.0
 10
64.5666657453
 20
237.3958860139
 30
0.0
 10
64.0292374094
 20
237.0257476965
 30
0.0
 10
63.3871951484
 20
236.3513601266
 30
0.0
 10
63.0424267963
 20
235.7158898284
 30
0.0
 10
62.9082111554
 20
235.1976111764
 30
0.0
 10
62.8859547548
 20
234.9391031833
 30
0.0
 10
62.8859508575
 20
234.8113189656
 30
0.0
  0
SPLINE
  5
427
100
AcDbEntity
  8
0
100
AcDbSpline
 62
7
  6
CONTINUOUS
 70
0
 71
3
 72
9
 73
5
 74
0
 42
0.0000001
 43
0.0000001
 44
0.0000000001
 40
0.0
 40
0.0
 40
0.0
 40
0.0
 40
0.2546609695
 40
1.0
 40
1.0
 40
1.0
 40
1.0
 10
68.3269357369
 20
238.6343896067
 30
0.0
 10
68.1892010821
 20
238.6186596525
 30
0.0
 10
67.6495663762
 20
238.5468691625
 30
0.0
 10
67.1150305572
 20
238.4350612645
 30
0.0
 10
66.7239209228
 20
238.3270854521
 30
0.0
  0
SPLINE
  5
428
100
AcDbEntity
  8
0
100
AcDbSpline
 62
7
  6
CONTINUOUS
 70
0
 71
3
 72
9
 73
5
 74
0
 42
0.0000001
 43
0.0000001
 44
0.0000000001
 40
0.0
 40
0.0
 40
0.0
 40
0.0
 40
0.5171518061
 40
1.0
 40
1.0
 40
1.0
 40
1.0
 10
66.7239209228
 20
238.3270854521
 30
0.0
 10
66.3892200293
 20
238.2346827146
 30
0.0
 10
65.7510543301
 20
238.0208139369
 30
0.0
 10
65.143705868
 20
237.7290382954
 30
0.0
 10
64.8629487437
 20
237.5669440617
 30
0.0
  0
SPLINE
  5
429
100
AcDbEntity
  8
0
100
AcDbSpline
 62
7
  6
CONTINUOUS
 70
0
 71
3
 72
11
 73
7
 74
0
 42
0.0000001
 43
0.0000001
 44
0.0000000001
 40
0.0
 40
0.0
 40
0.0
 40
0.0
 40
0.2897756264
 40
0.5490692242
 40
0.7822277401
 40
1.0
 40
1.0
 40
1.0
 40
1.0
 10
66.8075004878
 20
238.077286821
 30
0.0
 10
66.6319415891
 20
237.9759284486
 30
0.0
 10
66.3134728527
 20
237.7566723551
 30
0.0
 10
65.9329845605
 20
237.3566328986
 30
0.0
 10
65.6922238963
 20
236.9142490743
 30
0.0
 10
65.63596568
 20
236.59667023
 30
0.0
 10
65.6359668464
 20
236.4443238031
 30
0.0
  0
SPLINE
  5
42A
100
AcDbEntity
  8
0
100
AcDbSpline
 62
7
  6
CONTINUOUS
 70
0
 71
3
 72
11
 73
7
 74
0
 42
0.0000001
 43
0.0000001
 44
0.0000000001
 40
0.0
 40
0.0
 40
0.0
 40
0.0
 40
0.217772663
 40
0.4509314042
 40
0.7102278685
 40
1.0
 40
1.0
 40
1.0
 40
1.0
 10
107.8599652244
 20
212.9293955801
 30
0.0
 10
107.8599688531
 20
212.7770489986
 30
0.0
 10
107.8037045902
 20
212.4594705796
 30
0.0
 10
107.5629480291
 20
212.0170833256
 30
0.0
 10
107.182457428
 20
211.6170459842
 30
0.0
 10
106.8639902742
 20
211.3977896304
 30
0.0
 10
106.6884336395
 20
211.2964325651
 30
0.0
  0
SPLINE
  5
42B
100
AcDbEntity
  8
0
100
AcDbSpline
 62
7
  6
CONTINUOUS
 70
0
 71
3
 72
9
 73
5
 74
0
 42
0.0000001
 43
0.0000001
 44
0.0000000001
 40
0.0
 40
0.0
 40
0.0
 40
0.0
 40
0.4752390475
 40
1.0
 40
1.0
 40
1.0
 40
1.0
 10
32.4422039518
 20
212.6026054404
 30
0.0
 10
32.6898889769
 20
212.4596076595
 30
0.0
 10
33.2559433627
 20
212.2354671884
 30
0.0
 10
33.8531899235
 20
212.1346202033
 30
0.0
 10
34.1680647784
 20
212.1104278193
 30
0.0
  0
SPLINE
  5
42C
100
AcDbEntity
  8
0
100
AcDbSpline
 62
7
  6
CONTINUOUS
 70
0
 71
3
 72
17
 73
13
 74
0
 42
0.0000001
 43
0.0000001
 44
0.0000000001
 40
0.0
 40
0.0
 40
0.0
 40
0.0
 40
0.1286926234
 40
0.2702773362
 40
0.4174341499
 40
0.5617794299
 40
0.6954504977
 40
0.8127129602
 40
0.8646788349
 40
0.9125109856
 40
0.9571404061
 40
1.0
 40
1.0
 40
1.0
 40
1.0
 10
78.4043184225
 20
187.2100072543
 30
0.0
 10
78.1822403962
 20
187.0817912114
 30
0.0
 10
77.6794373306
 20
186.8743283439
 30
0.0
 10
76.8599598352
 20
186.7104068136
 30
0.0
 10
75.9932217563
 20
186.6863928488
 30
0.0
 10
75.14994554
 20
186.8048807366
 30
0.0
 10
74.3984910178
 20
187.0558614073
 30
0.0
 10
73.8759138307
 20
187.3740321057
 30
0.0
 10
73.5691474233
 20
187.6817918106
 30
0.0
 10
73.4062850896
 20
187.9214886807
 30
0.0
 10
73.3058211245
 20
188.1742482335
 30
0.0
 10
73.2830221915
 20
188.3493273843
 30
0.0
 10
73.283007118
 20
188.4347295139
 30
0.0
  0
SPLINE
  5
42D
100
AcDbEntity
  8
0
100
AcDbSpline
 62
7
  6
CONTINUOUS
 70
0
 71
3
 72
11
 73
7
 74
0
 42
0.0000001
 43
0.0000001
 44
0.0000000001
 40
0.0
 40
0.0
 40
0.0
 40
0.0
 40
0.2177845113
 40
0.450917848
 40
0.7103083905
 40
1.0
 40
1.0
 40
1.0
 40
1.0
 10
84.0004070515
 20
209.1502562537
 30
0.0
 10
83.9344304749
 20
209.1883349609
 30
0.0
 10
83.7828575369
 20
209.2433580958
 30
0.0
 10
83.5310800454
 20
209.249725268
 30
0.0
 10
83.2627555234
 20
209.1849227587
 30
0.0
 10
83.0881817286
 20
209.1018724525
 30
0.0
 10
83.0004285972
 20
209.0512084609
 30
0.0
  0
SPLINE
  5
42E
100
AcDbEntity
  8
0
100
AcDbSpline
 62
7
  6
CONTINUOUS
 70
0
 71
3
 72
13
 73
9
 74
0
 42
0.0000001
 43
0.0000001
 44
0.0000000001
 40
0.0
 40
0.0
 40
0.0
 40
0.0
 40
0.1142483233
 40
0.2375469957
 40
0.4999994774
 40
0.7624522452
 40
0.8857512516
 40
1.0
 40
1.0
 40
1.0
 40
1.0
 10
74.1616600717
 20
192.1089590328
 30
0.0
 10
74.3068704966
 20
192.1927958103
 30
0.0
 10
74.6244549268
 20
192.3406905088
 30
0.0
 10
75.3282837101
 20
192.5544526113
 30
0.0
 10
76.282977092
 20
192.6582935527
 30
0.0
 10
77.2376713919
 20
192.5544570254
 30
0.0
 10
77.9415028128
 20
192.3406983852
 30
0.0
 10
78.259089189
 20
192.1928052731
 30
0.0
 10
78.4043007587
 20
192.1089692309
 30
0.0
  0
SPLINE
  5
42F
100
AcDbEntity
  8
0
100
AcDbSpline
 62
7
  6
CONTINUOUS
 70
0
 71
3
 72
14
 73
10
 74
0
 42
0.0000001
 43
0.0000001
 44
0.0000000001
 40
0.0
 40
0.0
 40
0.0
 40
0.0
 40
0.0923833624
 40
0.1921031356
 40
0.3019908467
 40
0.4232511131
 40
0.5555346935
 40
0.6973643847
 40
1.0
 40
1.0
 40
1.0
 40
1.0
 10
62.7524045165
 20
202.7247691254
 30
0.0
 10
62.7732256491
 20
202.5883028886
 30
0.0
 10
62.8609601734
 20
202.310085901
 30
0.0
 10
63.1085300961
 20
201.9277491463
 30
0.0
 10
63.4641806385
 20
201.5795344214
 30
0.0
 10
63.9159023072
 20
201.2738684131
 30
0.0
 10
64.4507381004
 20
201.0183675076
 30
0.0
 10
65.2707901838
 20
200.7482072513
 30
0.0
 10
65.9343843852
 20
200.6499143596
 30
0.0
 10
66.3860194544
 20
200.6269480219
 30
0.0
  0
SPLINE
  5
430
100
AcDbEntity
  8
0
100
AcDbSpline
 62
7
  6
CONTINUOUS
 70
0
 71
3
 72
17
 73
13
 74
0
 42
0.0000001
 43
0.0000001
 44
0.0000000001
 40
0.0
 40
0.0
 40
0.0
 40
0.0
 40
0.1286926234
 40
0.2702773362
 40
0.4174341499
 40
0.5617794299
 40
0.6954504977
 40
0.8127129602
 40
0.8646788349
 40
0.9125109856
 40
0.9571404061
 40
1.0
 40
1.0
 40
1.0
 40
1.0
 10
32.442186288
 20
216.1951635495
 30
0.0
 10
32.6642643143
 20
216.3233795925
 30
0.0
 10
33.1670673799
 20
216.53084246
 30
0.0
 10
33.9865448753
 20
216.6947639903
 30
0.0
 10
34.8532829543
 20
216.718777955
 30
0.0
 10
35.6965591705
 20
216.6002900673
 30
0.0
 10
36.4480136927
 20
216.3493093966
 30
0.0
 10
36.9705908799
 20
216.0311386981
 30
0.0
 10
37.2773572872
 20
215.7233789932
 30
0.0
 10
37.440219621
 20
215.4836821231
 30
0.0
 10
37.540683586
 20
215.2309225703
 30
0.0
 10
37.5634825191
 20
215.0558434195
 30
0.0
 10
37.5634975925
 20
214.97044129
 30
0.0
  0
SPLINE
  5
431
100
AcDbEntity
  8
0
100
AcDbSpline
 62
7
  6
CONTINUOUS
 70
0
 71
3
 72
11
 73
7
 74
0
 42
0.0000001
 43
0.0000001
 44
0.0000000001
 40
0.0
 40
0.0
 40
0.0
 40
0.0
 40
0.2897479759
 40
0.5490808555
 40
0.7822230711
 40
1.0
 40
1.0
 40
1.0
 40
1.0
 10
64.6156640623
 20
201.7026775327
 30
0.0
 10
64.484005825
 20
201.7786887319
 30
0.0
 10
64.2451634981
 20
201.9431516599
 30
0.0
 10
63.9597583754
 20
202.2431550297
 30
0.0
 10
63.779225868
 20
202.5749739528
 30
0.0
 10
63.7369735097
 20
202.8131467907
 30
0.0
 10
63.736992938
 20
202.9274099954
 30
0.0
  0
SPLINE
  5
432
100
AcDbEntity
  8
0
100
AcDbSpline
 62
7
  6
CONTINUOUS
 70
0
 71
3
 72
16
 73
12
 74
0
 42
0.0000001
 43
0.0000001
 44
0.0000000001
 40
0.0
 40
0.0
 40
0.0
 40
0.0
 40
0.0428763199
 40
0.0875230218
 40
0.1869281048
 40
0.3042402151
 40
0.4379662944
 40
0.5823718203
 40
0.7295947109
 40
0.8712550786
 40
1.0
 40
1.0
 40
1.0
 40
1.0
 10
80.482680385
 20
207.1397833239
 30
0.0
 10
80.4456928865
 20
207.1611177771
 30
0.0
 10
80.3756021186
 20
207.2147851033
 30
0.0
 10
80.2591089617
 20
207.3620586877
 30
0.0
 10
80.1723157583
 20
207.6148245183
 30
0.0
 10
80.1645934013
 20
207.9671519442
 30
0.0
 10
80.2435951663
 20
208.3557211473
 30
0.0
 10
80.4031432378
 20
208.7503642199
 30
0.0
 10
80.6302033028
 20
209.1197310638
 30
0.0
 10
80.9060777994
 20
209.4335863721
 30
0.0
 10
81.1216179587
 20
209.5994526689
 30
0.0
 10
81.2326542843
 20
209.6635591387
 30
0.0
  0
SPLINE
  5
433
100
AcDbEntity
  8
0
100
AcDbSpline
 62
7
  6
CONTINUOUS
 70
0
 71
3
 72
11
 73
7
 74
0
 42
0.0000001
 43
0.0000001
 44
0.0000000001
 40
0.0
 40
0.0
 40
0.0
 40
0.0
 40
0.289375018
 40
0.5484713338
 40
0.78182333
 40
1.0
 40
1.0
 40
1.0
 40
1.0
 10
85.8443325227
 20
212.8160091838
 30
0.0
 10
85.9738451119
 20
212.8918889279
 30
0.0
 10
86.2087140133
 20
213.0557436529
 30
0.0
 10
86.4889475338
 20
213.3538164277
 30
0.0
 10
86.666160446
 20
213.6827208691
 30
0.0
 10
86.7074361629
 20
213.9185013251
 30
0.0
 10
86.707456122
 20
214.0316735553
 30
0.0
  0
SPLINE
  5
434
100
AcDbEntity
  8
0
100
AcDbSpline
 62
7
  6
CONTINUOUS
 70
0
 71
3
 72
17
 73
13
 74
0
 42
0.0000001
 43
0.0000001
 44
0.0000000001
 40
0.0
 40
0.0
 40
0.0
 40
0.0
 40
0.12868996
 40
0.2702722062
 40
0.4174312903
 40
0.5617781732
 40
0.6954492761
 40
0.8127130379
 40
0.8646790319
 40
0.9125109796
 40
0.9571404657
 40
1.0
 40
1.0
 40
1.0
 40
1.0
 10
64.6156640623
 20
203.0090814001
 30
0.0
 10
64.8377382104
 20
202.8808697315
 30
0.0
 10
65.3405312717
 20
202.6734123478
 30
0.0
 10
66.1600014343
 20
202.5094871505
 30
0.0
 10
67.0267416792
 20
202.4854739609
 30
0.0
 10
67.8700253152
 20
202.603959543
 30
0.0
 10
68.6214846801
 20
202.854941273
 30
0.0
 10
69.1440652934
 20
203.173112069
 30
0.0
 10
69.4508298907
 20
203.4808766869
 30
0.0
 10
69.6136912817
 20
203.7205731603
 30
0.0
 10
69.7141575113
 20
203.9733320299
 30
0.0
 10
69.7369489674
 20
204.1484119311
 30
0.0
 10
69.7369640289
 20
204.2338138624
 30
0.0
  0
SPLINE
  5
435
100
AcDbEntity
  8
0
100
AcDbSpline
 62
7
  6
CONTINUOUS
 70
0
 71
3
 72
12
 73
8
 74
0
 42
0.0000001
 43
0.0000001
 44
0.0000000001
 40
0.0
 40
0.0
 40
0.0
 40
0.0
 40
0.1081612941
 40
0.2183621432
 40
0.4513626358
 40
0.7104189831
 40
1.0
 40
1.0
 40
1.0
 40
1.0
 10
76.3859279256
 20
229.5040532603
 30
0.0
 10
76.3859240372
 20
229.3762690386
 30
0.0
 10
76.3636676176
 20
229.1177610394
 30
0.0
 10
76.2294519889
 20
228.5994823718
 30
0.0
 10
75.8846836091
 20
227.9640120835
 30
0.0
 10
75.2426413609
 20
227.2896245139
 30
0.0
 10
74.7052130283
 20
226.9194862102
 30
0.0
 10
74.4089300331
 20
226.7484281643
 30
0.0
  0
SPLINE
  5
436
100
AcDbEntity
  8
0
100
AcDbSpline
 62
7
  6
CONTINUOUS
 70
0
 71
3
 72
11
 73
7
 74
0
 42
0.0000001
 43
0.0000001
 44
0.0000000001
 40
0.0
 40
0.0
 40
0.0
 40
0.0
 40
0.2896408744
 40
0.5491100036
 40
0.7822350384
 40
1.0
 40
1.0
 40
1.0
 40
1.0
 10
81.2326542843
 20
209.6635591387
 30
0.0
 10
81.2984573896
 20
209.7015503524
 30
0.0
 10
81.4294051417
 20
209.7638166514
 30
0.0
 10
81.6306387026
 20
209.8124492391
 30
0.0
 10
81.8194994916
 20
209.8077013227
 30
0.0
 10
81.9331427905
 20
209.7663709623
 30
0.0
 10
81.9826281836
 20
209.737827702
 30
0.0
  0
SPLINE
  5
437
100
AcDbEntity
  8
0
100
AcDbSpline
 62
7
  6
CONTINUOUS
 70
0
 71
3
 72
14
 73
10
 74
0
 42
0.0000001
 43
0.0000001
 44
0.0000000001
 40
0.0
 40
0.0
 40
0.0
 40
0.0
 40
0.3026355409
 40
0.4444652228
 40
0.576748806
 40
0.6980090839
 40
0.8078968117
 40
0.907616619
 40
1.0
 40
1.0
 40
1.0
 40
1.0
 10
66.3860194544
 20
198.5856919791
 30
0.0
 10
65.9343844968
 20
198.6086583111
 30
0.0
 10
65.2707904214
 20
198.7069511639
 30
0.0
 10
64.4507384395
 20
198.9771113354
 30
0.0
 10
63.9159026166
 20
199.232612194
 30
0.0
 10
63.4641808795
 20
199.5382781794
 30
0.0
 10
63.1085302231
 20
199.8864929269
 30
0.0
 10
62.8609602492
 20
200.2688297695
 30
0.0
 10
62.7732256533
 20
200.5470468184
 30
0.0
 10
62.7524045165
 20
200.6835130826
 30
0.0
  0
SPLINE
  5
438
100
AcDbEntity
  8
0
100
AcDbSpline
 62
7
  6
CONTINUOUS
 70
0
 71
3
 72
17
 73
13
 74
0
 42
0.0000001
 43
0.0000001
 44
0.0000000001
 40
0.0
 40
0.0
 40
0.0
 40
0.0
 40
0.1286903759
 40
0.2702749122
 40
0.4174292505
 40
0.5617762177
 40
0.6954483458
 40
0.8127147475
 40
0.8646780754
 40
0.9125121143
 40
0.957141621
 40
1.0
 40
1.0
 40
1.0
 40
1.0
 10
106.6884336395
 20
211.2964325651
 30
0.0
 10
106.3923344504
 20
211.125480639
 30
0.0
 10
105.7219338703
 20
210.8488725244
 30
0.0
 10
104.6293145439
 20
210.6302865909
 30
0.0
 10
103.4736656331
 20
210.5982609238
 30
0.0
 10
102.3492889574
 20
210.7562554995
 30
0.0
 10
101.3473631883
 20
211.0909371624
 30
0.0
 10
100.6505073468
 20
211.5150807407
 30
0.0
 10
100.2415723314
 20
211.9255160144
 30
0.0
 10
100.0243365582
 20
212.2450539739
 30
0.0
 10
99.8904471873
 20
212.5820971252
 30
0.0
 10
99.8600269656
 20
212.8155291813
 30
0.0
 10
99.8600242535
 20
212.9293955863
 30
0.0
  0
SPLINE
  5
439
100
AcDbEntity
  8
0
100
AcDbSpline
 62
7
  6
CONTINUOUS
 70
0
 71
3
 72
12
 73
8
 74
0
 42
0.0000001
 43
0.0000001
 44
0.0000000001
 40
0.0
 40
0.0
 40
0.0
 40
0.0
 40
0.1081603208
 40
0.2183607076
 40
0.4513642752
 40
0.7104112952
 40
1.0
 40
1.0
 40
1.0
 40
1.0
 10
77.1359191321
 20
227.4627971975
 30
0.0
 10
77.1359326334
 20
227.3208160191
 30
0.0
 10
77.1112054635
 20
227.0335840075
 30
0.0
 10
76.9620582288
 20
226.4577221588
 30
0.0
 10
76.5789847737
 20
225.7516562382
 30
0.0
 10
75.8656216793
 20
225.0023176398
 30
0.0
 10
75.2684743669
 20
224.5910610809
 30
0.0
 10
74.939262327
 20
224.4009915556
 30
0.0
  0
SPLINE
  5
43A
100
AcDbEntity
  8
0
100
AcDbSpline
 62
7
  6
CONTINUOUS
 70
0
 71
3
 72
9
 73
5
 74
0
 42
0.0000001
 43
0.0000001
 44
0.0000000001
 40
0.0
 40
0.0
 40
0.0
 40
0.0
 40
0.2563875355
 40
1.0
 40
1.0
 40
1.0
 40
1.0
 10
43.2192929264
 20
213.3207130789
 30
0.0
 10
43.1799616296
 20
213.3860735596
 30
0.0
 10
43.0331024705
 20
213.6448491465
 30
0.0
 10
42.9136175606
 20
213.9194341047
 30
0.0
 10
42.8439566278
 20
214.129425374
 30
0.0
  0
SPLINE
  5
43B
100
AcDbEntity
  8
0
100
AcDbSpline
 62
7
  6
CONTINUOUS
 70
0
 71
3
 72
17
 73
13
 74
0
 42
0.0000001
 43
0.0000001
 44
0.0000000001
 40
0.0
 40
0.0
 40
0.0
 40
0.0
 40
0.0428575604
 40
0.0874859108
 40
0.1353172062
 40
0.1872823133
 40
0.3045426425
 40
0.438210377
 40
0.5825547796
 40
0.7297159944
 40
0.8713057371
 40
1.0
 40
1.0
 40
1.0
 40
1.0
 10
69.7369582099
 20
202.9274099931
 30
0.0
 10
69.7369436896
 20
202.8420121959
 30
0.0
 10
69.7141517512
 20
202.6669389999
 30
0.0
 10
69.6136893146
 20
202.4141877955
 30
0.0
 10
69.4508343665
 20
202.1744943884
 30
0.0
 10
69.1440825353
 20
201.8667325489
 30
0.0
 10
68.6215204906
 20
201.5485634312
 30
0.0
 10
67.8700836575
 20
201.2975797449
 30
0.0
 10
67.0268117775
 20
201.1790789311
 30
0.0
 10
66.1600588744
 20
201.2030810795
 30
0.0
 10
65.3405604546
 20
201.3669982694
 30
0.0
 10
64.837745113
 20
201.5744618789
 30
0.0
 10
64.6156640623
 20
201.7026775327
 30
0.0
  0
SPLINE
  5
43C
100
AcDbEntity
  8
0
100
AcDbSpline
 62
7
  6
CONTINUOUS
 70
0
 71
3
 72
11
 73
7
 74
0
 42
0.0000001
 43
0.0000001
 44
0.0000000001
 40
0.0
 40
0.0
 40
0.0
 40
0.0
 40
0.2897733512
 40
0.5490657165
 40
0.7822241652
 40
1.0
 40
1.0
 40
1.0
 40
1.0
 10
113.9009310507
 20
209.0102676461
 30
0.0
 10
114.0325994094
 20
209.0862859546
 30
0.0
 10
114.2714500247
 20
209.2507267237
 30
0.0
 10
114.5568171379
 20
209.5507539643
 30
0.0
 10
114.7373897184
 20
209.8825423141
 30
0.0
 10
114.7795878616
 20
210.1207280242
 30
0.0
 10
114.7795878602
 20
210.2349899096
 30
0.0
  0
SPLINE
  5
43D
100
AcDbEntity
  8
0
100
AcDbSpline
 62
7
  6
CONTINUOUS
 70
0
 71
3
 72
11
 73
7
 74
0
 42
0.0000001
 43
0.0000001
 44
0.0000000001
 40
0.0
 40
0.0
 40
0.0
 40
0.0
 40
0.217768468
 40
0.4509396739
 40
0.7102096614
 40
1.0
 40
1.0
 40
1.0
 40
1.0
 10
57.9154264273
 20
228.2794689449
 30
0.0
 10
57.9154065103
 20
228.0795167451
 30
0.0
 10
57.8416244139
 20
227.6626765974
 30
0.0
 10
57.5255650974
 20
227.0820826225
 30
0.0
 10
57.0262112849
 20
226.5569976977
 30
0.0
 10
56.6082072548
 20
226.2692452645
 30
0.0
 10
56.3777733523
 20
226.136204983
 30
0.0
  0
SPLINE
  5
43E
100
AcDbEntity
  8
0
100
AcDbSpline
 62
7
  6
CONTINUOUS
 70
0
 71
3
 72
11
 73
7
 74
0
 42
0.0000001
 43
0.0000001
 44
0.0000000001
 40
0.0
 40
0.0
 40
0.0
 40
0.0
 40
0.2897776971
 40
0.5490719787
 40
0.7822272299
 40
1.0
 40
1.0
 40
1.0
 40
1.0
 10
114.6080378319
 20
207.7038654783
 30
0.0
 10
114.7397077305
 20
207.779884676
 30
0.0
 10
114.9785587143
 20
207.9443291481
 30
0.0
 10
115.2639242766
 20
208.2443585029
 30
0.0
 10
115.4444898843
 20
208.5761464833
 30
0.0
 10
115.4866866055
 20
208.8143278418
 30
0.0
 10
115.4866866041
 20
208.9285877419
 30
0.0
  0
SPLINE
  5
43F
100
AcDbEntity
  8
0
100
AcDbSpline
 62
7
  6
CONTINUOUS
 70
0
 71
3
 72
18
 73
14
 74
0
 42
0.0000001
 43
0.0000001
 44
0.0000000001
 40
0.0
 40
0.0
 40
0.0
 40
0.0
 40
0.0428473854
 40
0.0874642904
 40
0.1352855905
 40
0.1872370585
 40
0.2437280374
 40
0.3047335978
 40
0.4383684003
 40
0.5826764803
 40
0.7297923549
 40
0.8713437444
 40
1.0
 40
1.0
 40
1.0
 40
1.0
 10
47.4154653492
 20
229.0959713599
 30
0.0
 10
47.4154502051
 20
228.946520342
 30
0.0
 10
47.4554627072
 20
228.6401525405
 30
0.0
 10
47.6311213617
 20
228.1977623149
 30
0.0
 10
47.9162510794
 20
227.7783852017
 30
0.0
 10
48.30270993
 20
227.3903500778
 30
0.0
 10
48.7815557255
 20
227.0403974978
 30
0.0
 10
49.5529441729
 20
226.6210327227
 30
0.0
 10
50.6832674649
 20
226.243531931
 30
0.0
 10
52.1581540887
 20
226.0364352295
 30
0.0
 10
53.6751989219
 20
226.0783393493
 30
0.0
 10
55.1092120885
 20
226.3652948126
 30
0.0
 10
55.9891429773
 20
226.7283328879
 30
0.0
 10
56.3777733523
 20
226.9527074002
 30
0.0
  0
SPLINE
  5
440
100
AcDbEntity
  8
0
100
AcDbSpline
 62
7
  6
CONTINUOUS
 70
0
 71
3
 72
11
 73
7
 74
0
 42
0.0000001
 43
0.0000001
 44
0.0000000001
 40
0.0
 40
0.0
 40
0.0
 40
0.0
 40
0.217780861
 40
0.4509234132
 40
0.7102539949
 40
1.0
 40
1.0
 40
1.0
 40
1.0
 10
63.7369871191
 20
204.233813861
 30
0.0
 10
63.7369669672
 20
204.1195483396
 30
0.0
 10
63.7792207991
 20
203.8813721647
 30
0.0
 10
63.9597602936
 20
203.54955515
 30
0.0
 10
64.245164273
 20
203.249552792
 30
0.0
 10
64.4840064282
 20
203.085092251
 30
0.0
 10
64.6156640623
 20
203.0090814001
 30
0.0
  0
SPLINE
  5
441
100
AcDbEntity
  8
0
100
AcDbSpline
 62
7
  6
CONTINUOUS
 70
0
 71
3
 72
14
 73
10
 74
0
 42
0.0000001
 43
0.0000001
 44
0.0000000001
 40
0.0
 40
0.0
 40
0.0
 40
0.0
 40
0.1230514107
 40
0.2577009626
 40
0.3986972508
 40
0.5398790729
 40
0.6750657858
 40
0.7989283335
 40
1.0
 40
1.0
 40
1.0
 40
1.0
 10
83.0004285972
 20
209.0512084609
 30
0.0
 10
82.8710061657
 20
208.9764868313
 30
0.0
 10
82.6179656753
 20
208.7881077577
 30
0.0
 10
82.2847823272
 20
208.4341598909
 30
0.0
 10
81.9972232675
 20
208.0150831194
 30
0.0
 10
81.7738034221
 20
207.5584001233
 30
0.0
 10
81.6289433742
 20
207.0908974876
 30
0.0
 10
81.556559829
 20
206.538829953
 30
0.0
 10
81.6272203802
 20
206.1199484239
 30
0.0
 10
81.7612733827
 20
205.9158342891
 30
0.0
  0
SPLINE
  5
442
100
AcDbEntity
  8
0
100
AcDbSpline
 62
7
  6
CONTINUOUS
 70
0
 71
3
 72
9
 73
5
 74
0
 42
0.0000001
 43
0.0000001
 44
0.0000000001
 40
0.0
 40
0.0
 40
0.0
 40
0.0
 40
0.2581102902
 40
1.0
 40
1.0
 40
1.0
 40
1.0
 10
81.771132739
 20
205.9011692874
 30
0.0
 10
81.7865365777
 20
205.8787863666
 30
0.0
 10
81.8504572868
 20
205.7951045651
 30
0.0
 10
81.9328091462
 20
205.7251903351
 30
0.0
 10
82.0004501429
 20
205.6861509996
 30
0.0
  0
SPLINE
  5
443
100
AcDbEntity
  8
0
100
AcDbSpline
 62
7
  6
CONTINUOUS
 70
0
 71
3
 72
9
 73
5
 74
0
 42
0.0000001
 43
0.0000001
 44
0.0000000001
 40
0.0
 40
0.0
 40
0.0
 40
0.0
 40
0.4750938762
 40
1.0
 40
1.0
 40
1.0
 40
1.0
 10
113.9009310507
 20
207.7038637787
 30
0.0
 10
113.6476635441
 20
207.5576405884
 30
0.0
 10
113.0677117957
 20
207.3300828063
 30
0.0
 10
112.4560454629
 20
207.2308042874
 30
0.0
 10
112.1336943415
 20
207.2086722333
 30
0.0
  0
SPLINE
  5
444
100
AcDbEntity
  8
0
100
AcDbSpline
 62
7
  6
CONTINUOUS
 70
0
 71
3
 72
9
 73
5
 74
0
 42
0.0000001
 43
0.0000001
 44
0.0000000001
 40
0.0
 40
0.0
 40
0.0
 40
0.0
 40
0.2563875355
 40
1.0
 40
1.0
 40
1.0
 40
1.0
 10
60.1897850196
 20
223.1185727718
 30
0.0
 10
60.1504537227
 20
223.1839332525
 30
0.0
 10
60.0035945637
 20
223.4427088394
 30
0.0
 10
59.8841096538
 20
223.7172937976
 30
0.0
 10
59.814448721
 20
223.9272850669
 30
0.0
  0
SPLINE
  5
445
100
AcDbEntity
  8
0
100
AcDbSpline
 62
7
  6
CONTINUOUS
 70
0
 71
3
 72
11
 73
7
 74
0
 42
0.0000001
 43
0.0000001
 44
0.0000000001
 40
0.0
 40
0.0
 40
0.0
 40
0.0
 40
0.2897733512
 40
0.5490657165
 40
0.7822241652
 40
1.0
 40
1.0
 40
1.0
 40
1.0
 10
106.6884336395
 20
214.1541910251
 30
0.0
 10
106.8639914511
 20
214.2555487698
 30
0.0
 10
107.1824589382
 20
214.4748031286
 30
0.0
 10
107.5629484225
 20
214.8748394493
 30
0.0
 10
107.8037118632
 20
215.3172239158
 30
0.0
 10
107.8599760541
 20
215.6348048626
 30
0.0
 10
107.8599760522
 20
215.7871540432
 30
0.0
  0
SPLINE
  5
446
100
AcDbEntity
  8
0
100
AcDbSpline
 62
7
  6
CONTINUOUS
 70
0
 71
3
 72
15
 73
11
 74
0
 42
0.0000001
 43
0.0000001
 44
0.0000000001
 40
0.0
 40
0.0
 40
0.0
 40
0.0
 40
0.1141447985
 40
0.2373324971
 40
0.3669747555
 40
0.5000005214
 40
0.6330262147
 40
0.7626682613
 40
0.8858556261
 40
1.0
 40
1.0
 40
1.0
 40
1.0
 10
101.0315793901
 20
214.1541774277
 30
0.0
 10
101.2251913388
 20
214.0423980458
 30
0.0
 10
101.648613405
 20
213.8452532357
 30
0.0
 10
102.338086663
 20
213.6356518324
 30
0.0
 10
103.0845934067
 20
213.5067086453
 30
0.0
 10
103.8600112848
 20
213.4631536851
 30
0.0
 10
104.635428543
 20
213.5067123256
 30
0.0
 10
105.3819334554
 20
213.6356590572
 30
0.0
 10
106.071403745
 20
213.845263738
 30
0.0
 10
106.4948232172
 20
214.0424106629
 30
0.0
 10
106.6884336395
 20
214.1541910251
 30
0.0
  0
SPLINE
  5
447
100
AcDbEntity
  8
0
100
AcDbSpline
 62
7
  6
CONTINUOUS
 70
0
 71
3
 72
11
 73
7
 74
0
 42
0.0000001
 43
0.0000001
 44
0.0000000001
 40
0.0
 40
0.0
 40
0.0
 40
0.0
 40
0.2181692082
 40
0.4515211485
 40
0.7106215484
 40
1.0
 40
1.0
 40
1.0
 40
1.0
 10
86.7074503031
 20
212.725269686
 30
0.0
 10
86.7074310595
 20
212.612093269
 30
0.0
 10
86.66614507
 20
212.3763006992
 30
0.0
 10
86.4889146092
 20
212.0473780039
 30
0.0
 10
86.2086466187
 20
211.7492910099
 30
0.0
 10
85.9737502738
 20
211.5854335825
 30
0.0
 10
85.844224314
 20
211.5095519954
 30
0.0
  0
SPLINE
  5
448
100
AcDbEntity
  8
0
100
AcDbSpline
 62
7
  6
CONTINUOUS
 70
0
 71
3
 72
12
 73
8
 74
0
 42
0.0000001
 43
0.0000001
 44
0.0000000001
 40
0.0
 40
0.0
 40
0.0
 40
0.0
 40
0.1081590056
 40
0.2183607065
 40
0.4513548963
 40
0.7104290909
 40
1.0
 40
1.0
 40
1.0
 40
1.0
 10
58.6654233384
 20
220.1144447738
 30
0.0
 10
58.6654120225
 20
220.0008613827
 30
0.0
 10
58.6456805463
 20
219.77107325
 30
0.0
 10
58.5263026873
 20
219.3104064982
 30
0.0
 10
58.2199106307
 20
218.7455060929
 30
0.0
 10
57.6491637577
 20
218.1460739916
 30
0.0
 10
57.1714586984
 20
217.8170462939
 30
0.0
 10
56.9081056462
 20
217.6650002458
 30
0.0
  0
SPLINE
  5
449
100
AcDbEntity
  8
0
100
AcDbSpline
 62
7
  6
CONTINUOUS
 70
0
 71
3
 72
18
 73
14
 74
0
 42
0.0000001
 43
0.0000001
 44
0.0000000001
 40
0.0
 40
0.0
 40
0.0
 40
0.0
 40
0.042847705
 40
0.0874648314
 40
0.1352861158
 40
0.1872374048
 40
0.2437281457
 40
0.304733431
 40
0.4383675776
 40
0.5826756861
 40
0.7297918144
 40
0.8713433873
 40
1.0
 40
1.0
 40
1.0
 40
1.0
 10
46.6654685084
 20
228.2794689442
 30
0.0
 10
46.6654511763
 20
228.1086665108
 30
0.0
 10
46.7111808453
 20
227.7585298589
 30
0.0
 10
46.9119339384
 20
227.2529388288
 30
0.0
 10
47.2377990651
 20
226.773652267
 30
0.0
 10
47.6794649189
 20
226.3301848861
 30
0.0
 10
48.2267151163
 20
225.9302407436
 30
0.0
 10
49.1082980313
 20
225.4509695001
 30
0.0
 10
50.4000919555
 20
225.01953963
 30
0.0
 10
52.0856750647
 20
224.7828567765
 30
0.0
 10
53.8194424647
 20
224.8307456845
 30
0.0
 10
55.4583178515
 20
225.1586947985
 30
0.0
 10
56.4639554243
 20
225.5735956976
 30
0.0
 10
56.9081056462
 20
225.8300244171
 30
0.0
  0
SPLINE
  5
44A
100
AcDbEntity
  8
0
100
AcDbSpline
 62
7
  6
CONTINUOUS
 70
0
 71
3
 72
11
 73
7
 74
0
 42
0.0000001
 43
0.0000001
 44
0.0000000001
 40
0.0
 40
0.0
 40
0.0
 40
0.0
 40
0.217772663
 40
0.4509314042
 40
0.7102278685
 40
1.0
 40
1.0
 40
1.0
 40
1.0
 10
73.6359098738
 20
234.8113189655
 30
0.0
 10
73.6359135025
 20
234.658972384
 30
0.0
 10
73.5796492397
 20
234.3413939651
 30
0.0
 10
73.3388926786
 20
233.8990067111
 30
0.0
 10
72.9584020774
 20
233.4989693696
 30
0.0
 10
72.6399349237
 20
233.2797130158
 30
0.0
 10
72.464378289
 20
233.1783559506
 30
0.0
  0
SPLINE
  5
44B
100
AcDbEntity
  8
0
100
AcDbSpline
 62
7
  6
CONTINUOUS
 70
0
 71
3
 72
15
 73
11
 74
0
 42
0.0000001
 43
0.0000001
 44
0.0000000001
 40
0.0
 40
0.0
 40
0.0
 40
0.0
 40
0.0933564697
 40
0.192039241
 40
0.3000218815
 40
0.4193885318
 40
0.5505041666
 40
0.6923753351
 40
0.8430958291
 40
1.0
 40
1.0
 40
1.0
 40
1.0
 10
62.8859508575
 20
234.8113189656
 30
0.0
 10
62.8859438882
 20
234.5828096372
 30
0.0
 10
62.9598491885
 20
234.1100850182
 30
0.0
 10
63.2804409341
 20
233.4400258171
 30
0.0
 10
63.7935167492
 20
232.8201872901
 30
0.0
 10
64.4797373868
 20
232.2659132461
 30
0.0
 10
65.3181752772
 20
231.7903561451
 30
0.0
 10
66.2844608496
 20
231.4059523074
 30
0.0
 10
67.3502006535
 20
231.1236592545
 30
0.0
 10
68.0962527187
 20
231.0103947793
 30
0.0
 10
68.4783833847
 20
230.9719917834
 30
0.0
  0
SPLINE
  5
44C
100
AcDbEntity
  8
0
100
AcDbSpline
 62
7
  6
CONTINUOUS
 70
0
 71
3
 72
9
 73
5
 74
0
 42
0.0000001
 43
0.0000001
 44
0.0000000001
 40
0.0
 40
0.0
 40
0.0
 40
0.0
 40
0.2444296014
 40
1.0
 40
1.0
 40
1.0
 40
1.0
 10
42.8439566278
 20
216.5789326254
 30
0.0
 10
42.8668554093
 20
216.5099047787
 30
0.0
 10
42.9688540773
 20
216.2302915852
 30
0.0
 10
43.1033799007
 20
215.9628438053
 30
0.0
 10
43.2192929264
 20
215.7702203303
 30
0.0
  0
SPLINE
  5
44D
100
AcDbEntity
  8
0
100
AcDbSpline
 62
7
  6
CONTINUOUS
 70
0
 71
3
 72
19
 73
15
 74
0
 42
0.0000001
 43
0.0000001
 44
0.0000000001
 40
0.0
 40
0.0
 40
0.0
 40
0.0
 40
0.128629291
 40
0.2701549099
 40
0.4172449402
 40
0.5615301935
 40
0.6301817543
 40
0.6953201509
 40
0.7563156531
 40
0.8127976144
 40
0.8647383472
 40
0.912549972
 40
0.957159301
 40
1.0
 40
1.0
 40
1.0
 40
1.0
 10
57.9687702339
 20
214.6031318627
 30
0.0
 10
57.4136007301
 20
214.2826065135
 30
0.0
 10
56.1566125477
 20
213.7639934955
 30
0.0
 10
54.107873685
 20
213.3540119415
 30
0.0
 10
51.9413241409
 20
213.294176114
 30
0.0
 10
50.154321059
 20
213.5448203938
 30
0.0
 10
48.8207521427
 20
213.9290126304
 30
0.0
 10
47.9185340146
 20
214.292524046
 30
0.0
 10
47.1170153669
 20
214.7284484048
 30
0.0
 10
46.4329268855
 20
215.2282943248
 30
0.0
 10
45.8808848133
 20
215.7826833245
 30
0.0
 10
45.4735881626
 20
216.3817859866
 30
0.0
 10
45.2225642908
 20
217.0137497889
 30
0.0
 10
45.1654579699
 20
217.451431075
 30
0.0
 10
45.1654561213
 20
217.6649375223
 30
0.0
  0
SPLINE
  5
44E
100
AcDbEntity
  8
0
100
AcDbSpline
 62
7
  6
CONTINUOUS
 70
0
 71
3
 72
9
 73
5
 74
0
 42
0.0000001
 43
0.0000001
 44
0.0000000001
 40
0.0
 40
0.0
 40
0.0
 40
0.0
 40
0.2270454721
 40
1.0
 40
1.0
 40
1.0
 40
1.0
 10
37.4052786436
 20
214.3824174636
 30
0.0
 10
37.3674029082
 20
214.4470722327
 30
0.0
 10
37.1761580962
 20
214.7176542375
 30
0.0
 10
36.9057503859
 20
214.9245230584
 30
0.0
 10
36.6848269751
 20
215.0520703636
 30
0.0
  0
SPLINE
  5
44F
100
AcDbEntity
  8
0
100
AcDbSpline
 62
7
  6
CONTINUOUS
 70
0
 71
3
 72
12
 73
8
 74
0
 42
0.0000001
 43
0.0000001
 44
0.0000000001
 40
0.0
 40
0.0
 40
0.0
 40
0.0
 40
0.1081590514
 40
0.2183578759
 40
0.4513599045
 40
0.7104171385
 40
1.0
 40
1.0
 40
1.0
 40
1.0
 10
60.1654384692
 20
217.6649375208
 30
0.0
 10
60.1654396986
 20
217.5229579093
 30
0.0
 10
60.140706026
 20
217.23573195
 30
0.0
 10
59.9915807651
 20
216.6598700809
 30
0.0
 10
59.6085038988
 20
215.9537907468
 30
0.0
 10
58.8951233409
 20
215.2044631278
 30
0.0
 10
58.2979758602
 20
214.7931976851
 30
0.0
 10
57.9687702339
 20
214.6031318627
 30
0.0
  0
SPLINE
  5
450
100
AcDbEntity
  8
0
100
AcDbSpline
 62
7
  6
CONTINUOUS
 70
0
 71
3
 72
12
 73
8
 74
0
 42
0.0000001
 43
0.0000001
 44
0.0000000001
 40
0.0
 40
0.0
 40
0.0
 40
0.0
 40
0.2895817993
 40
0.5486371749
 40
0.7816400895
 40
0.8918396553
 40
1.0
 40
1.0
 40
1.0
 40
1.0
 10
57.9687702339
 20
217.0526391141
 30
0.0
 10
58.2979747234
 20
217.2427042802
 30
0.0
 10
58.8951203238
 20
217.6539663394
 30
0.0
 10
59.6084980545
 20
218.4032923063
 30
0.0
 10
59.9915804449
 20
219.1093690098
 30
0.0
 10
60.1407055312
 20
219.6852347609
 30
0.0
 10
60.1654426964
 20
219.9724634281
 30
0.0
 10
60.1654394336
 20
220.1144447678
 30
0.0
  0
SPLINE
  5
451
100
AcDbEntity
  8
0
100
AcDbSpline
 62
7
  6
CONTINUOUS
 70
0
 71
3
 72
18
 73
14
 74
0
 42
0.0000001
 43
0.0000001
 44
0.0000000001
 40
0.0
 40
0.0
 40
0.0
 40
0.0
 40
0.1286546677
 40
0.2702044719
 40
0.4173205656
 40
0.5616311766
 40
0.695267366
 40
0.7562730035
 40
0.8127636272
 40
0.86471449
 40
0.9125353694
 40
0.9571522475
 40
1.0
 40
1.0
 40
1.0
 40
1.0
 10
56.9081056462
 20
217.6650002458
 30
0.0
 10
56.4639621428
 20
217.4085754053
 30
0.0
 10
55.4583394739
 20
216.9936788576
 30
0.0
 10
53.8194806751
 20
216.6657228267
 30
0.0
 10
52.0857105377
 20
216.6178314814
 30
0.0
 10
50.4001083102
 20
216.8545088147
 30
0.0
 10
49.1082956635
 20
217.2859459074
 30
0.0
 10
48.2267050845
 20
217.7652220302
 30
0.0
 10
47.6794566679
 20
218.1651676154
 30
0.0
 10
47.2377962387
 20
218.6086347615
 30
0.0
 10
46.9119321651
 20
219.0879165533
 30
0.0
 10
46.7111804979
 20
219.5935060689
 30
0.0
 10
46.6654542358
 20
219.9436421509
 30
0.0
 10
46.6654712522
 20
220.1144447722
 30
0.0
  0
SPLINE
  5
452
100
AcDbEntity
  8
0
100
AcDbSpline
 62
7
  6
CONTINUOUS
 70
0
 71
3
 72
11
 73
7
 74
0
 42
0.0000001
 43
0.0000001
 44
0.0000000001
 40
0.0
 40
0.0
 40
0.0
 40
0.0
 40
0.2177753738
 40
0.4509336309
 40
0.7102261693
 40
1.0
 40
1.0
 40
1.0
 40
1.0
 10
31.5635294785
 20
213.827337902
 30
0.0
 10
31.56352948
 20
213.7130747865
 30
0.0
 10
31.6057285867
 20
213.4748863282
 30
0.0
 10
31.7863050736
 20
213.1430947658
 30
0.0
 10
32.0716779826
 20
212.8430653014
 30
0.0
 10
32.3105331309
 20
212.6786239045
 30
0.0
 10
32.4422039518
 20
212.6026054404
 30
0.0
  0
SPLINE
  5
453
100
AcDbEntity
  8
0
100
AcDbSpline
 62
7
  6
CONTINUOUS
 70
0
 71
3
 72
12
 73
8
 74
0
 42
0.0000001
 43
0.0000001
 44
0.0000000001
 40
0.0
 40
0.0
 40
0.0
 40
0.0
 40
0.2895712537
 40
0.548642979
 40
0.7816379705
 40
0.8918399225
 40
1.0
 40
1.0
 40
1.0
 40
1.0
 10
56.9081056462
 20
225.8300244171
 30
0.0
 10
57.1714591331
 20
225.9820707161
 30
0.0
 10
57.6491641713
 20
226.3110958853
 30
0.0
 10
58.2199070258
 20
226.9105285877
 30
0.0
 10
58.5263073915
 20
227.4754244396
 30
0.0
 10
58.6456784816
 20
227.936095323
 30
0.0
 10
58.6654145562
 20
228.1658843754
 30
0.0
 10
58.6654260821
 20
228.2794689444
 30
0.0
  0
SPLINE
  5
454
100
AcDbEntity
  8
0
100
AcDbSpline
 62
7
  6
CONTINUOUS
 70
0
 71
3
 72
18
 73
14
 74
0
 42
0.0000001
 43
0.0000001
 44
0.0000000001
 40
0.0
 40
0.0
 40
0.0
 40
0.0
 40
0.1286544267
 40
0.2702037274
 40
0.417319017
 40
0.5616293562
 40
0.6952662917
 40
0.7562723291
 40
0.8127632913
 40
0.8647144483
 40
0.9125355162
 40
0.9571523575
 40
1.0
 40
1.0
 40
1.0
 40
1.0
 10
56.3777733523
 20
226.136204983
 30
0.0
 10
55.989148509
 20
225.9118336645
 30
0.0
 10
55.1092312999
 20
225.5487997559
 30
0.0
 10
53.6752353297
 20
225.2618383946
 30
0.0
 10
52.1581921296
 20
225.2199318667
 30
0.0
 10
50.6832908715
 20
225.4270210831
 30
0.0
 10
49.5529511477
 20
225.804527421
 30
0.0
 10
48.7815539312
 20
226.2238949413
 30
0.0
 10
48.3027083586
 20
226.5738490712
 30
0.0
 10
47.916252926
 20
226.9618844256
 30
0.0
 10
47.6311213969
 20
227.3812575693
 30
0.0
 10
47.4554632413
 20
227.8236483962
 30
0.0
 10
47.4154532765
 20
228.1300170313
 30
0.0
 10
47.4154681632
 20
228.2794689436
 30
0.0
  0
SPLINE
  5
455
100
AcDbEntity
  8
0
100
AcDbSpline
 62
7
  6
CONTINUOUS
 70
0
 71
3
 72
11
 73
7
 74
0
 42
0.0000001
 43
0.0000001
 44
0.0000000001
 40
0.0
 40
0.0
 40
0.0
 40
0.0
 40
0.2897914058
 40
0.5490589437
 40
0.7822306263
 40
1.0
 40
1.0
 40
1.0
 40
1.0
 10
56.3777733523
 20
226.9527074002
 30
0.0
 10
56.6082082519
 20
227.0857482573
 30
0.0
 10
57.0262125173
 20
227.373499153
 30
0.0
 10
57.5255640728
 20
227.8985850013
 30
0.0
 10
57.8416280161
 20
228.4791760091
 30
0.0
 10
57.9154089797
 20
228.8960182026
 30
0.0
 10
57.9154292413
 20
229.0959713629
 30
0.0
  0
SPLINE
  5
456
100
AcDbEntity
  8
0
100
AcDbSpline
 62
7
  6
CONTINUOUS
 70
0
 71
3
 72
14
 73
10
 74
0
 42
0.0000001
 43
0.0000001
 44
0.0000000001
 40
0.0
 40
0.0
 40
0.0
 40
0.0
 40
0.0997899908
 40
0.2031325883
 40
0.3129918694
 40
0.4314183908
 40
0.5594905363
 40
0.6974048883
 40
1.0
 40
1.0
 40
1.0
 40
1.0
 10
62.1359596447
 20
229.5040532743
 30
0.0
 10
62.1359784186
 20
229.3066247188
 30
0.0
 10
62.1844523541
 20
228.9032447008
 30
0.0
 10
62.3987544214
 20
228.3172135947
 30
0.0
 10
62.7480481197
 20
227.7569353592
 30
0.0
 10
63.223782159
 20
227.232319691
 30
0.0
 10
63.8163954367
 20
226.7515093279
 30
0.0
 10
64.7768239272
 20
226.1614384643
 30
0.0
 10
65.5946521111
 20
225.8373186458
 30
0.0
 10
66.1678984483
 20
225.6647205183
 30
0.0
  0
SPLINE
  5
457
100
AcDbEntity
  8
0
100
AcDbSpline
 62
7
  6
CONTINUOUS
 70
0
 71
3
 72
19
 73
15
 74
0
 42
0.0000001
 43
0.0000001
 44
0.0000000001
 40
0.0
 40
0.0
 40
0.0
 40
0.0
 40
0.0428409377
 40
0.087450785
 40
0.1352630283
 40
0.1872042907
 40
0.2436865155
 40
0.3046818851
 40
0.3698196797
 40
0.4384701556
 40
0.5827529004
 40
0.7298421466
 40
0.8713688156
 40
1.0
 40
1.0
 40
1.0
 40
1.0
 10
45.165455157
 20
220.1144447782
 30
0.0
 10
45.1654600636
 20
219.9009371405
 30
0.0
 10
45.2225611124
 20
219.4632517097
 30
0.0
 10
45.4735943423
 20
218.831283121
 30
0.0
 10
45.8808973338
 20
218.2321752986
 30
0.0
 10
46.4329472391
 20
217.6777837691
 30
0.0
 10
47.1170410835
 20
217.1779397232
 30
0.0
 10
47.9185593004
 20
216.7420195867
 30
0.0
 10
48.8207700229
 20
216.3785141908
 30
0.0
 10
50.1543192924
 20
215.9943296939
 30
0.0
 10
51.941299993
 20
215.7436860339
 30
0.0
 10
54.1078383421
 20
215.8035166276
 30
0.0
 10
56.1565892838
 20
216.2134926652
 30
0.0
 10
57.4135925565
 20
216.7321090459
 30
0.0
 10
57.9687702339
 20
217.0526391141
 30
0.0
  0
SPLINE
  5
458
100
AcDbEntity
  8
0
100
AcDbSpline
 62
7
  6
CONTINUOUS
 70
0
 71
3
 72
9
 73
5
 74
0
 42
0.0000001
 43
0.0000001
 44
0.0000000001
 40
0.0
 40
0.0
 40
0.0
 40
0.0
 40
0.5247613351
 40
1.0
 40
1.0
 40
1.0
 40
1.0
 10
112.175091862
 20
208.5180828453
 30
0.0
 10
112.4899634504
 20
208.5422774253
 30
0.0
 10
113.0872029857
 20
208.6431276077
 30
0.0
 10
113.6532498591
 20
208.867269697
 30
0.0
 10
113.9009310507
 20
209.0102676461
 30
0.0
  0
SPLINE
  5
459
100
AcDbEntity
  8
0
100
AcDbSpline
 62
7
  6
CONTINUOUS
 70
0
 71
3
 72
9
 73
5
 74
0
 42
0.0000001
 43
0.0000001
 44
0.0000000001
 40
0.0
 40
0.0
 40
0.0
 40
0.0
 40
0.2444296014
 40
1.0
 40
1.0
 40
1.0
 40
1.0
 10
59.814448721
 20
226.3767923183
 30
0.0
 10
59.8373475025
 20
226.3077644716
 30
0.0
 10
59.9393461704
 20
226.0281512781
 30
0.0
 10
60.0738719938
 20
225.7607034982
 30
0.0
 10
60.1897850196
 20
225.5680800232
 30
0.0
  0
SPLINE
  5
45A
100
AcDbEntity
  8
0
100
AcDbSpline
 62
7
  6
CONTINUOUS
 70
0
 71
3
 72
9
 73
5
 74
0
 42
0.0000001
 43
0.0000001
 44
0.0000000001
 40
0.0
 40
0.0
 40
0.0
 40
0.0
 40
0.2744293402
 40
1.0
 40
1.0
 40
1.0
 40
1.0
 10
109.6582726998
 20
211.4597121732
 30
0.0
 10
109.5827099275
 20
211.4160862467
 30
0.0
 10
109.3153994802
 20
211.2449482093
 30
0.0
 10
109.0784677576
 20
211.0168326479
 30
0.0
 10
108.9565297943
 20
210.8210054913
 30
0.0
  0
SPLINE
  5
45B
100
AcDbEntity
  8
0
100
AcDbSpline
 62
7
  6
CONTINUOUS
 70
0
 71
3
 72
13
 73
9
 74
0
 42
0.0000001
 43
0.0000001
 44
0.0000000001
 40
0.0
 40
0.0
 40
0.0
 40
0.0
 40
0.1142466307
 40
0.237544229
 40
0.5000005226
 40
0.7624565301
 40
0.8857537943
 40
1.0
 40
1.0
 40
1.0
 40
1.0
 10
78.4043007587
 20
190.9658658469
 30
0.0
 10
78.2590917972
 20
191.0497003833
 30
0.0
 10
77.9415112945
 20
191.1975940248
 30
0.0
 10
77.2376802018
 20
191.4113555315
 30
0.0
 10
76.282977092
 20
191.5151970141
 30
0.0
 10
75.3282749002
 20
191.4113511174
 30
0.0
 10
74.6244464451
 20
191.1975861484
 30
0.0
 10
74.3068678884
 20
191.0496909205
 30
0.0
 10
74.1616600717
 20
190.9658556489
 30
0.0
  0
SPLINE
  5
45C
100
AcDbEntity
  8
0
100
AcDbSpline
 62
7
  6
CONTINUOUS
 70
0
 71
3
 72
9
 73
5
 74
0
 42
0.0000001
 43
0.0000001
 44
0.0000000001
 40
0.0
 40
0.0
 40
0.0
 40
0.0
 40
0.238069298
 40
1.0
 40
1.0
 40
1.0
 40
1.0
 10
74.939262327
 20
224.4009915556
 30
0.0
 10
74.8021094391
 20
224.3218067715
 30
0.0
 10
74.214858914
 20
224.0085923706
 30
0.0
 10
73.5893704866
 20
223.7696130478
 30
0.0
 10
73.1040357017
 20
223.6234811479
 30
0.0
  0
SPLINE
  5
45D
100
AcDbEntity
  8
0
100
AcDbSpline
 62
7
  6
CONTINUOUS
 70
0
 71
3
 72
11
 73
7
 74
0
 42
0.0000001
 43
0.0000001
 44
0.0000000001
 40
0.0
 40
0.0
 40
0.0
 40
0.0
 40
0.2897733512
 40
0.5490657165
 40
0.7822241652
 40
1.0
 40
1.0
 40
1.0
 40
1.0
 10
78.4043184225
 20
188.5164111217
 30
0.0
 10
78.5359867812
 20
188.5924294303
 30
0.0
 10
78.7748373966
 20
188.7568701994
 30
0.0
 10
79.0602045097
 20
189.0568974399
 30
0.0
 10
79.2407770903
 20
189.3886857897
 30
0.0
 10
79.2829752335
 20
189.6268714999
 30
0.0
 10
79.282975232
 20
189.7411333853
 30
0.0
  0
SPLINE
  5
45E
100
AcDbEntity
  8
0
100
AcDbSpline
 62
7
  6
CONTINUOUS
 70
0
 71
3
 72
11
 73
7
 74
0
 42
0.0000001
 43
0.0000001
 44
0.0000000001
 40
0.0
 40
0.0
 40
0.0
 40
0.0
 40
0.2177753738
 40
0.4509336309
 40
0.7102261693
 40
1.0
 40
1.0
 40
1.0
 40
1.0
 10
73.2830032622
 20
189.7411333853
 30
0.0
 10
73.2830032636
 20
189.6268702698
 30
0.0
 10
73.3252023704
 20
189.3886818115
 30
0.0
 10
73.5057788573
 20
189.0568902491
 30
0.0
 10
73.7911517663
 20
188.7568607847
 30
0.0
 10
74.0300069145
 20
188.5924193878
 30
0.0
 10
74.1616777355
 20
188.5164009237
 30
0.0
  0
SPLINE
  5
45F
100
AcDbEntity
  8
0
100
AcDbSpline
 62
7
  6
CONTINUOUS
 70
0
 71
3
 72
13
 73
9
 74
0
 42
0.0000001
 43
0.0000001
 44
0.0000000001
 40
0.0
 40
0.0
 40
0.0
 40
0.0
 40
0.1142466307
 40
0.237544229
 40
0.5000005226
 40
0.7624565301
 40
0.8857537943
 40
1.0
 40
1.0
 40
1.0
 40
1.0
 10
74.1616777355
 20
188.5164009237
 30
0.0
 10
74.306886697
 20
188.4325663872
 30
0.0
 10
74.6244671997
 20
188.2846727458
 30
0.0
 10
75.3282982924
 20
188.0709112391
 30
0.0
 10
76.2830014022
 20
187.9670697565
 30
0.0
 10
77.237703594
 20
188.0709156532
 30
0.0
 10
77.9415320491
 20
188.2846806222
 30
0.0
 10
78.2591106058
 20
188.4325758501
 30
0.0
 10
78.4043184225
 20
188.5164111217
 30
0.0
  0
SPLINE
  5
460
100
AcDbEntity
  8
0
100
AcDbSpline
 62
7
  6
CONTINUOUS
 70
0
 71
3
 72
14
 73
10
 74
0
 42
0.0000001
 43
0.0000001
 44
0.0000000001
 40
0.0
 40
0.0
 40
0.0
 40
0.0
 40
0.3025951117
 40
0.4405094637
 40
0.5685816092
 40
0.6870081306
 40
0.7968674117
 40
0.9002100092
 40
1.0
 40
1.0
 40
1.0
 40
1.0
 10
66.1678984483
 20
223.6234644755
 30
0.0
 10
65.5946521111
 20
223.796062603
 30
0.0
 10
64.7768239272
 20
224.1201824215
 30
0.0
 10
63.8163954367
 20
224.7102532851
 30
0.0
 10
63.223782159
 20
225.1910636482
 30
0.0
 10
62.7480481197
 20
225.7156793164
 30
0.0
 10
62.3987544214
 20
226.2759575519
 30
0.0
 10
62.1844523541
 20
226.861988658
 30
0.0
 10
62.1359784186
 20
227.265368676
 30
0.0
 10
62.1359596447
 20
227.4627972315
 30
0.0
  0
SPLINE
  5
461
100
AcDbEntity
  8
0
100
AcDbSpline
 62
7
  6
CONTINUOUS
 70
0
 71
3
 72
11
 73
7
 74
0
 42
0.0000001
 43
0.0000001
 44
0.0000000001
 40
0.0
 40
0.0
 40
0.0
 40
0.0
 40
0.2177727701
 40
0.4509280213
 40
0.7102223029
 40
1.0
 40
1.0
 40
1.0
 40
1.0
 10
79.2829671947
 20
188.4347295179
 30
0.0
 10
79.2829671962
 20
188.3204696178
 30
0.0
 10
79.240770475
 20
188.0822882593
 30
0.0
 10
79.0602048673
 20
187.7505002789
 30
0.0
 10
78.774839305
 20
187.4504709241
 30
0.0
 10
78.5359883212
 20
187.286026452
 30
0.0
 10
78.4043184225
 20
187.2100072543
 30
0.0
  0
SPLINE
  5
462
100
AcDbEntity
  8
0
100
AcDbSpline
 62
7
  6
CONTINUOUS
 70
0
 71
3
 72
11
 73
7
 74
0
 42
0.0000001
 43
0.0000001
 44
0.0000000001
 40
0.0
 40
0.0
 40
0.0
 40
0.0
 40
0.2177753738
 40
0.4509336309
 40
0.7102261693
 40
1.0
 40
1.0
 40
1.0
 40
1.0
 10
99.8600134257
 20
215.7871540432
 30
0.0
 10
99.8600134277
 20
215.6348032225
 30
0.0
 10
99.9162789033
 20
215.3172186114
 30
0.0
 10
100.1570475525
 20
214.8748298616
 30
0.0
 10
100.5375447645
 20
214.4747905757
 30
0.0
 10
100.8560182955
 20
214.2555353799
 30
0.0
 10
101.0315793901
 20
214.1541774277
 30
0.0
  0
SPLINE
  5
463
100
AcDbEntity
  8
0
100
AcDbSpline
 62
7
  6
CONTINUOUS
 70
0
 71
3
 72
12
 73
8
 74
0
 42
0.0000001
 43
0.0000001
 44
0.0000000001
 40
0.0
 40
0.0
 40
0.0
 40
0.0
 40
0.2895887048
 40
0.5486357248
 40
0.7816392924
 40
0.8918396792
 40
1.0
 40
1.0
 40
1.0
 40
1.0
 10
74.939262327
 20
226.4422475984
 30
0.0
 10
75.2684743669
 20
226.6323171237
 30
0.0
 10
75.8656216793
 20
227.0435736826
 30
0.0
 10
76.5789847737
 20
227.792912281
 30
0.0
 10
76.9620582288
 20
228.4989782016
 30
0.0
 10
77.1112054635
 20
229.0748400503
 30
0.0
 10
77.1359326334
 20
229.3620720619
 30
0.0
 10
77.1359191321
 20
229.5040532403
 30
0.0
  0
SPLINE
  5
464
100
AcDbEntity
  8
0
100
AcDbSpline
 62
7
  6
CONTINUOUS
 70
0
 71
3
 72
9
 73
5
 74
0
 42
0.0000001
 43
0.0000001
 44
0.0000000001
 40
0.0
 40
0.0
 40
0.0
 40
0.0
 40
0.2616987796
 40
1.0
 40
1.0
 40
1.0
 40
1.0
 10
73.1040357017
 20
225.6647371907
 30
0.0
 10
73.2707195727
 20
225.7149248787
 30
0.0
 10
73.9025231076
 20
225.9227654722
 30
0.0
 10
74.5139567414
 20
226.1966987698
 30
0.0
 10
74.939262327
 20
226.4422475984
 30
0.0
  0
SPLINE
  5
465
100
AcDbEntity
  8
0
100
AcDbSpline
 62
7
  6
CONTINUOUS
 70
0
 71
3
 72
10
 73
6
 74
0
 42
0.0000001
 43
0.0000001
 44
0.0000000001
 40
0.0
 40
0.0
 40
0.0
 40
0.0
 40
0.2304925296
 40
0.4761463899
 40
1.0
 40
1.0
 40
1.0
 40
1.0
 10
74.4089300331
 20
226.7484281643
 30
0.0
 10
74.1562419276
 20
226.6025394894
 30
0.0
 10
73.6131666134
 20
226.3366801975
 30
0.0
 10
72.4185766691
 20
225.9126335878
 30
0.0
 10
71.4533689517
 20
225.7310446714
 30
0.0
 10
70.7935507653
 20
225.664731637
 30
0.0
  0
SPLINE
  5
466
100
AcDbEntity
  8
0
100
AcDbSpline
 62
7
  6
CONTINUOUS
 70
0
 71
3
 72
14
 73
10
 74
0
 42
0.0000001
 43
0.0000001
 44
0.0000000001
 40
0.0
 40
0.0
 40
0.0
 40
0.0
 40
0.3072077455
 40
0.4497476581
 40
0.5815295956
 40
0.7013156741
 40
0.80928384
 40
0.9074709327
 40
1.0
 40
1.0
 40
1.0
 40
1.0
 10
34.2054172996
 20
210.801303037
 30
0.0
 10
33.856195554
 20
210.8255248721
 30
0.0
 10
33.3453350205
 20
210.9127206346
 30
0.0
 10
32.7219764293
 20
211.1417377411
 30
0.0
 10
32.3243315396
 20
211.3541796893
 30
0.0
 10
31.9977607709
 20
211.6052138316
 30
0.0
 10
31.7527560066
 20
211.8885615261
 30
0.0
 10
31.5990552226
 20
212.19686631
 30
0.0
 10
31.5635519438
 20
212.4154979074
 30
0.0
 10
31.5635333344
 20
212.5209340306
 30
0.0
  0
SPLINE
  5
467
100
AcDbEntity
  8
0
100
AcDbSpline
 62
7
  6
CONTINUOUS
 70
0
 71
3
 72
11
 73
7
 74
0
 42
0.0000001
 43
0.0000001
 44
0.0000000001
 40
0.0
 40
0.0
 40
0.0
 40
0.0
 40
0.2177727701
 40
0.4509280213
 40
0.7102223029
 40
1.0
 40
1.0
 40
1.0
 40
1.0
 10
108.7796239276
 20
211.3780932936
 30
0.0
 10
108.7796239261
 20
211.4923531937
 30
0.0
 10
108.8218206474
 20
211.7305345522
 30
0.0
 10
109.002386255
 20
212.0623225327
 30
0.0
 10
109.2877518174
 20
212.3623518874
 30
0.0
 10
109.5266028012
 20
212.5267963595
 30
0.0
 10
109.6582726998
 20
212.6028155572
 30
0.0
  0
SPLINE
  5
468
100
AcDbEntity
  8
0
100
AcDbSpline
 62
7
  6
CONTINUOUS
 70
0
 71
3
 72
11
 73
7
 74
0
 42
0.0000001
 43
0.0000001
 44
0.0000000001
 40
0.0
 40
0.0
 40
0.0
 40
0.0
 40
0.2177796629
 40
0.4509238111
 40
0.7102593659
 40
1.0
 40
1.0
 40
1.0
 40
1.0
 10
114.7795840043
 20
208.9285860463
 30
0.0
 10
114.7796041717
 20
208.8143229637
 30
0.0
 10
114.7373485933
 20
208.5761513573
 30
0.0
 10
114.5568193251
 20
208.2443327692
 30
0.0
 10
114.2714190693
 20
207.9443341272
 30
0.0
 10
114.0325836104
 20
207.7798729658
 30
0.0
 10
113.9009310507
 20
207.7038637787
 30
0.0
  0
SPLINE
  5
469
100
AcDbEntity
  8
0
100
AcDbSpline
 62
7
  6
CONTINUOUS
 70
0
 71
3
 72
15
 73
11
 74
0
 42
0.0000001
 43
0.0000001
 44
0.0000000001
 40
0.0
 40
0.0
 40
0.0
 40
0.0
 40
0.1569041761
 40
0.3076246809
 40
0.4494958491
 40
0.5806114842
 40
0.6999781321
 40
0.8079607691
 40
0.9066435358
 40
1.0
 40
1.0
 40
1.0
 40
1.0
 10
68.4783833847
 20
225.664726072
 30
0.0
 10
68.0962527058
 20
225.7031290693
 30
0.0
 10
67.3502006035
 20
225.8163935607
 30
0.0
 10
66.284460761
 20
226.0986866216
 30
0.0
 10
65.3181751741
 20
226.4830904957
 30
0.0
 10
64.4797372936
 20
226.9586476021
 30
0.0
 10
63.7935166764
 20
227.5129216517
 30
0.0
 10
63.2804408924
 20
228.132760168
 30
0.0
 10
62.9598491603
 20
228.8028193441
 30
0.0
 10
62.8859438978
 20
229.2755439393
 30
0.0
 10
62.8859508512
 20
229.5040532543
 30
0.0
  0
SPLINE
  5
46A
100
AcDbEntity
  8
0
100
AcDbSpline
 62
7
  6
CONTINUOUS
 70
0
 71
3
 72
17
 73
13
 74
0
 42
0.0000001
 43
0.0000001
 44
0.0000000001
 40
0.0
 40
0.0
 40
0.0
 40
0.0
 40
0.0428574423
 40
0.0874864255
 40
0.135320533
 40
0.1872838238
 40
0.3045491376
 40
0.4382184498
 40
0.5825636743
 40
0.7297201978
 40
0.8713079774
 40
1.0
 40
1.0
 40
1.0
 40
1.0
 10
65.6359668464
 20
236.4443238031
 30
0.0
 10
65.6359677181
 20
236.3304598856
 30
0.0
 10
65.6663944208
 20
236.0970328198
 30
0.0
 10
65.8002708166
 20
235.7599892323
 30
0.0
 10
66.0175102302
 20
235.4404541979
 30
0.0
 10
66.4264400573
 20
235.030018825
 30
0.0
 10
67.1232854214
 20
234.6058776494
 30
0.0
 10
68.1251937263
 20
234.27119224
 30
0.0
 10
69.2495636422
 20
234.1131935276
 30
0.0
 10
70.4052224147
 20
234.145211955
 30
0.0
 10
71.4978619637
 20
234.3637944577
 30
0.0
 10
72.1682753086
 20
234.6404066699
 30
0.0
 10
72.464378289
 20
234.8113607848
 30
0.0
  0
SPLINE
  5
46B
100
AcDbEntity
  8
0
100
AcDbSpline
 62
7
  6
CONTINUOUS
 70
0
 71
3
 72
12
 73
8
 74
0
 42
0.0000001
 43
0.0000001
 44
0.0000000001
 40
0.0
 40
0.0
 40
0.0
 40
0.0
 40
0.2895810204
 40
0.548637375
 40
0.7816378622
 40
0.8918387092
 40
1.0
 40
1.0
 40
1.0
 40
1.0
 10
74.4089300331
 20
232.0556938756
 30
0.0
 10
74.7052130315
 20
232.2267519234
 30
0.0
 10
75.2426413674
 20
232.5968902408
 30
0.0
 10
75.8846836284
 20
233.2712778107
 30
0.0
 10
76.2294519805
 20
233.9067481089
 30
0.0
 10
76.3636676214
 20
234.4250267609
 30
0.0
 10
76.3859240221
 20
234.683534754
 30
0.0
 10
76.3859279193
 20
234.8113189717
 30
0.0
  0
SPLINE
  5
46C
100
AcDbEntity
  8
0
100
AcDbSpline
 62
7
  6
CONTINUOUS
 70
0
 71
3
 72
10
 73
6
 74
0
 42
0.0000001
 43
0.0000001
 44
0.0000000001
 40
0.0
 40
0.0
 40
0.0
 40
0.0
 40
0.5238536101
 40
0.7695074704
 40
1.0
 40
1.0
 40
1.0
 40
1.0
 10
70.7935507653
 20
230.9719973483
 30
0.0
 10
71.4533689517
 20
231.0383103828
 30
0.0
 10
72.4185766691
 20
231.2198992992
 30
0.0
 10
73.6131666134
 20
231.6439459088
 30
0.0
 10
74.1562419276
 20
231.9098052007
 30
0.0
 10
74.4089300331
 20
232.0556938756
 30
0.0
  0
SPLINE
  5
46D
100
AcDbEntity
  8
0
100
AcDbSpline
 62
7
  6
CONTINUOUS
 70
0
 71
3
 72
13
 73
9
 74
0
 42
0.0000001
 43
0.0000001
 44
0.0000000001
 40
0.0
 40
0.0
 40
0.0
 40
0.0
 40
0.1142487484
 40
0.2375477548
 40
0.5000005226
 40
0.7624530043
 40
0.8857516767
 40
1.0
 40
1.0
 40
1.0
 40
1.0
 10
74.1616806794
 20
186.8017546021
 30
0.0
 10
74.3068922492
 20
186.7179185598
 30
0.0
 10
74.6244786254
 20
186.5700254478
 30
0.0
 10
75.3283100463
 20
186.3562668075
 30
0.0
 10
76.2830043462
 20
186.2524302803
 30
0.0
 10
77.237697728
 20
186.3562712217
 30
0.0
 10
77.9415265114
 20
186.5700333242
 30
0.0
 10
78.2591109416
 20
186.7179280227
 30
0.0
 10
78.4043213665
 20
186.8017648001
 30
0.0
  0
SPLINE
  5
46E
100
AcDbEntity
  8
0
100
AcDbSpline
 62
7
  6
CONTINUOUS
 70
0
 71
3
 72
17
 73
13
 74
0
 42
0.0000001
 43
0.0000001
 44
0.0000000001
 40
0.0
 40
0.0
 40
0.0
 40
0.0
 40
0.1286903759
 40
0.2702749122
 40
0.4174292505
 40
0.5617762177
 40
0.6954483458
 40
0.8127147475
 40
0.8646780754
 40
0.9125121143
 40
0.957141621
 40
1.0
 40
1.0
 40
1.0
 40
1.0
 10
72.464378289
 20
233.1783559506
 30
0.0
 10
72.1682790998
 20
233.0074040244
 30
0.0
 10
71.4978785198
 20
232.7307959099
 30
0.0
 10
70.4052591934
 20
232.5122099764
 30
0.0
 10
69.2496102825
 20
232.4801843093
 30
0.0
 10
68.1252336069
 20
232.638178885
 30
0.0
 10
67.1233078377
 20
232.9728605479
 30
0.0
 10
66.4264519962
 20
233.3970041262
 30
0.0
 10
66.0175169808
 20
233.8074393999
 30
0.0
 10
65.8002812077
 20
234.1269773594
 30
0.0
 10
65.6663918368
 20
234.4640205106
 30
0.0
 10
65.6359716151
 20
234.6974525668
 30
0.0
 10
65.635968903
 20
234.8113189718
 30
0.0
  0
SPLINE
  5
46F
100
AcDbEntity
  8
0
100
AcDbSpline
 62
7
  6
CONTINUOUS
 70
0
 71
3
 72
13
 73
9
 74
0
 42
0.0000001
 43
0.0000001
 44
0.0000000001
 40
0.0
 40
0.0
 40
0.0
 40
0.0
 40
0.1142466307
 40
0.237544229
 40
0.5000005226
 40
0.7624565301
 40
0.8857537943
 40
1.0
 40
1.0
 40
1.0
 40
1.0
 10
36.6848269751
 20
215.0520703636
 30
0.0
 10
36.5396180135
 20
215.1359049
 30
0.0
 10
36.2220375108
 20
215.2837985415
 30
0.0
 10
35.5182064181
 20
215.4975600482
 30
0.0
 10
34.5635033083
 20
215.6014015308
 30
0.0
 10
33.6088011165
 20
215.4975556341
 30
0.0
 10
32.9049726614
 20
215.283790665
 30
0.0
 10
32.5873941047
 20
215.1358954372
 30
0.0
 10
32.442186288
 20
215.0520601655
 30
0.0
  0
SPLINE
  5
470
100
AcDbEntity
  8
0
100
AcDbSpline
 62
7
  6
CONTINUOUS
 70
0
 71
3
 72
11
 73
7
 74
0
 42
0.0000001
 43
0.0000001
 44
0.0000000001
 40
0.0
 40
0.0
 40
0.0
 40
0.0
 40
0.2897756264
 40
0.5490692242
 40
0.7822277401
 40
1.0
 40
1.0
 40
1.0
 40
1.0
 10
72.464378289
 20
234.8113607848
 30
0.0
 10
72.6399371877
 20
234.9127191573
 30
0.0
 10
72.9584059241
 20
235.1319752507
 30
0.0
 10
73.3388942163
 20
235.5320147072
 30
0.0
 10
73.5796548805
 20
235.9743985316
 30
0.0
 10
73.6359130968
 20
236.2919773758
 30
0.0
 10
73.6359119304
 20
236.4443238027
 30
0.0
  0
SPLINE
  5
471
100
AcDbEntity
  8
0
100
AcDbSpline
 62
7
  6
CONTINUOUS
 70
0
 71
3
 72
9
 73
5
 74
0
 42
0.0000001
 43
0.0000001
 44
0.0000000001
 40
0.0
 40
0.0
 40
0.0
 40
0.0
 40
0.2532012083
 40
1.0
 40
1.0
 40
1.0
 40
1.0
 10
41.3364728184
 20
164.676261612
 30
0.0
 10
41.3959884717
 20
164.7653590718
 30
0.0
 10
41.6372126155
 20
165.1130683095
 30
0.0
 10
41.9032394935
 20
165.4436743434
 30
0.0
 10
42.1151518989
 20
165.6781166615
 30
0.0
  0
SPLINE
  5
472
100
AcDbEntity
  8
0
100
AcDbSpline
 62
7
  6
CONTINUOUS
 70
0
 71
3
 72
9
 73
5
 74
0
 42
0.0000001
 43
0.0000001
 44
0.0000000001
 40
0.0
 40
0.0
 40
0.0
 40
0.0
 40
0.4827606593
 40
1.0
 40
1.0
 40
1.0
 40
1.0
 10
65.0770385981
 20
118.0754471889
 30
0.0
 10
65.2519128058
 20
117.974451377
 30
0.0
 10
65.6536489555
 20
117.8284371249
 30
0.0
 10
66.0784597083
 20
117.8180829517
 30
0.0
 10
66.2937676057
 20
117.8394565807
 30
0.0
  0
SPLINE
  5
473
100
AcDbEntity
  8
0
100
AcDbSpline
 62
7
  6
CONTINUOUS
 70
0
 71
3
 72
9
 73
5
 74
0
 42
0.0000001
 43
0.0000001
 44
0.0000000001
 40
0.0
 40
0.0
 40
0.0
 40
0.0
 40
0.4818272763
 40
1.0
 40
1.0
 40
1.0
 40
1.0
 10
73.3501534322
 20
113.2988255598
 30
0.0
 10
73.5314521524
 20
113.1941907252
 30
0.0
 10
73.9502887671
 20
113.0451135224
 30
0.0
 10
74.3919645367
 20
113.0416474719
 30
0.0
 10
74.6155230512
 20
113.0680888442
 30
0.0
  0
SPLINE
  5
474
100
AcDbEntity
  8
0
100
AcDbSpline
 62
7
  6
CONTINUOUS
 70
0
 71
3
 72
11
 73
7
 74
0
 42
0.0000001
 43
0.0000001
 44
0.0000000001
 40
0.0
 40
0.0
 40
0.0
 40
0.0
 40
0.2453141499
 40
0.4999989983
 40
0.7546843623
 40
1.0
 40
1.0
 40
1.0
 40
1.0
 10
78.9221240842
 20
150.1764451936
 30
0.0
 10
79.1251274206
 20
150.3689986955
 30
0.0
 10
79.5074632618
 20
150.7954995662
 30
0.0
 10
79.9884474802
 20
151.512392269
 30
0.0
 10
80.3687995725
 20
152.2873865722
 30
0.0
 10
80.5469908387
 20
152.8317523652
 30
0.0
 10
80.6122451325
 20
153.1038369705
 30
0.0
  0
SPLINE
  5
475
100
AcDbEntity
  8
0
100
AcDbSpline
 62
7
  6
CONTINUOUS
 70
0
 71
3
 72
11
 73
7
 74
0
 42
0.0000001
 43
0.0000001
 44
0.0000000001
 40
0.0
 40
0.0
 40
0.0
 40
0.0
 40
0.2536823963
 40
0.5159684669
 40
0.7698313377
 40
1.0
 40
1.0
 40
1.0
 40
1.0
 10
81.6246652052
 20
157.3252283924
 30
0.0
 10
81.7496466755
 20
157.8463517096
 30
0.0
 10
82.1186067881
 20
158.8805786981
 30
0.0
 10
82.9345245643
 20
160.296810961
 30
0.0
 10
83.9578466566
 20
161.5071013971
 30
0.0
 10
84.7714313259
 20
162.1451616318
 30
0.0
 10
85.1925182038
 20
162.3882748029
 30
0.0
  0
SPLINE
  5
476
100
AcDbEntity
  8
0
100
AcDbSpline
 62
7
  6
CONTINUOUS
 70
0
 71
3
 72
11
 73
7
 74
0
 42
0.0000001
 43
0.0000001
 44
0.0000000001
 40
0.0
 40
0.0
 40
0.0
 40
0.0
 40
0.2897878736
 40
0.5490531256
 40
0.7822219697
 40
1.0
 40
1.0
 40
1.0
 40
1.0
 10
107.8198409946
 20
175.4520877268
 30
0.0
 10
108.0524666462
 20
175.5863934076
 30
0.0
 10
108.5150279508
 20
175.8065917273
 30
0.0
 10
109.2261384445
 20
175.9781025199
 30
0.0
 10
109.8932760705
 20
175.9613903088
 30
0.0
 10
110.2949435804
 20
175.8154613143
 30
0.0
 10
110.4697793402
 20
175.7145565247
 30
0.0
  0
SPLINE
  5
477
100
AcDbEntity
  8
0
100
AcDbSpline
 62
7
  6
CONTINUOUS
 70
0
 71
3
 72
9
 73
5
 74
0
 42
0.0000001
 43
0.0000001
 44
0.0000000001
 40
0.0
 40
0.0
 40
0.0
 40
0.0
 40
0.4911856761
 40
1.0
 40
1.0
 40
1.0
 40
1.0
 10
41.3303848049
 20
162.8654151508
 30
0.0
 10
41.3303848072
 20
157.6179776163
 30
0.0
 10
41.6085383004
 20
146.9334135657
 30
0.0
 10
42.3995916861
 20
136.2751324613
 30
0.0
 10
42.9260733402
 20
130.8649207415
 30
0.0
  0
SPLINE
  5
478
100
AcDbEntity
  8
0
100
AcDbSpline
 62
7
  6
CONTINUOUS
 70
0
 71
3
 72
8
 73
4
 74
0
 42
0.0000001
 43
0.0000001
 44
0.0000000001
 40
0.0
 40
0.0
 40
0.0
 40
0.0
 40
1.0
 40
1.0
 40
1.0
 40
1.0
 10
42.1151518989
 20
165.6781166615
 30
0.0
 10
42.2577606019
 20
165.8358871084
 30
0.0
 10
42.4218311831
 20
165.9751142257
 30
0.0
 10
42.594892114
 20
166.0987211442
 30
0.0
  0
SPLINE
  5
479
100
AcDbEntity
  8
0
100
AcDbSpline
 62
7
  6
CONTINUOUS
 70
0
 71
3
 72
9
 73
5
 74
0
 42
0.0000001
 43
0.0000001
 44
0.0000000001
 40
0.0
 40
0.0
 40
0.0
 40
0.0
 40
0.4919174537
 40
1.0
 40
1.0
 40
1.0
 40
1.0
 10
43.2481739081
 20
130.6780232534
 30
0.0
 10
45.8358189083
 20
129.1840489582
 30
0.0
 10
51.2549548447
 20
126.4191777941
 30
0.0
 10
56.8608324384
 20
124.070879199
 30
0.0
 10
59.7366681933
 20
122.9511293585
 30
0.0
  0
SPLINE
  5
47A
100
AcDbEntity
  8
0
100
AcDbSpline
 62
7
  6
CONTINUOUS
 70
0
 71
3
 72
10
 73
6
 74
0
 42
0.0000001
 43
0.0000001
 44
0.0000000001
 40
0.0
 40
0.0
 40
0.0
 40
0.0
 40
0.2355377209
 40
0.4775238205
 40
1.0
 40
1.0
 40
1.0
 40
1.0
 10
110.4697793402
 20
175.7145565247
 30
0.0
 10
110.5748437533
 20
175.6539196018
 30
0.0
 10
110.7756234965
 20
175.5082806261
 30
0.0
 10
111.1253743388
 20
175.1266153045
 30
0.0
 10
111.3029804772
 20
174.7642222123
 30
0.0
 10
111.3876939931
 20
174.5088185028
 30
0.0
  0
SPLINE
  5
47B
100
AcDbEntity
  8
0
100
AcDbSpline
 62
7
  6
CONTINUOUS
 70
0
 71
3
 72
10
 73
6
 74
0
 42
0.0000001
 43
0.0000001
 44
0.0000000001
 40
0.0
 40
0.0
 40
0.0
 40
0.0
 40
0.5096141816
 40
0.7577375205
 40
1.0
 40
1.0
 40
1.0
 40
1.0
 10
59.7366681933
 20
149.0792067066
 30
0.0
 10
56.4818003351
 20
151.5701876682
 30
0.0
 10
51.7496911954
 20
155.4163427693
 30
0.0
 10
45.6899481698
 20
160.7048322461
 30
0.0
 10
42.7690240167
 20
163.3554462203
 30
0.0
 10
41.3358479185
 20
164.6754640676
 30
0.0
  0
SPLINE
  5
47C
100
AcDbEntity
  8
0
100
AcDbSpline
 62
7
  6
CONTINUOUS
 70
0
 71
3
 72
9
 73
5
 74
0
 42
0.0000001
 43
0.0000001
 44
0.0000000001
 40
0.0
 40
0.0
 40
0.0
 40
0.0
 40
0.5172504122
 40
1.0
 40
1.0
 40
1.0
 40
1.0
 10
72.5371893402
 20
114.23499131
 30
0.0
 10
72.6263362099
 20
114.0377443954
 30
0.0
 10
72.8477422411
 20
113.674843372
 30
0.0
 10
73.1751839906
 20
113.3998075114
 30
0.0
 10
73.3501534322
 20
113.2988255598
 30
0.0
  0
SPLINE
  5
47D
100
AcDbEntity
  8
0
100
AcDbSpline
 62
7
  6
CONTINUOUS
 70
0
 71
3
 72
11
 73
7
 74
0
 42
0.0000001
 43
0.0000001
 44
0.0000000001
 40
0.0
 40
0.0
 40
0.0
 40
0.0
 40
0.2897893463
 40
0.549055133
 40
0.7822233876
 40
1.0
 40
1.0
 40
1.0
 40
1.0
 10
63.9793265442
 20
120.5016848314
 30
0.0
 10
63.9793265442
 20
120.2330602604
 30
0.0
 10
64.0199105064
 20
119.7223490225
 30
0.0
 10
64.2269415126
 20
119.0207246146
 30
0.0
 10
64.5749991891
 20
118.4513023062
 30
0.0
 10
64.902226847
 20
118.1764069298
 30
0.0
 10
65.0770385981
 20
118.0754471889
 30
0.0
  0
SPLINE
  5
47E
100
AcDbEntity
  8
0
100
AcDbSpline
 62
7
  6
CONTINUOUS
 70
0
 71
3
 72
11
 73
7
 74
0
 42
0.0000001
 43
0.0000001
 44
0.0000000001
 40
0.0
 40
0.0
 40
0.0
 40
0.0
 40
0.2518429816
 40
0.5125646116
 40
0.7666884317
 40
1.0
 40
1.0
 40
1.0
 40
1.0
 10
66.5801080873
 20
152.251163519
 30
0.0
 10
66.2087726684
 20
151.8989430257
 30
0.0
 10
65.5257993747
 20
151.103014041
 30
0.0
 10
64.7261959131
 20
149.7573733871
 30
0.0
 10
64.1805320926
 20
148.3303675675
 30
0.0
 10
64.0071910473
 20
147.3455700842
 30
0.0
 10
63.9850641758
 20
146.8719374636
 30
0.0
  0
SPLINE
  5
47F
100
AcDbEntity
  8
0
100
AcDbSpline
 62
7
  6
CONTINUOUS
 70
0
 71
3
 72
11
 73
7
 74
0
 42
0.0000001
 43
0.0000001
 44
0.0000000001
 40
0.0
 40
0.0
 40
0.0
 40
0.0
 40
0.2177825102
 40
0.4509091639
 40
0.7102957096
 40
1.0
 40
1.0
 40
1.0
 40
1.0
 10
30.5886673046
 20
140.5609479237
 30
0.0
 10
30.4897073806
 20
140.6180811814
 30
0.0
 10
30.3045571742
 20
140.7737351413
 30
0.0
 10
30.1074430972
 20
141.0960249768
 30
0.0
 10
29.9903689942
 20
141.4932070349
 30
0.0
 10
29.9673228577
 20
141.7822882837
 30
0.0
 10
29.9673228577
 20
141.934293403
 30
0.0
  0
SPLINE
  5
480
100
AcDbEntity
  8
0
100
AcDbSpline
 62
7
  6
CONTINUOUS
 70
0
 71
3
 72
11
 73
7
 74
0
 42
0.0000001
 43
0.0000001
 44
0.0000000001
 40
0.0
 40
0.0
 40
0.0
 40
0.0
 40
0.2372398078
 40
0.4999994051
 40
0.7627593222
 40
1.0
 40
1.0
 40
1.0
 40
1.0
 10
78.4043213665
 20
161.245239144
 30
0.0
 10
78.103154116
 20
161.0713611887
 30
0.0
 10
77.402793552
 20
160.8176321409
 30
0.0
 10
76.2830046157
 20
160.6960677005
 30
0.0
 10
75.1632138272
 20
160.8176269349
 30
0.0
 10
74.4628502882
 20
161.0713525248
 30
0.0
 10
74.1616806794
 20
161.2452289459
 30
0.0
  0
SPLINE
  5
481
100
AcDbEntity
  8
0
100
AcDbSpline
 62
7
  6
CONTINUOUS
 70
0
 71
3
 72
11
 73
7
 74
0
 42
0.0000001
 43
0.0000001
 44
0.0000000001
 40
0.0
 40
0.0
 40
0.0
 40
0.0
 40
0.2177821605
 40
0.4509085882
 40
0.7102951949
 40
1.0
 40
1.0
 40
1.0
 40
1.0
 10
115.4866936868
 20
183.3720620858
 30
0.0
 10
115.4866936548
 20
183.2577980752
 30
0.0
 10
115.444467981
 20
183.0196358894
 30
0.0
 10
115.2639181785
 20
182.6877991499
 30
0.0
 10
114.9784942629
 20
182.3878316706
 30
0.0
 10
114.739673669
 20
182.2233393546
 30
0.0
 10
114.6080378319
 20
182.1473398222
 30
0.0
  0
SPLINE
  5
482
100
AcDbEntity
  8
0
100
AcDbSpline
 62
7
  6
CONTINUOUS
 70
0
 71
3
 72
9
 73
5
 74
0
 42
0.0000001
 43
0.0000001
 44
0.0000000001
 40
0.0
 40
0.0
 40
0.0
 40
0.0
 40
0.2349022509
 40
1.0
 40
1.0
 40
1.0
 40
1.0
 10
74.1616806794
 20
184.3522473507
 30
0.0
 10
74.2351140141
 20
184.3098515543
 30
0.0
 10
74.5558832427
 20
184.1435770204
 30
0.0
 10
74.902617846
 20
184.0301253737
 30
0.0
 10
75.1717561662
 20
183.9681645531
 30
0.0
  0
SPLINE
  5
483
100
AcDbEntity
  8
0
100
AcDbSpline
 62
7
  6
CONTINUOUS
 70
0
 71
3
 72
9
 73
5
 74
0
 42
0.0000001
 43
0.0000001
 44
0.0000000001
 40
0.0
 40
0.0
 40
0.0
 40
0.0
 40
0.2465708886
 40
1.0
 40
1.0
 40
1.0
 40
1.0
 10
75.1717561662
 20
183.9681645531
 30
0.0
 10
75.2148199234
 20
183.9582504475
 30
0.0
 10
75.3900546155
 20
183.9206109522
 30
0.0
 10
75.5674437992
 20
183.8931038667
 30
0.0
 10
75.7016045457
 20
183.8778162535
 30
0.0
  0
SPLINE
  5
484
100
AcDbEntity
  8
0
100
AcDbSpline
 62
7
  6
CONTINUOUS
 70
0
 71
3
 72
9
 73
5
 74
0
 42
0.0000001
 43
0.0000001
 44
0.0000000001
 40
0.0
 40
0.0
 40
0.0
 40
0.0
 40
0.2532154778
 40
1.0
 40
1.0
 40
1.0
 40
1.0
 10
76.8643503819
 20
183.8778128969
 30
0.0
 10
76.9094356838
 20
183.8829500943
 30
0.0
 10
77.0872004924
 20
183.905653049
 30
0.0
 10
77.2637399207
 20
183.9381259274
 30
0.0
 10
77.3941551958
 20
183.9681477467
 30
0.0
  0
SPLINE
  5
485
100
AcDbEntity
  8
0
100
AcDbSpline
 62
7
  6
CONTINUOUS
 70
0
 71
3
 72
9
 73
5
 74
0
 42
0.0000001
 43
0.0000001
 44
0.0000000001
 40
0.0
 40
0.0
 40
0.0
 40
0.0
 40
0.2642673046
 40
1.0
 40
1.0
 40
1.0
 40
1.0
 10
77.3941551958
 20
183.9681477467
 30
0.0
 10
77.4871110483
 20
183.989546343
 30
0.0
 10
77.8360095573
 20
184.08163974
 30
0.0
 10
78.1743375135
 20
184.2194771019
 30
0.0
 10
78.4043213665
 20
184.3522575487
 30
0.0
  0
SPLINE
  5
486
100
AcDbEntity
  8
0
100
AcDbSpline
 62
7
  6
CONTINUOUS
 70
0
 71
3
 72
9
 73
5
 74
0
 42
0.0000001
 43
0.0000001
 44
0.0000000001
 40
0.0
 40
0.0
 40
0.0
 40
0.0
 40
0.256139438
 40
1.0
 40
1.0
 40
1.0
 40
1.0
 10
114.7960717411
 20
205.3735895167
 30
0.0
 10
114.8148455799
 20
205.3866684744
 30
0.0
 10
114.8874202896
 20
205.4387515796
 30
0.0
 10
114.9570388284
 20
205.4949966554
 30
0.0
 10
115.0065982961
 20
205.5392590494
 30
0.0
  0
SPLINE
  5
487
100
AcDbEntity
  8
0
100
AcDbSpline
 62
7
  6
CONTINUOUS
 70
0
 71
3
 72
9
 73
5
 74
0
 42
0.0000001
 43
0.0000001
 44
0.0000000001
 40
0.0
 40
0.0
 40
0.0
 40
0.0
 40
0.2609341878
 40
1.0
 40
1.0
 40
1.0
 40
1.0
 10
115.0065982961
 20
205.5392590494
 30
0.0
 10
115.032587459
 20
205.5624704078
 30
0.0
 10
115.1298415389
 20
205.6539755451
 30
0.0
 10
115.2172092542
 20
205.7563085621
 30
0.0
 10
115.273298262
 20
205.8375172442
 30
0.0
  0
SPLINE
  5
488
100
AcDbEntity
  8
0
100
AcDbSpline
 62
7
  6
CONTINUOUS
 70
0
 71
3
 72
9
 73
5
 74
0
 42
0.0000001
 43
0.0000001
 44
0.0000000001
 40
0.0
 40
0.0
 40
0.0
 40
0.0
 40
0.2604112263
 40
1.0
 40
1.0
 40
1.0
 40
1.0
 10
115.273298262
 20
205.8375172442
 30
0.0
 10
115.2940399391
 20
205.8675481598
 30
0.0
 10
115.3693069405
 20
205.9857734864
 30
0.0
 10
115.4254805869
 20
206.1166230053
 30
0.0
 10
115.4520557483
 20
206.2168145031
 30
0.0
  0
SPLINE
  5
489
100
AcDbEntity
  8
0
100
AcDbSpline
 62
7
  6
CONTINUOUS
 70
0
 71
3
 72
9
 73
5
 74
0
 42
0.0000001
 43
0.0000001
 44
0.0000000001
 40
0.0
 40
0.0
 40
0.0
 40
0.0
 40
0.2527278947
 40
1.0
 40
1.0
 40
1.0
 40
1.0
 10
115.4520557483
 20
206.2168145031
 30
0.0
 10
115.4577783407
 20
206.2383893525
 30
0.0
 10
115.4777657938
 20
206.3244358202
 30
0.0
 10
115.486693699
 20
206.4130815254
 30
0.0
 10
115.4866936868
 20
206.4790804905
 30
0.0
  0
SPLINE
  5
48A
100
AcDbEntity
  8
0
100
AcDbSpline
 62
7
  6
CONTINUOUS
 70
0
 71
3
 72
11
 73
7
 74
0
 42
0.0000001
 43
0.0000001
 44
0.0000000001
 40
0.0
 40
0.0
 40
0.0
 40
0.0
 40
0.289777178
 40
0.5490714024
 40
0.7822268829
 40
1.0
 40
1.0
 40
1.0
 40
1.0
 10
191.2586884671
 20
135.3627549744
 30
0.0
 10
191.2586884671
 20
135.7073890599
 30
0.0
 10
191.2065789178
 20
136.3626453271
 30
0.0
 10
190.9410233453
 20
137.2628802241
 30
0.0
 10
190.4943451136
 20
137.9933796818
 30
0.0
 10
190.0746007895
 20
138.3461601107
 30
0.0
 10
189.8502996939
 20
138.4756574908
 30
0.0
  0
SPLINE
  5
48B
100
AcDbEntity
  8
0
100
AcDbSpline
 62
7
  6
CONTINUOUS
 70
0
 71
3
 72
12
 73
8
 74
0
 42
0.0000001
 43
0.0000001
 44
0.0000000001
 40
0.0
 40
0.0
 40
0.0
 40
0.0
 40
0.2439584501
 40
0.5065909731
 40
0.7655398166
 40
0.8870120128
 40
1.0
 40
1.0
 40
1.0
 40
1.0
 10
187.0075749159
 20
84.6089375966
 30
0.0
 10
187.6246671841
 20
85.0483632465
 30
0.0
 10
188.7743994133
 20
86.1500265072
 30
0.0
 10
190.108703355
 20
88.1341715376
 30
0.0
 10
190.874247529
 20
89.9979165738
 30
0.0
 10
191.1993607442
 20
91.4984109955
 30
0.0
 10
191.2586884671
 20
92.2271684657
 30
0.0
 10
191.2586884671
 20
92.5780283168
 30
0.0
  0
SPLINE
  5
48C
100
AcDbEntity
  8
0
100
AcDbSpline
 62
7
  6
CONTINUOUS
 70
0
 71
3
 72
16
 73
12
 74
0
 42
0.0000001
 43
0.0000001
 44
0.0000000001
 40
0.0
 40
0.0
 40
0.0
 40
0.0
 40
0.1287350855
 40
0.2704098208
 40
0.4176147031
 40
0.5620215413
 40
0.6957477584
 40
0.8130620424
 40
0.912468719
 40
0.9571202732
 40
1.0
 40
1.0
 40
1.0
 40
1.0
 10
184.7533331647
 20
131.4436082754
 30
0.0
 10
184.7533331647
 20
131.6316373475
 30
0.0
 10
184.8059810209
 20
132.0270388937
 30
0.0
 10
185.002255112
 20
132.6075982861
 30
0.0
 10
185.3049189126
 20
133.1668480452
 30
0.0
 10
185.6891241917
 20
133.6589100027
 30
0.0
 10
186.1247402657
 20
134.0441862599
 30
0.0
 10
186.5779154314
 20
134.2927992165
 30
0.0
 10
186.9625953706
 20
134.3678561733
 30
0.0
 10
187.235143377
 20
134.328064106
 30
0.0
 10
187.3546625727
 20
134.2782548365
 30
0.0
 10
187.4089004805
 20
134.2469383192
 30
0.0
  0
SPLINE
  5
48D
100
AcDbEntity
  8
0
100
AcDbSpline
 62
7
  6
CONTINUOUS
 70
0
 71
3
 72
16
 73
12
 74
0
 42
0.0000001
 43
0.0000001
 44
0.0000000001
 40
0.0
 40
0.0
 40
0.0
 40
0.0
 40
0.1287350855
 40
0.2704098208
 40
0.4176147031
 40
0.5620215413
 40
0.6957477584
 40
0.8130620424
 40
0.912468719
 40
0.9571202732
 40
1.0
 40
1.0
 40
1.0
 40
1.0
 10
184.7533331647
 20
88.9854825846
 30
0.0
 10
184.7533331647
 20
89.1735116568
 30
0.0
 10
184.8059810209
 20
89.568913203
 30
0.0
 10
185.002255112
 20
90.1494725954
 30
0.0
 10
185.3049189126
 20
90.7087223544
 30
0.0
 10
185.6891241917
 20
91.200784312
 30
0.0
 10
186.1247402657
 20
91.5860605691
 30
0.0
 10
186.5779154314
 20
91.8346735257
 30
0.0
 10
186.9625953706
 20
91.9097304825
 30
0.0
 10
187.235143377
 20
91.8699384153
 30
0.0
 10
187.3546625727
 20
91.8201291458
 30
0.0
 10
187.4089004805
 20
91.7888126285
 30
0.0
  0
SPLINE
  5
48E
100
AcDbEntity
  8
0
100
AcDbSpline
 62
7
  6
CONTINUOUS
 70
0
 71
3
 72
16
 73
12
 74
0
 42
0.0000001
 43
0.0000001
 44
0.0000000001
 40
0.0
 40
0.0
 40
0.0
 40
0.0
 40
0.1287350855
 40
0.2704098208
 40
0.4176147031
 40
0.5620215413
 40
0.6957477584
 40
0.8130620424
 40
0.912468719
 40
0.9571202732
 40
1.0
 40
1.0
 40
1.0
 40
1.0
 10
147.9839336296
 20
110.2149122741
 30
0.0
 10
147.9839336296
 20
110.4029413462
 30
0.0
 10
148.0365814858
 20
110.7983428924
 30
0.0
 10
148.2328555769
 20
111.3789022848
 30
0.0
 10
148.5355193775
 20
111.9381520438
 30
0.0
 10
148.9197246566
 20
112.4302140014
 30
0.0
 10
149.3553407306
 20
112.8154902586
 30
0.0
 10
149.8085158963
 20
113.0641032152
 30
0.0
 10
150.1931958355
 20
113.139160172
 30
0.0
 10
150.4657438419
 20
113.0993681047
 30
0.0
 10
150.5852630376
 20
113.0495588352
 30
0.0
 10
150.6395009454
 20
113.0182423179
 30
0.0
  0
SPLINE
  5
48F
100
AcDbEntity
  8
0
100
AcDbSpline
 62
7
  6
CONTINUOUS
 70
0
 71
3
 72
16
 73
12
 74
0
 42
0.0000001
 43
0.0000001
 44
0.0000000001
 40
0.0
 40
0.0
 40
0.0
 40
0.0
 40
0.1287350855
 40
0.2704098208
 40
0.4176147031
 40
0.5620215413
 40
0.6957477584
 40
0.8130620424
 40
0.912468719
 40
0.9571202732
 40
1.0
 40
1.0
 40
1.0
 40
1.0
 10
147.9839336296
 20
67.7567865833
 30
0.0
 10
147.9839336296
 20
67.9448156555
 30
0.0
 10
148.0365814858
 20
68.3402172016
 30
0.0
 10
148.2328555769
 20
68.920776594
 30
0.0
 10
148.5355193775
 20
69.4800263531
 30
0.0
 10
148.9197246566
 20
69.9720883107
 30
0.0
 10
149.3553407306
 20
70.3573645678
 30
0.0
 10
149.8085158963
 20
70.6059775244
 30
0.0
 10
150.1931958355
 20
70.6810344812
 30
0.0
 10
150.4657438419
 20
70.641242414
 30
0.0
 10
150.5852630376
 20
70.5914331445
 30
0.0
 10
150.6395009454
 20
70.5601166271
 30
0.0
  0
SPLINE
  5
490
100
AcDbEntity
  8
0
100
AcDbSpline
 62
7
  6
CONTINUOUS
 70
0
 71
3
 72
13
 73
9
 74
0
 42
0.0000001
 43
0.0000001
 44
0.0000000001
 40
0.0
 40
0.0
 40
0.0
 40
0.0
 40
0.1142494128
 40
0.2375488016
 40
0.500001607
 40
0.7624535328
 40
0.8857518943
 40
1.0
 40
1.0
 40
1.0
 40
1.0
 10
140.3471768601
 20
110.868085346
 30
0.0
 10
140.3471768601
 20
111.2481511906
 30
0.0
 10
140.4167878357
 20
112.0391877131
 30
0.0
 10
140.7948439614
 20
113.6630711302
 30
0.0
 10
141.672987966
 20
115.6548173613
 30
0.0
 10
142.9588078351
 20
117.4111897576
 30
0.0
 10
144.1760934507
 20
118.5505335343
 30
0.0
 10
144.8263395512
 20
119.0063321315
 30
0.0
 10
145.1554829531
 20
119.1963620288
 30
0.0
  0
SPLINE
  5
491
100
AcDbEntity
  8
0
100
AcDbSpline
 62
7
  6
CONTINUOUS
 70
0
 71
3
 72
11
 73
7
 74
0
 42
0.0000001
 43
0.0000001
 44
0.0000000001
 40
0.0
 40
0.0
 40
0.0
 40
0.0
 40
0.2177808404
 40
0.4509249954
 40
0.7102608114
 40
1.0
 40
1.0
 40
1.0
 40
1.0
 10
183.1020621283
 20
75.3476583305
 30
0.0
 10
183.2669714345
 20
75.2524116146
 30
0.0
 10
183.6459557967
 20
75.1149288552
 30
0.0
 10
184.2753349503
 20
75.098979792
 30
0.0
 10
184.9461770793
 20
75.2609181842
 30
0.0
 10
185.3825856992
 20
75.468591179
 30
0.0
 10
185.6020049677
 20
75.5952721965
 30
0.0
  0
SPLINE
  5
492
100
AcDbEntity
  8
0
100
AcDbSpline
 62
7
  6
CONTINUOUS
 70
0
 71
3
 72
11
 73
7
 74
0
 42
0.0000001
 43
0.0000001
 44
0.0000000001
 40
0.0
 40
0.0
 40
0.0
 40
0.0
 40
0.2177743796
 40
0.4509338355
 40
0.710229898
 40
1.0
 40
1.0
 40
1.0
 40
1.0
 10
166.7527981575
 20
81.3226488802
 30
0.0
 10
167.0166696036
 20
81.170297985
 30
0.0
 10
167.6229972967
 20
80.9501727256
 30
0.0
 10
168.629991167
 20
80.9247868695
 30
0.0
 10
169.7033634512
 20
81.1837693239
 30
0.0
 10
170.401590784
 20
81.5161085727
 30
0.0
 10
170.7527007396
 20
81.7188207901
 30
0.0
  0
SPLINE
  5
493
100
AcDbEntity
  8
0
100
AcDbSpline
 62
7
  6
CONTINUOUS
 70
0
 71
3
 72
11
 73
7
 74
0
 42
0.0000001
 43
0.0000001
 44
0.0000000001
 40
0.0
 40
0.0
 40
0.0
 40
0.0
 40
0.2177323041
 40
0.4508846271
 40
0.7104693585
 40
1.0
 40
1.0
 40
1.0
 40
1.0
 10
148.4396231975
 20
109.2078565073
 30
0.0
 10
148.3670722849
 20
109.2497468015
 30
0.0
 10
148.2312141367
 20
109.3637672367
 30
0.0
 10
148.0866485745
 20
109.600215789
 30
0.0
 10
148.0009428622
 20
109.8915266555
 30
0.0
 10
147.9839336296
 20
110.1035106038
 30
0.0
 10
147.9839336296
 20
110.2149122741
 30
0.0
  0
SPLINE
  5
494
100
AcDbEntity
  8
0
100
AcDbSpline
 62
7
  6
CONTINUOUS
 70
0
 71
3
 72
11
 73
7
 74
0
 42
0.0000001
 43
0.0000001
 44
0.0000000001
 40
0.0
 40
0.0
 40
0.0
 40
0.0
 40
0.2897789673
 40
0.5490582766
 40
0.7822197475
 40
1.0
 40
1.0
 40
1.0
 40
1.0
 10
129.4573985841
 20
162.7149699133
 30
0.0
 10
129.6856272457
 20
162.846737006
 30
0.0
 10
130.1394669585
 20
163.0627687514
 30
0.0
 10
130.8371542789
 20
163.231068182
 30
0.0
 10
131.4917045141
 20
163.2146352988
 30
0.0
 10
131.8857994949
 20
163.0714872
 30
0.0
 10
132.0573295571
 20
162.9724716702
 30
0.0
  0
SPLINE
  5
495
100
AcDbEntity
  8
0
100
AcDbSpline
 62
7
  6
CONTINUOUS
 70
0
 71
3
 72
11
 73
7
 74
0
 42
0.0000001
 43
0.0000001
 44
0.0000000001
 40
0.0
 40
0.0
 40
0.0
 40
0.0
 40
0.2514175882
 40
0.5138797639
 40
0.7689882502
 40
1.0
 40
1.0
 40
1.0
 40
1.0
 10
103.2769711772
 20
144.4465855213
 30
0.0
 10
103.3849334511
 20
144.9770418525
 30
0.0
 10
103.7322910711
 20
146.0373171872
 30
0.0
 10
104.5377007384
 20
147.494165608
 30
0.0
 10
105.5695824332
 20
148.7440783353
 30
0.0
 10
106.3993181647
 20
149.4024604411
 30
0.0
 10
106.8300757933
 20
149.6511569894
 30
0.0
  0
SPLINE
  5
496
100
AcDbEntity
  8
0
100
AcDbSpline
 62
7
  6
CONTINUOUS
 70
0
 71
3
 72
11
 73
7
 74
0
 42
0.0000001
 43
0.0000001
 44
0.0000000001
 40
0.0
 40
0.0
 40
0.0
 40
0.0
 40
0.244264945
 40
0.4999988942
 40
0.7557334165
 40
1.0
 40
1.0
 40
1.0
 40
1.0
 10
100.4869000656
 20
137.1174137001
 30
0.0
 10
100.7351699025
 20
137.3370969286
 30
0.0
 10
101.2020184846
 20
137.8347842954
 30
0.0
 10
101.7814051355
 20
138.6855519483
 30
0.0
 10
102.2284945529
 20
139.6127035557
 30
0.0
 10
102.4260786314
 20
140.2658534761
 30
0.0
 10
102.4921948181
 20
140.5907053763
 30
0.0
  0
SPLINE
  5
497
100
AcDbEntity
  8
0
100
AcDbSpline
 62
7
  6
CONTINUOUS
 70
0
 71
3
 72
11
 73
7
 74
0
 42
0.0000001
 43
0.0000001
 44
0.0000000001
 40
0.0
 40
0.0
 40
0.0
 40
0.0
 40
0.2310136524
 40
0.4861228933
 40
0.7485844087
 40
1.0
 40
1.0
 40
1.0
 40
1.0
 10
94.8093105606
 20
128.8304652824
 30
0.0
 10
94.8093105606
 20
129.3278656933
 30
0.0
 10
94.9646178934
 20
130.3756364676
 30
0.0
 10
95.5311288459
 20
131.8942381774
 30
0.0
 10
96.3900836997
 20
133.3201714953
 30
0.0
 10
97.1346246241
 20
134.1511303168
 30
0.0
 10
97.5400290764
 20
134.5098551625
 30
0.0
  0
SPLINE
  5
498
100
AcDbEntity
  8
0
100
AcDbSpline
 62
7
  6
CONTINUOUS
 70
0
 71
3
 72
11
 73
7
 74
0
 42
0.0000001
 43
0.0000001
 44
0.0000000001
 40
0.0
 40
0.0
 40
0.0
 40
0.0
 40
0.2177750514
 40
0.4509118894
 40
0.7102736943
 40
1.0
 40
1.0
 40
1.0
 40
1.0
 10
65.3128795278
 20
118.483945491
 30
0.0
 10
65.1545548096
 20
118.5753654808
 30
0.0
 10
64.8583510672
 20
118.8244491773
 30
0.0
 10
64.5429185736
 20
119.3400533033
 30
0.0
 10
64.355596099
 20
119.9755581135
 30
0.0
 10
64.3187363861
 20
120.438085323
 30
0.0
 10
64.3187363861
 20
120.6813119769
 30
0.0
  0
SPLINE
  5
499
100
AcDbEntity
  8
0
100
AcDbSpline
 62
7
  6
CONTINUOUS
 70
0
 71
3
 72
11
 73
7
 74
0
 42
0.0000001
 43
0.0000001
 44
0.0000000001
 40
0.0
 40
0.0
 40
0.0
 40
0.0
 40
0.2177323041
 40
0.4508846271
 40
0.7104693585
 40
1.0
 40
1.0
 40
1.0
 40
1.0
 10
148.4396231975
 20
66.7497308166
 30
0.0
 10
148.3670722849
 20
66.7916211107
 30
0.0
 10
148.2312141367
 20
66.9056415459
 30
0.0
 10
148.0866485745
 20
67.1420900983
 30
0.0
 10
148.0009428622
 20
67.4334009647
 30
0.0
 10
147.9839336296
 20
67.6453849131
 30
0.0
 10
147.9839336296
 20
67.7567865833
 30
0.0
  0
SPLINE
  5
49A
100
AcDbEntity
  8
0
100
AcDbSpline
 62
7
  6
CONTINUOUS
 70
0
 71
3
 72
11
 73
7
 74
0
 42
0.0000001
 43
0.0000001
 44
0.0000000001
 40
0.0
 40
0.0
 40
0.0
 40
0.0
 40
0.2177323041
 40
0.4508846271
 40
0.7104693585
 40
1.0
 40
1.0
 40
1.0
 40
1.0
 10
185.2090227326
 20
130.4365525086
 30
0.0
 10
185.13647182
 20
130.4784428028
 30
0.0
 10
185.0006136718
 20
130.592463238
 30
0.0
 10
184.8560481096
 20
130.8289117904
 30
0.0
 10
184.7703423973
 20
131.1202226568
 30
0.0
 10
184.7533331647
 20
131.3322066052
 30
0.0
 10
184.7533331647
 20
131.4436082754
 30
0.0
  0
SPLINE
  5
49B
100
AcDbEntity
  8
0
100
AcDbSpline
 62
7
  6
CONTINUOUS
 70
0
 71
3
 72
11
 73
7
 74
0
 42
0.0000001
 43
0.0000001
 44
0.0000000001
 40
0.0
 40
0.0
 40
0.0
 40
0.0
 40
0.2177731171
 40
0.4509285976
 40
0.710222822
 40
1.0
 40
1.0
 40
1.0
 40
1.0
 10
141.7555656333
 20
64.9704561721
 30
0.0
 10
141.5312645377
 20
65.0999535522
 30
0.0
 10
141.1115202136
 20
65.452733981
 30
0.0
 10
140.6648419819
 20
66.1832334388
 30
0.0
 10
140.3992864094
 20
67.0834683357
 30
0.0
 10
140.3471768601
 20
67.738724603
 30
0.0
 10
140.3471768601
 20
68.0833586884
 30
0.0
  0
SPLINE
  5
49C
100
AcDbEntity
  8
0
100
AcDbSpline
 62
7
  6
CONTINUOUS
 70
0
 71
3
 72
11
 73
7
 74
0
 42
0.0000001
 43
0.0000001
 44
0.0000000001
 40
0.0
 40
0.0
 40
0.0
 40
0.0
 40
0.2177745347
 40
0.4509306045
 40
0.7102242968
 40
1.0
 40
1.0
 40
1.0
 40
1.0
 10
145.9982239842
 20
62.521011645
 30
0.0
 10
146.2225176543
 20
62.3915185519
 30
0.0
 10
146.7378903468
 20
62.2044133772
 30
0.0
 10
147.5938279657
 20
62.1828327956
 30
0.0
 10
148.5061941034
 20
62.4029630114
 30
0.0
 10
149.0996923281
 20
62.6854494031
 30
0.0
 10
149.398141304
 20
62.8577579712
 30
0.0
  0
SPLINE
  5
49D
100
AcDbEntity
  8
0
100
AcDbSpline
 62
7
  6
CONTINUOUS
 70
0
 71
3
 72
11
 73
7
 74
0
 42
0.0000001
 43
0.0000001
 44
0.0000000001
 40
0.0
 40
0.0
 40
0.0
 40
0.0
 40
0.2177788117
 40
0.4509396746
 40
0.7102195427
 40
1.0
 40
1.0
 40
1.0
 40
1.0
 10
95.8863196163
 20
100.3219431553
 30
0.0
 10
95.7147970236
 20
100.4209846939
 30
0.0
 10
95.393764297
 20
100.6907123986
 30
0.0
 10
95.0522424785
 20
101.2493729396
 30
0.0
 10
94.8491421021
 20
101.9377663309
 30
0.0
 10
94.8093105606
 20
102.4388407743
 30
0.0
 10
94.8093105606
 20
102.7023879343
 30
0.0
  0
SPLINE
  5
49E
100
AcDbEntity
  8
0
100
AcDbSpline
 62
7
  6
CONTINUOUS
 70
0
 71
3
 72
11
 73
7
 74
0
 42
0.0000001
 43
0.0000001
 44
0.0000000001
 40
0.0
 40
0.0
 40
0.0
 40
0.0
 40
0.2177323041
 40
0.4508846271
 40
0.7104693585
 40
1.0
 40
1.0
 40
1.0
 40
1.0
 10
185.2090227326
 20
87.9784268179
 30
0.0
 10
185.13647182
 20
88.0203171121
 30
0.0
 10
185.0006136718
 20
88.1343375473
 30
0.0
 10
184.8560481096
 20
88.3707860996
 30
0.0
 10
184.7703423973
 20
88.6620969661
 30
0.0
 10
184.7533331647
 20
88.8740809144
 30
0.0
 10
184.7533331647
 20
88.9854825846
 30
0.0
  0
SPLINE
  5
49F
100
AcDbEntity
  8
0
100
AcDbSpline
 62
7
  6
CONTINUOUS
 70
0
 71
3
 72
17
 73
13
 74
0
 42
0.0000001
 43
0.0000001
 44
0.0000000001
 40
0.0
 40
0.0
 40
0.0
 40
0.0
 40
0.1286933939
 40
0.2702777728
 40
0.4174335319
 40
0.5617774387
 40
0.6954483946
 40
0.8127114533
 40
0.8646776739
 40
0.9125101708
 40
0.9571399481
 40
1.0
 40
1.0
 40
1.0
 40
1.0
 10
185.6020049677
 20
75.5952721965
 30
0.0
 10
185.9721399184
 20
75.8089684344
 30
0.0
 10
186.6905970711
 20
76.3618205632
 30
0.0
 10
187.6100957213
 20
77.4080439248
 30
0.0
 10
188.3670309973
 20
78.6390673758
 30
0.0
 10
188.8987259477
 20
79.9549790343
 30
0.0
 10
189.1626632013
 20
81.2487709475
 30
0.0
 10
189.138887801
 20
82.2681985189
 30
0.0
 10
188.9502989615
 20
82.9674500259
 30
0.0
 10
188.7400344394
 20
83.4022717768
 30
0.0
 10
188.4589166268
 20
83.7579122795
 30
0.0
 10
188.2252056338
 20
83.9367201751
 30
0.0
 10
188.1019478071
 20
84.0079102339
 30
0.0
  0
SPLINE
  5
4A0
100
AcDbEntity
  8
0
100
AcDbSpline
 62
7
  6
CONTINUOUS
 70
0
 71
3
 72
9
 73
5
 74
0
 42
0.0000001
 43
0.0000001
 44
0.0000000001
 40
0.0
 40
0.0
 40
0.0
 40
0.0
 40
0.245483413
 40
1.0
 40
1.0
 40
1.0
 40
1.0
 10
170.7527007396
 20
81.7188207901
 30
0.0
 10
170.7983427928
 20
81.7451720845
 30
0.0
 10
170.9831319175
 20
81.8544804712
 30
0.0
 10
171.1633916821
 20
81.971409002
 30
0.0
 10
171.2967799865
 20
82.0633187025
 30
0.0
  0
SPLINE
  5
4A1
100
AcDbEntity
  8
0
100
AcDbSpline
 62
7
  6
CONTINUOUS
 70
0
 71
3
 72
12
 73
8
 74
0
 42
0.0000001
 43
0.0000001
 44
0.0000000001
 40
0.0
 40
0.0
 40
0.0
 40
0.0
 40
0.2945314753
 40
0.5555702188
 40
0.7865409527
 40
0.8945096384
 40
1.0
 40
1.0
 40
1.0
 40
1.0
 10
176.3850324791
 20
90.8960436393
 30
0.0
 10
176.4214561699
 20
91.3678020062
 30
0.0
 10
176.41775291
 20
92.2666372093
 30
0.0
 10
176.1438921514
 20
93.5117187456
 30
0.0
 10
175.6768916049
 20
94.3755529515
 30
0.0
 10
175.1805828911
 20
94.8937752413
 30
0.0
 10
174.8993670045
 20
95.0942947389
 30
0.0
 10
174.7526033217
 20
95.179031374
 30
0.0
  0
SPLINE
  5
4A2
100
AcDbEntity
  8
0
100
AcDbSpline
 62
7
  6
CONTINUOUS
 70
0
 71
3
 72
11
 73
7
 74
0
 42
0.0000001
 43
0.0000001
 44
0.0000000001
 40
0.0
 40
0.0
 40
0.0
 40
0.0
 40
0.2897757032
 40
0.5490693955
 40
0.7822254653
 40
1.0
 40
1.0
 40
1.0
 40
1.0
 10
182.2077240232
 20
140.5883556917
 30
0.0
 10
182.506172999
 20
140.7606642597
 30
0.0
 10
183.0996712238
 20
141.0431506515
 30
0.0
 10
184.0120373615
 20
141.2632808672
 30
0.0
 10
184.8679749803
 20
141.2417002857
 30
0.0
 10
185.3833476729
 20
141.0545951109
 30
0.0
 10
185.607641343
 20
140.9251020179
 30
0.0
  0
SPLINE
  5
4A3
100
AcDbEntity
  8
0
100
AcDbSpline
 62
7
  6
CONTINUOUS
 70
0
 71
3
 72
11
 73
7
 74
0
 42
0.0000001
 43
0.0000001
 44
0.0000000001
 40
0.0
 40
0.0
 40
0.0
 40
0.0
 40
0.2302618135
 40
0.484248122
 40
0.7465435933
 40
1.0
 40
1.0
 40
1.0
 40
1.0
 10
64.3187363861
 20
146.8420494217
 30
0.0
 10
64.3187363861
 20
147.284417328
 30
0.0
 10
64.4519126145
 20
148.2157455427
 30
0.0
 10
64.9418110309
 20
149.5718203698
 30
0.0
 10
65.6884126003
 20
150.8569753881
 30
0.0
 10
66.3371010637
 20
151.615791
 30
0.0
 10
66.6915952999
 20
151.9496067412
 30
0.0
  0
SPLINE
  5
4A4
100
AcDbEntity
  8
0
100
AcDbSpline
 62
7
  6
CONTINUOUS
 70
0
 71
3
 72
11
 73
7
 74
0
 42
0.0000001
 43
0.0000001
 44
0.0000000001
 40
0.0
 40
0.0
 40
0.0
 40
0.0
 40
0.2177323041
 40
0.4508846271
 40
0.7104693585
 40
1.0
 40
1.0
 40
1.0
 40
1.0
 10
187.4089004805
 20
91.7888126285
 30
0.0
 10
187.4814513932
 20
91.7469223343
 30
0.0
 10
187.6173095414
 20
91.6329018991
 30
0.0
 10
187.7618751036
 20
91.3964533467
 30
0.0
 10
187.8475808159
 20
91.1051424803
 30
0.0
 10
187.8645900485
 20
90.8931585319
 30
0.0
 10
187.8645900485
 20
90.7817568617
 30
0.0
  0
SPLINE
  5
4A5
100
AcDbEntity
  8
0
100
AcDbSpline
 62
7
  6
CONTINUOUS
 70
0
 71
3
 72
17
 73
13
 74
0
 42
0.0000001
 43
0.0000001
 44
0.0000000001
 40
0.0
 40
0.0
 40
0.0
 40
0.0
 40
0.1286933939
 40
0.2702777728
 40
0.4174335319
 40
0.5617774387
 40
0.6954483946
 40
0.8127114533
 40
0.8646776739
 40
0.9125101708
 40
0.9571399481
 40
1.0
 40
1.0
 40
1.0
 40
1.0
 10
185.6020049677
 20
83.7602963678
 30
0.0
 10
185.231870017
 20
83.54660013
 30
0.0
 10
184.5134128643
 20
82.9937480012
 30
0.0
 10
183.5939142141
 20
81.9475246396
 30
0.0
 10
182.8369789381
 20
80.7165011886
 30
0.0
 10
182.3052839878
 20
79.40058953
 30
0.0
 10
182.0413467341
 20
78.1067976168
 30
0.0
 10
182.0651221345
 20
77.0873700455
 30
0.0
 10
182.2537109739
 20
76.3881185385
 30
0.0
 10
182.463975496
 20
75.9532967876
 30
0.0
 10
182.7450933086
 20
75.5976562849
 30
0.0
 10
182.9788043016
 20
75.4188483893
 30
0.0
 10
183.1020621283
 20
75.3476583305
 30
0.0
  0
SPLINE
  5
4A6
100
AcDbEntity
  8
0
100
AcDbSpline
 62
7
  6
CONTINUOUS
 70
0
 71
3
 72
11
 73
7
 74
0
 42
0.0000001
 43
0.0000001
 44
0.0000000001
 40
0.0
 40
0.0
 40
0.0
 40
0.0
 40
0.2897466868
 40
0.5490798097
 40
0.78222196
 40
1.0
 40
1.0
 40
1.0
 40
1.0
 10
170.7527007396
 20
92.3333522128
 30
0.0
 10
170.9721258542
 20
92.4600366055
 30
0.0
 10
171.4085388147
 20
92.6677121105
 30
0.0
 10
172.079384294
 20
92.8296470095
 30
0.0
 10
172.7087582188
 20
92.8136989195
 30
0.0
 10
173.0877360879
 20
92.6762113474
 30
0.0
 10
173.2526440381
 20
92.5809668889
 30
0.0
  0
SPLINE
  5
4A7
100
AcDbEntity
  8
0
100
AcDbSpline
 62
7
  6
CONTINUOUS
 70
0
 71
3
 72
17
 73
13
 74
0
 42
0.0000001
 43
0.0000001
 44
0.0000000001
 40
0.0
 40
0.0
 40
0.0
 40
0.0
 40
0.1286895443
 40
0.2702735659
 40
0.417427863
 40
0.5617749798
 40
0.6954466718
 40
0.8127129962
 40
0.8646764954
 40
0.9125109079
 40
0.9571409944
 40
1.0
 40
1.0
 40
1.0
 40
1.0
 10
170.7527007396
 20
94.7828594641
 30
0.0
 10
170.1605018786
 20
94.4409553332
 30
0.0
 10
169.0109969108
 20
93.5563958301
 30
0.0
 10
167.5397718811
 20
91.882500427
 30
0.0
 10
166.32865778
 20
89.9128625801
 30
0.0
 10
165.4779505557
 20
87.8073680386
 30
0.0
 10
165.055736261
 20
85.7372804961
 30
0.0
 10
165.0935457907
 20
84.1061376964
 30
0.0
 10
165.3955262632
 20
82.9874004803
 30
0.0
 10
165.7317629155
 20
82.2915941598
 30
0.0
 10
166.1816660727
 20
81.7226436956
 30
0.0
 10
166.5555729432
 20
81.4365203824
 30
0.0
 10
166.7527981575
 20
81.3226488802
 30
0.0
  0
SPLINE
  5
4A8
100
AcDbEntity
  8
0
100
AcDbSpline
 62
7
  6
CONTINUOUS
 70
0
 71
3
 72
11
 73
7
 74
0
 42
0.0000001
 43
0.0000001
 44
0.0000000001
 40
0.0
 40
0.0
 40
0.0
 40
0.0
 40
0.2177764723
 40
0.4509139006
 40
0.7102751756
 40
1.0
 40
1.0
 40
1.0
 40
1.0
 10
119.1435208037
 20
169.9172740816
 30
0.0
 10
118.9851898492
 20
170.0086711706
 30
0.0
 10
118.6213866977
 20
170.1406395921
 30
0.0
 10
118.0171671557
 20
170.1560069171
 30
0.0
 10
117.3731693984
 20
170.0004871548
 30
0.0
 10
116.9541969627
 20
169.8011545608
 30
0.0
 10
116.7435656082
 20
169.6795472175
 30
0.0
  0
SPLINE
  5
4A9
100
AcDbEntity
  8
0
100
AcDbSpline
 62
7
  6
CONTINUOUS
 70
0
 71
3
 72
11
 73
7
 74
0
 42
0.0000001
 43
0.0000001
 44
0.0000000001
 40
0.0
 40
0.0
 40
0.0
 40
0.0
 40
0.2177743476
 40
0.4509121667
 40
0.7102711418
 40
1.0
 40
1.0
 40
1.0
 40
1.0
 10
83.4290302334
 20
108.0574765431
 30
0.0
 10
83.2707046738
 20
108.1488939619
 30
0.0
 10
82.9745032771
 20
108.3979820612
 30
0.0
 10
82.659071053
 20
108.9135825432
 30
0.0
 10
82.4717441067
 20
109.549087301
 30
0.0
 10
82.4348874266
 20
110.0116147507
 30
0.0
 10
82.4348874266
 20
110.2548435926
 30
0.0
  0
SPLINE
  5
4AA
100
AcDbEntity
  8
0
100
AcDbSpline
 62
7
  6
CONTINUOUS
 70
0
 71
3
 72
11
 73
7
 74
0
 42
0.0000001
 43
0.0000001
 44
0.0000000001
 40
0.0
 40
0.0
 40
0.0
 40
0.0
 40
0.289777178
 40
0.5490714024
 40
0.7822268829
 40
1.0
 40
1.0
 40
1.0
 40
1.0
 10
144.589835211
 20
65.6339141613
 30
0.0
 10
144.589835211
 20
65.2892800759
 30
0.0
 10
144.6419447603
 20
64.6340238086
 30
0.0
 10
144.9075003328
 20
63.7337889117
 30
0.0
 10
145.3541785644
 20
63.0032894539
 30
0.0
 10
145.7739228885
 20
62.6505090251
 30
0.0
 10
145.9982239842
 20
62.521011645
 30
0.0
  0
SPLINE
  5
4AB
100
AcDbEntity
  8
0
100
AcDbSpline
 62
7
  6
CONTINUOUS
 70
0
 71
3
 72
11
 73
7
 74
0
 42
0.0000001
 43
0.0000001
 44
0.0000000001
 40
0.0
 40
0.0
 40
0.0
 40
0.0
 40
0.2177323041
 40
0.4508846271
 40
0.7104693585
 40
1.0
 40
1.0
 40
1.0
 40
1.0
 10
150.6395009454
 20
70.5601166271
 30
0.0
 10
150.7120518581
 20
70.518226333
 30
0.0
 10
150.8479100063
 20
70.4042058977
 30
0.0
 10
150.9924755685
 20
70.1677573454
 30
0.0
 10
151.0781812807
 20
69.876446479
 30
0.0
 10
151.0951905133
 20
69.6644625306
 30
0.0
 10
151.0951905133
 20
69.5530608604
 30
0.0
  0
SPLINE
  5
4AC
100
AcDbEntity
  8
0
100
AcDbSpline
 62
7
  6
CONTINUOUS
 70
0
 71
3
 72
16
 73
12
 74
0
 42
0.0000001
 43
0.0000001
 44
0.0000000001
 40
0.0
 40
0.0
 40
0.0
 40
0.0
 40
0.1287350855
 40
0.2704098208
 40
0.4176147031
 40
0.5620215413
 40
0.6957477584
 40
0.8130620424
 40
0.912468719
 40
0.9571202732
 40
1.0
 40
1.0
 40
1.0
 40
1.0
 10
187.8645900485
 20
133.2398825524
 30
0.0
 10
187.8645900485
 20
133.0518534803
 30
0.0
 10
187.8119421923
 20
132.6564519341
 30
0.0
 10
187.6156681011
 20
132.0758925417
 30
0.0
 10
187.3130043006
 20
131.5166427826
 30
0.0
 10
186.9287990215
 20
131.0245808251
 30
0.0
 10
186.4931829475
 20
130.6393045679
 30
0.0
 10
186.0400077818
 20
130.3906916113
 30
0.0
 10
185.6553278426
 20
130.3156346545
 30
0.0
 10
185.3827798362
 20
130.3554267218
 30
0.0
 10
185.2632606405
 20
130.4052359913
 30
0.0
 10
185.2090227326
 20
130.4365525086
 30
0.0
  0
SPLINE
  5
4AD
100
AcDbEntity
  8
0
100
AcDbSpline
 62
7
  6
CONTINUOUS
 70
0
 71
3
 72
11
 73
7
 74
0
 42
0.0000001
 43
0.0000001
 44
0.0000000001
 40
0.0
 40
0.0
 40
0.0
 40
0.0
 40
0.289772897
 40
0.549065992
 40
0.7822255
 40
1.0
 40
1.0
 40
1.0
 40
1.0
 10
167.3585740589
 20
96.7424150858
 30
0.0
 10
167.7096876778
 20
96.9451294182
 30
0.0
 10
168.4079149103
 20
97.2774714357
 30
0.0
 10
169.4812877011
 20
97.53644819
 30
0.0
 10
170.4882805553
 20
97.5110731303
 30
0.0
 10
171.0946044056
 20
97.2909373246
 30
0.0
 10
171.3584784765
 20
97.1385901586
 30
0.0
  0
SPLINE
  5
4AE
100
AcDbEntity
  8
0
100
AcDbSpline
 62
7
  6
CONTINUOUS
 70
0
 71
3
 72
11
 73
7
 74
0
 42
0.0000001
 43
0.0000001
 44
0.0000000001
 40
0.0
 40
0.0
 40
0.0
 40
0.0
 40
0.2177323041
 40
0.4508846271
 40
0.7104693585
 40
1.0
 40
1.0
 40
1.0
 40
1.0
 10
187.4089004805
 20
134.2469383192
 30
0.0
 10
187.4814513932
 20
134.205048025
 30
0.0
 10
187.6173095414
 20
134.0910275898
 30
0.0
 10
187.7618751036
 20
133.8545790374
 30
0.0
 10
187.8475808159
 20
133.563268171
 30
0.0
 10
187.8645900485
 20
133.3512842227
 30
0.0
 10
187.8645900485
 20
133.2398825524
 30
0.0
  0
SPLINE
  5
4AF
100
AcDbEntity
  8
0
100
AcDbSpline
 62
7
  6
CONTINUOUS
 70
0
 71
3
 72
13
 73
9
 74
0
 42
0.0000001
 43
0.0000001
 44
0.0000000001
 40
0.0
 40
0.0
 40
0.0
 40
0.0
 40
0.1142481057
 40
0.2375464672
 40
0.499998393
 40
0.7624511984
 40
0.8857505872
 40
1.0
 40
1.0
 40
1.0
 40
1.0
 10
149.398141304
 20
116.7469175017
 30
0.0
 10
149.0689979021
 20
116.5568876043
 30
0.0
 10
148.4187518016
 20
116.1010890072
 30
0.0
 10
147.201466186
 20
114.9617452305
 30
0.0
 10
145.9156463169
 20
113.2053728342
 30
0.0
 10
145.0375023123
 20
111.2136266031
 30
0.0
 10
144.6594461866
 20
109.589743186
 30
0.0
 10
144.589835211
 20
108.7987066635
 30
0.0
 10
144.589835211
 20
108.4186408189
 30
0.0
  0
SPLINE
  5
4B0
100
AcDbEntity
  8
0
100
AcDbSpline
 62
7
  6
CONTINUOUS
 70
0
 71
3
 72
16
 73
12
 74
0
 42
0.0000001
 43
0.0000001
 44
0.0000000001
 40
0.0
 40
0.0
 40
0.0
 40
0.0
 40
0.1287350855
 40
0.2704098208
 40
0.4176147031
 40
0.5620215413
 40
0.6957477584
 40
0.8130620424
 40
0.912468719
 40
0.9571202732
 40
1.0
 40
1.0
 40
1.0
 40
1.0
 10
187.8645900485
 20
90.7817568617
 30
0.0
 10
187.8645900485
 20
90.5937277895
 30
0.0
 10
187.8119421923
 20
90.1983262434
 30
0.0
 10
187.6156681011
 20
89.617766851
 30
0.0
 10
187.3130043006
 20
89.0585170919
 30
0.0
 10
186.9287990215
 20
88.5664551343
 30
0.0
 10
186.4931829475
 20
88.1811788772
 30
0.0
 10
186.0400077818
 20
87.9325659206
 30
0.0
 10
185.6553278426
 20
87.8575089638
 30
0.0
 10
185.3827798362
 20
87.897301031
 30
0.0
 10
185.2632606405
 20
87.9471103005
 30
0.0
 10
185.2090227326
 20
87.9784268179
 30
0.0
  0
SPLINE
  5
4B1
100
AcDbEntity
  8
0
100
AcDbSpline
 62
7
  6
CONTINUOUS
 70
0
 71
3
 72
11
 73
7
 74
0
 42
0.0000001
 43
0.0000001
 44
0.0000000001
 40
0.0
 40
0.0
 40
0.0
 40
0.0
 40
0.2897263218
 40
0.5490881948
 40
0.7822249946
 40
1.0
 40
1.0
 40
1.0
 40
1.0
 10
82.4207453498
 20
110.2303486612
 30
0.0
 10
82.4207453498
 20
109.987121994
 30
0.0
 10
82.4576051429
 20
109.5245947214
 30
0.0
 10
82.6449275862
 20
108.8890898697
 30
0.0
 10
82.9603600871
 20
108.3734857457
 30
0.0
 10
83.2565638183
 20
108.1244021645
 30
0.0
 10
83.4148884904
 20
108.0329821725
 30
0.0
  0
SPLINE
  5
4B2
100
AcDbEntity
  8
0
100
AcDbSpline
 62
7
  6
CONTINUOUS
 70
0
 71
3
 72
11
 73
7
 74
0
 42
0.0000001
 43
0.0000001
 44
0.0000000001
 40
0.0
 40
0.0
 40
0.0
 40
0.0
 40
0.2534565129
 40
0.5157520151
 40
0.769738286
 40
1.0
 40
1.0
 40
1.0
 40
1.0
 10
84.7936042637
 20
141.4986434255
 30
0.0
 10
84.4391098789
 20
141.1648275444
 30
0.0
 10
83.790421272
 20
140.406011698
 30
0.0
 10
83.0438197119
 20
139.1208564512
 30
0.0
 10
82.5539214857
 20
137.7647817723
 30
0.0
 10
82.4207453498
 20
136.8334538212
 30
0.0
 10
82.4207453498
 20
136.391086106
 30
0.0
  0
SPLINE
  5
4B3
100
AcDbEntity
  8
0
100
AcDbSpline
 62
7
  6
CONTINUOUS
 70
0
 71
3
 72
11
 73
7
 74
0
 42
0.0000001
 43
0.0000001
 44
0.0000000001
 40
0.0
 40
0.0
 40
0.0
 40
0.0
 40
0.2301779987
 40
0.4840360075
 40
0.7463112613
 40
1.0
 40
1.0
 40
1.0
 40
1.0
 10
82.4348874266
 20
136.3829209407
 30
0.0
 10
82.4348874266
 20
136.8232971333
 30
0.0
 10
82.5668829125
 20
137.7503666006
 30
0.0
 10
83.0528896147
 20
139.1009739489
 30
0.0
 10
83.7940485161
 20
140.3822942069
 30
0.0
 10
84.4381692757
 20
141.1399854251
 30
0.0
 10
84.7903122203
 20
141.4740013992
 30
0.0
  0
SPLINE
  5
4B4
100
AcDbEntity
  8
0
100
AcDbSpline
 62
7
  6
CONTINUOUS
 70
0
 71
3
 72
11
 73
7
 74
0
 42
0.0000001
 43
0.0000001
 44
0.0000000001
 40
0.0
 40
0.0
 40
0.0
 40
0.0
 40
0.2177808404
 40
0.4509249954
 40
0.7102608114
 40
1.0
 40
1.0
 40
1.0
 40
1.0
 10
188.1019478071
 20
84.0079102339
 30
0.0
 10
187.9370385009
 20
84.1031569498
 30
0.0
 10
187.5580541387
 20
84.2406397092
 30
0.0
 10
186.9286749851
 20
84.2565887723
 30
0.0
 10
186.2578328561
 20
84.0946503802
 30
0.0
 10
185.8214242362
 20
83.8869773854
 30
0.0
 10
185.6020049677
 20
83.7602963678
 30
0.0
  0
SPLINE
  5
4B5
100
AcDbEntity
  8
0
100
AcDbSpline
 62
7
  6
CONTINUOUS
 70
0
 71
3
 72
11
 73
7
 74
0
 42
0.0000001
 43
0.0000001
 44
0.0000000001
 40
0.0
 40
0.0
 40
0.0
 40
0.0
 40
0.2177743796
 40
0.4509338355
 40
0.710229898
 40
1.0
 40
1.0
 40
1.0
 40
1.0
 10
174.7526033217
 20
95.179031374
 30
0.0
 10
174.4887318756
 20
95.3313822693
 30
0.0
 10
173.8824041826
 20
95.5515075286
 30
0.0
 10
172.8754103123
 20
95.5768933847
 30
0.0
 10
171.8020380281
 20
95.3179109303
 30
0.0
 10
171.1038106953
 20
94.9855716815
 30
0.0
 10
170.7527007396
 20
94.7828594641
 30
0.0
  0
SPLINE
  5
4B6
100
AcDbEntity
  8
0
100
AcDbSpline
 62
7
  6
CONTINUOUS
 70
0
 71
3
 72
11
 73
7
 74
0
 42
0.0000001
 43
0.0000001
 44
0.0000000001
 40
0.0
 40
0.0
 40
0.0
 40
0.0
 40
0.2177745347
 40
0.4509306045
 40
0.7102242968
 40
1.0
 40
1.0
 40
1.0
 40
1.0
 10
189.8502996939
 20
138.4756574908
 30
0.0
 10
189.6260060238
 20
138.6051505838
 30
0.0
 10
189.1106333312
 20
138.7922557586
 30
0.0
 10
188.2546957124
 20
138.8138363401
 30
0.0
 10
187.3423295747
 20
138.5937061244
 30
0.0
 10
186.7488313499
 20
138.3112197326
 30
0.0
 10
186.450382374
 20
138.1389111646
 30
0.0
  0
SPLINE
  5
4B7
100
AcDbEntity
  8
0
100
AcDbSpline
 62
7
  6
CONTINUOUS
 70
0
 71
3
 72
16
 73
12
 74
0
 42
0.0000001
 43
0.0000001
 44
0.0000000001
 40
0.0
 40
0.0
 40
0.0
 40
0.0
 40
0.1287350855
 40
0.2704098208
 40
0.4176147031
 40
0.5620215413
 40
0.6957477584
 40
0.8130620424
 40
0.912468719
 40
0.9571202732
 40
1.0
 40
1.0
 40
1.0
 40
1.0
 10
151.0951905133
 20
112.0111865511
 30
0.0
 10
151.0951905133
 20
111.823157479
 30
0.0
 10
151.0425426572
 20
111.4277559328
 30
0.0
 10
150.846268566
 20
110.8471965404
 30
0.0
 10
150.5436047655
 20
110.2879467813
 30
0.0
 10
150.1593994864
 20
109.7958848237
 30
0.0
 10
149.7237834124
 20
109.4106085666
 30
0.0
 10
149.2706082467
 20
109.16199561
 30
0.0
 10
148.8859283075
 20
109.0869386532
 30
0.0
 10
148.6133803011
 20
109.1267307204
 30
0.0
 10
148.4938611054
 20
109.1765399899
 30
0.0
 10
148.4396231975
 20
109.2078565073
 30
0.0
  0
SPLINE
  5
4B8
100
AcDbEntity
  8
0
100
AcDbSpline
 62
7
  6
CONTINUOUS
 70
0
 71
3
 72
17
 73
13
 74
0
 42
0.0000001
 43
0.0000001
 44
0.0000000001
 40
0.0
 40
0.0
 40
0.0
 40
0.0
 40
0.0428582834
 40
0.0874880601
 40
0.1353226824
 40
0.1872862678
 40
0.3045517183
 40
0.4382206982
 40
0.5825657569
 40
0.729721693
 40
0.8713086775
 40
1.0
 40
1.0
 40
1.0
 40
1.0
 10
163.3586696414
 20
83.282201339
 30
0.0
 10
163.1614460524
 20
83.3960679829
 30
0.0
 10
162.7875517328
 20
83.682198117
 30
0.0
 10
162.3376355551
 20
84.2511311796
 30
0.0
 10
162.0014067694
 20
84.9469430935
 30
0.0
 10
161.6994223298
 20
86.0656746016
 30
0.0
 10
161.6616095072
 20
87.6967992083
 30
0.0
 10
162.0838033721
 20
89.7668594687
 30
0.0
 10
162.9344965644
 20
91.872341992
 30
0.0
 10
164.1456058935
 20
93.8419982431
 30
0.0
 10
165.6168428709
 20
95.5159291031
 30
0.0
 10
166.7663670134
 20
96.4005062296
 30
0.0
 10
167.3585740589
 20
96.7424150858
 30
0.0
  0
SPLINE
  5
4B9
100
AcDbEntity
  8
0
100
AcDbSpline
 62
7
  6
CONTINUOUS
 70
0
 71
3
 72
16
 73
12
 74
0
 42
0.0000001
 43
0.0000001
 44
0.0000000001
 40
0.0
 40
0.0
 40
0.0
 40
0.0
 40
0.1287350855
 40
0.2704098208
 40
0.4176147031
 40
0.5620215413
 40
0.6957477584
 40
0.8130620424
 40
0.912468719
 40
0.9571202732
 40
1.0
 40
1.0
 40
1.0
 40
1.0
 10
151.0951905133
 20
69.5530608604
 30
0.0
 10
151.0951905133
 20
69.3650317882
 30
0.0
 10
151.0425426572
 20
68.969630242
 30
0.0
 10
150.846268566
 20
68.3890708497
 30
0.0
 10
150.5436047655
 20
67.8298210906
 30
0.0
 10
150.1593994864
 20
67.337759133
 30
0.0
 10
149.7237834124
 20
66.9524828759
 30
0.0
 10
149.2706082467
 20
66.7038699193
 30
0.0
 10
148.8859283075
 20
66.6288129625
 30
0.0
 10
148.6133803011
 20
66.6686050297
 30
0.0
 10
148.4938611054
 20
66.7184142992
 30
0.0
 10
148.4396231975
 20
66.7497308166
 30
0.0
  0
SPLINE
  5
4BA
100
AcDbEntity
  8
0
100
AcDbSpline
 62
7
  6
CONTINUOUS
 70
0
 71
3
 72
11
 73
7
 74
0
 42
0.0000001
 43
0.0000001
 44
0.0000000001
 40
0.0
 40
0.0
 40
0.0
 40
0.0
 40
0.2536908235
 40
0.5159667458
 40
0.7698239726
 40
1.0
 40
1.0
 40
1.0
 40
1.0
 10
90.8708376476
 20
152.0058388395
 30
0.0
 10
90.9840320111
 20
152.4778145814
 30
0.0
 10
91.3181483538
 20
153.4144891649
 30
0.0
 10
92.0572182702
 20
154.6970158089
 30
0.0
 10
92.9838657192
 20
155.7932120115
 30
0.0
 10
93.7207273835
 20
156.3710546662
 30
0.0
 10
94.1021007406
 20
156.5912393622
 30
0.0
  0
SPLINE
  5
4BB
100
AcDbEntity
  8
0
100
AcDbSpline
 62
7
  6
CONTINUOUS
 70
0
 71
3
 72
11
 73
7
 74
0
 42
0.0000001
 43
0.0000001
 44
0.0000000001
 40
0.0
 40
0.0
 40
0.0
 40
0.0
 40
0.2897273936
 40
0.5490859051
 40
0.7822242763
 40
1.0
 40
1.0
 40
1.0
 40
1.0
 10
116.7294235315
 20
169.6550522861
 30
0.0
 10
116.9400567926
 20
169.7766607302
 30
0.0
 10
117.3590280126
 20
169.975996034
 30
0.0
 10
118.0030279814
 20
170.131511945
 30
0.0
 10
118.6072442313
 20
170.1161430167
 30
0.0
 10
118.9710499246
 20
169.9841787934
 30
0.0
 10
119.1293790506
 20
169.8927797262
 30
0.0
  0
SPLINE
  5
4BC
100
AcDbEntity
  8
0
100
AcDbSpline
 62
7
  6
CONTINUOUS
 70
0
 71
3
 72
11
 73
7
 74
0
 42
0.0000001
 43
0.0000001
 44
0.0000000001
 40
0.0
 40
0.0
 40
0.0
 40
0.0
 40
0.2177323041
 40
0.4508846271
 40
0.7104693585
 40
1.0
 40
1.0
 40
1.0
 40
1.0
 10
150.6395009454
 20
113.0182423179
 30
0.0
 10
150.7120518581
 20
112.9763520237
 30
0.0
 10
150.8479100063
 20
112.8623315885
 30
0.0
 10
150.9924755685
 20
112.6258830361
 30
0.0
 10
151.0781812807
 20
112.3345721697
 30
0.0
 10
151.0951905133
 20
112.1225882213
 30
0.0
 10
151.0951905133
 20
112.0111865511
 30
0.0
  0
SPLINE
  5
4BD
100
AcDbEntity
  8
0
100
AcDbSpline
 62
7
  6
CONTINUOUS
 70
0
 71
3
 72
17
 73
13
 74
0
 42
0.0000001
 43
0.0000001
 44
0.0000000001
 40
0.0
 40
0.0
 40
0.0
 40
0.0
 40
0.0428577901
 40
0.0874862846
 40
0.1353177438
 40
0.1872830729
 40
0.3045439381
 40
0.4382117514
 40
0.5825553621
 40
0.7297160591
 40
0.8713055062
 40
1.0
 40
1.0
 40
1.0
 40
1.0
 10
168.2527574411
 20
83.9207133653
 30
0.0
 10
168.1295056269
 20
83.9918988497
 30
0.0
 10
167.895797553
 20
84.1706910573
 30
0.0
 10
167.6146906291
 20
84.5263218797
 30
0.0
 10
167.404425281
 20
84.9611300954
 30
0.0
 10
167.2158195451
 20
85.6603631569
 30
0.0
 10
167.192034585
 20
86.67977135
 30
0.0
 10
167.4559557884
 20
87.9735465635
 30
0.0
 10
167.9876338849
 20
89.2894705626
 30
0.0
 10
168.744572441
 20
90.5205307962
 30
0.0
 10
169.6640897586
 20
91.5667879927
 30
0.0
 10
170.3825625807
 20
92.1196541227
 30
0.0
 10
170.7527007396
 20
92.3333522128
 30
0.0
  0
SPLINE
  5
4BE
100
AcDbEntity
  8
0
100
AcDbSpline
 62
7
  6
CONTINUOUS
 70
0
 71
3
 72
11
 73
7
 74
0
 42
0.0000001
 43
0.0000001
 44
0.0000000001
 40
0.0
 40
0.0
 40
0.0
 40
0.0
 40
0.2302599317
 40
0.4842454922
 40
0.7465416055
 40
1.0
 40
1.0
 40
1.0
 40
1.0
 10
94.0879586639
 20
156.5994045275
 30
0.0
 10
93.7048602818
 20
156.3782238937
 30
0.0
 10
92.964900644
 20
155.7972290967
 30
0.0
 10
92.0354640711
 20
154.6949285629
 30
0.0
 10
91.2957946864
 20
153.4057710774
 30
0.0
 10
90.9629885505
 20
152.4645787289
 30
0.0
 10
90.8511432615
 20
151.990666981
 30
0.0
  0
ELLIPSE
  5
4BF
100
AcDbEntity
  8
0
100
AcDbEllipse
 62
7
  6
CONTINUOUS
 10
42.3622622098
 20
165.4082350043
 30
0.0
 11
1.1250924179
 21
1.0230995198
 31
0.0
 40
0.2565808008
 41
0.3809969543
 42
1.1388330116
  0
ENDSEC
  0
SECTION
  2
OBJECTS
  0
DICTIONARY
  5
C
100
AcDbDictionary
280
0
281
1
  3
ACAD_GROUP
350
D
  3
ACAD_MLINESTYLE
350
17
  3
ACAD_LAYOUT
350
1A
  3
ACAD_PLOTSETTINGS
350
19
  3
ACAD_PLOTSTYLENAME
350
E
  0
DICTIONARY
  5
D
102
{ACAD_REACTORS
330
C
102
}
100
AcDbDictionary
280
0
281
1
  0
ACDBDICTIONARYWDFLT
  5
E
102
{ACAD_REACTORS
330
C
102
}
100
AcDbDictionary
281
1
  3
Normal
350
F
100
AcDbDictionaryWithDefault
340
F
  0
DICTIONARY
  5
17
102
{ACAD_REACTORS
330
C
102
}
100
AcDbDictionary
280
0
281
1
  3
Standard
350
18
  0
DICTIONARY
  5
19
102
{ACAD_REACTORS
330
C
102
}
100
AcDbDictionary
281
1
  0
DICTIONARY
  5
1A
102
{ACAD_REACTORS
330
C
102
}
100
AcDbDictionary
281
1
  3
Model
350
4C0
  3
Layout1
350
4C1
  0
ACDBPLACEHOLDER
  5
F
102
{ACAD_REACTORS
330
E
102
}
  0
MLINESTYLE
  5
18
102
{ACAD_REACTORS
330
17
102
}
100
AcDbMlineStyle
  2
STANDARD
 70
0
  3

 62
256
 51
90.0
 52
90.0
 71
2
 49
0.5
 62
256
  6
BYLAYER
 49
-0.5
 62
256
  6
BYLAYER
  0
LAYOUT
  5
4C0
102
{ACAD_REACTORS
330
1A
102
}
100
AcDbPlotSettings
  1

  2
none_device
  4

  6

 40
0.0
 41
0.0
 42
0.0
 43
0.0
 44
210.0
 45
297.0
 46
0.0
 47
0.0
 48
0.0
 49
0.0
140
0.0
141
0.0
142
1.0
143
1.0
 70
1024
 72
1
 73
0
 74
0
  7

 75
0
147
1.0
148
0.0
149
0.0
100
AcDbLayout
  1
Model
 70
0
 71
0
 10
0.0
 20
0.0
 11
210.0
 21
297.0
 12
0.0
 22
0.0
 32
0.0
 14
0.0
 24
0.0
 34
0.0
 15
0.0
 25
0.0
 35
0.0
146
0.0
 13
0.0
 23
0.0
 33
0.0
 16
1.0
 26
0.0
 36
0.0
 17
0.0
 27
1.0
 37
0.0
 76
0
330
210
345
0
346
0
  0
LAYOUT
  5
4C1
102
{ACAD_REACTORS
330
1A
102
}
100
AcDbPlotSettings
  1

  2
none_device
  4

  6

 40
0.0
 41
0.0
 42
0.0
 43
0.0
 44
210.0
 45
297.0
 46
0.0
 47
0.0
 48
0.0
 49
0.0
140
0.0
141
0.0
142
1.0
143
1.0
 70
0
 72
1
 73
0
 74
0
  7

 75
0
147
1.0
148
0.0
149
0.0
100
AcDbLayout
  1
Layout1
 70
0
 71
1
 10
0.0
 20
0.0
 11
210.0
 21
297.0
 12
0.0
 22
0.0
 32
0.0
 14
0.0
 24
0.0
 34
0.0
 15
0.0
 25
0.0
 35
0.0
146
0.0
 13
0.0
 23
0.0
 33
0.0
 16
1.0
 26
0.0
 36
0.0
 17
0.0
 27
1.0
 37
0.0
 76
0
330
211
345
0
346
0
  0
ENDSEC
  0
EOF
