999
DXF file: C:\Users\sesa63760\Dev\_Creo\CAD\MCADID0005856_3D-CAD\mcadid0005856_3d-simplified_1.dxf
999
Pro/ENGINEER 2019471 by Parametric Technology Corporation
  0
SECTION
  2
HEADER
  9
$ACADVER
  1
AC1024
  9
$DWGCODEPAGE
  3
ANSI_1252
  9
$EXTMAX
 10
72.4043062288
 20
102.4003759522
 30
0.0
  9
$EXTMIN
 10
0.0
 20
0.0
 30
0.0
  9
$LIMMIN
 10
0.0
 20
0.0
  9
$LIMMAX
 10
72.4043062288
 20
102.4003759522
  9
$VIEWCTR
 10
36.2021531144
 20
51.2001879761
  9
$VIEWSIZE
 40
102.4003759522
  9
$CLAYER
  8
0
  9
$LTSCALE
 40
6.6749874695
  9
$CELTYPE
  6
BYLAYER
  9
$DIMSCALE
 40
1.0
  9
$DIMASZ
 40
0.8619560265
  9
$DIMEXO
 40
1.0
  9
$DIMDLI
 40
4.6118095244
  9
$DIMEXE
 40
1.0
  9
$DIMCEN
 40
1.0922706768
  9
$DIMLFAC
 40
1.0
  9
$DIMBLK
  1
_FILLED
  9
$DIMALT
 70
0
  9
$DIMALTF
 40
0.0393700787
  9
$DIMTXT
 40
1.2067384371
  9
$DIMTOL
 70
1
  9
$DIMLIM
 70
0
  9
$DIMTFAC
 40
1.0
  9
$DIMTP
 40
0.01
  9
$DIMTM
 40
0.01
  9
$DIMGAP
 40
0.625
  9
$DIMDSEP
 70
46
  9
$AUNITS
 70
0
  9
$PDMODE
 70
3
  9
$PDSIZE
 40
0.3125
  9
$HANDSEED
  5
2CE
  9
$TILEMODE
 70
1
  9
$MEASUREMENT
 70
1
  9
$INSUNITS
 70
4
  0
ENDSEC
  0
SECTION
  2
CLASSES
  0
CLASS
  1
ACDBDICTIONARYWDFLT
  2
AcDbDictionaryWithDefault
  3
AutoCAD 2000
 90
0
 91
1
280
0
281
0
  0
CLASS
  1
ACDBPLACEHOLDER
  2
AcDbPlaceHolder
  3
AutoCAD 2000
 90
0
 91
1
280
0
281
0
  0
CLASS
  1
LAYOUT
  2
AcDbLayout
  3
AutoCAD 2000
 90
0
 91
0
280
0
281
0
  0
ENDSEC
  0
SECTION
  2
TABLES
  0
TABLE
  2
VPORT
  5
8
100
AcDbSymbolTable
 70
2
  0
VPORT
  5
1F4
100
AcDbSymbolTableRecord
100
AcDbViewportTableRecord
  2
*ACTIVE
 70
0
 10
0.0
 20
0.0
 11
1.0
 21
1.0
 12
36.2021531144
 22
51.2001879761
 13
0.0
 23
0.0
 14
1.0
 24
1.0
 15
0.0
 25
0.0
 16
0.0
 26
0.0
 36
1.0
 17
0.0
 27
0.0
 37
0.0
 40
102.4003759522
 41
0.7070707071
 42
50.0
 43
0.0
 44
0.0
 50
0.0
 51
0.0
 71
0
 72
100
 73
1
 74
1
 75
0
 76
0
 77
0
 78
0
  0
ENDTAB
  0
TABLE
  2
LTYPE
  5
5
100
AcDbSymbolTable
 70
6
  0
LTYPE
  5
14
100
AcDbSymbolTableRecord
100
AcDbLinetypeTableRecord
  2
BYBLOCK
 70
0
  3

 72
65
 73
0
 40
0.0
  0
LTYPE
  5
15
100
AcDbSymbolTableRecord
100
AcDbLinetypeTableRecord
  2
BYLAYER
 70
0
  3

 72
65
 73
0
 40
0.0
  0
LTYPE
  5
16
100
AcDbSymbolTableRecord
100
AcDbLinetypeTableRecord
  2
CONTINUOUS
 70
64
  3
Solid line
 72
65
 73
0
 40
0.0
  0
LTYPE
  5
1F5
100
AcDbSymbolTableRecord
100
AcDbLinetypeTableRecord
  2
CENTER
 70
64
  3
____ _ ____ _ ____ _ ____ _ ____ _ ____ _ ____
 72
65
 73
4
 40
0.6
 49
0.375
 74
0
 49
-0.075
 74
0
 49
0.075
 74
0
 49
-0.075
 74
0
  0
LTYPE
  5
1F6
100
AcDbSymbolTableRecord
100
AcDbLinetypeTableRecord
  2
HIDDEN
 70
64
  3
- - - - - - - - - - - - - - - - - - - -
 72
65
 73
2
 40
0.2
 49
0.1
 74
0
 49
-0.1
 74
0
  0
LTYPE
  5
1F7
100
AcDbSymbolTableRecord
100
AcDbLinetypeTableRecord
  2
PHANTOM
 70
64
  3
_____ _ _ _____ _ _ _____ _ _ _____
 72
65
 73
6
 40
0.8
 49
0.45
 74
0
 49
-0.05
 74
0
 49
0.1
 74
0
 49
-0.05
 74
0
 49
0.1
 74
0
 49
-0.05
 74
0
  0
LTYPE
  5
1F8
100
AcDbSymbolTableRecord
100
AcDbLinetypeTableRecord
  2
DOT
 70
64
  3
. . . . . . . . . . . . . . . . . . . .
 72
65
 73
2
 40
0.2
 49
0.1
 74
0
 49
-0.1
 74
0
  0
LTYPE
  5
1F9
100
AcDbSymbolTableRecord
100
AcDbLinetypeTableRecord
  2
DASHED
 70
64
  3
- - - - - - - - - - - - - - - - - - - -
 72
65
 73
2
 40
0.2
 49
0.1
 74
0
 49
-0.1
 74
0
  0
ENDTAB
  0
TABLE
  2
LAYER
  5
2
100
AcDbSymbolTable
 70
36
  0
LAYER
  5
10
100
AcDbSymbolTableRecord
100
AcDbLayerTableRecord
  2
0
 70
0
 62
7
  6
CONTINUOUS
370
-3
390
F
  0
LAYER
  5
1FA
100
AcDbSymbolTableRecord
100
AcDbLayerTableRecord
  2
DEFAULT_1
 70
0
 62
7
  6
CENTER
370
-3
390
F
  0
LAYER
  5
1FB
100
AcDbSymbolTableRecord
100
AcDbLayerTableRecord
  2
DEFAULT_2
 70
0
 62
7
  6
HIDDEN
370
-3
390
F
  0
LAYER
  5
1FC
100
AcDbSymbolTableRecord
100
AcDbLayerTableRecord
  2
DEFAULT_3
 70
0
 62
7
  6
PHANTOM
370
-3
390
F
  0
LAYER
  5
1FD
100
AcDbSymbolTableRecord
100
AcDbLayerTableRecord
  2
00_COMPONENTS
 70
0
 62
7
  6
CONTINUOUS
370
-3
390
F
  0
LAYER
  5
1FE
100
AcDbSymbolTableRecord
100
AcDbLayerTableRecord
  2
01_1_DEFAULT_DATUMS
 70
0
 62
7
  6
CONTINUOUS
370
-3
390
F
  0
LAYER
  5
1FF
100
AcDbSymbolTableRecord
100
AcDbLayerTableRecord
  2
01_PLANES
 70
0
 62
7
  6
CONTINUOUS
370
-3
390
F
  0
LAYER
  5
200
100
AcDbSymbolTableRecord
100
AcDbLayerTableRecord
  2
02_COORD_SYS
 70
0
 62
7
  6
CONTINUOUS
370
-3
390
F
  0
LAYER
  5
201
100
AcDbSymbolTableRecord
100
AcDbLayerTableRecord
  2
03_AXES
 70
0
 62
7
  6
CONTINUOUS
370
-3
390
F
  0
LAYER
  5
202
100
AcDbSymbolTableRecord
100
AcDbLayerTableRecord
  2
04_POINTS
 70
0
 62
7
  6
CONTINUOUS
370
-3
390
F
  0
LAYER
  5
203
100
AcDbSymbolTableRecord
100
AcDbLayerTableRecord
  2
05_CURVES
 70
0
 62
7
  6
CONTINUOUS
370
-3
390
F
  0
LAYER
  5
204
100
AcDbSymbolTableRecord
100
AcDbLayerTableRecord
  2
06_SURFS
 70
0
 62
7
  6
CONTINUOUS
370
-3
390
F
  0
LAYER
  5
205
100
AcDbSymbolTableRecord
100
AcDbLayerTableRecord
  2
07_COSMETICS
 70
0
 62
7
  6
CONTINUOUS
370
-3
390
F
  0
LAYER
  5
206
100
AcDbSymbolTableRecord
100
AcDbLayerTableRecord
  2
10_NOTES
 70
0
 62
7
  6
CONTINUOUS
370
-3
390
F
  0
LAYER
  5
207
100
AcDbSymbolTableRecord
100
AcDbLayerTableRecord
  2
11_NOTES_PUB
 70
0
 62
7
  6
CONTINUOUS
370
-3
390
F
  0
LAYER
  5
208
100
AcDbSymbolTableRecord
100
AcDbLayerTableRecord
  2
13_REF_GTOL
 70
0
 62
7
  6
CONTINUOUS
370
-3
390
F
  0
LAYER
  5
209
100
AcDbSymbolTableRecord
100
AcDbLayerTableRecord
  2
16_MISC
 70
0
 62
7
  6
CONTINUOUS
370
-3
390
F
  0
LAYER
  5
20A
100
AcDbSymbolTableRecord
100
AcDbLayerTableRecord
  2
17_NO_PRINT
 70
0
 62
7
  6
CONTINUOUS
370
-3
390
F
  0
LAYER
  5
20B
100
AcDbSymbolTableRecord
100
AcDbLayerTableRecord
  2
18_DATUM_CAMS_JOINTS
 70
0
 62
7
  6
CONTINUOUS
370
-3
390
F
  0
LAYER
  5
20C
100
AcDbSymbolTableRecord
100
AcDbLayerTableRecord
  2
19_DATUM_FUNCTIONAL
 70
0
 62
7
  6
CONTINUOUS
370
-3
390
F
  0
LAYER
  5
20D
100
AcDbSymbolTableRecord
100
AcDbLayerTableRecord
  2
20_DATUM_KINEMATIC_SCHEME
 70
0
 62
7
  6
CONTINUOUS
370
-3
390
F
  0
ENDTAB
  0
TABLE
  2
STYLE
  5
3
100
AcDbSymbolTable
 70
1
  0
STYLE
  5
11
100
AcDbSymbolTableRecord
100
AcDbTextStyleTableRecord
  2
STANDARD
 70
0
 40
0.0
 41
1.0
 50
0.0
 71
0
 42
0.2
  3
ARIAL.TTF
  4

  0
STYLE
  5
20E
100
AcDbSymbolTableRecord
100
AcDbTextStyleTableRecord
  2
TEXTSTYLE_1
 70
0
 40
0.0
 41
0.8
 50
0.0
 71
0
 42
0.2
  3
gdt
  4

  0
ENDTAB
  0
TABLE
  2
VIEW
  5
6
100
AcDbSymbolTable
 70
0
  0
ENDTAB
  0
TABLE
  2
UCS
  5
7
100
AcDbSymbolTable
 70
0
  0
ENDTAB
  0
TABLE
  2
APPID
  5
9
100
AcDbSymbolTable
 70
1
  0
APPID
  5
20F
100
AcDbSymbolTableRecord
100
AcDbRegAppTableRecord
  2
ACAD
 70
0
  0
ENDTAB
  0
TABLE
  2
BLOCK_RECORD
  5
1
100
AcDbSymbolTable
 70
0
  0
BLOCK_RECORD
  5
210
100
AcDbSymbolTableRecord
100
AcDbBlockTableRecord
  2
*Model_Space
  0
BLOCK_RECORD
  5
211
100
AcDbSymbolTableRecord
100
AcDbBlockTableRecord
  2
*Paper_Space
  0
BLOCK_RECORD
  5
212
100
AcDbSymbolTableRecord
100
AcDbBlockTableRecord
  2
_FILLED
  0
ENDTAB
  0
TABLE
  2
DIMSTYLE
  5
A
100
AcDbSymbolTable
 70
1
100
AcDbDimStyleTable
 71
0
  0
DIMSTYLE
105
213
100
AcDbSymbolTableRecord
100
AcDbDimStyleTableRecord
  2
STANDARD
 70
0
  3

  4

 40
1.0
 41
0.8619560265
 42
1.0
 43
0.38
 44
1.0
 45
0.0
 46
0.0
 47
0.01
 48
0.01
140
1.2067384371
141
0.09
142
0.0
143
25.4
144
1.0
145
0.0
146
1.0
147
0.625
 71
1
 72
0
 73
0
 74
0
 75
0
 76
0
 77
1
 78
8
 79
2
170
0
171
1
172
0
173
0
174
0
175
0
176
0
177
0
178
0
270
2
179
2
271
2
272
2
273
2
274
2
275
0
280
0
281
0
282
0
283
1
284
8
285
0
286
0
287
3
288
0
340
11
278
46
341
212
342
212
343
212
344
212
  0
ENDTAB
  0
ENDSEC
  0
SECTION
  2
BLOCKS
  0
BLOCK
  5
20
100
AcDbEntity
  8
0
100
AcDbBlockBegin
  2
*Model_Space
 70
0
 10
0.0
 20
0.0
 30
0.0
  3
*Model_Space
  1

  0
ENDBLK
  5
21
100
AcDbEntity
  8
0
100
AcDbBlockEnd
  0
BLOCK
  5
1C
100
AcDbEntity
  8
0
100
AcDbBlockBegin
  2
*Paper_Space
 70
0
 10
0.0
 20
0.0
 30
0.0
  3
*Paper_Space
  1

  0
ENDBLK
  5
1D
100
AcDbEntity
  8
0
100
AcDbBlockEnd
  0
BLOCK
  5
214
100
AcDbEntity
  8
0
100
AcDbBlockBegin
  2
_FILLED
 70
64
 10
0.0
 20
0.0
  3
_FILLED
  1

  0
SOLID
  5
215
100
AcDbEntity
  8
0
  6
BYBLOCK
 62
0
100
AcDbTrace
 10
0.0
 20
0.0
 11
-1.0
 21
0.25
 12
-1.0
 22
-0.25
 13
-1.0
 23
-0.25
  0
ENDBLK
  5
216
100
AcDbEntity
  8
0
  6
BYBLOCK
 62
0
100
AcDbBlockEnd
  0
ENDSEC
  0
SECTION
  2
ENTITIES
  0
LINE
  5
217
100
AcDbEntity
  8
0
100
AcDbLine
 62
7
  6
BYLAYER
 10
11.1743988514
 20
39.6349747134
 11
11.1744142404
 21
39.6216892158
  0
LINE
  5
218
100
AcDbEntity
  8
0
100
AcDbLine
 62
7
  6
BYLAYER
 10
11.1743988514
 20
39.6349747134
 11
11.176473013
 21
39.6205069729
  0
LWPOLYLINE
  5
219
100
AcDbEntity
  8
0
100
AcDbPolyline
 62
7
  6
BYLAYER
 90
3
 70
0
 10
25.1190731216
 20
33.6298571046
 10
26.5813791935
 20
33.4457137707
 10
27.7702016459
 20
33.8386624021
  0
LWPOLYLINE
  5
21A
100
AcDbEntity
  8
0
100
AcDbPolyline
 62
7
  6
BYLAYER
 90
7
 70
0
 10
20.399062256
 20
42.5110507345
 10
18.4725639146
 20
44.3487729948
 10
16.4540886517
 20
45.3886305194
 10
14.5995199579
 20
45.4938571337
 10
13.1768795283
 20
44.6436511995
 10
12.6901583912
 20
43.8943765193
 10
12.4273670503
 20
42.7064405238
  0
LWPOLYLINE
  5
21B
100
AcDbEntity
  8
0
100
AcDbPolyline
 62
7
  6
BYLAYER
 90
3
 70
0
 10
23.2079352112
 20
44.2232348001
 10
21.2484639455
 20
46.0923639282
 10
19.1782340005
 20
47.1587939691
  0
LINE
  5
21C
100
AcDbEntity
  8
0
100
AcDbLine
 62
7
  6
BYLAYER
 10
23.1538581296
 20
44.1665439671
 11
23.1643794365
 21
44.1538157699
  0
LINE
  5
21D
100
AcDbEntity
  8
0
100
AcDbLine
 62
7
  6
BYLAYER
 10
23.1538581296
 20
44.1665439671
 11
23.1633069396
 21
44.1521795002
  0
LINE
  5
21E
100
AcDbEntity
  8
0
100
AcDbLine
 62
7
  6
BYLAYER
 10
41.5139500507
 20
67.4711913886
 11
39.2968698592
 21
66.1911671839
  0
LINE
  5
21F
100
AcDbEntity
  8
0
100
AcDbLine
 62
7
  6
BYLAYER
 10
44.9537005136
 20
69.4571203899
 11
47.1707807917
 21
70.7371446445
  0
LINE
  5
220
100
AcDbEntity
  8
0
100
AcDbLine
 62
7
  6
BYLAYER
 10
12.0890698029
 20
42.3988395804
 11
13.6317974978
 21
43.8015837589
  0
LINE
  5
221
100
AcDbEntity
  8
0
100
AcDbLine
 62
7
  6
BYLAYER
 10
14.0262750524
 20
44.0901563892
 11
13.6317974978
 21
43.8015837589
  0
LINE
  5
222
100
AcDbEntity
  8
0
100
AcDbLine
 62
7
  6
BYLAYER
 10
49.3868918099
 20
68.1744926986
 11
47.169811533
 21
66.8944684446
  0
LINE
  5
223
100
AcDbEntity
  8
0
100
AcDbLine
 62
7
  6
BYLAYER
 10
52.8266422738
 20
70.1604217005
 11
55.0437224645
 21
71.4404459047
  0
LINE
  5
224
100
AcDbEntity
  8
0
100
AcDbLine
 62
7
  6
BYLAYER
 10
49.8586835888
 20
67.9628507318
 11
47.67781973
 21
66.7037359117
  0
LINE
  5
225
100
AcDbEntity
  8
0
100
AcDbLine
 62
7
  6
BYLAYER
 10
53.3346504085
 20
69.9696891316
 11
55.5155143062
 21
71.2288039741
  0
LINE
  5
226
100
AcDbEntity
  8
0
100
AcDbLine
 62
7
  6
BYLAYER
 10
18.4429378679
 20
37.2763678286
 11
18.1749771574
 21
36.9718245322
  0
LINE
  5
227
100
AcDbEntity
  8
0
100
AcDbLine
 62
7
  6
BYLAYER
 10
18.5631358621
 20
48.1528720826
 11
16.5125347342
 21
46.9689640364
  0
LINE
  5
228
100
AcDbEntity
  8
0
100
AcDbLine
 62
7
  6
BYLAYER
 10
14.379826971
 20
44.2942784661
 11
14.0262750524
 21
44.0901563892
  0
LINE
  5
229
100
AcDbEntity
  8
0
100
AcDbLine
 62
7
  6
BYLAYER
 10
13.8962505365
 20
45.4584606671
 11
16.4508127818
 21
46.933275006
  0
LINE
  5
22A
100
AcDbEntity
  8
0
100
AcDbLine
 62
7
  6
BYLAYER
 10
16.5100353254
 20
46.9661728105
 11
16.5192208062
 21
46.971100802
  0
LINE
  5
22B
100
AcDbEntity
  8
0
100
AcDbLine
 62
7
  6
BYLAYER
 10
19.1782340005
 20
47.1587939691
 11
17.4670214501
 21
47.2557382798
  0
LINE
  5
22C
100
AcDbEntity
  8
0
100
AcDbLine
 62
7
  6
BYLAYER
 10
16.5195921134
 20
46.9716822004
 11
16.5125504837
 21
46.9689367445
  0
LINE
  5
22D
100
AcDbEntity
  8
0
100
AcDbLine
 62
7
  6
BYLAYER
 10
15.5837909198
 20
38.8165810726
 11
16.6859403488
 21
39.5509273341
  0
LINE
  5
22E
100
AcDbEntity
  8
0
100
AcDbLine
 62
7
  6
BYLAYER
 10
16.4419072703
 20
46.9279960137
 11
16.4519950215
 21
46.9312211983
  0
LINE
  5
22F
100
AcDbEntity
  8
0
100
AcDbLine
 62
7
  6
BYLAYER
 10
16.5178746553
 20
46.9522837696
 11
16.5279896087
 21
46.955517651
  0
LINE
  5
230
100
AcDbEntity
  8
0
100
AcDbLine
 62
7
  6
BYLAYER
 10
8.6068445175
 20
34.321789103
 11
15.6778828896
 21
38.4042306417
  0
LINE
  5
231
100
AcDbEntity
  8
0
100
AcDbLine
 62
7
  6
BYLAYER
 10
9.6068400406
 20
32.5897357107
 11
16.6778784127
 21
36.6721772494
  0
LINE
  5
232
100
AcDbEntity
  8
0
100
AcDbLine
 62
7
  6
BYLAYER
 10
57.976575319
 20
57.8641458486
 11
55.7957114216
 21
56.6050310063
  0
LINE
  5
233
100
AcDbEntity
  8
0
100
AcDbLine
 62
7
  6
BYLAYER
 10
61.452542139
 20
59.8709842486
 11
63.6334059975
 21
61.1300990685
  0
LINE
  5
234
100
AcDbEntity
  8
0
100
AcDbLine
 62
7
  6
BYLAYER
 10
16.9879368892
 20
36.384514395
 11
18.1749771574
 21
36.9718245322
  0
LINE
  5
235
100
AcDbEntity
  8
0
100
AcDbLine
 62
7
  6
BYLAYER
 10
58.1783959561
 20
57.2378098962
 11
55.9613157756
 21
55.9577856979
  0
LINE
  5
236
100
AcDbEntity
  8
0
100
AcDbLine
 62
7
  6
BYLAYER
 10
61.6181464612
 20
59.2237389218
 11
63.835226666
 21
60.5037631342
  0
LINE
  5
237
100
AcDbEntity
  8
0
100
AcDbLine
 62
7
  6
BYLAYER
 10
21.1297967521
 20
32.6029180682
 11
20.7762448335
 21
32.3987959913
  0
LINE
  5
238
100
AcDbEntity
  8
0
100
AcDbLine
 62
7
  6
BYLAYER
 10
24.4417885354
 20
33.0717124827
 11
21.8962147215
 21
31.6020335288
  0
LINE
  5
239
100
AcDbEntity
  8
0
100
AcDbLine
 62
7
  6
BYLAYER
 10
24.5060163458
 20
33.1088209506
 11
26.5631000471
 21
34.2964449443
  0
LINE
  5
23A
100
AcDbEntity
  8
0
100
AcDbLine
 62
7
  6
BYLAYER
 10
20.3290938074
 20
32.2014570344
 11
20.7762448335
 21
32.3987959912
  0
LINE
  5
23B
100
AcDbEntity
  8
0
100
AcDbLine
 62
7
  6
BYLAYER
 10
24.50544154
 20
33.1098187341
 11
24.5124831697
 21
33.11256419
  0
LINE
  5
23C
100
AcDbEntity
  8
0
100
AcDbLine
 62
7
  6
BYLAYER
 10
18.3429145855
 20
31.5667980162
 11
20.3290938074
 21
32.2014570344
  0
LINE
  5
23D
100
AcDbEntity
  8
0
100
AcDbLine
 62
7
  6
BYLAYER
 10
58.1783957201
 20
46.7405228092
 11
55.9613160117
 21
45.4604988835
  0
LINE
  5
23E
100
AcDbEntity
  8
0
100
AcDbLine
 62
7
  6
BYLAYER
 10
61.6181467289
 20
48.7264521258
 11
63.8352263982
 21
50.006476029
  0
LINE
  5
23F
100
AcDbEntity
  8
0
100
AcDbLine
 62
7
  6
BYLAYER
 10
57.9765752994
 20
46.3054057444
 11
55.7957114407
 21
45.0462909243
  0
LINE
  5
240
100
AcDbEntity
  8
0
100
AcDbLine
 62
7
  6
BYLAYER
 10
61.4525421192
 20
48.3122441443
 11
63.6334060168
 21
49.5713589867
  0
LINE
  5
241
100
AcDbEntity
  8
0
100
AcDbLine
 62
7
  6
BYLAYER
 10
64.7967220323
 20
56.295780779
 11
64.1363901571
 21
55.2812902975
  0
LWPOLYLINE
  5
242
100
AcDbEntity
  8
0
100
AcDbPolyline
 62
7
  6
BYLAYER
 90
3
 70
0
 10
56.5376115341
 20
70.1777036778
 10
57.5141603045
 20
70.0547301433
 10
58.7669973851
 20
69.4751868576
  0
LINE
  5
243
100
AcDbEntity
  8
0
100
AcDbLine
 62
7
  6
BYLAYER
 10
65.1308219461
 20
58.4526535923
 11
64.7967220323
 21
56.295780779
  0
ARC
  5
244
100
AcDbEntity
  8
0
100
AcDbCircle
 62
7
  6
BYLAYER
 10
107.2887251267
 20
0.5881892765
 40
92.8901769092
100
AcDbArc
 50
132.1490474634
 51
132.3891722307
  0
ARC
  5
245
100
AcDbEntity
  8
0
100
AcDbCircle
 62
7
  6
BYLAYER
 10
101.16325591
 20
-2.1621788037
 40
92.1934359519
100
AcDbArc
 50
132.1481401043
 51
132.3900795888
  0
ARC
  5
246
100
AcDbEntity
  8
0
100
AcDbCircle
 62
7
  6
BYLAYER
 10
104.772701687
 20
101.6059333055
 40
80.9889379377
100
AcDbArc
 50
224.4341790556
 51
224.6637851718
  0
ARC
  5
247
100
AcDbEntity
  8
0
100
AcDbCircle
 62
7
  6
BYLAYER
 10
115.4234869193
 20
61.7288209432
 40
71.1507093001
100
AcDbArc
 50
173.9763745719
 51
175.0510440114
  0
ARC
  5
248
100
AcDbEntity
  8
0
100
AcDbCircle
 62
7
  6
BYLAYER
 10
114.2574319319
 20
71.2182524191
 40
60.2604265259
100
AcDbArc
 50
194.0342061181
 51
194.669436199
  0
ARC
  5
249
100
AcDbEntity
  8
0
100
AcDbCircle
 62
7
  6
BYLAYER
 10
119.69940162
 20
74.4292312576
 40
60.0386475363
100
AcDbArc
 50
194.0330328534
 51
194.6706094584
  0
ARC
  5
24A
100
AcDbEntity
  8
0
100
AcDbCircle
 62
7
  6
BYLAYER
 10
8.9385243439
 20
43.1603964625
 40
57.5711758899
100
AcDbArc
 50
17.5327486091
 51
18.1876531958
  0
ARC
  5
24B
100
AcDbEntity
  8
0
100
AcDbCircle
 62
7
  6
BYLAYER
 10
3.3208179781
 20
39.9070500442
 40
57.5300712692
100
AcDbArc
 50
17.5325146426
 51
18.1878871567
  0
ARC
  5
24C
100
AcDbEntity
  8
0
100
AcDbCircle
 62
7
  6
BYLAYER
 10
78.9182933694
 20
89.6901010202
 40
55.0845961411
100
AcDbArc
 50
234.805167165
 51
235.4492287944
  0
ARC
  5
24D
100
AcDbEntity
  8
0
100
AcDbCircle
 62
7
  6
BYLAYER
 10
10.7953256979
 20
68.4538547769
 40
52.1212443238
100
AcDbArc
 50
334.8530767001
 51
335.3803409984
  0
ARC
  5
24E
100
AcDbEntity
  8
0
100
AcDbCircle
 62
7
  6
BYLAYER
 10
16.8609911307
 20
71.5301781376
 40
51.670577051
100
AcDbArc
 50
334.8507773025
 51
335.3826403971
  0
ARC
  5
24F
100
AcDbEntity
  8
0
100
AcDbCircle
 62
7
  6
BYLAYER
 10
70.5443830708
 20
116.5789900506
 40
49.6850262198
100
AcDbArc
 50
249.1083887455
 51
249.7341460685
  0
ARC
  5
250
100
AcDbEntity
  8
0
100
AcDbCircle
 62
7
  6
BYLAYER
 10
64.7752618882
 20
113.0139557955
 40
49.365564878
100
AcDbArc
 50
249.1063639811
 51
249.7361708329
  0
ARC
  5
251
100
AcDbEntity
  8
0
100
AcDbCircle
 62
7
  6
BYLAYER
 10
37.7426115287
 20
32.2411663847
 40
42.8475431961
100
AcDbArc
 50
65.4936571966
 51
66.1851117719
  0
ARC
  5
252
100
AcDbEntity
  8
0
100
AcDbCircle
 62
7
  6
BYLAYER
 10
32.1248193891
 20
29.0622378249
 40
42.7521651565
100
AcDbArc
 50
65.4928858861
 51
66.1858830823
  0
ARC
  5
253
100
AcDbEntity
  8
0
100
AcDbCircle
 62
7
  6
BYLAYER
 10
94.7864336577
 20
29.6976098796
 40
41.9029644533
100
AcDbArc
 50
157.9029853369
 51
158.5129419841
  0
ARC
  5
254
100
AcDbEntity
  8
0
100
AcDbCircle
 62
7
  6
BYLAYER
 10
100.2548288473
 20
33.0389015568
 40
41.700029366
100
AcDbArc
 50
157.9015011312
 51
158.5144261884
  0
ARC
  5
255
100
AcDbEntity
  8
0
100
AcDbCircle
 62
7
  6
BYLAYER
 10
50.7784399559
 20
57.6767855677
 40
14.3304548392
100
AcDbArc
 50
39.3851743211
 51
39.6147542761
  0
ARC
  5
256
100
AcDbEntity
  8
0
100
AcDbCircle
 62
7
  6
BYLAYER
 10
51.1418627475
 20
57.8941388609
 40
13.9542586988
100
AcDbArc
 50
39.61476051
 51
39.9044954641
  0
ARC
  5
257
100
AcDbEntity
  8
0
100
AcDbCircle
 62
7
  6
BYLAYER
 10
13.4861520842
 20
36.1347922978
 40
12.6195730631
100
AcDbArc
 50
39.6148277178
 51
39.7470354286
  0
ARC
  5
258
100
AcDbEntity
  8
0
100
AcDbCircle
 62
7
  6
BYLAYER
 10
21.3642567629
 20
40.4915695393
 40
10.3206723692
100
AcDbArc
 50
215.4511719788
 51
219.4088231108
  0
ARC
  5
259
100
AcDbEntity
  8
0
100
AcDbCircle
 62
7
  6
BYLAYER
 10
21.2074682691
 20
40.3985309289
 40
10.1015527932
100
AcDbArc
 50
215.5481238898
 51
219.5820659569
  0
ARC
  5
25A
100
AcDbEntity
  8
0
100
AcDbCircle
 62
7
  6
BYLAYER
 10
21.041765964
 20
40.2334611338
 40
9.9076458563
100
AcDbArc
 50
219.4395268539
 51
219.6147921108
  0
ARC
  5
25B
100
AcDbEntity
  8
0
100
AcDbCircle
 62
7
  6
BYLAYER
 10
20.8810408521
 20
40.1358414323
 40
9.6825913879
100
AcDbArc
 50
219.6148234624
 51
219.764854461
  0
ARC
  5
25C
100
AcDbEntity
  8
0
100
AcDbCircle
 62
7
  6
BYLAYER
 10
20.7100089146
 20
39.9916525202
 40
9.4588945949
100
AcDbArc
 50
219.7561562333
 51
223.4963306384
  0
ARC
  5
25D
100
AcDbEntity
  8
0
100
AcDbCircle
 62
7
  6
BYLAYER
 10
20.1318393154
 20
39.4449735873
 40
8.6631962612
100
AcDbArc
 50
223.505509419
 51
228.1490800687
  0
ARC
  5
25E
100
AcDbEntity
  8
0
100
AcDbCircle
 62
7
  6
BYLAYER
 10
56.5109252583
 20
58.4523576084
 40
8.6198932616
100
AcDbArc
 50
0.0019805512
 51
0.9807513478
  0
ARC
  5
25F
100
AcDbEntity
  8
0
100
AcDbCircle
 62
7
  6
BYLAYER
 10
54.4683466763
 20
62.0310247765
 40
8.5961548666
100
AcDbArc
 50
58.943704196
 51
59.995587745
  0
ARC
  5
260
100
AcDbEntity
  8
0
100
AcDbCircle
 62
7
  6
BYLAYER
 10
18.1053428834
 20
36.6526403001
 40
5.2000685822
100
AcDbArc
 50
242.1080855149
 51
244.9619203826
  0
ARC
  5
261
100
AcDbEntity
  8
0
100
AcDbCircle
 62
7
  6
BYLAYER
 10
49.2492293458
 20
65.1964554951
 40
4.6042888997
100
AcDbArc
 50
140.9562201834
 51
142.1828025857
  0
ARC
  5
262
100
AcDbEntity
  8
0
100
AcDbCircle
 62
7
  6
BYLAYER
 10
17.7769283065
 20
44.6157553566
 40
2.6701085577
100
AcDbArc
 50
118.3252108696
 51
119.7787632202
  0
ARC
  5
263
100
AcDbEntity
  8
0
100
AcDbCircle
 62
7
  6
BYLAYER
 10
23.1812619217
 20
35.4185370466
 40
2.6626608361
100
AcDbArc
 50
299.0804693478
 51
299.8367395234
  0
ARC
  5
264
100
AcDbEntity
  8
0
100
AcDbCircle
 62
7
  6
BYLAYER
 10
17.843568161
 20
44.6634051018
 40
2.6621773511
100
AcDbArc
 50
120.997449962
 51
121.886866373
  0
ARC
  5
265
100
AcDbEntity
  8
0
100
AcDbCircle
 62
7
  6
BYLAYER
 10
23.1110049135
 20
35.3768412597
 40
2.6616800909
100
AcDbArc
 50
300.8400919087
 51
301.7111607314
  0
ARC
  5
266
100
AcDbEntity
  8
0
100
AcDbCircle
 62
7
  6
BYLAYER
 10
17.8426326354
 20
44.6649463847
 40
2.6603743829
100
AcDbArc
 50
119.9976256236
 51
120.9972741607
  0
ARC
  5
267
100
AcDbEntity
  8
0
100
AcDbCircle
 62
7
  6
BYLAYER
 10
23.1117223774
 20
35.3756535056
 40
2.6602924803
100
AcDbArc
 50
299.99785857
 51
300.8399385466
  0
ARC
  5
268
100
AcDbEntity
  8
0
100
AcDbCircle
 62
7
  6
BYLAYER
 10
17.4150687213
 20
39.1164088557
 40
1.0115774444
100
AcDbArc
 50
164.378788666
 51
164.7177492028
  0
SPLINE
  5
269
100
AcDbEntity
  8
0
100
AcDbSpline
 62
7
  6
BYLAYER
 70
0
 71
3
 72
11
 73
7
 74
0
 42
0.0000001
 43
0.0000001
 44
0.0000000001
 40
0.0
 40
0.0
 40
0.0
 40
0.0
 40
0.2438909401
 40
0.4915600864
 40
0.7434920037
 40
1.0
 40
1.0
 40
1.0
 40
1.0
 10
63.8352266539
 20
60.5037631272
 30
0.0
 10
63.8832471494
 20
60.093237403
 30
0.0
 10
63.9700966507
 20
59.2646192316
 30
0.0
 10
64.0672188742
 20
58.008192059
 30
0.0
 10
64.1275244352
 20
56.7280271282
 30
0.0
 10
64.1408942391
 20
55.8663027932
 30
0.0
 10
64.1408942391
 20
55.4315957882
 30
0.0
  0
SPLINE
  5
26A
100
AcDbEntity
  8
0
100
AcDbSpline
 62
7
  6
BYLAYER
 70
0
 71
3
 72
10
 73
6
 74
0
 42
0.0000001
 43
0.0000001
 44
0.0000000001
 40
0.0
 40
0.0
 40
0.0
 40
0.0
 40
0.2518572263
 40
0.5024569043
 40
1.0
 40
1.0
 40
1.0
 40
1.0
 10
59.8982352187
 20
66.3663818862
 30
0.0
 10
60.2366924287
 20
65.9453402722
 30
0.0
 10
60.8990517491
 20
65.0949138012
 30
0.0
 10
62.1656170788
 20
63.363585395
 30
0.0
 10
63.0586296104
 20
62.0292772396
 30
0.0
 10
63.6334059975
 20
61.1300990685
 30
0.0
  0
SPLINE
  5
26B
100
AcDbEntity
  8
0
100
AcDbSpline
 62
7
  6
BYLAYER
 70
0
 71
3
 72
9
 73
5
 74
0
 42
0.0000001
 43
0.0000001
 44
0.0000000001
 40
0.0
 40
0.0
 40
0.0
 40
0.0
 40
0.5170225978
 40
1.0
 40
1.0
 40
1.0
 40
1.0
 10
47.1707807484
 20
70.7371446196
 30
0.0
 10
47.8992869477
 20
70.84754309
 30
0.0
 10
49.3104871522
 20
71.0473241837
 30
0.0
 10
50.7273436255
 20
71.2040281571
 30
0.0
 10
51.4129185052
 20
71.2652710431
 30
0.0
  0
SPLINE
  5
26C
100
AcDbEntity
  8
0
100
AcDbSpline
 62
7
  6
BYLAYER
 70
0
 71
3
 72
9
 73
5
 74
0
 42
0.0000001
 43
0.0000001
 44
0.0000000001
 40
0.0
 40
0.0
 40
0.0
 40
0.0
 40
0.5215749941
 40
1.0
 40
1.0
 40
1.0
 40
1.0
 10
51.4129185052
 20
71.2652710431
 30
0.0
 10
52.0425324205
 20
71.3215158334
 30
0.0
 10
53.251974063
 20
71.4057841147
 30
0.0
 10
54.4639066665
 20
71.4370629056
 30
0.0
 10
55.0437224645
 20
71.4404459047
 30
0.0
  0
SPLINE
  5
26D
100
AcDbEntity
  8
0
100
AcDbSpline
 62
7
  6
BYLAYER
 70
0
 71
3
 72
10
 73
6
 74
0
 42
0.0000001
 43
0.0000001
 44
0.0000000001
 40
0.0
 40
0.0
 40
0.0
 40
0.0
 40
0.5016857922
 40
0.7513585179
 40
1.0
 40
1.0
 40
1.0
 40
1.0
 10
55.5155142865
 20
71.2288039627
 30
0.0
 10
56.2871883584
 20
70.4517294776
 30
0.0
 10
57.4205675021
 20
69.2650602558
 30
0.0
 10
58.8635269032
 20
67.6267671849
 30
0.0
 10
59.558181288
 20
66.7894127873
 30
0.0
 10
59.8982352187
 20
66.3663818862
 30
0.0
  0
SPLINE
  5
26E
100
AcDbEntity
  8
0
100
AcDbSpline
 62
7
  6
BYLAYER
 70
0
 71
3
 72
10
 73
6
 74
0
 42
0.0000001
 43
0.0000001
 44
0.0000000001
 40
0.0
 40
0.0
 40
0.0
 40
0.0
 40
0.2442470485
 40
0.4926262734
 40
1.0
 40
1.0
 40
1.0
 40
1.0
 10
64.1408942391
 20
55.4315957882
 30
0.0
 10
64.1408942376
 20
54.9890346028
 30
0.0
 10
64.1268038195
 20
54.0963663533
 30
0.0
 10
64.0450556367
 20
52.2860818772
 30
0.0
 10
63.9294679138
 20
50.9209640191
 30
0.0
 10
63.8352263982
 20
50.006476029
 30
0.0
  0
SPLINE
  5
26F
100
AcDbEntity
  8
0
100
AcDbSpline
 62
7
  6
BYLAYER
 70
0
 71
3
 72
9
 73
5
 74
0
 42
0.0000001
 43
0.0000001
 44
0.0000000001
 40
0.0
 40
0.0
 40
0.0
 40
0.0
 40
0.4887655257
 40
1.0
 40
1.0
 40
1.0
 40
1.0
 10
58.2620155559
 20
47.8830540592
 30
0.0
 10
58.7832794264
 20
47.9413619356
 30
0.0
 10
59.8482085295
 20
48.0747867317
 30
0.0
 10
60.9102124065
 20
48.2293569029
 30
0.0
 10
61.4525421384
 20
48.3122441553
 30
0.0
  0
SPLINE
  5
270
100
AcDbEntity
  8
0
100
AcDbSpline
 62
7
  6
BYLAYER
 70
0
 71
3
 72
9
 73
5
 74
0
 42
0.0000001
 43
0.0000001
 44
0.0000000001
 40
0.0
 40
0.0
 40
0.0
 40
0.0
 40
0.5215749948
 40
1.0
 40
1.0
 40
1.0
 40
1.0
 10
48.5845046475
 20
69.6322952885
 30
0.0
 10
47.9548907086
 20
69.5760504943
 30
0.0
 10
46.7454490225
 20
69.4917822074
 30
0.0
 10
45.533516375
 20
69.4605034141
 30
0.0
 10
44.9537005569
 20
69.4571204149
 30
0.0
  0
SPLINE
  5
271
100
AcDbEntity
  8
0
100
AcDbSpline
 62
7
  6
BYLAYER
 70
0
 71
3
 72
15
 73
11
 74
0
 42
0.0000001
 43
0.0000001
 44
0.0000000001
 40
0.0
 40
0.0
 40
0.0
 40
0.0
 40
0.1108410465
 40
0.2280578197
 40
0.3507094003
 40
0.477625969
 40
0.6074737799
 40
0.7388131746
 40
0.8701524765
 40
1.0
 40
1.0
 40
1.0
 40
1.0
 10
61.3124788891
 20
53.7986192449
 30
0.0
 10
61.3124788891
 20
54.2395537443
 30
0.0
 10
61.2596644374
 20
55.1473008832
 30
0.0
 10
61.0400684454
 20
56.5270063279
 30
0.0
 10
60.6815452535
 20
57.9432892308
 30
0.0
 10
60.190175578
 20
59.3721372363
 30
0.0
 10
59.5742658872
 20
60.7895420564
 30
0.0
 10
58.8442047934
 20
62.1715682618
 30
0.0
 10
58.0124182744
 20
63.4947438683
 30
0.0
 10
57.3934505807
 20
64.3308128431
 30
0.0
 10
57.0698205495
 20
64.7334057839
 30
0.0
  0
SPLINE
  5
272
100
AcDbEntity
  8
0
100
AcDbSpline
 62
7
  6
BYLAYER
 70
0
 71
3
 72
17
 73
13
 74
0
 42
0.0000001
 43
0.0000001
 44
0.0000000001
 40
0.0
 40
0.0
 40
0.0
 40
0.0
 40
0.054719635
 40
0.10929049
 40
0.1640333109
 40
0.2192589576
 40
0.3322254077
 40
0.4504194337
 40
0.575467
 40
0.7084400317
 40
0.8499273542
 40
1.0
 40
1.0
 40
1.0
 40
1.0
 10
58.3327857567
 20
48.0633545844
 30
0.0
 10
58.448677159
 20
48.1105566421
 30
0.0
 10
58.6759437028
 20
48.2155777167
 30
0.0
 10
59.0006829927
 20
48.404388737
 30
0.0
 10
59.3073152739
 20
48.6234520467
 30
0.0
 10
59.6935054803
 20
48.9572192488
 30
0.0
 10
60.1282820347
 20
49.4519499573
 30
0.0
 10
60.5575968565
 20
50.1481787835
 30
0.0
 10
60.8949229529
 20
50.9428131528
 30
0.0
 10
61.1371768262
 20
51.8262167191
 30
0.0
 10
61.2822182776
 20
52.7881010339
 30
0.0
 10
61.3124788847
 20
53.4554263417
 30
0.0
 10
61.3124788891
 20
53.7986192449
 30
0.0
  0
SPLINE
  5
273
100
AcDbEntity
  8
0
100
AcDbSpline
 62
7
  6
BYLAYER
 70
0
 71
3
 72
15
 73
11
 74
0
 42
0.0000001
 43
0.0000001
 44
0.0000000001
 40
0.0
 40
0.0
 40
0.0
 40
0.0
 40
0.1289737045
 40
0.2552348192
 40
0.3794646469
 40
0.5024842696
 40
0.6251806672
 40
0.7484374014
 40
0.8731075284
 40
1.0
 40
1.0
 40
1.0
 40
1.0
 10
48.5845038365
 20
69.6322948521
 30
0.0
 10
48.4396224011
 20
69.6193534846
 30
0.0
 10
48.1538688993
 20
69.5807137921
 30
0.0
 10
47.7365771646
 20
69.482803194
 30
0.0
 10
47.3374445971
 20
69.3458276838
 30
0.0
 10
46.9580944964
 20
69.1703399482
 30
0.0
 10
46.5999613091
 20
68.9569580854
 30
0.0
 10
46.2643623892
 20
68.7065220456
 30
0.0
 10
45.9525993326
 20
68.420022961
 30
0.0
 10
45.7633891012
 20
68.2079097075
 30
0.0
 10
45.6732399075
 20
68.0967616528
 30
0.0
  0
SPLINE
  5
274
100
AcDbEntity
  8
0
100
AcDbSpline
 62
7
  6
BYLAYER
 70
0
 71
3
 72
15
 73
11
 74
0
 42
0.0000001
 43
0.0000001
 44
0.0000000001
 40
0.0
 40
0.0
 40
0.0
 40
0.0
 40
0.1491363323
 40
0.2932607276
 40
0.4309986235
 40
0.5612444633
 40
0.6832502652
 40
0.7967301516
 40
0.9019803556
 40
1.0
 40
1.0
 40
1.0
 40
1.0
 10
57.0698205495
 20
64.7334057839
 30
0.0
 10
56.7535005243
 20
65.1269126701
 30
0.0
 10
56.101038267
 20
65.8768919226
 30
0.0
 10
55.0538460792
 20
66.8954290212
 30
0.0
 10
53.9686412485
 20
67.7755357941
 30
0.0
 10
52.8634883113
 20
68.5023159106
 30
0.0
 10
51.7565122794
 20
69.0634946902
 30
0.0
 10
50.6653568402
 20
69.4492274938
 30
0.0
 10
49.6079636413
 20
69.6520937404
 30
0.0
 10
48.9150205646
 20
69.6618228928
 30
0.0
 10
48.5845038365
 20
69.6322948521
 30
0.0
  0
SPLINE
  5
275
100
AcDbEntity
  8
0
100
AcDbSpline
 62
7
  6
BYLAYER
 70
0
 71
3
 72
10
 73
6
 74
0
 42
0.0000001
 43
0.0000001
 44
0.0000000001
 40
0.0
 40
0.0
 40
0.0
 40
0.0
 40
0.2442471007
 40
0.4926263069
 40
1.0
 40
1.0
 40
1.0
 40
1.0
 10
61.312478888
 20
53.7986191714
 30
0.0
 10
61.312478888
 20
54.2411804479
 30
0.0
 10
61.3265700421
 20
55.1338487385
 30
0.0
 10
61.4083174404
 20
56.9441332208
 30
0.0
 10
61.5239049521
 20
58.3092510075
 30
0.0
 10
61.6181464732
 20
59.2237389288
 30
0.0
  0
SPLINE
  5
276
100
AcDbEntity
  8
0
100
AcDbSpline
 62
7
  6
BYLAYER
 70
0
 71
3
 72
10
 73
6
 74
0
 42
0.0000001
 43
0.0000001
 44
0.0000000001
 40
0.0
 40
0.0
 40
0.0
 40
0.0
 40
0.5016857921
 40
0.7513585178
 40
1.0
 40
1.0
 40
1.0
 40
1.0
 10
61.452542139
 20
59.8709842486
 30
0.0
 10
60.6808680917
 20
60.6480587088
 30
0.0
 10
59.5474889835
 20
61.8347278918
 30
0.0
 10
58.1045296248
 20
63.4730209072
 30
0.0
 10
57.4098752592
 20
64.3103752758
 30
0.0
 10
57.0698213375
 20
64.7334061623
 30
0.0
  0
SPLINE
  5
277
100
AcDbEntity
  8
0
100
AcDbSpline
 62
7
  6
BYLAYER
 70
0
 71
3
 72
11
 73
7
 74
0
 42
0.0000001
 43
0.0000001
 44
0.0000000001
 40
0.0
 40
0.0
 40
0.0
 40
0.0
 40
0.2438909749
 40
0.4915600476
 40
0.7434919406
 40
1.0
 40
1.0
 40
1.0
 40
1.0
 10
61.6181467289
 20
48.7264521258
 30
0.0
 10
61.5701262361
 20
49.1369778885
 30
0.0
 10
61.4832772944
 20
49.965596005
 30
0.0
 10
61.3861539111
 20
51.2220229051
 30
0.0
 10
61.3258479979
 20
52.502187716
 30
0.0
 10
61.3124788895
 20
53.3639120816
 30
0.0
 10
61.312478888
 20
53.7986191714
 30
0.0
  0
SPLINE
  5
278
100
AcDbEntity
  8
0
100
AcDbSpline
 62
7
  6
BYLAYER
 70
0
 71
3
 72
10
 73
6
 74
0
 42
0.0000001
 43
0.0000001
 44
0.0000000001
 40
0.0
 40
0.0
 40
0.0
 40
0.0
 40
0.2518572262
 40
0.5024569044
 40
1.0
 40
1.0
 40
1.0
 40
1.0
 10
57.0698213375
 20
64.7334061623
 30
0.0
 10
56.731364115
 20
65.1544477885
 30
0.0
 10
56.0690047774
 20
66.0048742906
 30
0.0
 10
54.8024393898
 20
67.7362027406
 30
0.0
 10
53.9094268333
 20
69.0705109426
 30
0.0
 10
53.3346504277
 20
69.9696891427
 30
0.0
  0
SPLINE
  5
279
100
AcDbEntity
  8
0
100
AcDbSpline
 62
7
  6
BYLAYER
 70
0
 71
3
 72
9
 73
5
 74
0
 42
0.0000001
 43
0.0000001
 44
0.0000000001
 40
0.0
 40
0.0
 40
0.0
 40
0.0
 40
0.5170225972
 40
1.0
 40
1.0
 40
1.0
 40
1.0
 10
52.8266422738
 20
70.1604217005
 30
0.0
 10
52.0981360978
 20
70.0500232336
 30
0.0
 10
50.6869359366
 20
69.8502421453
 30
0.0
 10
49.270079507
 20
69.6935381744
 30
0.0
 10
48.5845046475
 20
69.6322952885
 30
0.0
  0
SPLINE
  5
27A
100
AcDbEntity
  8
0
100
AcDbSpline
 62
7
  6
BYLAYER
 70
0
 71
3
 72
10
 73
6
 74
0
 42
0.0000001
 43
0.0000001
 44
0.0000000001
 40
0.0
 40
0.0
 40
0.0
 40
0.0
 40
0.2442470485
 40
0.4926262734
 40
1.0
 40
1.0
 40
1.0
 40
1.0
 10
58.4840635414
 20
52.1656425572
 30
0.0
 10
58.4840635399
 20
51.7230813718
 30
0.0
 10
58.4699731218
 20
50.8304131223
 30
0.0
 10
58.388224939
 20
49.0201286462
 30
0.0
 10
58.2726372161
 20
47.6550107882
 30
0.0
 10
58.1783957005
 20
46.740522798
 30
0.0
  0
SPLINE
  5
27B
100
AcDbEntity
  8
0
100
AcDbSpline
 62
7
  6
BYLAYER
 70
0
 71
3
 72
9
 73
5
 74
0
 42
0.0000001
 43
0.0000001
 44
0.0000000001
 40
0.0
 40
0.0
 40
0.0
 40
0.0
 40
0.4826225949
 40
1.0
 40
1.0
 40
1.0
 40
1.0
 10
51.4129905332
 20
44.4967689412
 30
0.0
 10
52.1208455434
 20
44.5600020136
 30
0.0
 10
53.58473279
 20
44.7229226857
 30
0.0
 10
55.042605417
 20
44.9311895656
 30
0.0
 10
55.7957114407
 20
45.0462909243
 30
0.0
  0
SPLINE
  5
27C
100
AcDbEntity
  8
0
100
AcDbSpline
 62
7
  6
BYLAYER
 70
0
 71
3
 72
11
 73
7
 74
0
 42
0.0000001
 43
0.0000001
 44
0.0000000001
 40
0.0
 40
0.0
 40
0.0
 40
0.0
 40
0.2438909401
 40
0.4915600864
 40
0.7434920037
 40
1.0
 40
1.0
 40
1.0
 40
1.0
 10
58.1783959561
 20
57.2378098962
 30
0.0
 10
58.2264164517
 20
56.8272841721
 30
0.0
 10
58.313265953
 20
55.9986660006
 30
0.0
 10
58.4103881765
 20
54.742238828
 30
0.0
 10
58.4706937375
 20
53.4620738972
 30
0.0
 10
58.4840635414
 20
52.6003495622
 30
0.0
 10
58.4840635414
 20
52.1656425572
 30
0.0
  0
SPLINE
  5
27D
100
AcDbEntity
  8
0
100
AcDbSpline
 62
7
  6
BYLAYER
 70
0
 71
3
 72
10
 73
6
 74
0
 42
0.0000001
 43
0.0000001
 44
0.0000000001
 40
0.0
 40
0.0
 40
0.0
 40
0.0
 40
0.2518572263
 40
0.5024569043
 40
1.0
 40
1.0
 40
1.0
 40
1.0
 10
54.241404521
 20
63.1004286552
 30
0.0
 10
54.579861731
 20
62.6793870412
 30
0.0
 10
55.2422210514
 20
61.8289605703
 30
0.0
 10
56.508786381
 20
60.097632164
 30
0.0
 10
57.4017989127
 20
58.7633240087
 30
0.0
 10
57.9765752998
 20
57.8641458375
 30
0.0
  0
SPLINE
  5
27E
100
AcDbEntity
  8
0
100
AcDbSpline
 62
7
  6
BYLAYER
 70
0
 71
3
 72
10
 73
6
 74
0
 42
0.0000001
 43
0.0000001
 44
0.0000000001
 40
0.0
 40
0.0
 40
0.0
 40
0.0
 40
0.5016857922
 40
0.7513585179
 40
1.0
 40
1.0
 40
1.0
 40
1.0
 10
49.8586835888
 20
67.9628507318
 30
0.0
 10
50.6303576607
 20
67.1857762466
 30
0.0
 10
51.7637368044
 20
65.9991070248
 30
0.0
 10
53.2066962055
 20
64.360813954
 30
0.0
 10
53.9013505903
 20
63.5234595564
 30
0.0
 10
54.241404521
 20
63.1004286552
 30
0.0
  0
SPLINE
  5
27F
100
AcDbEntity
  8
0
100
AcDbSpline
 62
7
  6
BYLAYER
 70
0
 71
3
 72
9
 73
5
 74
0
 42
0.0000001
 43
0.0000001
 44
0.0000000001
 40
0.0
 40
0.0
 40
0.0
 40
0.0
 40
0.5215749941
 40
1.0
 40
1.0
 40
1.0
 40
1.0
 10
45.7560878075
 20
67.9993178121
 30
0.0
 10
46.3857017228
 20
68.0555626025
 30
0.0
 10
47.5951433653
 20
68.1398308837
 30
0.0
 10
48.8070759688
 20
68.1711096746
 30
0.0
 10
49.3868917668
 20
68.1744926737
 30
0.0
  0
SPLINE
  5
280
100
AcDbEntity
  8
0
100
AcDbSpline
 62
7
  6
BYLAYER
 70
0
 71
3
 72
9
 73
5
 74
0
 42
0.0000001
 43
0.0000001
 44
0.0000000001
 40
0.0
 40
0.0
 40
0.0
 40
0.0
 40
0.5170225978
 40
1.0
 40
1.0
 40
1.0
 40
1.0
 10
41.5139500507
 20
67.4711913886
 30
0.0
 10
42.24245625
 20
67.581589859
 30
0.0
 10
43.6536564545
 20
67.7813709528
 30
0.0
 10
45.0705129277
 20
67.9380749262
 30
0.0
 10
45.7560878075
 20
67.9993178121
 30
0.0
  0
SPLINE
  5
281
100
AcDbEntity
  8
0
100
AcDbSpline
 62
7
  6
BYLAYER
 70
0
 71
3
 72
10
 73
6
 74
0
 42
0.0000001
 43
0.0000001
 44
0.0000000001
 40
0.0
 40
0.0
 40
0.0
 40
0.0
 40
0.5065063744
 40
0.7550831495
 40
1.0
 40
1.0
 40
1.0
 40
1.0
 10
39.008790664
 20
65.9293190546
 30
0.0
 10
38.9200885468
 20
65.0874983633
 30
0.0
 10
38.8083280652
 20
63.8300991236
 30
0.0
 10
38.7180707854
 20
62.1611897373
 30
0.0
 10
38.6949016447
 20
61.3366566245
 30
0.0
 10
38.6891966203
 20
60.9273876787
 30
0.0
  0
SPLINE
  5
282
100
AcDbEntity
  8
0
100
AcDbSpline
 62
7
  6
BYLAYER
 70
0
 71
3
 72
9
 73
5
 74
0
 42
0.0000001
 43
0.0000001
 44
0.0000000001
 40
0.0
 40
0.0
 40
0.0
 40
0.0
 40
0.4778397022
 40
1.0
 40
1.0
 40
1.0
 40
1.0
 10
47.6778197306
 20
44.3211079016
 30
0.0
 10
48.2735524271
 20
44.3231843901
 30
0.0
 10
49.520347139
 20
44.3529073558
 30
0.0
 10
50.7645806058
 20
44.4388446167
 30
0.0
 10
51.4129905332
 20
44.4967689412
 30
0.0
  0
SPLINE
  5
283
100
AcDbEntity
  8
0
100
AcDbSpline
 62
7
  6
BYLAYER
 70
0
 71
3
 72
20
 73
16
 74
0
 42
0.0000001
 43
0.0000001
 44
0.0000000001
 40
0.0
 40
0.0
 40
0.0
 40
0.0
 40
0.0593674349
 40
0.1174681919
 40
0.1746296069
 40
0.2312464558
 40
0.2877430814
 40
0.3445405802
 40
0.4020449167
 40
0.4606389256
 40
0.5206695863
 40
0.582440014
 40
0.7120557418
 40
0.8510135947
 40
1.0
 40
1.0
 40
1.0
 40
1.0
 10
42.9276731388
 20
66.3663416212
 30
0.0
 10
42.780111607
 20
66.3531608571
 30
0.0
 10
42.48913053
 20
66.3135659453
 30
0.0
 10
42.0644645302
 20
66.2127041481
 30
0.0
 10
41.6587049096
 20
66.0713001759
 30
0.0
 10
41.2735612404
 20
65.8899541581
 30
0.0
 10
40.9105513199
 20
65.6693190564
 30
0.0
 10
40.5710627508
 20
65.4103253135
 30
0.0
 10
40.2564490862
 20
65.1139763808
 30
0.0
 10
39.9679017798
 20
64.7814980875
 30
0.0
 10
39.7064657058
 20
64.4141962388
 30
0.0
 10
39.3903087593
 20
63.8714250275
 30
0.0
 10
39.0701615125
 20
63.1074428148
 30
0.0
 10
38.8142594226
 20
62.0941720935
 30
0.0
 10
38.7295340307
 20
61.378540653
 30
0.0
 10
38.7060472566
 20
61.0074936821
 30
0.0
  0
SPLINE
  5
284
100
AcDbEntity
  8
0
100
AcDbSpline
 62
7
  6
BYLAYER
 70
0
 71
3
 72
15
 73
11
 74
0
 42
0.0000001
 43
0.0000001
 44
0.0000000001
 40
0.0
 40
0.0
 40
0.0
 40
0.0
 40
0.1491363323
 40
0.2932607276
 40
0.4309986235
 40
0.5612444633
 40
0.6832502652
 40
0.7967301516
 40
0.9019803556
 40
1.0
 40
1.0
 40
1.0
 40
1.0
 10
51.4129898518
 20
61.4674525529
 30
0.0
 10
51.0966698266
 20
61.8609594391
 30
0.0
 10
50.4442075693
 20
62.6109386916
 30
0.0
 10
49.3970153815
 20
63.6294757903
 30
0.0
 10
48.3118105508
 20
64.5095825631
 30
0.0
 10
47.2066576136
 20
65.2363626796
 30
0.0
 10
46.0996815817
 20
65.7975414592
 30
0.0
 10
45.0085261425
 20
66.1832742628
 30
0.0
 10
43.9511329435
 20
66.3861405094
 30
0.0
 10
43.2581898669
 20
66.3958696619
 30
0.0
 10
42.9276731388
 20
66.3663416212
 30
0.0
  0
SPLINE
  5
285
100
AcDbEntity
  8
0
100
AcDbSpline
 62
7
  6
BYLAYER
 70
0
 71
3
 72
10
 73
6
 74
0
 42
0.0000001
 43
0.0000001
 44
0.0000000001
 40
0.0
 40
0.0
 40
0.0
 40
0.0
 40
0.2442471007
 40
0.4926263069
 40
1.0
 40
1.0
 40
1.0
 40
1.0
 10
55.6556481903
 20
50.5326659405
 30
0.0
 10
55.6556481903
 20
50.9752272169
 30
0.0
 10
55.6697393444
 20
51.8678955075
 30
0.0
 10
55.7514867427
 20
53.6781799898
 30
0.0
 10
55.8670742544
 20
55.0432977765
 30
0.0
 10
55.9613157756
 20
55.9577856979
 30
0.0
  0
SPLINE
  5
286
100
AcDbEntity
  8
0
100
AcDbSpline
 62
7
  6
BYLAYER
 70
0
 71
3
 72
10
 73
6
 74
0
 42
0.0000001
 43
0.0000001
 44
0.0000000001
 40
0.0
 40
0.0
 40
0.0
 40
0.0
 40
0.5016857921
 40
0.7513585178
 40
1.0
 40
1.0
 40
1.0
 40
1.0
 10
55.7957114413
 20
56.6050310176
 30
0.0
 10
55.024037394
 20
57.3821054779
 30
0.0
 10
53.8906582858
 20
58.5687746608
 30
0.0
 10
52.4476989271
 20
60.2070676762
 30
0.0
 10
51.7530445615
 20
61.0444220449
 30
0.0
 10
51.4129906398
 20
61.4674529313
 30
0.0
  0
SPLINE
  5
287
100
AcDbEntity
  8
0
100
AcDbSpline
 62
7
  6
BYLAYER
 70
0
 71
3
 72
9
 73
5
 74
0
 42
0.0000001
 43
0.0000001
 44
0.0000000001
 40
0.0
 40
0.0
 40
0.0
 40
0.0
 40
0.5170225972
 40
1.0
 40
1.0
 40
1.0
 40
1.0
 10
47.1698115761
 20
66.8944684695
 30
0.0
 10
46.4413054
 20
66.7840700026
 30
0.0
 10
45.0301052389
 20
66.5842889143
 30
0.0
 10
43.6132488093
 20
66.4275849435
 30
0.0
 10
42.9276739498
 20
66.3663420575
 30
0.0
  0
SPLINE
  5
288
100
AcDbEntity
  8
0
100
AcDbSpline
 62
7
  6
BYLAYER
 70
0
 71
3
 72
10
 73
6
 74
0
 42
0.0000001
 43
0.0000001
 44
0.0000000001
 40
0.0
 40
0.0
 40
0.0
 40
0.0
 40
0.2518572262
 40
0.5024569044
 40
1.0
 40
1.0
 40
1.0
 40
1.0
 10
51.4129906398
 20
61.4674529313
 30
0.0
 10
51.0745334173
 20
61.8884945575
 30
0.0
 10
50.4121740797
 20
62.7389210596
 30
0.0
 10
49.1456086921
 20
64.4702495097
 30
0.0
 10
48.2525961356
 20
65.8045577116
 30
0.0
 10
47.67781973
 20
66.7037359117
 30
0.0
  0
SPLINE
  5
289
100
AcDbEntity
  8
0
100
AcDbSpline
 62
7
  6
BYLAYER
 70
0
 71
3
 72
9
 73
5
 74
0
 42
0.0000001
 43
0.0000001
 44
0.0000000001
 40
0.0
 40
0.0
 40
0.0
 40
0.0
 40
0.5215749948
 40
1.0
 40
1.0
 40
1.0
 40
1.0
 10
42.9276739498
 20
66.3663420575
 30
0.0
 10
42.2980600109
 20
66.3100972633
 30
0.0
 10
41.0886183248
 20
66.2258289765
 30
0.0
 10
39.8766856773
 20
66.1945501831
 30
0.0
 10
39.2968698592
 20
66.1911671839
 30
0.0
  0
SPLINE
  5
28A
100
AcDbEntity
  8
0
100
AcDbSpline
 62
7
  6
BYLAYER
 70
0
 71
3
 72
11
 73
7
 74
0
 42
0.0000001
 43
0.0000001
 44
0.0000000001
 40
0.0
 40
0.0
 40
0.0
 40
0.0
 40
0.2438909749
 40
0.4915600476
 40
0.7434919406
 40
1.0
 40
1.0
 40
1.0
 40
1.0
 10
55.9613160312
 20
45.4604988948
 30
0.0
 10
55.9132955384
 20
45.8710246575
 30
0.0
 10
55.8264465967
 20
46.699642774
 30
0.0
 10
55.7293232134
 20
47.9560696742
 30
0.0
 10
55.6690173002
 20
49.236234485
 30
0.0
 10
55.6556481918
 20
50.0979588507
 30
0.0
 10
55.6556481903
 20
50.5326659405
 30
0.0
  0
SPLINE
  5
28B
100
AcDbEntity
  8
0
100
AcDbSpline
 62
7
  6
BYLAYER
 70
0
 71
3
 72
15
 73
11
 74
0
 42
0.0000001
 43
0.0000001
 44
0.0000000001
 40
0.0
 40
0.0
 40
0.0
 40
0.0
 40
0.1108410465
 40
0.2280578197
 40
0.3507094003
 40
0.477625969
 40
0.6074737799
 40
0.7388131746
 40
0.8701524765
 40
1.0
 40
1.0
 40
1.0
 40
1.0
 10
55.6556481914
 20
50.532666014
 30
0.0
 10
55.6556481914
 20
50.9736005134
 30
0.0
 10
55.6028337397
 20
51.8813476522
 30
0.0
 10
55.3832377477
 20
53.2610530969
 30
0.0
 10
55.0247145558
 20
54.6773359999
 30
0.0
 10
54.5333448803
 20
56.1061840053
 30
0.0
 10
53.9174351895
 20
57.5235888254
 30
0.0
 10
53.1873740957
 20
58.9056150308
 30
0.0
 10
52.3555875766
 20
60.2287906373
 30
0.0
 10
51.736619883
 20
61.0648596121
 30
0.0
 10
51.4129898518
 20
61.4674525529
 30
0.0
  0
SPLINE
  5
28C
100
AcDbEntity
  8
0
100
AcDbSpline
 62
7
  6
BYLAYER
 70
0
 71
3
 72
20
 73
16
 74
0
 42
0.0000001
 43
0.0000001
 44
0.0000000001
 40
0.0
 40
0.0
 40
0.0
 40
0.0
 40
0.0583200826
 40
0.1153283025
 40
0.1714029165
 40
0.2269993656
 40
0.2825983562
 40
0.3386705298
 40
0.3956661646
 40
0.4539997101
 40
0.5759539263
 40
0.6402638447
 40
0.7070129755
 40
0.8482026053
 40
1.0
 40
1.0
 40
1.0
 40
1.0
 10
51.4129898293
 20
44.4967685143
 30
0.0
 10
51.5710487605
 20
44.5108866885
 30
0.0
 10
51.8824921337
 20
44.5543068925
 30
0.0
 10
52.3359157156
 20
44.66714383
 30
0.0
 10
52.7673382666
 20
44.8265712181
 30
0.0
 10
53.1746738263
 20
45.0317993427
 30
0.0
 10
53.5560536388
 20
45.2819757069
 30
0.0
 10
53.9098000184
 20
45.5758426074
 30
0.0
 10
54.2342734604
 20
45.9121484066
 30
0.0
 10
54.6318096841
 20
46.4221366072
 30
0.0
 10
54.9587507664
 20
47.0072407637
 30
0.0
 10
55.2143606323
 20
47.6470107608
 30
0.0
 10
55.4327147934
 20
48.3557092367
 30
0.0
 10
55.6122081663
 20
49.3214582498
 30
0.0
 10
55.6556481861
 20
50.1196272105
 30
0.0
 10
55.6556481914
 20
50.532666014
 30
0.0
  0
SPLINE
  5
28D
100
AcDbEntity
  8
0
100
AcDbSpline
 62
7
  6
BYLAYER
 70
0
 71
3
 72
11
 73
7
 74
0
 42
0.0000001
 43
0.0000001
 44
0.0000000001
 40
0.0
 40
0.0
 40
0.0
 40
0.0
 40
0.2744646138
 40
0.5318275568
 40
0.7730165367
 40
1.0
 40
1.0
 40
1.0
 40
1.0
 10
47.7670361024
 20
45.3132926653
 30
0.0
 10
48.0768627346
 20
45.1596372414
 30
0.0
 10
48.6930545206
 20
44.8921772589
 30
0.0
 10
49.6287737191
 20
44.6125057994
 30
0.0
 10
50.535029034
 20
44.4712067864
 30
0.0
 10
51.1281166892
 20
44.4713162329
 30
0.0
 10
51.4129898293
 20
44.4967685143
 30
0.0
  0
SPLINE
  5
28E
100
AcDbEntity
  8
0
100
AcDbSpline
 62
7
  6
BYLAYER
 70
0
 71
3
 72
11
 73
7
 74
0
 42
0.0000001
 43
0.0000001
 44
0.0000000001
 40
0.0
 40
0.0
 40
0.0
 40
0.0
 40
0.2177239861
 40
0.4508730345
 40
0.7104683317
 40
1.0
 40
1.0
 40
1.0
 40
1.0
 10
8.6068663016
 20
34.321751227
 30
0.0
 10
8.5738884934
 20
34.302713287
 30
0.0
 10
8.5121337343
 20
34.2508901049
 30
0.0
 10
8.4464172116
 20
34.1434159274
 30
0.0
 10
8.4074655501
 20
34.0109983344
 30
0.0
 10
8.3997325539
 20
33.9146404742
 30
0.0
 10
8.3997325539
 20
33.8640031614
 30
0.0
  0
SPLINE
  5
28F
100
AcDbEntity
  8
0
100
AcDbSpline
 62
7
  6
BYLAYER
 70
0
 71
3
 72
11
 73
7
 74
0
 42
0.0000001
 43
0.0000001
 44
0.0000000001
 40
0.0
 40
0.0
 40
0.0
 40
0.0
 40
0.2390934366
 40
0.4816799562
 40
0.7341959618
 40
1.0
 40
1.0
 40
1.0
 40
1.0
 10
16.9879368891
 20
36.384514395
 30
0.0
 10
16.936803181
 20
36.3592150467
 30
0.0
 10
16.8258846031
 20
36.3229085461
 30
0.0
 10
16.6491636946
 20
36.3144290556
 30
0.0
 10
16.4693113763
 20
36.3476375114
 30
0.0
 10
16.3535868636
 20
36.3933246356
 30
0.0
 10
16.296610204
 20
36.4211850372
 30
0.0
  0
SPLINE
  5
290
100
AcDbEntity
  8
0
100
AcDbSpline
 62
7
  6
BYLAYER
 70
0
 71
3
 72
20
 73
16
 74
0
 42
0.0000001
 43
0.0000001
 44
0.0000000001
 40
0.0
 40
0.0
 40
0.0
 40
0.0
 40
0.1482513546
 40
0.2977089494
 40
0.4432048732
 40
0.5129934208
 40
0.5800807395
 40
0.644039481
 40
0.7045611491
 40
0.7614757926
 40
0.8147870465
 40
0.8647124695
 40
0.9117075028
 40
0.9564876135
 40
1.0
 40
1.0
 40
1.0
 40
1.0
 10
23.1643794365
 20
44.1538157699
 30
0.0
 10
23.5496764913
 20
43.6870840307
 30
0.0
 10
24.2582211394
 20
42.6941916803
 30
0.0
 10
25.1100541615
 20
41.0926331475
 30
0.0
 10
25.6305091748
 20
39.6917104826
 30
0.0
 10
25.9096777183
 20
38.5722722426
 30
0.0
 10
26.0448514443
 20
37.7626391544
 30
0.0
 10
26.1068075631
 20
36.9819779876
 30
0.0
 10
26.0947651743
 20
36.2402906786
 30
0.0
 10
26.0086355213
 20
35.5470450047
 30
0.0
 10
25.8491244979
 20
34.9110926629
 30
0.0
 10
25.6178471523
 20
34.3406303192
 30
0.0
 10
25.3167913985
 20
33.8433955871
 30
0.0
 10
24.9494731322
 20
33.4268756058
 30
0.0
 10
24.661199112
 20
33.2058980054
 30
0.0
 10
24.5100834413
 20
33.1125267542
 30
0.0
  0
SPLINE
  5
291
100
AcDbEntity
  8
0
100
AcDbSpline
 62
7
  6
BYLAYER
 70
0
 71
3
 72
11
 73
7
 74
0
 42
0.0000001
 43
0.0000001
 44
0.0000000001
 40
0.0
 40
0.0
 40
0.0
 40
0.0
 40
0.2667076236
 40
0.5195053432
 40
0.7617565518
 40
1.0
 40
1.0
 40
1.0
 40
1.0
 10
15.2684293178
 20
38.173967416
 30
0.0
 10
15.2715929316
 20
38.2397959346
 30
0.0
 10
15.2878952559
 20
38.3679192607
 30
0.0
 10
15.348216952
 20
38.5477438738
 30
0.0
 10
15.4453179136
 20
38.7029596147
 30
0.0
 10
15.5347987669
 20
38.783938308
 30
0.0
 10
15.5837909198
 20
38.8165810726
 30
0.0
  0
SPLINE
  5
292
100
AcDbEntity
  8
0
100
AcDbSpline
 62
7
  6
BYLAYER
 70
0
 71
3
 72
15
 73
11
 74
0
 42
0.0000001
 43
0.0000001
 44
0.0000000001
 40
0.0
 40
0.0
 40
0.0
 40
0.0
 40
0.1293554856
 40
0.2605134161
 40
0.3918435054
 40
0.5218328878
 40
0.6489516959
 40
0.7718010795
 40
0.8891484973
 40
1.0
 40
1.0
 40
1.0
 40
1.0
 10
61.8915120427
 20
66.7916877292
 30
0.0
 10
62.1376898243
 20
66.4942668436
 30
0.0
 10
62.6090198929
 20
65.8746254689
 30
0.0
 10
63.2429822875
 20
64.8905146972
 30
0.0
 10
63.8003152317
 20
63.8588299566
 30
0.0
 10
64.2711937005
 20
62.798086462
 30
0.0
 10
64.6472573135
 20
61.7268525921
 30
0.0
 10
64.9218855938
 20
60.6639887447
 30
0.0
 10
65.0902249588
 20
59.6283143145
 30
0.0
 10
65.130820123
 20
58.9468123772
 30
0.0
 10
65.1308112609
 20
58.6159547116
 30
0.0
  0
SPLINE
  5
293
100
AcDbEntity
  8
0
100
AcDbSpline
 62
7
  6
BYLAYER
 70
0
 71
3
 72
11
 73
7
 74
0
 42
0.0000001
 43
0.0000001
 44
0.0000000001
 40
0.0
 40
0.0
 40
0.0
 40
0.0
 40
0.232760795
 40
0.4781892574
 40
0.7346956891
 40
1.0
 40
1.0
 40
1.0
 40
1.0
 10
58.9084145198
 20
69.3935257456
 30
0.0
 10
59.1709257091
 20
69.2419468996
 30
0.0
 10
59.6935262324
 20
68.9009618164
 30
0.0
 10
60.4429680591
 20
68.3041944612
 30
0.0
 10
61.1692921373
 20
67.6164025377
 30
0.0
 10
61.624730971
 20
67.1109807621
 30
0.0
 10
61.84638141
 20
66.8459328731
 30
0.0
  0
SPLINE
  5
294
100
AcDbEntity
  8
0
100
AcDbSpline
 62
7
  6
BYLAYER
 70
0
 71
3
 72
11
 73
7
 74
0
 42
0.0000001
 43
0.0000001
 44
0.0000000001
 40
0.0
 40
0.0
 40
0.0
 40
0.0
 40
0.2352685781
 40
0.4768878716
 40
0.7303966085
 40
1.0
 40
1.0
 40
1.0
 40
1.0
 10
18.7702513325
 20
49.4271266611
 30
0.0
 10
18.5926942038
 20
49.3246031327
 30
0.0
 10
18.2533336303
 20
49.0788348812
 30
0.0
 10
17.8202800481
 20
48.6071235042
 30
0.0
 10
17.4658270123
 20
48.0388092954
 30
0.0
 10
17.2905576118
 20
47.6156972473
 30
0.0
 10
17.2159788301
 20
47.3928951568
 30
0.0
  0
SPLINE
  5
295
100
AcDbEntity
  8
0
100
AcDbSpline
 62
7
  6
BYLAYER
 70
0
 71
3
 72
17
 73
13
 74
0
 42
0.0000001
 43
0.0000001
 44
0.0000000001
 40
0.0
 40
0.0
 40
0.0
 40
0.0
 40
0.1286846513
 40
0.2703032228
 40
0.4174430309
 40
0.5617811216
 40
0.695448235
 40
0.8127121431
 40
0.8646788239
 40
0.9125086207
 40
0.9571391214
 40
1.0
 40
1.0
 40
1.0
 40
1.0
 10
8.3997325539
 20
33.8640031614
 30
0.0
 10
8.3997325539
 20
33.7785316644
 30
0.0
 10
8.4236622785
 20
33.5987963443
 30
0.0
 10
8.5128894524
 20
33.3348987742
 30
0.0
 10
8.650448852
 20
33.0807041373
 30
0.0
 10
8.8251810295
 20
32.857036224
 30
0.0
 10
9.022876493
 20
32.681949263
 30
0.0
 10
9.2018202813
 20
32.584142751
 30
0.0
 10
9.3417843903
 20
32.5468509472
 30
0.0
 10
9.4381203162
 20
32.5398132612
 30
0.0
 10
9.5278374148
 20
32.5528998239
 30
0.0
 10
9.5821637359
 20
32.5755406431
 30
0.0
 10
9.6068182565
 20
32.5897735867
 30
0.0
  0
SPLINE
  5
296
100
AcDbEntity
  8
0
100
AcDbSpline
 62
7
  6
BYLAYER
 70
0
 71
3
 72
15
 73
11
 74
0
 42
0.0000001
 43
0.0000001
 44
0.0000000001
 40
0.0
 40
0.0
 40
0.0
 40
0.0
 40
0.1510449707
 40
0.2962681929
 40
0.434049833
 40
0.5634358609
 40
0.6839721056
 40
0.7959868385
 40
0.9006556433
 40
1.0
 40
1.0
 40
1.0
 40
1.0
 10
13.4094243272
 20
33.9161193229
 30
0.0
 10
13.5944438375
 20
33.6925871006
 30
0.0
 10
13.976755403
 20
33.2697003467
 30
0.0
 10
14.5927633852
 20
32.7057728481
 30
0.0
 10
15.2308895545
 20
32.2335485002
 30
0.0
 10
15.8790968989
 20
31.8627307456
 30
0.0
 10
16.5261501977
 20
31.6015152618
 30
0.0
 10
17.1610562539
 20
31.4569930936
 30
0.0
 10
17.7717695971
 20
31.4356603145
 30
0.0
 10
18.1611209292
 20
31.5087081005
 30
0.0
 10
18.3429145855
 20
31.5667980162
 30
0.0
  0
SPLINE
  5
297
100
AcDbEntity
  8
0
100
AcDbSpline
 62
7
  6
BYLAYER
 70
0
 71
3
 72
12
 73
8
 74
0
 42
0.0000001
 43
0.0000001
 44
0.0000000001
 40
0.0
 40
0.0
 40
0.0
 40
0.0
 40
0.110366868
 40
0.2235162478
 40
0.4612812006
 40
0.7192799219
 40
1.0
 40
1.0
 40
1.0
 40
1.0
 10
12.0890698029
 20
42.3988395804
 30
0.0
 10
12.0078838516
 20
42.3250202532
 30
0.0
 10
11.8539250345
 20
42.1636040448
 30
0.0
 10
11.5835318777
 20
41.7918138282
 30
0.0
 10
11.3237316071
 20
41.238363644
 30
0.0
 10
11.1461402787
 20
40.4828145972
 30
0.0
 10
11.1137119883
 20
39.9456192955
 30
0.0
 10
11.1160404756
 20
39.6665313787
 30
0.0
  0
SPLINE
  5
298
100
AcDbEntity
  8
0
100
AcDbSpline
 62
7
  6
BYLAYER
 70
0
 71
3
 72
11
 73
7
 74
0
 42
0.0000001
 43
0.0000001
 44
0.0000000001
 40
0.0
 40
0.0
 40
0.0
 40
0.0
 40
0.2317674696
 40
0.4775436904
 40
0.7347283289
 40
1.0
 40
1.0
 40
1.0
 40
1.0
 10
11.1160404756
 20
39.6665313787
 30
0.0
 10
11.1183153486
 20
39.3938695703
 30
0.0
 10
11.1608578497
 20
38.8319871972
 30
0.0
 10
11.3234638982
 20
37.9814631186
 30
0.0
 10
11.5827467883
 20
37.1141693219
 30
0.0
 10
11.8137209143
 20
36.5434708188
 30
0.0
 10
11.9435041547
 20
36.2596476932
 30
0.0
  0
SPLINE
  5
299
100
AcDbEntity
  8
0
100
AcDbSpline
 62
7
  6
BYLAYER
 70
0
 71
3
 72
13
 73
9
 74
0
 42
0.0000001
 43
0.0000001
 44
0.0000000001
 40
0.0
 40
0.0
 40
0.0
 40
0.0
 40
0.1139649695
 40
0.229103527
 40
0.3466026315
 40
0.4675373856
 40
0.7226908055
 40
1.0
 40
1.0
 40
1.0
 40
1.0
 10
21.8962147215
 20
31.6020335288
 30
0.0
 10
21.7825496212
 20
31.5364093443
 30
0.0
 10
21.5443659079
 20
31.4205349418
 30
0.0
 10
21.1635776677
 20
31.296917096
 30
0.0
 10
20.7617537648
 20
31.224001477
 30
0.0
 10
20.1928160744
 20
31.1935716072
 30
0.0
 10
19.4398960085
 20
31.2883923444
 30
0.0
 10
18.8546808054
 20
31.4830327269
 30
0.0
 10
18.560297314
 20
31.6068593621
 30
0.0
  0
SPLINE
  5
29A
100
AcDbEntity
  8
0
100
AcDbSpline
 62
7
  6
BYLAYER
 70
0
 71
3
 72
13
 73
9
 74
0
 42
0.0000001
 43
0.0000001
 44
0.0000000001
 40
0.0
 40
0.0
 40
0.0
 40
0.0
 40
0.2763383627
 40
0.531241934
 40
0.6523062759
 40
0.7700801479
 40
0.8855999356
 40
1.0
 40
1.0
 40
1.0
 40
1.0
 10
12.2456569174
 20
42.6652737801
 30
0.0
 10
12.2893426051
 20
42.9713139817
 30
0.0
 10
12.4188735216
 20
43.5547776309
 30
0.0
 10
12.7136379682
 20
44.2288917662
 30
0.0
 10
13.0205864918
 20
44.6895716038
 30
0.0
 10
13.2801234889
 20
44.9906937795
 30
0.0
 10
13.5712782549
 20
45.2502708734
 30
0.0
 10
13.7854160305
 20
45.3944707172
 30
0.0
 10
13.8962505365
 20
45.4584606671
 30
0.0
  0
SPLINE
  5
29B
100
AcDbEntity
  8
0
100
AcDbSpline
 62
7
  6
BYLAYER
 70
0
 71
3
 72
17
 73
13
 74
0
 42
0.0000001
 43
0.0000001
 44
0.0000000001
 40
0.0
 40
0.0
 40
0.0
 40
0.0
 40
0.0474258447
 40
0.0955740814
 40
0.1449793774
 40
0.1961105929
 40
0.3048299803
 40
0.4238582685
 40
0.5537869295
 40
0.6941029483
 40
0.8434937646
 40
1.0
 40
1.0
 40
1.0
 40
1.0
 10
16.5192208062
 20
46.971100802
 30
0.0
 10
16.6270417547
 20
47.0286759349
 30
0.0
 10
16.8526279413
 20
47.1298397379
 30
0.0
 10
17.2120734701
 20
47.2356285577
 30
0.0
 10
17.5915942663
 20
47.2956995795
 30
0.0
 10
18.131714315
 20
47.3146857271
 30
0.0
 10
18.8494487345
 20
47.2156957687
 30
0.0
 10
19.726926526
 20
46.9196349617
 30
0.0
 10
20.6192071762
 20
46.4533939482
 30
0.0
 10
21.5055049917
 20
45.8288441466
 30
0.0
 10
22.3648909031
 20
45.061369803
 30
0.0
 10
22.8966646641
 20
44.4772735049
 30
0.0
 10
23.1538581296
 20
44.1665439671
 30
0.0
  0
SPLINE
  5
29C
100
AcDbEntity
  8
0
100
AcDbSpline
 62
7
  6
BYLAYER
 70
0
 71
3
 72
11
 73
7
 74
0
 42
0.0000001
 43
0.0000001
 44
0.0000000001
 40
0.0
 40
0.0
 40
0.0
 40
0.0
 40
0.2180508542
 40
0.4501732534
 40
0.7091887944
 40
1.0
 40
1.0
 40
1.0
 40
1.0
 10
16.9879355576
 20
36.3845168192
 30
0.0
 10
17.0378941118
 20
36.409251355
 30
0.0
 10
17.1323848347
 20
36.4798936175
 30
0.0
 10
17.233719079
 20
36.6337078021
 30
0.0
 10
17.2937319407
 20
36.8265057795
 30
0.0
 10
17.3054722308
 20
36.9676053344
 30
0.0
 10
17.3054722308
 20
37.0419534049
 30
0.0
  0
SPLINE
  5
29D
100
AcDbEntity
  8
0
100
AcDbSpline
 62
7
  6
BYLAYER
 70
0
 71
3
 72
9
 73
5
 74
0
 42
0.0000001
 43
0.0000001
 44
0.0000000001
 40
0.0
 40
0.0
 40
0.0
 40
0.0
 40
0.2698562496
 40
1.0
 40
1.0
 40
1.0
 40
1.0
 10
18.7869573281
 20
37.6648499194
 30
0.0
 10
18.7869573281
 20
37.624053765
 30
0.0
 10
18.7811882875
 20
37.4731032394
 30
0.0
 10
18.7505351632
 20
37.3218332998
 30
0.0
 10
18.7089673064
 20
37.2195781142
 30
0.0
  0
SPLINE
  5
29E
100
AcDbEntity
  8
0
100
AcDbSpline
 62
7
  6
BYLAYER
 70
0
 71
3
 72
9
 73
5
 74
0
 42
0.0000001
 43
0.0000001
 44
0.0000000001
 40
0.0
 40
0.0
 40
0.0
 40
0.0
 40
0.2618447095
 40
1.0
 40
1.0
 40
1.0
 40
1.0
 10
16.440855969
 20
39.3888027602
 30
0.0
 10
16.4467967975
 20
39.4100497378
 30
0.0
 10
16.4721209983
 20
39.4903989109
 30
0.0
 10
16.508586459
 20
39.5674975022
 30
0.0
 10
16.5423299664
 20
39.6197415508
 30
0.0
  0
SPLINE
  5
29F
100
AcDbEntity
  8
0
100
AcDbSpline
 62
7
  6
BYLAYER
 70
0
 71
3
 72
21
 73
17
 74
0
 42
0.0000001
 43
0.0000001
 44
0.0000000001
 40
0.0
 40
0.0
 40
0.0
 40
0.0
 40
0.0458462424
 40
0.0899502657
 40
0.1346817139
 40
0.1822108575
 40
0.2340976182
 40
0.2911472596
 40
0.3534681397
 40
0.4206474033
 40
0.4918793626
 40
0.5660742189
 40
0.718043315
 40
0.8658879388
 40
0.9352332647
 40
1.0
 40
1.0
 40
1.0
 40
1.0
 10
16.5423299664
 20
39.6197415508
 30
0.0
 10
16.5726407105
 20
39.6666707562
 30
0.0
 10
16.6436837413
 20
39.7521340273
 30
0.0
 10
16.78156534
 20
39.845224034
 30
0.0
 10
16.9423270103
 20
39.8953804183
 30
0.0
 10
17.1196492286
 20
39.9016253594
 30
0.0
 10
17.3081703567
 20
39.8652784528
 30
0.0
 10
17.5031489324
 20
39.7881624086
 30
0.0
 10
17.6998837744
 20
39.6727786809
 30
0.0
 10
17.8934464493
 20
39.5222481108
 30
0.0
 10
18.0788195974
 20
39.3405154579
 30
0.0
 10
18.3103208202
 20
39.0610065364
 30
0.0
 10
18.5484775432
 20
38.6691301171
 30
0.0
 10
18.7080100282
 20
38.2449896095
 30
0.0
 10
18.7748468497
 20
37.9073282463
 30
0.0
 10
18.7869573281
 20
37.7437725427
 30
0.0
 10
18.7869573281
 20
37.6648499194
 30
0.0
  0
SPLINE
  5
2A0
100
AcDbEntity
  8
0
100
AcDbSpline
 62
7
  6
BYLAYER
 70
0
 71
3
 72
17
 73
13
 74
0
 42
0.0000001
 43
0.0000001
 44
0.0000000001
 40
0.0
 40
0.0
 40
0.0
 40
0.0
 40
0.0475142442
 40
0.095631986
 40
0.1449219258
 40
0.1958806288
 40
0.3042051757
 40
0.4229317671
 40
0.5527627217
 40
0.6932115144
 40
0.8429738958
 40
1.0
 40
1.0
 40
1.0
 40
1.0
 10
14.379835571
 20
44.2942635391
 30
0.0
 10
14.4703419987
 20
44.346505398
 30
0.0
 10
14.6601223732
 20
44.4390251687
 30
0.0
 10
14.9639916434
 20
44.5382791554
 30
0.0
 10
15.2858064204
 20
44.5976799447
 30
0.0
 10
15.7447994834
 20
44.6241636299
 30
0.0
 10
16.3570308664
 20
44.5502702614
 30
0.0
 10
17.1072077181
 20
44.306704468
 30
0.0
 10
17.8711808069
 20
43.9146813913
 30
0.0
 10
18.6307485923
 20
43.3845934603
 30
0.0
 10
19.3673931928
 20
42.7298362837
 30
0.0
 10
19.8228959118
 20
42.2302293858
 30
0.0
 10
20.0431054722
 20
41.9641821331
 30
0.0
  0
SPLINE
  5
2A1
100
AcDbEntity
  8
0
100
AcDbSpline
 62
7
  6
BYLAYER
 70
0
 71
3
 72
15
 73
11
 74
0
 42
0.0000001
 43
0.0000001
 44
0.0000000001
 40
0.0
 40
0.0
 40
0.0
 40
0.0
 40
0.1291399565
 40
0.2599888342
 40
0.3910050169
 40
0.5207559006
 40
0.6477869952
 40
0.7707590998
 40
0.8884873412
 40
1.0
 40
1.0
 40
1.0
 40
1.0
 10
61.8544168098
 20
66.7698968411
 30
0.0
 10
62.0989671694
 20
66.4720202056
 30
0.0
 10
62.5675060397
 20
65.8523947414
 30
0.0
 10
63.1991241238
 20
64.8699618362
 30
0.0
 10
63.7561610418
 20
63.8412472799
 30
0.0
 10
64.2292812037
 20
62.7837950486
 30
0.0
 10
64.6104817976
 20
61.7152230853
 30
0.0
 10
64.8933838147
 20
60.6534572135
 30
0.0
 10
65.0732373393
 20
59.616400651
 30
0.0
 10
65.1238660378
 20
58.9326476957
 30
0.0
 10
65.1295557221
 20
58.5999000482
 30
0.0
  0
SPLINE
  5
2A2
100
AcDbEntity
  8
0
100
AcDbSpline
 62
7
  6
BYLAYER
 70
0
 71
3
 72
19
 73
15
 74
0
 42
0.0000001
 43
0.0000001
 44
0.0000000001
 40
0.0
 40
0.0
 40
0.0
 40
0.0
 40
0.1600535169
 40
0.3117067639
 40
0.4525963173
 40
0.5813187384
 40
0.6410881306
 40
0.6979058094
 40
0.7520314507
 40
0.8038532727
 40
0.8538920096
 40
0.9027801239
 40
0.9512334785
 40
1.0
 40
1.0
 40
1.0
 40
1.0
 10
17.7457205396
 20
40.4924923372
 30
0.0
 10
17.5205650751
 20
40.7645150081
 30
0.0
 10
17.0538701971
 20
41.2718481178
 30
0.0
 10
16.2953996956
 20
41.925113878
 30
0.0
 10
15.5152069813
 20
42.4355906263
 30
0.0
 10
14.8492016957
 20
42.7363398165
 30
0.0
 10
14.3280762663
 20
42.8855019199
 30
0.0
 10
13.9563141197
 20
42.950574144
 30
0.0
 10
13.5969032187
 20
42.9710254966
 30
0.0
 10
13.252616639
 20
42.9463687311
 30
0.0
 10
12.9262359903
 20
42.876713849
 30
0.0
 10
12.6205657322
 20
42.7622385716
 30
0.0
 10
12.3383019288
 20
42.6040610842
 30
0.0
 10
12.1686835089
 20
42.4712058875
 30
0.0
 10
12.0890795933
 20
42.398825147
 30
0.0
  0
SPLINE
  5
2A3
100
AcDbEntity
  8
0
100
AcDbSpline
 62
7
  6
BYLAYER
 70
0
 71
3
 72
15
 73
11
 74
0
 42
0.0000001
 43
0.0000001
 44
0.0000000001
 40
0.0
 40
0.0
 40
0.0
 40
0.0
 40
0.0981217028
 40
0.2032722692
 40
0.3165373538
 40
0.4383064781
 40
0.5683827959
 40
0.7060776277
 40
0.8504154293
 40
1.0
 40
1.0
 40
1.0
 40
1.0
 10
17.6265606323
 20
47.277418622
 30
0.0
 10
17.8407898798
 20
47.3017233359
 30
0.0
 10
18.2906103247
 20
47.3060703779
 30
0.0
 10
18.9792876575
 20
47.1898438014
 30
0.0
 10
19.6914638882
 20
46.9546325919
 30
0.0
 10
20.4156761821
 20
46.604935823
 30
0.0
 10
21.1405990683
 20
46.1467908281
 30
0.0
 10
21.8547697043
 20
45.5878262142
 30
0.0
 10
22.5464022052
 20
44.9372359481
 30
0.0
 10
22.9788653548
 20
44.4564537451
 30
0.0
 10
23.1890252706
 20
44.2037374719
 30
0.0
  0
SPLINE
  5
2A4
100
AcDbEntity
  8
0
100
AcDbSpline
 62
7
  6
BYLAYER
 70
0
 71
3
 72
17
 73
13
 74
0
 42
0.0000001
 43
0.0000001
 44
0.0000000001
 40
0.0
 40
0.0
 40
0.0
 40
0.0
 40
0.1570274606
 40
0.3067858387
 40
0.4472364023
 40
0.577067081
 40
0.6957938793
 40
0.8041185875
 40
0.8550779632
 40
0.9043677096
 40
0.952485714
 40
1.0
 40
1.0
 40
1.0
 40
1.0
 10
19.6895535536
 20
41.7600600562
 30
0.0
 10
19.4693417712
 20
42.0261099934
 30
0.0
 10
19.0138459444
 20
42.5257169608
 30
0.0
 10
18.2771982119
 20
43.1804692891
 30
0.0
 10
17.5176396963
 20
43.7105637088
 30
0.0
 10
16.7536605995
 20
44.1025851135
 30
0.0
 10
16.0034824174
 20
44.3461562191
 30
0.0
 10
15.3912486438
 20
44.4200368762
 30
0.0
 10
14.9322518365
 20
44.3935766426
 30
0.0
 10
14.6104365168
 20
44.334162287
 30
0.0
 10
14.3065680971
 20
44.2349094259
 30
0.0
 10
14.116778776
 20
44.1424034202
 30
0.0
 10
14.0262753537
 20
44.0901558673
 30
0.0
  0
SPLINE
  5
2A5
100
AcDbEntity
  8
0
100
AcDbSpline
 62
7
  6
BYLAYER
 70
0
 71
3
 72
17
 73
13
 74
0
 42
0.0000001
 43
0.0000001
 44
0.0000000001
 40
0.0
 40
0.0
 40
0.0
 40
0.0
 40
0.047514286
 40
0.0956322904
 40
0.1449220368
 40
0.1958814125
 40
0.3042061207
 40
0.422932919
 40
0.5527635977
 40
0.6932141613
 40
0.8429725394
 40
1.0
 40
1.0
 40
1.0
 40
1.0
 10
18.5631362192
 20
48.1528714641
 30
0.0
 10
18.6703995345
 20
48.2147944898
 30
0.0
 10
18.8953350262
 20
48.3244312372
 30
0.0
 10
19.2554753755
 20
48.4420642578
 30
0.0
 10
19.6368861248
 20
48.5124812719
 30
0.0
 10
20.1808823408
 20
48.5438415487
 30
0.0
 10
20.9064927392
 20
48.4562792885
 30
0.0
 10
21.7955928068
 20
48.1676024225
 30
0.0
 10
22.7010495141
 20
47.7029844614
 30
0.0
 10
23.6012670141
 20
47.0747244085
 30
0.0
 10
24.4743309933
 20
46.298721649
 30
0.0
 10
25.0141778992
 20
45.7065948728
 30
0.0
 10
25.2751696413
 20
45.3912764287
 30
0.0
  0
SPLINE
  5
2A6
100
AcDbEntity
  8
0
100
AcDbSpline
 62
7
  6
BYLAYER
 70
0
 71
3
 72
17
 73
13
 74
0
 42
0.0000001
 43
0.0000001
 44
0.0000000001
 40
0.0
 40
0.0
 40
0.0
 40
0.0
 40
0.0428570455
 40
0.087485165
 40
0.1353123244
 40
0.1872781392
 40
0.3045378316
 40
0.4381995438
 40
0.5825378192
 40
0.7296849502
 40
0.8713141218
 40
1.0
 40
1.0
 40
1.0
 40
1.0
 10
15.6779034289
 20
38.4041950172
 30
0.0
 10
15.7025549344
 20
38.4184280884
 30
0.0
 10
15.7568780705
 20
38.4410667953
 30
0.0
 10
15.8465888142
 20
38.4541516061
 30
0.0
 10
15.9429214103
 20
38.4471216885
 30
0.0
 10
16.0828803606
 20
38.4098290957
 30
0.0
 10
16.261821261
 20
38.3120341643
 30
0.0
 10
16.459516139
 20
38.136954914
 30
0.0
 10
16.634253072
 20
37.9132894032
 30
0.0
 10
16.7718255327
 20
37.6590878918
 30
0.0
 10
16.8610583864
 20
37.3951784896
 30
0.0
 10
16.8849903763
 20
37.2154354983
 30
0.0
 10
16.8849903763
 20
37.129963191
 30
0.0
  0
SPLINE
  5
2A7
100
AcDbEntity
  8
0
100
AcDbSpline
 62
7
  6
BYLAYER
 70
0
 71
3
 72
27
 73
23
 74
0
 42
0.0000001
 43
0.0000001
 44
0.0000000001
 40
0.0
 40
0.0
 40
0.0
 40
0.0
 40
0.0566319515
 40
0.1085379636
 40
0.1330637239
 40
0.1568580795
 40
0.1801506639
 40
0.203198269
 40
0.2262714336
 40
0.2496392037
 40
0.2735541593
 40
0.298239759
 40
0.3505541706
 40
0.4076610418
 40
0.4699292824
 40
0.5372139053
 40
0.6089746236
 40
0.6843762211
 40
0.7623841876
 40
0.8418157378
 40
0.9214505858
 40
1.0
 40
1.0
 40
1.0
 40
1.0
 10
18.7221656862
 20
31.6201273381
 30
0.0
 10
18.9887249724
 20
31.5210575581
 30
0.0
 10
19.5155183553
 20
31.3698144456
 30
0.0
 10
20.1864942609
 20
31.3110117365
 30
0.0
 10
20.6889875707
 20
31.3544280026
 30
0.0
 10
21.0417852387
 20
31.4288251502
 30
0.0
 10
21.375157461
 20
31.5454342654
 30
0.0
 10
21.6870132032
 20
31.7034356338
 30
0.0
 10
21.9751873214
 20
31.9020207836
 30
0.0
 10
22.2379374883
 20
32.1396667896
 30
0.0
 10
22.4735665036
 20
32.4149156279
 30
0.0
 10
22.7551434139
 20
32.8374839081
 30
0.0
 10
23.0298250387
 20
33.4582226695
 30
0.0
 10
23.2254400844
 20
34.3019851017
 30
0.0
 10
23.2919416742
 20
35.2402284252
 30
0.0
 10
23.2286970387
 20
36.2516888583
 30
0.0
 10
23.0376933908
 20
37.3136047245
 30
0.0
 10
22.7235084346
 20
38.4016649077
 30
0.0
 10
22.2934395698
 20
39.4906699327
 30
0.0
 10
21.7575498703
 20
40.5554752093
 30
0.0
 10
21.1283002433
 20
41.5709712269
 30
0.0
 10
20.6505610877
 20
42.2072011962
 30
0.0
 10
20.399062256
 20
42.5110507345
 30
0.0
  0
SPLINE
  5
2A8
100
AcDbEntity
  8
0
100
AcDbSpline
 62
7
  6
BYLAYER
 70
0
 71
3
 72
11
 73
7
 74
0
 42
0.0000001
 43
0.0000001
 44
0.0000000001
 40
0.0
 40
0.0
 40
0.0
 40
0.0
 40
0.2177239861
 40
0.4508730345
 40
0.7104683317
 40
1.0
 40
1.0
 40
1.0
 40
1.0
 10
9.6068182565
 20
32.5897735867
 30
0.0
 10
9.6397960647
 20
32.6088115267
 30
0.0
 10
9.7015508238
 20
32.6606347088
 30
0.0
 10
9.7672673464
 20
32.7681088863
 30
0.0
 10
9.8062190079
 20
32.9005264793
 30
0.0
 10
9.8139520042
 20
32.9968843395
 30
0.0
 10
9.8139520042
 20
33.0475216523
 30
0.0
  0
SPLINE
  5
2A9
100
AcDbEntity
  8
0
100
AcDbSpline
 62
7
  6
BYLAYER
 70
0
 71
3
 72
20
 73
16
 74
0
 42
0.0000001
 43
0.0000001
 44
0.0000000001
 40
0.0
 40
0.0
 40
0.0
 40
0.0
 40
0.1486272675
 40
0.2984716953
 40
0.4442414488
 40
0.5140930496
 40
0.5811814422
 40
0.645075966
 40
0.7054692681
 40
0.7622013282
 40
0.8152934381
 40
0.8649926443
 40
0.9117955812
 40
0.9564656679
 40
1.0
 40
1.0
 40
1.0
 40
1.0
 10
20.0431054722
 20
41.9641821331
 30
0.0
 10
20.3720879454
 20
41.5667203559
 30
0.0
 10
20.9765977885
 20
40.7204846366
 30
0.0
 10
21.7015297734
 20
39.3547425001
 30
0.0
 10
22.1422879619
 20
38.1599963294
 30
0.0
 10
22.376365808
 20
37.2060347086
 30
0.0
 10
22.4879049925
 20
36.5169831113
 30
0.0
 10
22.5363009861
 20
35.8534607
 30
0.0
 10
22.5209031676
 20
35.224138045
 30
0.0
 10
22.4417265586
 20
34.6372111262
 30
0.0
 10
22.2994002141
 20
34.1003339474
 30
0.0
 10
22.0953898933
 20
33.6205944647
 30
0.0
 10
21.8315243774
 20
33.2046748568
 30
0.0
 10
21.5109209818
 20
32.8591208343
 30
0.0
 10
21.2606742099
 20
32.6784854593
 30
0.0
 10
21.1297916307
 20
32.6029269412
 30
0.0
  0
SPLINE
  5
2AA
100
AcDbEntity
  8
0
100
AcDbSpline
 62
7
  6
BYLAYER
 70
0
 71
3
 72
17
 73
13
 74
0
 42
0.0000001
 43
0.0000001
 44
0.0000000001
 40
0.0
 40
0.0
 40
0.0
 40
0.0
 40
0.1570329619
 40
0.3067830496
 40
0.447238153
 40
0.5770674791
 40
0.6957943117
 40
0.8041183553
 40
0.8550785523
 40
0.9043673917
 40
0.9524860681
 40
1.0
 40
1.0
 40
1.0
 40
1.0
 10
26.3212799393
 20
46.3203478219
 30
0.0
 10
26.0276537684
 20
46.6750937102
 30
0.0
 10
25.4203403671
 20
47.3412404738
 30
0.0
 10
24.4381236055
 20
48.2142280606
 30
0.0
 10
23.4254065212
 20
48.921037844
 30
0.0
 10
22.4067509891
 20
49.4437168276
 30
0.0
 10
21.406516386
 20
49.768496618
 30
0.0
 10
20.590207767
 20
49.8669372447
 30
0.0
 10
19.9782028958
 20
49.8317535092
 30
0.0
 10
19.5491357094
 20
49.7524304146
 30
0.0
 10
19.1439443894
 20
49.6202034036
 30
0.0
 10
18.8909158665
 20
49.4967997509
 30
0.0
 10
18.7702513325
 20
49.4271266611
 30
0.0
  0
SPLINE
  5
2AB
100
AcDbEntity
  8
0
100
AcDbSpline
 62
7
  6
BYLAYER
 70
0
 71
3
 72
9
 73
5
 74
0
 42
0.0000001
 43
0.0000001
 44
0.0000000001
 40
0.0
 40
0.0
 40
0.0
 40
0.0
 40
0.5033607359
 40
1.0
 40
1.0
 40
1.0
 40
1.0
 10
18.8480811682
 20
38.8746711975
 30
0.0
 10
18.6883287168
 20
39.1620761268
 30
0.0
 10
18.3450613819
 20
39.7190314501
 30
0.0
 10
17.9525841115
 20
40.2425691054
 30
0.0
 10
17.7457205396
 20
40.4924923372
 30
0.0
  0
SPLINE
  5
2AC
100
AcDbEntity
  8
0
100
AcDbSpline
 62
7
  6
BYLAYER
 70
0
 71
3
 72
9
 73
5
 74
0
 42
0.0000001
 43
0.0000001
 44
0.0000000001
 40
0.0
 40
0.0
 40
0.0
 40
0.0
 40
0.2698564128
 40
1.0
 40
1.0
 40
1.0
 40
1.0
 10
18.5117098205
 20
37.6690105132
 30
0.0
 10
18.5117098205
 20
37.6330362569
 30
0.0
 10
18.5066229147
 20
37.4999273824
 30
0.0
 10
18.479592585
 20
37.3665368964
 30
0.0
 10
18.4429378679
 20
37.2763678286
 30
0.0
  0
SPLINE
  5
2AD
100
AcDbEntity
  8
0
100
AcDbSpline
 62
7
  6
BYLAYER
 70
0
 71
3
 72
11
 73
7
 74
0
 42
0.0000001
 43
0.0000001
 44
0.0000000001
 40
0.0
 40
0.0
 40
0.0
 40
0.0
 40
0.2336341691
 40
0.4793276755
 40
0.7355342609
 40
1.0
 40
1.0
 40
1.0
 40
1.0
 10
58.9029313363
 20
69.3950140068
 30
0.0
 10
59.1638161358
 20
69.2379362665
 30
0.0
 10
59.6825900145
 20
68.8877490315
 30
0.0
 10
60.4263354622
 20
68.2810311904
 30
0.0
 10
61.14637666
 20
67.5872099299
 30
0.0
 10
61.5980976562
 20
67.0797506386
 30
0.0
 10
61.8178925674
 20
66.8142043463
 30
0.0
  0
SPLINE
  5
2AE
100
AcDbEntity
  8
0
100
AcDbSpline
 62
7
  6
BYLAYER
 70
0
 71
3
 72
9
 73
5
 74
0
 42
0.0000001
 43
0.0000001
 44
0.0000000001
 40
0.0
 40
0.0
 40
0.0
 40
0.0
 40
0.2372406965
 40
1.0
 40
1.0
 40
1.0
 40
1.0
 10
17.3054722308
 20
37.0419534049
 30
0.0
 10
17.3054722308
 20
37.074320384
 30
0.0
 10
17.3004665721
 20
37.2107411054
 30
0.0
 10
17.2769362989
 20
37.3461792621
 30
0.0
 10
17.2512638716
 20
37.4470268767
 30
0.0
  0
SPLINE
  5
2AF
100
AcDbEntity
  8
0
100
AcDbSpline
 62
7
  6
BYLAYER
 70
0
 71
3
 72
18
 73
14
 74
0
 42
0.0000001
 43
0.0000001
 44
0.0000000001
 40
0.0
 40
0.0
 40
0.0
 40
0.0
 40
0.1439031642
 40
0.2927597343
 40
0.4400148377
 40
0.5794292902
 40
0.7058534894
 40
0.7632923464
 40
0.8166845506
 40
0.8662934885
 40
0.9126943067
 40
0.9568469788
 40
1.0
 40
1.0
 40
1.0
 40
1.0
 10
17.2512638716
 20
37.4470268767
 30
0.0
 10
17.2226000229
 20
37.5596255311
 30
0.0
 10
17.1442630674
 20
37.7839111002
 30
0.0
 10
16.9778710459
 20
38.0991437702
 30
0.0
 10
16.7692587082
 20
38.3839386105
 30
0.0
 10
16.5318067891
 20
38.6201656698
 30
0.0
 10
16.3149053357
 20
38.7691120823
 30
0.0
 10
16.139862761
 20
38.8480943205
 30
0.0
 10
16.0152426673
 20
38.8850929031
 30
0.0
 10
15.8951244672
 20
38.901209924
 30
0.0
 10
15.7813744301
 20
38.8956855738
 30
0.0
 10
15.6760774211
 20
38.8685061923
 30
0.0
 10
15.6127938651
 20
38.8358878212
 30
0.0
 10
15.5838042536
 20
38.8165590841
 30
0.0
  0
SPLINE
  5
2B0
100
AcDbEntity
  8
0
100
AcDbSpline
 62
7
  6
BYLAYER
 70
0
 71
3
 72
16
 73
12
 74
0
 42
0.0000001
 43
0.0000001
 44
0.0000000001
 40
0.0
 40
0.0
 40
0.0
 40
0.0
 40
0.1425070582
 40
0.2899720525
 40
0.436252218
 40
0.5755074761
 40
0.7027670071
 40
0.8150067331
 40
0.9123605949
 40
0.956945923
 40
1.0
 40
1.0
 40
1.0
 40
1.0
 10
16.9837216373
 20
37.3936096023
 30
0.0
 10
16.9598850378
 20
37.4872456334
 30
0.0
 10
16.8952246647
 20
37.6739054664
 30
0.0
 10
16.7584600728
 20
37.9372273555
 30
0.0
 10
16.5869740011
 20
38.1768079739
 30
0.0
 10
16.3911086728
 20
38.3783646051
 30
0.0
 10
16.1819424268
 20
38.5300398451
 30
0.0
 10
15.9711006203
 20
38.6230575309
 30
0.0
 10
15.7966223042
 20
38.6459376602
 30
0.0
 10
15.6720674343
 20
38.6256101592
 30
0.0
 10
15.616173047
 20
38.6038947501
 30
0.0
 10
15.5902952317
 20
38.5903862412
 30
0.0
  0
SPLINE
  5
2B1
100
AcDbEntity
  8
0
100
AcDbSpline
 62
7
  6
BYLAYER
 70
0
 71
3
 72
11
 73
7
 74
0
 42
0.0000001
 43
0.0000001
 44
0.0000000001
 40
0.0
 40
0.0
 40
0.0
 40
0.0
 40
0.2324920592
 40
0.472001528
 40
0.726014764
 40
1.0
 40
1.0
 40
1.0
 40
1.0
 10
15.5902952317
 20
38.5903862412
 30
0.0
 10
15.5618237733
 20
38.5755238218
 30
0.0
 10
15.5074766578
 20
38.5381792793
 30
0.0
 10
15.4398545206
 20
38.462997498
 30
0.0
 10
15.3870420539
 20
38.3702568643
 30
0.0
 10
15.3631185186
 20
38.3009151982
 30
0.0
 10
15.3535404942
 20
38.2642979247
 30
0.0
  0
SPLINE
  5
2B2
100
AcDbEntity
  8
0
100
AcDbSpline
 62
7
  6
BYLAYER
 70
0
 71
3
 72
9
 73
5
 74
0
 42
0.0000001
 43
0.0000001
 44
0.0000000001
 40
0.0
 40
0.0
 40
0.0
 40
0.0
 40
0.2372407711
 40
1.0
 40
1.0
 40
1.0
 40
1.0
 10
17.0302247112
 20
37.0461142575
 30
0.0
 10
17.0302247112
 20
37.0738805241
 30
0.0
 10
17.0259304091
 20
37.1909100652
 30
0.0
 10
17.005744921
 20
37.3070967219
 30
0.0
 10
16.9837216373
 20
37.3936096023
 30
0.0
  0
SPLINE
  5
2B3
100
AcDbEntity
  8
0
100
AcDbSpline
 62
7
  6
BYLAYER
 70
0
 71
3
 72
10
 73
6
 74
0
 42
0.0000001
 43
0.0000001
 44
0.0000000001
 40
0.0
 40
0.0
 40
0.0
 40
0.0
 40
0.527133373
 40
0.7678446626
 40
1.0
 40
1.0
 40
1.0
 40
1.0
 10
16.3887215397
 20
36.4628784228
 30
0.0
 10
16.4539769078
 20
36.4444544895
 30
0.0
 10
16.554324783
 20
36.430142766
 30
0.0
 10
16.6821280781
 20
36.450230803
 30
0.0
 10
16.7394137425
 20
36.4723837615
 30
0.0
 10
16.7658709686
 20
36.4862327486
 30
0.0
  0
SPLINE
  5
2B4
100
AcDbEntity
  8
0
100
AcDbSpline
 62
7
  6
BYLAYER
 70
0
 71
3
 72
9
 73
5
 74
0
 42
0.0000001
 43
0.0000001
 44
0.0000000001
 40
0.0
 40
0.0
 40
0.0
 40
0.0
 40
0.4945502649
 40
1.0
 40
1.0
 40
1.0
 40
1.0
 10
16.7658709686
 20
36.4862327486
 30
0.0
 10
16.790410953
 20
36.499078159
 30
0.0
 10
16.8374427879
 20
36.5303173974
 30
0.0
 10
16.8771189577
 20
36.5704227793
 30
0.0
 10
16.8950645062
 20
36.5923171372
 30
0.0
  0
SPLINE
  5
2B5
100
AcDbEntity
  8
0
100
AcDbSpline
 62
7
  6
BYLAYER
 70
0
 71
3
 72
10
 73
6
 74
0
 42
0.0000001
 43
0.0000001
 44
0.0000000001
 40
0.0
 40
0.0
 40
0.0
 40
0.0
 40
0.4591054983
 40
0.7191302894
 40
1.0
 40
1.0
 40
1.0
 40
1.0
 10
16.8950645062
 20
36.5923171372
 30
0.0
 10
16.941731411
 20
36.6492528124
 30
0.0
 10
16.9931131052
 20
36.7568682301
 30
0.0
 10
17.0249787013
 20
36.9141211039
 30
0.0
 10
17.0302247112
 20
37.001077111
 30
0.0
 10
17.0302247112
 20
37.0461142575
 30
0.0
  0
SPLINE
  5
2B6
100
AcDbEntity
  8
0
100
AcDbSpline
 62
7
  6
BYLAYER
 70
0
 71
3
 72
11
 73
7
 74
0
 42
0.0000001
 43
0.0000001
 44
0.0000000001
 40
0.0
 40
0.0
 40
0.0
 40
0.0
 40
0.2895453772
 40
0.5491366158
 40
0.7822776227
 40
1.0
 40
1.0
 40
1.0
 40
1.0
 10
16.8849903763
 20
37.129963191
 30
0.0
 10
16.8849903763
 20
37.0793233648
 30
0.0
 10
16.8772579784
 20
36.9829633414
 30
0.0
 10
16.8383037986
 20
36.8505460388
 30
0.0
 10
16.7725886691
 20
36.7430732166
 30
0.0
 10
16.7108344312
 20
36.6912525911
 30
0.0
 10
16.6778578734
 20
36.6722128739
 30
0.0
  0
SPLINE
  5
2B7
100
AcDbEntity
  8
0
100
AcDbSpline
 62
7
  6
BYLAYER
 70
0
 71
3
 72
17
 73
13
 74
0
 42
0.0000001
 43
0.0000001
 44
0.0000000001
 40
0.0
 40
0.0
 40
0.0
 40
0.0
 40
0.1570274606
 40
0.3067858387
 40
0.4472364023
 40
0.577067081
 40
0.6957938793
 40
0.8041185875
 40
0.8550779632
 40
0.9043677096
 40
0.952485714
 40
1.0
 40
1.0
 40
1.0
 40
1.0
 10
20.6082843156
 20
42.6968650131
 30
0.0
 10
20.3472925736
 20
43.0121834572
 30
0.0
 10
19.8074456677
 20
43.6043102335
 30
0.0
 10
18.9343816884
 20
44.380312993
 30
0.0
 10
18.0341641885
 20
45.0085730459
 30
0.0
 10
17.1287074812
 20
45.473191007
 30
0.0
 10
16.2396074135
 20
45.7618678729
 30
0.0
 10
15.5139970152
 20
45.8494301332
 30
0.0
 10
14.9700007992
 20
45.8180698563
 30
0.0
 10
14.5885900499
 20
45.7476528423
 30
0.0
 10
14.2284497006
 20
45.6300198217
 30
0.0
 10
14.0035142089
 20
45.5203830742
 30
0.0
 10
13.8962508936
 20
45.4584600486
 30
0.0
  0
SPLINE
  5
2B8
100
AcDbEntity
  8
0
100
AcDbSpline
 62
7
  6
BYLAYER
 70
0
 71
3
 72
17
 73
13
 74
0
 42
0.0000001
 43
0.0000001
 44
0.0000000001
 40
0.0
 40
0.0
 40
0.0
 40
0.0
 40
0.1286846513
 40
0.2703032228
 40
0.4174430309
 40
0.5617811216
 40
0.695448235
 40
0.8127121431
 40
0.8646788239
 40
0.9125086207
 40
0.9571391214
 40
1.0
 40
1.0
 40
1.0
 40
1.0
 10
9.8139520042
 20
33.0475216523
 30
0.0
 10
9.8139520042
 20
33.1329931493
 30
0.0
 10
9.7900222795
 20
33.3127284694
 30
0.0
 10
9.7007951056
 20
33.5766260395
 30
0.0
 10
9.5632357061
 20
33.8308206764
 30
0.0
 10
9.3885035285
 20
34.0544885897
 30
0.0
 10
9.190808065
 20
34.2295755507
 30
0.0
 10
9.0118642767
 20
34.3273820628
 30
0.0
 10
8.8719001677
 20
34.3646738666
 30
0.0
 10
8.7755642419
 20
34.3717115525
 30
0.0
 10
8.6858471432
 20
34.3586249898
 30
0.0
 10
8.6315208221
 20
34.3359841706
 30
0.0
 10
8.6068663016
 20
34.321751227
 30
0.0
  0
SPLINE
  5
2B9
100
AcDbEntity
  8
0
100
AcDbSpline
 62
7
  6
BYLAYER
 70
0
 71
3
 72
19
 73
15
 74
0
 42
0.0000001
 43
0.0000001
 44
0.0000000001
 40
0.0
 40
0.0
 40
0.0
 40
0.0
 40
0.0463620529
 40
0.092525089
 40
0.1394778575
 40
0.1881275903
 40
0.2930586923
 40
0.3504885279
 40
0.4114176599
 40
0.4758334847
 40
0.5435937787
 40
0.6879124274
 40
0.8413858501
 40
1.0
 40
1.0
 40
1.0
 40
1.0
 10
18.3429120728
 20
31.566803202
 30
0.0
 10
18.4639224691
 20
31.6054820347
 30
0.0
 10
18.699283092
 20
31.7039805606
 30
0.0
 10
19.0209797388
 20
31.9140432811
 30
0.0
 10
19.3045844079
 20
32.1825055925
 30
0.0
 10
19.635457534
 20
32.6240102881
 30
0.0
 10
19.8667300121
 20
33.1637715773
 30
0.0
 10
20.003562588
 20
33.7607483563
 30
0.0
 10
20.0618126361
 20
34.2592464132
 30
0.0
 10
20.071906492
 20
34.7890126793
 30
0.0
 10
20.0199785988
 20
35.5456954063
 30
0.0
 10
19.8305947856
 20
36.5334505668
 30
0.0
 10
19.4307522719
 20
37.7217206846
 30
0.0
 10
19.0592427168
 20
38.4947779976
 30
0.0
 10
18.8480811682
 20
38.8746711975
 30
0.0
  0
SPLINE
  5
2BA
100
AcDbEntity
  8
0
100
AcDbSpline
 62
7
  6
BYLAYER
 70
0
 71
3
 72
9
 73
5
 74
0
 42
0.0000001
 43
0.0000001
 44
0.0000000001
 40
0.0
 40
0.0
 40
0.0
 40
0.0
 40
0.5168912675
 40
1.0
 40
1.0
 40
1.0
 40
1.0
 10
14.3518004535
 20
32.9919029837
 30
0.0
 10
14.5601266366
 20
32.8057645308
 30
0.0
 10
14.9820630353
 20
32.46606138
 30
0.0
 10
15.4419241666
 20
32.1787619923
 30
0.0
 10
15.6727243136
 20
32.0566550789
 30
0.0
  0
SPLINE
  5
2BB
100
AcDbEntity
  8
0
100
AcDbSpline
 62
7
  6
BYLAYER
 70
0
 71
3
 72
25
 73
21
 74
0
 42
0.0000001
 43
0.0000001
 44
0.0000000001
 40
0.0
 40
0.0
 40
0.0
 40
0.0
 40
0.0619532436
 40
0.091143473
 40
0.1191896862
 40
0.1721399925
 40
0.2218879428
 40
0.2699398529
 40
0.3180960678
 40
0.3681376424
 40
0.4215239556
 40
0.4498237469
 40
0.4792815725
 40
0.5417886909
 40
0.6091389818
 40
0.6810344364
 40
0.7569086233
 40
0.8359779423
 40
0.9173678008
 40
1.0
 40
1.0
 40
1.0
 40
1.0
 10
15.9045671861
 20
31.9412392781
 30
0.0
 10
16.096711767
 20
31.8516099911
 30
0.0
 10
16.3885420762
 20
31.7374480342
 30
0.0
 10
16.7837677733
 20
31.6349498462
 30
0.0
 10
17.1558158208
 20
31.5713522589
 30
0.0
 10
17.6060649411
 20
31.555744292
 30
0.0
 10
18.1181078832
 20
31.647758016
 30
0.0
 10
18.5798377743
 20
31.8509375831
 30
0.0
 10
18.9790325688
 20
32.1609293985
 30
0.0
 10
19.3062742511
 20
32.5689116232
 30
0.0
 10
19.5105219527
 20
32.9741606282
 30
0.0
 10
19.6355020319
 20
33.3337602907
 30
0.0
 10
19.7380997519
 20
33.7327974798
 30
0.0
 10
19.8116029511
 20
34.2750897794
 30
0.0
 10
19.8147646931
 20
34.9671314575
 30
0.0
 10
19.7348564179
 20
35.7004004457
 30
0.0
 10
19.5735040429
 20
36.4609475701
 30
0.0
 10
19.3338957718
 20
37.2345458347
 30
0.0
 10
19.0205492699
 20
38.0061923236
 30
0.0
 10
18.7673890671
 20
38.5079994025
 30
0.0
 10
18.6299994318
 20
38.755172188
 30
0.0
  0
SPLINE
  5
2BC
100
AcDbEntity
  8
0
100
AcDbSpline
 62
7
  6
BYLAYER
 70
0
 71
3
 72
11
 73
7
 74
0
 42
0.0000001
 43
0.0000001
 44
0.0000000001
 40
0.0
 40
0.0
 40
0.0
 40
0.0
 40
0.2304259801
 40
0.4759658876
 40
0.7336645806
 40
1.0
 40
1.0
 40
1.0
 40
1.0
 10
11.1744142404
 20
39.6216892158
 30
0.0
 10
11.1750292451
 20
39.3560222303
 30
0.0
 10
11.2139200882
 20
38.8069664435
 30
0.0
 10
11.3699912945
 20
37.9740656701
 30
0.0
 10
11.622142127
 20
37.1219154555
 30
0.0
 10
11.8478601041
 20
36.5604064705
 30
0.0
 10
11.9749793167
 20
36.2808851128
 30
0.0
  0
SPLINE
  5
2BD
100
AcDbEntity
  8
0
100
AcDbSpline
 62
7
  6
BYLAYER
 70
0
 71
3
 72
21
 73
17
 74
0
 42
0.0000001
 43
0.0000001
 44
0.0000000001
 40
0.0
 40
0.0
 40
0.0
 40
0.0
 40
0.0435303245
 40
0.0881970494
 40
0.1349956428
 40
0.1846893858
 40
0.237777694
 40
0.2945034027
 40
0.3548901155
 40
0.418779041
 40
0.4858598167
 40
0.5557058945
 40
0.6277996261
 40
0.7015552195
 40
0.8513868856
 40
1.0
 40
1.0
 40
1.0
 40
1.0
 10
27.7701922512
 20
33.8386786737
 30
0.0
 10
27.9446941697
 20
33.9394380885
 30
0.0
 10
28.2784161532
 20
34.1802073729
 30
0.0
 10
28.7058390765
 20
34.6410111011
 30
0.0
 10
29.0576498578
 20
35.1955650865
 30
0.0
 10
29.3297273423
 20
35.8351969914
 30
0.0
 10
29.5194225352
 20
36.551051221
 30
0.0
 10
29.6250182148
 20
37.3336085541
 30
0.0
 10
29.6455776573
 20
38.1726986802
 30
0.0
 10
29.580996048
 20
39.0573893851
 30
0.0
 10
29.4323143699
 20
39.9760994553
 30
0.0
 10
29.2015540531
 20
40.9167209918
 30
0.0
 10
28.8917392853
 20
41.8668452193
 30
0.0
 10
28.3761608969
 20
43.1357729592
 30
0.0
 10
27.56582142
 20
44.6622544305
 30
0.0
 10
26.7599224384
 20
45.7903997506
 30
0.0
 10
26.3212799393
 20
46.3203478219
 30
0.0
  0
SPLINE
  5
2BE
100
AcDbEntity
  8
0
100
AcDbSpline
 62
7
  6
BYLAYER
 70
0
 71
3
 72
22
 73
18
 74
0
 42
0.0000001
 43
0.0000001
 44
0.0000000001
 40
0.0
 40
0.0
 40
0.0
 40
0.0
 40
0.1639199542
 40
0.2414335234
 40
0.3152322185
 40
0.3849534337
 40
0.4503921431
 40
0.5115778476
 40
0.5688055092
 40
0.6226690998
 40
0.674086205
 40
0.7242482635
 40
0.7745056269
 40
0.8261978151
 40
0.8804842265
 40
0.9382272147
 40
1.0
 40
1.0
 40
1.0
 40
1.0
 10
17.5620859925
 20
40.3224387364
 30
0.0
 10
17.2735729679
 20
40.6710071521
 30
0.0
 10
16.8120346808
 20
41.1565228314
 30
0.0
 10
16.1391682374
 20
41.7095465715
 30
0.0
 10
15.6346207986
 20
42.0542539521
 30
0.0
 10
15.1278454502
 20
42.3318775711
 30
0.0
 10
14.6253996528
 20
42.5384612085
 30
0.0
 10
14.1339071674
 20
42.6710012507
 30
0.0
 10
13.659774309
 20
42.7272990292
 30
0.0
 10
13.209386102
 20
42.7056816783
 30
0.0
 10
12.7893585389
 20
42.6056230014
 30
0.0
 10
12.406565279
 20
42.4278337521
 30
0.0
 10
12.0676822035
 20
42.1750088911
 30
0.0
 10
11.7781177115
 20
41.8518342231
 30
0.0
 10
11.5418573114
 20
41.4639039834
 30
0.0
 10
11.3613890148
 20
41.0174458328
 30
0.0
 10
11.2822227343
 20
40.6960038597
 30
0.0
 10
11.2514715612
 20
40.528283138
 30
0.0
  0
SPLINE
  5
2BF
100
AcDbEntity
  8
0
100
AcDbSpline
 62
7
  6
BYLAYER
 70
0
 71
3
 72
9
 73
5
 74
0
 42
0.0000001
 43
0.0000001
 44
0.0000000001
 40
0.0
 40
0.0
 40
0.0
 40
0.0
 40
0.2406410392
 40
1.0
 40
1.0
 40
1.0
 40
1.0
 10
11.2514715612
 20
40.528283138
 30
0.0
 10
11.2384908999
 20
40.4574849974
 30
0.0
 10
11.1920777169
 20
40.1619148989
 30
0.0
 10
11.1743988514
 20
39.8621070426
 30
0.0
 10
11.1743988514
 20
39.6349747134
 30
0.0
  0
SPLINE
  5
2C0
100
AcDbEntity
  8
0
100
AcDbSpline
 62
7
  6
BYLAYER
 70
0
 71
3
 72
9
 73
5
 74
0
 42
0.0000001
 43
0.0000001
 44
0.0000000001
 40
0.0
 40
0.0
 40
0.0
 40
0.0
 40
0.2521312839
 40
1.0
 40
1.0
 40
1.0
 40
1.0
 10
18.6299994318
 20
38.755172188
 30
0.0
 10
18.552501321
 20
38.8945962711
 30
0.0
 10
18.2326507551
 20
39.4405217843
 30
0.0
 10
17.8637784965
 20
39.9579474684
 30
0.0
 10
17.5620859925
 20
40.3224387364
 30
0.0
  0
LINE
  5
2C1
100
AcDbEntity
  8
0
100
AcDbLine
 62
7
  6
BYLAYER
 10
23.2245685133
 20
44.2073683824
 11
23.2094550128
 21
44.2255932061
  0
SPLINE
  5
2C2
100
AcDbEntity
  8
0
100
AcDbSpline
 62
7
  6
BYLAYER
 70
0
 71
3
 72
9
 73
5
 74
0
 42
0.0000001
 43
0.0000001
 44
0.0000000001
 40
0.0
 40
0.0
 40
0.0
 40
0.0
 40
0.5054556458
 40
1.0
 40
1.0
 40
1.0
 40
1.0
 10
17.4481264598
 20
47.3005054816
 30
0.0
 10
17.2837329867
 20
47.273093584
 30
0.0
 10
16.9622854937
 20
47.1916735171
 30
0.0
 10
16.6604677935
 20
47.0538101249
 30
0.0
 10
16.5190173076
 20
46.9726799839
 30
0.0
  0
SPLINE
  5
2C3
100
AcDbEntity
  8
0
100
AcDbSpline
 62
7
  6
BYLAYER
 70
0
 71
3
 72
17
 73
13
 74
0
 42
0.0000001
 43
0.0000001
 44
0.0000000001
 40
0.0
 40
0.0
 40
0.0
 40
0.0
 40
0.138900358
 40
0.2795195834
 40
0.4186205082
 40
0.5530694316
 40
0.6800857104
 40
0.7401330041
 40
0.7975762431
 40
0.8522894185
 40
0.90423576
 40
1.0
 40
1.0
 40
1.0
 40
1.0
 10
23.2076181903
 20
44.1813270205
 30
0.0
 10
23.5182769618
 20
43.8060031128
 30
0.0
 10
24.1006229792
 20
43.0143007737
 30
0.0
 10
24.8403087391
 20
41.7428169282
 30
0.0
 10
25.433621405
 20
40.413489425
 30
0.0
 10
25.8602539444
 20
39.0716310871
 30
0.0
 10
26.0689224965
 20
37.9596417291
 30
0.0
 10
26.1357326762
 20
37.1038891091
 30
0.0
 10
26.1363904587
 20
36.499237028
 30
0.0
 10
26.0882611964
 20
35.9247266185
 30
0.0
 10
25.9634099598
 20
35.2253280748
 30
0.0
 10
25.7944003356
 20
34.7291302018
 30
0.0
 10
25.6444931291
 20
34.4285284116
 30
0.0
  0
SPLINE
  5
2C4
100
AcDbEntity
  8
0
100
AcDbSpline
 62
7
  6
BYLAYER
 70
0
 71
3
 72
20
 73
16
 74
0
 42
0.0000001
 43
0.0000001
 44
0.0000000001
 40
0.0
 40
0.0
 40
0.0
 40
0.0
 40
0.0435346705
 40
0.0882049029
 40
0.1350078145
 40
0.184706712
 40
0.2377982783
 40
0.2945294864
 40
0.3549217457
 40
0.4188152914
 40
0.4859032347
 40
0.5557546662
 40
0.7015245801
 40
0.8513704333
 40
1.0
 40
1.0
 40
1.0
 40
1.0
 10
24.5124927309
 20
33.1125476288
 30
0.0
 10
24.6676143103
 20
33.2020986683
 30
0.0
 10
24.9642037644
 20
33.4161875797
 30
0.0
 10
25.3441802057
 20
33.8257337168
 30
0.0
 10
25.6569068257
 20
34.318676434
 30
0.0
 10
25.898696463
 20
34.8872526179
 30
0.0
 10
26.067376974
 20
35.5235449407
 30
0.0
 10
26.1612164307
 20
36.2191516942
 30
0.0
 10
26.1794672146
 20
36.9650037049
 30
0.0
 10
26.1221125812
 20
37.7513906187
 30
0.0
 10
25.9899229136
 20
38.5680384973
 30
0.0
 10
25.7125013682
 20
39.6986587134
 30
0.0
 10
25.1901251771
 20
41.1146617548
 30
0.0
 10
24.330943765
 20
42.7333359088
 30
0.0
 10
23.6144796892
 20
43.7362952965
 30
0.0
 10
23.2245685133
 20
44.2073683824
 30
0.0
  0
SPLINE
  5
2C5
100
AcDbEntity
  8
0
100
AcDbSpline
 62
7
  6
BYLAYER
 70
0
 71
3
 72
20
 73
16
 74
0
 42
0.0000001
 43
0.0000001
 44
0.0000000001
 40
0.0
 40
0.0
 40
0.0
 40
0.0
 40
0.0435345262
 40
0.0882047632
 40
0.1350077917
 40
0.1847069576
 40
0.2377988579
 40
0.2945304704
 40
0.3549231553
 40
0.4188169367
 40
0.4859047283
 40
0.5557568282
 40
0.7015284593
 40
0.8513725962
 40
1.0
 40
1.0
 40
1.0
 40
1.0
 10
20.7762445322
 20
32.3987965131
 30
0.0
 10
20.9071278788
 20
32.4743553639
 30
0.0
 10
21.1573758389
 20
32.6549917003
 30
0.0
 10
21.4779807386
 20
33.0005471175
 30
0.0
 10
21.7418460221
 20
33.4164683396
 30
0.0
 10
21.9458559951
 20
33.8962079353
 30
0.0
 10
22.0881810646
 20
34.4330835377
 30
0.0
 10
22.1673572301
 20
35.0200066348
 30
0.0
 10
22.1827547353
 20
35.6493236814
 30
0.0
 10
22.1343596708
 20
36.312839943
 30
0.0
 10
22.0228233997
 20
37.0018898211
 30
0.0
 10
21.788742069
 20
37.9558580001
 30
0.0
 10
21.3479846265
 20
39.1506135696
 30
0.0
 10
20.623046523
 20
40.5163612668
 30
0.0
 10
20.0185366703
 20
41.3625975016
 30
0.0
 10
19.6895535536
 20
41.7600600562
 30
0.0
  0
SPLINE
  5
2C6
100
AcDbEntity
  8
0
100
AcDbSpline
 62
7
  6
BYLAYER
 70
0
 71
3
 72
18
 73
14
 74
0
 42
0.0000001
 43
0.0000001
 44
0.0000000001
 40
0.0
 40
0.0
 40
0.0
 40
0.0
 40
0.0428885764
 40
0.0871813938
 40
0.134464411
 40
0.1858087569
 40
0.2417501366
 40
0.3023289712
 40
0.4356081132
 40
0.5802279363
 40
0.728121451
 40
0.8705863325
 40
1.0
 40
1.0
 40
1.0
 40
1.0
 10
16.6859394311
 20
39.5509288478
 30
0.0
 10
16.7216483975
 20
39.5747229696
 30
0.0
 10
16.8009908635
 20
39.6136781539
 30
0.0
 10
16.9340902082
 20
39.6406961079
 30
0.0
 10
17.0781160918
 20
39.6363356199
 30
0.0
 10
17.2296355482
 20
39.6015519103
 30
0.0
 10
17.3855674196
 20
39.5374516423
 30
0.0
 10
17.6019096163
 20
39.4110438576
 30
0.0
 10
17.860678094
 20
39.1881442456
 30
0.0
 10
18.1272924652
 20
38.8533053866
 30
0.0
 10
18.3379451392
 20
38.4699732635
 30
0.0
 10
18.4749004978
 20
38.0708186691
 30
0.0
 10
18.5117098205
 20
37.7984896132
 30
0.0
 10
18.5117098205
 20
37.6690105132
 30
0.0
  0
SPLINE
  5
2C7
100
AcDbEntity
  8
0
100
AcDbSpline
 62
7
  6
BYLAYER
 70
0
 71
3
 72
20
 73
16
 74
0
 42
0.0000001
 43
0.0000001
 44
0.0000000001
 40
0.0
 40
0.0
 40
0.0
 40
0.0
 40
0.0435345262
 40
0.0882047632
 40
0.1350077917
 40
0.1847069576
 40
0.2377988579
 40
0.2945304704
 40
0.3549231553
 40
0.4188169367
 40
0.4859047283
 40
0.5557568282
 40
0.7015284593
 40
0.8513725962
 40
1.0
 40
1.0
 40
1.0
 40
1.0
 10
21.8962143644
 20
31.6020341473
 30
0.0
 10
22.0513353678
 20
31.6915853778
 30
0.0
 10
22.3479255427
 20
31.9056728876
 30
0.0
 10
22.7279017201
 20
32.3152200487
 30
0.0
 10
23.040630945
 20
32.8081637194
 30
0.0
 10
23.2824205427
 20
33.376743981
 30
0.0
 10
23.4511021065
 20
34.0130409913
 30
0.0
 10
23.5449405249
 20
34.7086535508
 30
0.0
 10
23.56318942
 20
35.4545107912
 30
0.0
 10
23.5058323064
 20
36.2409004345
 30
0.0
 10
23.3736411704
 20
37.057552142
 30
0.0
 10
23.0962114451
 20
38.1881810948
 30
0.0
 10
22.573832254
 20
39.6041876957
 30
0.0
 10
21.7146463535
 20
41.2228516331
 30
0.0
 10
20.9981902317
 20
42.2257982818
 30
0.0
 10
20.6082843156
 20
42.6968650131
 30
0.0
  0
SPLINE
  5
2C8
100
AcDbEntity
  8
0
100
AcDbSpline
 62
7
  6
BYLAYER
 70
0
 71
3
 72
11
 73
7
 74
0
 42
0.0000001
 43
0.0000001
 44
0.0000000001
 40
0.0
 40
0.0
 40
0.0
 40
0.0
 40
0.2660509123
 40
0.5145281402
 40
0.7551114389
 40
1.0
 40
1.0
 40
1.0
 40
1.0
 10
18.7089673064
 20
37.2195781142
 30
0.0
 10
18.6873633506
 20
37.1664332884
 30
0.0
 10
18.6351186797
 20
37.0673282678
 30
0.0
 10
18.5253339144
 20
36.9446075648
 30
0.0
 10
18.3899106369
 20
36.858822627
 30
0.0
 10
18.2879932754
 20
36.8291123389
 30
0.0
 10
18.2358614244
 20
36.8207080982
 30
0.0
  0
SPLINE
  5
2C9
100
AcDbEntity
  8
0
100
AcDbSpline
 62
7
  6
BYLAYER
 70
0
 71
3
 72
9
 73
5
 74
0
 42
0.0000001
 43
0.0000001
 44
0.0000000001
 40
0.0
 40
0.0
 40
0.0
 40
0.0
 40
0.2451290653
 40
1.0
 40
1.0
 40
1.0
 40
1.0
 10
18.2358614244
 20
36.8207080982
 30
0.0
 10
18.225695672
 20
36.8190692646
 30
0.0
 10
18.1840681506
 20
36.8133759354
 30
0.0
 10
18.1419231082
 20
36.8116224231
 30
0.0
 10
18.1102210564
 20
36.8123076217
 30
0.0
  0
SPLINE
  5
2CA
100
AcDbEntity
  8
0
100
AcDbSpline
 62
7
  6
BYLAYER
 70
0
 71
3
 72
9
 73
5
 74
0
 42
0.0000001
 43
0.0000001
 44
0.0000000001
 40
0.0
 40
0.0
 40
0.0
 40
0.0
 40
0.2435840429
 40
1.0
 40
1.0
 40
1.0
 40
1.0
 10
18.1102210564
 20
36.8123076217
 30
0.0
 10
18.0985949264
 20
36.8125589053
 30
0.0
 10
18.0508921968
 20
36.8146951516
 30
0.0
 10
18.0034111992
 20
36.8211283534
 30
0.0
 10
17.9679648453
 20
36.8280286368
 30
0.0
  0
SPLINE
  5
2CB
100
AcDbEntity
  8
0
100
AcDbSpline
 62
7
  6
BYLAYER
 70
0
 71
3
 72
20
 73
16
 74
0
 42
0.0000001
 43
0.0000001
 44
0.0000000001
 40
0.0
 40
0.0
 40
0.0
 40
0.0
 40
0.1486274038
 40
0.2984715407
 40
0.4442431718
 40
0.5140952717
 40
0.5811830633
 40
0.6450768447
 40
0.7054695296
 40
0.7622011421
 40
0.8152930424
 40
0.8649922083
 40
0.9117952368
 40
0.9564654738
 40
1.0
 40
1.0
 40
1.0
 40
1.0
 10
25.2751696413
 20
45.3912764287
 30
0.0
 10
25.6650755574
 20
44.9202096973
 30
0.0
 10
26.3815316792
 20
43.9172630487
 30
0.0
 10
27.2407175796
 20
42.2985991112
 30
0.0
 10
27.7630967707
 20
40.8825925103
 30
0.0
 10
28.040526496
 20
39.7519635575
 30
0.0
 10
28.172717632
 20
38.9353118501
 30
0.0
 10
28.2300747456
 20
38.1489222068
 30
0.0
 10
28.2118258505
 20
37.4030649663
 30
0.0
 10
28.1179874321
 20
36.7074524068
 30
0.0
 10
27.9493058683
 20
36.0711553966
 30
0.0
 10
27.7075162707
 20
35.502575135
 30
0.0
 10
27.3947870458
 20
35.0096314643
 30
0.0
 10
27.0148108683
 20
34.6000843032
 30
0.0
 10
26.7182206934
 20
34.3859967934
 30
0.0
 10
26.56309969
 20
34.2964455629
 30
0.0
  0
ENDSEC
  0
SECTION
  2
OBJECTS
  0
DICTIONARY
  5
C
100
AcDbDictionary
280
0
281
1
  3
ACAD_GROUP
350
D
  3
ACAD_MLINESTYLE
350
17
  3
ACAD_LAYOUT
350
1A
  3
ACAD_PLOTSETTINGS
350
19
  3
ACAD_PLOTSTYLENAME
350
E
  0
DICTIONARY
  5
D
102
{ACAD_REACTORS
330
C
102
}
100
AcDbDictionary
280
0
281
1
  0
ACDBDICTIONARYWDFLT
  5
E
102
{ACAD_REACTORS
330
C
102
}
100
AcDbDictionary
281
1
  3
Normal
350
F
100
AcDbDictionaryWithDefault
340
F
  0
DICTIONARY
  5
17
102
{ACAD_REACTORS
330
C
102
}
100
AcDbDictionary
280
0
281
1
  3
Standard
350
18
  0
DICTIONARY
  5
19
102
{ACAD_REACTORS
330
C
102
}
100
AcDbDictionary
281
1
  0
DICTIONARY
  5
1A
102
{ACAD_REACTORS
330
C
102
}
100
AcDbDictionary
281
1
  3
Model
350
2CC
  3
Layout1
350
2CD
  0
ACDBPLACEHOLDER
  5
F
102
{ACAD_REACTORS
330
E
102
}
  0
MLINESTYLE
  5
18
102
{ACAD_REACTORS
330
17
102
}
100
AcDbMlineStyle
  2
STANDARD
 70
0
  3

 62
256
 51
90.0
 52
90.0
 71
2
 49
0.5
 62
256
  6
BYLAYER
 49
-0.5
 62
256
  6
BYLAYER
  0
LAYOUT
  5
2CC
102
{ACAD_REACTORS
330
1A
102
}
100
AcDbPlotSettings
  1

  2
none_device
  4

  6

 40
0.0
 41
0.0
 42
0.0
 43
0.0
 44
210.0
 45
297.0
 46
0.0
 47
0.0
 48
0.0
 49
0.0
140
0.0
141
0.0
142
1.0
143
1.0
 70
1024
 72
1
 73
0
 74
0
  7

 75
0
147
1.0
148
0.0
149
0.0
100
AcDbLayout
  1
Model
 70
0
 71
0
 10
0.0
 20
0.0
 11
210.0
 21
297.0
 12
0.0
 22
0.0
 32
0.0
 14
0.0
 24
0.0
 34
0.0
 15
0.0
 25
0.0
 35
0.0
146
0.0
 13
0.0
 23
0.0
 33
0.0
 16
1.0
 26
0.0
 36
0.0
 17
0.0
 27
1.0
 37
0.0
 76
0
330
210
345
0
346
0
  0
LAYOUT
  5
2CD
102
{ACAD_REACTORS
330
1A
102
}
100
AcDbPlotSettings
  1

  2
none_device
  4

  6

 40
0.0
 41
0.0
 42
0.0
 43
0.0
 44
210.0
 45
297.0
 46
0.0
 47
0.0
 48
0.0
 49
0.0
140
0.0
141
0.0
142
1.0
143
1.0
 70
0
 72
1
 73
0
 74
0
  7

 75
0
147
1.0
148
0.0
149
0.0
100
AcDbLayout
  1
Layout1
 70
0
 71
1
 10
0.0
 20
0.0
 11
210.0
 21
297.0
 12
0.0
 22
0.0
 32
0.0
 14
0.0
 24
0.0
 34
0.0
 15
0.0
 25
0.0
 35
0.0
146
0.0
 13
0.0
 23
0.0
 33
0.0
 16
1.0
 26
0.0
 36
0.0
 17
0.0
 27
1.0
 37
0.0
 76
0
330
211
345
0
346
0
  0
ENDSEC
  0
EOF
