999
DXF file: C:\2D\Gen2D\CAD\NSYS3D12830P_3D-Simplified\drw0001_6.dxf
999
Pro/ENGINEER 2019471 by Parametric Technology Corporation
  0
SECTION
  2
HEADER
  9
$ACADVER
  1
AC1024
  9
$DWGCODEPAGE
  3
ANSI_1252
  9
$EXTMAX
 10
1016.4400604283
 20
1437.5366568915
 30
0.0
  9
$EXTMIN
 10
0.0
 20
0.0
 30
0.0
  9
$LIMMIN
 10
0.0
 20
0.0
  9
$LIMMAX
 10
1016.4400604283
 20
1437.5366568915
  9
$VIEWCTR
 10
508.2200302142
 20
718.7683284457
  9
$VIEWSIZE
 40
1437.5366568915
  9
$CLAYER
  8
0
  9
$LTSCALE
 40
93.70609319
  9
$CELTYPE
  6
BYLAYER
  9
$DIMSCALE
 40
1.0
  9
$DIMASZ
 40
12.1004769099
  9
$DIMEXO
 40
1.0
  9
$DIMDLI
 40
64.7423916585
  9
$DIMEXE
 40
1.0
  9
$DIMCEN
 40
15.3337243402
  9
$DIMLFAC
 40
1.0
  9
$DIMBLK
  1
_FILLED
  9
$DIMALT
 70
0
  9
$DIMALTF
 40
0.0393700787
  9
$DIMTXT
 40
16.9406676738
  9
$DIMTOL
 70
1
  9
$DIMLIM
 70
0
  9
$DIMTFAC
 40
1.0
  9
$DIMTP
 40
0.01
  9
$DIMTM
 40
0.01
  9
$DIMGAP
 40
0.625
  9
$DIMDSEP
 70
46
  9
$AUNITS
 70
0
  9
$PDMODE
 70
3
  9
$PDSIZE
 40
0.3125
  9
$HANDSEED
  5
259
  9
$TILEMODE
 70
1
  9
$MEASUREMENT
 70
1
  9
$INSUNITS
 70
4
  0
ENDSEC
  0
SECTION
  2
CLASSES
  0
CLASS
  1
ACDBDICTIONARYWDFLT
  2
AcDbDictionaryWithDefault
  3
AutoCAD 2000
 90
0
 91
1
280
0
281
0
  0
CLASS
  1
ACDBPLACEHOLDER
  2
AcDbPlaceHolder
  3
AutoCAD 2000
 90
0
 91
1
280
0
281
0
  0
CLASS
  1
LAYOUT
  2
AcDbLayout
  3
AutoCAD 2000
 90
0
 91
0
280
0
281
0
  0
ENDSEC
  0
SECTION
  2
TABLES
  0
TABLE
  2
VPORT
  5
8
100
AcDbSymbolTable
 70
2
  0
VPORT
  5
1F4
100
AcDbSymbolTableRecord
100
AcDbViewportTableRecord
  2
*ACTIVE
 70
0
 10
0.0
 20
0.0
 11
1.0
 21
1.0
 12
508.2200302142
 22
718.7683284457
 13
0.0
 23
0.0
 14
1.0
 24
1.0
 15
0.0
 25
0.0
 16
0.0
 26
0.0
 36
1.0
 17
0.0
 27
0.0
 37
0.0
 40
1437.5366568915
 41
0.7070707071
 42
50.0
 43
0.0
 44
0.0
 50
0.0
 51
0.0
 71
0
 72
100
 73
1
 74
1
 75
0
 76
0
 77
0
 78
0
  0
ENDTAB
  0
TABLE
  2
LTYPE
  5
5
100
AcDbSymbolTable
 70
6
  0
LTYPE
  5
14
100
AcDbSymbolTableRecord
100
AcDbLinetypeTableRecord
  2
BYBLOCK
 70
0
  3

 72
65
 73
0
 40
0.0
  0
LTYPE
  5
15
100
AcDbSymbolTableRecord
100
AcDbLinetypeTableRecord
  2
BYLAYER
 70
0
  3

 72
65
 73
0
 40
0.0
  0
LTYPE
  5
16
100
AcDbSymbolTableRecord
100
AcDbLinetypeTableRecord
  2
CONTINUOUS
 70
64
  3
Solid line
 72
65
 73
0
 40
0.0
  0
LTYPE
  5
1F5
100
AcDbSymbolTableRecord
100
AcDbLinetypeTableRecord
  2
CENTER
 70
64
  3
____ _ ____ _ ____ _ ____ _ ____ _ ____ _ ____
 72
65
 73
4
 40
0.6
 49
0.375
 74
0
 49
-0.075
 74
0
 49
0.075
 74
0
 49
-0.075
 74
0
  0
LTYPE
  5
1F6
100
AcDbSymbolTableRecord
100
AcDbLinetypeTableRecord
  2
HIDDEN
 70
64
  3
- - - - - - - - - - - - - - - - - - - -
 72
65
 73
2
 40
0.2
 49
0.1
 74
0
 49
-0.1
 74
0
  0
LTYPE
  5
1F7
100
AcDbSymbolTableRecord
100
AcDbLinetypeTableRecord
  2
PHANTOM
 70
64
  3
_____ _ _ _____ _ _ _____ _ _ _____
 72
65
 73
6
 40
0.8
 49
0.45
 74
0
 49
-0.05
 74
0
 49
0.1
 74
0
 49
-0.05
 74
0
 49
0.1
 74
0
 49
-0.05
 74
0
  0
LTYPE
  5
1F8
100
AcDbSymbolTableRecord
100
AcDbLinetypeTableRecord
  2
DOT
 70
64
  3
. . . . . . . . . . . . . . . . . . . .
 72
65
 73
2
 40
0.2
 49
0.1
 74
0
 49
-0.1
 74
0
  0
LTYPE
  5
1F9
100
AcDbSymbolTableRecord
100
AcDbLinetypeTableRecord
  2
DASHED
 70
64
  3
- - - - - - - - - - - - - - - - - - - -
 72
65
 73
2
 40
0.2
 49
0.1
 74
0
 49
-0.1
 74
0
  0
ENDTAB
  0
TABLE
  2
LAYER
  5
2
100
AcDbSymbolTable
 70
36
  0
LAYER
  5
10
100
AcDbSymbolTableRecord
100
AcDbLayerTableRecord
  2
0
 70
0
 62
7
  6
CONTINUOUS
370
-3
390
F
  0
LAYER
  5
1FA
100
AcDbSymbolTableRecord
100
AcDbLayerTableRecord
  2
DEFAULT_1
 70
0
 62
7
  6
CENTER
370
-3
390
F
  0
LAYER
  5
1FB
100
AcDbSymbolTableRecord
100
AcDbLayerTableRecord
  2
DEFAULT_2
 70
0
 62
8
  6
HIDDEN
370
-3
390
F
  0
LAYER
  5
1FC
100
AcDbSymbolTableRecord
100
AcDbLayerTableRecord
  2
DEFAULT_3
 70
0
 62
7
  6
PHANTOM
370
-3
390
F
  0
LAYER
  5
1FD
100
AcDbSymbolTableRecord
100
AcDbLayerTableRecord
  2
00_COMPONENTS
 70
0
 62
7
  6
CONTINUOUS
370
-3
390
F
  0
LAYER
  5
1FE
100
AcDbSymbolTableRecord
100
AcDbLayerTableRecord
  2
00_COMPONENTS_41
 70
0
 62
7
  6
CONTINUOUS
370
-3
390
F
  0
LAYER
  5
1FF
100
AcDbSymbolTableRecord
100
AcDbLayerTableRecord
  2
00_COMPONENTS_43
 70
0
 62
7
  6
CONTINUOUS
370
-3
390
F
  0
LAYER
  5
200
100
AcDbSymbolTableRecord
100
AcDbLayerTableRecord
  2
00_COMPONENTS_45
 70
0
 62
7
  6
CONTINUOUS
370
-3
390
F
  0
LAYER
  5
201
100
AcDbSymbolTableRecord
100
AcDbLayerTableRecord
  2
00_COMPONENTS_48
 70
0
 62
7
  6
CONTINUOUS
370
-3
390
F
  0
LAYER
  5
202
100
AcDbSymbolTableRecord
100
AcDbLayerTableRecord
  2
01_1_DEFAULT_DATUMS
 70
0
 62
7
  6
CONTINUOUS
370
-3
390
F
  0
LAYER
  5
203
100
AcDbSymbolTableRecord
100
AcDbLayerTableRecord
  2
01_PLANES
 70
0
 62
7
  6
CONTINUOUS
370
-3
390
F
  0
LAYER
  5
204
100
AcDbSymbolTableRecord
100
AcDbLayerTableRecord
  2
02_COORD_SYS
 70
0
 62
7
  6
CONTINUOUS
370
-3
390
F
  0
LAYER
  5
205
100
AcDbSymbolTableRecord
100
AcDbLayerTableRecord
  2
03_AXES
 70
0
 62
7
  6
CONTINUOUS
370
-3
390
F
  0
LAYER
  5
206
100
AcDbSymbolTableRecord
100
AcDbLayerTableRecord
  2
04_POINTS
 70
0
 62
7
  6
CONTINUOUS
370
-3
390
F
  0
LAYER
  5
207
100
AcDbSymbolTableRecord
100
AcDbLayerTableRecord
  2
05_CURVES
 70
0
 62
7
  6
CONTINUOUS
370
-3
390
F
  0
LAYER
  5
208
100
AcDbSymbolTableRecord
100
AcDbLayerTableRecord
  2
06_SURFS
 70
0
 62
7
  6
CONTINUOUS
370
-3
390
F
  0
LAYER
  5
209
100
AcDbSymbolTableRecord
100
AcDbLayerTableRecord
  2
07_COSMETICS
 70
0
 62
7
  6
CONTINUOUS
370
-3
390
F
  0
LAYER
  5
20A
100
AcDbSymbolTableRecord
100
AcDbLayerTableRecord
  2
10_NOTES
 70
0
 62
7
  6
CONTINUOUS
370
-3
390
F
  0
LAYER
  5
20B
100
AcDbSymbolTableRecord
100
AcDbLayerTableRecord
  2
11_NOTES_PUB
 70
0
 62
7
  6
CONTINUOUS
370
-3
390
F
  0
LAYER
  5
20C
100
AcDbSymbolTableRecord
100
AcDbLayerTableRecord
  2
13_REF_GTOL
 70
0
 62
7
  6
CONTINUOUS
370
-3
390
F
  0
LAYER
  5
20D
100
AcDbSymbolTableRecord
100
AcDbLayerTableRecord
  2
16_MISC
 70
0
 62
7
  6
CONTINUOUS
370
-3
390
F
  0
LAYER
  5
20E
100
AcDbSymbolTableRecord
100
AcDbLayerTableRecord
  2
17_NO_PRINT
 70
0
 62
7
  6
CONTINUOUS
370
-3
390
F
  0
LAYER
  5
20F
100
AcDbSymbolTableRecord
100
AcDbLayerTableRecord
  2
18_DATUM_CAMS_JOINTS
 70
0
 62
7
  6
CONTINUOUS
370
-3
390
F
  0
LAYER
  5
210
100
AcDbSymbolTableRecord
100
AcDbLayerTableRecord
  2
19_DATUM_FUNCTIONAL
 70
0
 62
7
  6
CONTINUOUS
370
-3
390
F
  0
LAYER
  5
211
100
AcDbSymbolTableRecord
100
AcDbLayerTableRecord
  2
20_DATUM_KINEMATIC_SCHEME
 70
0
 62
7
  6
CONTINUOUS
370
-3
390
F
  0
LAYER
  5
212
100
AcDbSymbolTableRecord
100
AcDbLayerTableRecord
  2
INTFCLR_10
 70
0
 62
7
  6
CONTINUOUS
370
-3
390
F
  0
ENDTAB
  0
TABLE
  2
STYLE
  5
3
100
AcDbSymbolTable
 70
1
  0
STYLE
  5
11
100
AcDbSymbolTableRecord
100
AcDbTextStyleTableRecord
  2
STANDARD
 70
0
 40
0.0
 41
0.8
 50
0.0
 71
0
 42
0.2
  3
txt
  4

  0
STYLE
  5
213
100
AcDbSymbolTableRecord
100
AcDbTextStyleTableRecord
  2
TEXTSTYLE_1
 70
0
 40
0.0
 41
0.8
 50
0.0
 71
0
 42
0.2
  3
gdt
  4

  0
ENDTAB
  0
TABLE
  2
VIEW
  5
6
100
AcDbSymbolTable
 70
0
  0
ENDTAB
  0
TABLE
  2
UCS
  5
7
100
AcDbSymbolTable
 70
0
  0
ENDTAB
  0
TABLE
  2
APPID
  5
9
100
AcDbSymbolTable
 70
1
  0
APPID
  5
214
100
AcDbSymbolTableRecord
100
AcDbRegAppTableRecord
  2
ACAD
 70
0
  0
ENDTAB
  0
TABLE
  2
BLOCK_RECORD
  5
1
100
AcDbSymbolTable
 70
0
  0
BLOCK_RECORD
  5
215
100
AcDbSymbolTableRecord
100
AcDbBlockTableRecord
  2
*Model_Space
  0
BLOCK_RECORD
  5
216
100
AcDbSymbolTableRecord
100
AcDbBlockTableRecord
  2
*Paper_Space
  0
BLOCK_RECORD
  5
217
100
AcDbSymbolTableRecord
100
AcDbBlockTableRecord
  2
_FILLED
  0
ENDTAB
  0
TABLE
  2
DIMSTYLE
  5
A
100
AcDbSymbolTable
 70
1
100
AcDbDimStyleTable
 71
0
  0
DIMSTYLE
105
218
100
AcDbSymbolTableRecord
100
AcDbDimStyleTableRecord
  2
STANDARD
 70
0
  3

  4

 40
1.0
 41
12.1004769099
 42
1.0
 43
0.38
 44
1.0
 45
0.0
 46
0.0
 47
0.01
 48
0.01
140
16.9406676738
141
0.09
142
0.0
143
25.4
144
1.0
145
0.0
146
1.0
147
0.625
 71
1
 72
0
 73
0
 74
0
 75
0
 76
0
 77
1
 78
8
 79
2
170
0
171
1
172
0
173
0
174
0
175
0
176
0
177
0
178
0
270
2
179
2
271
2
272
2
273
2
274
2
275
0
280
0
281
0
282
0
283
1
284
8
285
0
286
0
287
3
288
0
340
11
278
46
341
217
342
217
343
217
344
217
  0
ENDTAB
  0
ENDSEC
  0
SECTION
  2
BLOCKS
  0
BLOCK
  5
20
100
AcDbEntity
  8
0
100
AcDbBlockBegin
  2
*Model_Space
 70
0
 10
0.0
 20
0.0
 30
0.0
  3
*Model_Space
  1

  0
ENDBLK
  5
21
100
AcDbEntity
  8
0
100
AcDbBlockEnd
  0
BLOCK
  5
1C
100
AcDbEntity
  8
0
100
AcDbBlockBegin
  2
*Paper_Space
 70
0
 10
0.0
 20
0.0
 30
0.0
  3
*Paper_Space
  1

  0
ENDBLK
  5
1D
100
AcDbEntity
  8
0
100
AcDbBlockEnd
  0
BLOCK
  5
219
100
AcDbEntity
  8
0
100
AcDbBlockBegin
  2
_FILLED
 70
64
 10
0.0
 20
0.0
  3
_FILLED
  1

  0
SOLID
  5
21A
100
AcDbEntity
  8
0
  6
BYBLOCK
 62
0
100
AcDbTrace
 10
0.0
 20
0.0
 11
-1.0
 21
0.25
 12
-1.0
 22
-0.25
 13
-1.0
 23
-0.25
  0
ENDBLK
  5
21B
100
AcDbEntity
  8
0
  6
BYBLOCK
 62
0
100
AcDbBlockEnd
  0
ENDSEC
  0
SECTION
  2
ENTITIES
  0
LINE
  5
21C
100
AcDbEntity
  8
00_COMPONENTS_45
100
AcDbLine
 62
7
  6
CONTINUOUS
 10
370.2655775748
 20
1300.6084343396
 11
370.5992052661
 21
1300.7752952041
  0
LINE
  5
21D
100
AcDbEntity
  8
00_COMPONENTS_45
100
AcDbLine
 62
7
  6
CONTINUOUS
 10
662.2992052661
 20
118.7683284457
 11
391.6992052661
 21
118.7683284457
  0
LINE
  5
21E
100
AcDbEntity
  8
00_COMPONENTS_45
100
AcDbLine
 62
7
  6
CONTINUOUS
 10
662.2992052661
 20
120.2683284457
 11
391.6992076343
 21
120.2683268438
  0
LINE
  5
21F
100
AcDbEntity
  8
00_COMPONENTS_45
100
AcDbLine
 62
7
  6
CONTINUOUS
 10
370.2655404806
 20
136.9281478619
 11
370.5992052661
 21
136.7613616873
  0
LINE
  5
220
100
AcDbEntity
  8
00_COMPONENTS_45
100
AcDbLine
 62
7
  6
CONTINUOUS
 10
370.5989365242
 20
135.288868674
 11
386.1175872753
 21
138.3053888044
  0
LINE
  5
221
100
AcDbEntity
  8
00_COMPONENTS_45
100
AcDbLine
 62
7
  6
CONTINUOUS
 10
386.1175872753
 20
139.7778295796
 11
370.5992052661
 21
136.7613616873
  0
LINE
  5
222
100
AcDbEntity
  8
00_COMPONENTS_45
100
AcDbLine
 62
7
  6
CONTINUOUS
 10
386.1175872753
 20
1297.7588273118
 11
386.4991906113
 21
1298.132997567
  0
LINE
  5
223
100
AcDbEntity
  8
00_COMPONENTS_45
100
AcDbLine
 62
7
  6
CONTINUOUS
 10
386.499190705
 20
139.4036594207
 11
386.1175872753
 21
139.7778295796
  0
LINE
  5
224
100
AcDbEntity
  8
00_COMPONENTS_45
100
AcDbLine
 62
7
  6
CONTINUOUS
 10
370.5992052661
 20
1302.2477359794
 11
370.312991773
 21
1300.7752952041
  0
LINE
  5
225
100
AcDbEntity
  8
00_COMPONENTS_45
100
AcDbLine
 62
7
  6
CONTINUOUS
 10
370.5989231924
 20
135.2888661078
 11
370.3129295023
 21
136.7613495875
  0
LINE
  5
226
100
AcDbEntity
  8
00_COMPONENTS_45
100
AcDbLine
 62
7
  6
CONTINUOUS
 10
368.5152895287
 20
1299.240438554
 11
368.5371477811
 21
1299.3781942851
  0
LINE
  5
227
100
AcDbEntity
  8
00_COMPONENTS_45
100
AcDbLine
 62
7
  6
CONTINUOUS
 10
385.8313737823
 20
1297.7588273119
 11
386.1175872753
 21
1299.2312680871
  0
LINE
  5
228
100
AcDbEntity
  8
00_COMPONENTS_45
100
AcDbLine
 62
7
  6
CONTINUOUS
 10
386.1175872754
 20
138.3053888045
 11
385.8313737823
 21
139.7778295796
  0
LINE
  5
229
100
AcDbEntity
  8
00_COMPONENTS_45
100
AcDbLine
 62
7
  6
CONTINUOUS
 10
368.5152895319
 20
138.2961404015
 11
368.5371477811
 21
138.1584626063
  0
LINE
  5
22A
100
AcDbEntity
  8
00_COMPONENTS_45
100
AcDbLine
 62
7
  6
CONTINUOUS
 10
368.5152895242
 20
1299.2401873457
 11
368.5152895242
 21
138.2964695458
  0
LINE
  5
22B
100
AcDbEntity
  8
00_COMPONENTS_45
100
AcDbLine
 62
7
  6
CONTINUOUS
 10
370.5992052661
 20
1300.7752952041
 11
370.5992052661
 21
136.7613616873
  0
LINE
  5
22C
100
AcDbEntity
  8
00_COMPONENTS_45
100
AcDbLine
 62
7
  6
CONTINUOUS
 10
386.1175872753
 20
139.7778295796
 11
386.1175872753
 21
1297.7588273118
  0
LINE
  5
22D
100
AcDbEntity
  8
00_COMPONENTS_45
100
AcDbLine
 62
7
  6
CONTINUOUS
 10
388.4992052661
 20
121.9683284458
 11
388.4992052661
 21
1315.5683284457
  0
LINE
  5
22E
100
AcDbEntity
  8
00_COMPONENTS_45
100
AcDbLine
 62
7
  6
CONTINUOUS
 10
391.6992052661
 20
1318.7683284457
 11
391.6992052661
 21
118.7683284457
  0
LINE
  5
22F
100
AcDbEntity
  8
00_COMPONENTS_45
100
AcDbLine
 62
7
  6
CONTINUOUS
 10
662.2992052661
 20
118.7683284457
 11
662.2992052661
 21
1318.7683284457
  0
LINE
  5
230
100
AcDbEntity
  8
00_COMPONENTS_45
100
AcDbLine
 62
7
  6
CONTINUOUS
 10
665.4992052661
 20
1315.5683284457
 11
665.4992052661
 21
121.9683284457
  0
LINE
  5
231
100
AcDbEntity
  8
00_COMPONENTS_45
100
AcDbLine
 62
7
  6
CONTINUOUS
 10
662.2992052661
 20
1317.2683284457
 11
391.6992052661
 21
1317.2683284457
  0
LINE
  5
232
100
AcDbEntity
  8
00_COMPONENTS_45
100
AcDbLine
 62
7
  6
CONTINUOUS
 10
662.2992052661
 20
1318.7683284457
 11
391.6992052661
 21
1318.7683284457
  0
LINE
  5
233
100
AcDbEntity
  8
00_COMPONENTS_45
100
AcDbLine
 62
7
  6
CONTINUOUS
 10
370.5992052661
 20
1300.7752952041
 11
386.1175872753
 21
1297.7588273118
  0
LINE
  5
234
100
AcDbEntity
  8
00_COMPONENTS_45
100
AcDbLine
 62
7
  6
CONTINUOUS
 10
386.1175872753
 20
1299.2312680871
 11
370.5992052661
 21
1302.2477359793
  0
ARC
  5
235
100
AcDbEntity
  8
00_COMPONENTS_45
100
AcDbCircle
 62
7
  6
CONTINUOUS
 10
405.446501367
 20
1229.7567981547
 40
79.1052550085
100
AcDbArc
 50
116.4063999571
 51
116.5806922546
  0
ARC
  5
236
100
AcDbEntity
  8
00_COMPONENTS_45
100
AcDbCircle
 62
7
  6
CONTINUOUS
 10
391.6992052661
 20
121.9683284457
 40
3.2
100
AcDbArc
 50
180.0
 51
270.0
  0
ARC
  5
237
100
AcDbEntity
  8
00_COMPONENTS_45
100
AcDbCircle
 62
7
  6
CONTINUOUS
 10
662.2992052661
 20
121.9683284457
 40
3.2
100
AcDbArc
 50
270.0000000001
 51
360.0
  0
ARC
  5
238
100
AcDbEntity
  8
00_COMPONENTS_45
100
AcDbCircle
 62
7
  6
CONTINUOUS
 10
662.2992052661
 20
1315.5683284457
 40
3.2
100
AcDbArc
 50
0.0
 51
89.9999999999
  0
ARC
  5
239
100
AcDbEntity
  8
00_COMPONENTS_45
100
AcDbCircle
 62
7
  6
CONTINUOUS
 10
391.6992052661
 20
1315.5683284457
 40
3.2
100
AcDbArc
 50
90.0
 51
180.0
  0
ARC
  5
23A
100
AcDbEntity
  8
00_COMPONENTS_45
100
AcDbCircle
 62
7
  6
CONTINUOUS
 10
386.4992052661
 20
1301.1945224539
 40
2.0
100
AcDbArc
 50
258.9999999987
 51
360.0
  0
ARC
  5
23B
100
AcDbEntity
  8
00_COMPONENTS_45
100
AcDbCircle
 62
7
  6
CONTINUOUS
 10
386.4992052661
 20
136.3421344375
 40
2.0
100
AcDbArc
 50
33.674470755
 51
101.0
  0
ARC
  5
23C
100
AcDbEntity
  8
00_COMPONENTS_45
100
AcDbCircle
 62
7
  6
CONTINUOUS
 10
370.2652895242
 20
137.0067684832
 40
1.75
100
AcDbArc
 50
148.6521472652
 51
280.9955182929
  0
ARC
  5
23D
100
AcDbEntity
  8
00_COMPONENTS_45
100
AcDbCircle
 62
7
  6
CONTINUOUS
 10
370.2652895242
 20
1300.5298884082
 40
1.75
100
AcDbArc
 50
79.0000000007
 51
211.3385685943
  0
SPLINE
  5
23E
100
AcDbEntity
  8
00_COMPONENTS_45
100
AcDbSpline
 62
7
  6
CONTINUOUS
 70
0
 71
3
 72
8
 73
4
 74
0
 42
0.0000001
 43
0.0000001
 44
0.0000000001
 40
0.0
 40
0.0
 40
0.0
 40
0.0
 40
1.0
 40
1.0
 40
1.0
 40
1.0
 10
386.4991971696
 20
1298.1329889145
 30
0.0
 10
386.7593177001
 20
1298.3864858665
 30
0.0
 10
387.0198286852
 20
1298.6398699673
 30
0.0
 10
387.2695371179
 20
1298.9036295049
 30
0.0
  0
SPLINE
  5
23F
100
AcDbEntity
  8
00_COMPONENTS_45
100
AcDbSpline
 62
7
  6
CONTINUOUS
 70
0
 71
3
 72
8
 73
4
 74
0
 42
0.0000001
 43
0.0000001
 44
0.0000000001
 40
0.0
 40
0.0
 40
0.0
 40
0.0
 40
1.0
 40
1.0
 40
1.0
 40
1.0
 10
387.2695371179
 20
1298.9036295049
 30
0.0
 10
387.6025227518
 20
1299.2553522555
 30
0.0
 10
387.9246159992
 20
1299.6277523862
 30
0.0
 10
388.1636077885
 20
1300.0490257539
 30
0.0
  0
SPLINE
  5
240
100
AcDbEntity
  8
00_COMPONENTS_45
100
AcDbSpline
 62
7
  6
CONTINUOUS
 70
0
 71
3
 72
9
 73
5
 74
0
 42
0.0000001
 43
0.0000001
 44
0.0000000001
 40
0.0
 40
0.0
 40
0.0
 40
0.0
 40
0.3684288608
 40
1.0
 40
1.0
 40
1.0
 40
1.0
 10
665.4992052661
 20
121.9683284457
 30
0.0
 10
665.4992052661
 20
121.7867930424
 30
0.0
 10
665.1187310447
 20
121.3628378722
 30
0.0
 10
664.6844143877
 20
121.1709136964
 30
0.0
 10
664.400444477
 20
121.0436256804
 30
0.0
  0
SPLINE
  5
241
100
AcDbEntity
  8
00_COMPONENTS_45
100
AcDbSpline
 62
7
  6
CONTINUOUS
 70
0
 71
3
 72
8
 73
4
 74
0
 42
0.0000001
 43
0.0000001
 44
0.0000000001
 40
0.0
 40
0.0
 40
0.0
 40
0.0
 40
1.0
 40
1.0
 40
1.0
 40
1.0
 10
664.400444477
 20
121.0436256804
 30
0.0
 10
664.0659163596
 20
120.8936752148
 30
0.0
 10
663.7223228632
 20
120.7641465337
 30
0.0
 10
663.3773062762
 20
120.6402201115
 30
0.0
  0
SPLINE
  5
242
100
AcDbEntity
  8
00_COMPONENTS_45
100
AcDbSpline
 62
7
  6
CONTINUOUS
 70
0
 71
3
 72
8
 73
4
 74
0
 42
0.0000001
 43
0.0000001
 44
0.0000000001
 40
0.0
 40
0.0
 40
0.0
 40
0.0
 40
1.0
 40
1.0
 40
1.0
 40
1.0
 10
663.3773062762
 20
120.6402201115
 30
0.0
 10
663.0195385226
 20
120.5117136009
 30
0.0
 10
662.6593146354
 20
120.3901189664
 30
0.0
 10
662.2992052661
 20
120.2683284457
 30
0.0
  0
SPLINE
  5
243
100
AcDbEntity
  8
00_COMPONENTS_45
100
AcDbSpline
 62
7
  6
CONTINUOUS
 70
0
 71
3
 72
8
 73
4
 74
0
 42
0.0000001
 43
0.0000001
 44
0.0000000001
 40
0.0
 40
0.0
 40
0.0
 40
0.0
 40
1.0
 40
1.0
 40
1.0
 40
1.0
 10
662.2992052661
 20
1317.2683284458
 30
0.0
 10
662.6593021014
 20
1317.1465421642
 30
0.0
 10
663.0195153117
 20
1317.0249570097
 30
0.0
 10
663.3772693275
 20
1316.8964513936
 30
0.0
  0
SPLINE
  5
244
100
AcDbEntity
  8
00_COMPONENTS_45
100
AcDbSpline
 62
7
  6
CONTINUOUS
 70
0
 71
3
 72
9
 73
5
 74
0
 42
0.0000001
 43
0.0000001
 44
0.0000000001
 40
0.0
 40
0.0
 40
0.0
 40
0.0
 40
0.2779830347
 40
1.0
 40
1.0
 40
1.0
 40
1.0
 10
663.3772693275
 20
1316.8964513936
 30
0.0
 10
663.5075719066
 20
1316.8496465711
 30
0.0
 10
663.9746245676
 20
1316.677345859
 30
0.0
 10
664.4377204976
 20
1316.4890440029
 30
0.0
 10
664.7557138564
 20
1316.3211127789
 30
0.0
  0
SPLINE
  5
245
100
AcDbEntity
  8
00_COMPONENTS_45
100
AcDbSpline
 62
7
  6
CONTINUOUS
 70
0
 71
3
 72
9
 73
5
 74
0
 42
0.0000001
 43
0.0000001
 44
0.0000000001
 40
0.0
 40
0.0
 40
0.0
 40
0.0
 40
0.343056487
 40
1.0
 40
1.0
 40
1.0
 40
1.0
 10
664.7557138564
 20
1316.3211127789
 30
0.0
 10
664.8645581641
 20
1316.2636324658
 30
0.0
 10
665.1622458428
 20
1316.093627588
 30
0.0
 10
665.4992052662
 20
1315.80404172
 30
0.0
 10
665.4992052662
 20
1315.5683284457
 30
0.0
  0
SPLINE
  5
246
100
AcDbEntity
  8
00_COMPONENTS_45
100
AcDbSpline
 62
7
  6
CONTINUOUS
 70
0
 71
3
 72
9
 73
5
 74
0
 42
0.0000001
 43
0.0000001
 44
0.0000000001
 40
0.0
 40
0.0
 40
0.0
 40
0.0
 40
0.2129465233
 40
1.0
 40
1.0
 40
1.0
 40
1.0
 10
388.4992052661
 20
136.3421344375
 30
0.0
 10
388.4992052661
 20
136.5704793946
 30
0.0
 10
388.282316012
 20
137.6470752376
 30
0.0
 10
387.46415983
 20
138.4512656991
 30
0.0
 10
386.8647552716
 20
139.0453981039
 30
0.0
  0
SPLINE
  5
247
100
AcDbEntity
  8
00_COMPONENTS_45
100
AcDbSpline
 62
7
  6
CONTINUOUS
 70
0
 71
3
 72
8
 73
4
 74
0
 42
0.0000001
 43
0.0000001
 44
0.0000000001
 40
0.0
 40
0.0
 40
0.0
 40
0.0
 40
1.0
 40
1.0
 40
1.0
 40
1.0
 10
386.8647552716
 20
139.0453981039
 30
0.0
 10
386.7435794257
 20
139.1655081294
 30
0.0
 10
386.6213869822
 20
139.284589636
 30
0.0
 10
386.4991971964
 20
139.403668014
 30
0.0
  0
SPLINE
  5
248
100
AcDbEntity
  8
00_COMPONENTS_45
100
AcDbSpline
 62
7
  6
CONTINUOUS
 70
0
 71
3
 72
8
 73
4
 74
0
 42
0.0000001
 43
0.0000001
 44
0.0000000001
 40
0.0
 40
0.0
 40
0.0
 40
0.0
 40
1.0
 40
1.0
 40
1.0
 40
1.0
 10
368.5371477811
 20
138.1584626063
 30
0.0
 10
368.5744699588
 20
138.0403103969
 30
0.0
 10
368.6552980236
 20
137.9366910601
 30
0.0
 10
368.7423442925
 20
137.8485103558
 30
0.0
  0
SPLINE
  5
249
100
AcDbEntity
  8
00_COMPONENTS_45
100
AcDbSpline
 62
7
  6
CONTINUOUS
 70
0
 71
3
 72
8
 73
4
 74
0
 42
0.0000001
 43
0.0000001
 44
0.0000000001
 40
0.0
 40
0.0
 40
0.0
 40
0.0
 40
1.0
 40
1.0
 40
1.0
 40
1.0
 10
368.7423442925
 20
137.8485103558
 30
0.0
 10
368.8875618323
 20
137.7014002601
 30
0.0
 10
369.0613969124
 20
137.5834327873
 30
0.0
 10
369.2374289588
 20
137.4750712039
 30
0.0
  0
SPLINE
  5
24A
100
AcDbEntity
  8
00_COMPONENTS_45
100
AcDbSpline
 62
7
  6
CONTINUOUS
 70
0
 71
3
 72
8
 73
4
 74
0
 42
0.0000001
 43
0.0000001
 44
0.0000000001
 40
0.0
 40
0.0
 40
0.0
 40
0.0
 40
1.0
 40
1.0
 40
1.0
 40
1.0
 10
369.2374289588
 20
137.4750712039
 30
0.0
 10
369.37953528
 20
137.3875935753
 30
0.0
 10
369.5256951984
 20
137.3066824315
 30
0.0
 10
369.6732057882
 20
137.2286621268
 30
0.0
  0
SPLINE
  5
24B
100
AcDbEntity
  8
00_COMPONENTS_45
100
AcDbSpline
 62
7
  6
CONTINUOUS
 70
0
 71
3
 72
8
 73
4
 74
0
 42
0.0000001
 43
0.0000001
 44
0.0000000001
 40
0.0
 40
0.0
 40
0.0
 40
0.0
 40
1.0
 40
1.0
 40
1.0
 40
1.0
 10
369.6732057882
 20
137.2286621268
 30
0.0
 10
369.8169856028
 20
137.1526150785
 30
0.0
 10
369.9622511437
 20
137.0793881082
 30
0.0
 10
370.1077911354
 20
137.0067664901
 30
0.0
  0
LINE
  5
24C
100
AcDbEntity
  8
00_COMPONENTS_45
100
AcDbLine
 62
7
  6
CONTINUOUS
 10
370.1077911354
 20
137.0067664901
 11
370.2655891069
 21
136.9282431409
  0
SPLINE
  5
24D
100
AcDbEntity
  8
00_COMPONENTS_45
100
AcDbSpline
 62
7
  6
CONTINUOUS
 70
0
 71
3
 72
8
 73
4
 74
0
 42
0.0000001
 43
0.0000001
 44
0.0000000001
 40
0.0
 40
0.0
 40
0.0
 40
0.0
 40
1.0
 40
1.0
 40
1.0
 40
1.0
 10
368.5371477811
 20
1299.3781942851
 30
0.0
 10
368.5742354323
 20
1299.4956040454
 30
0.0
 10
368.6542968595
 20
1299.5986864758
 30
0.0
 10
368.7406209115
 20
1299.6864856999
 30
0.0
  0
SPLINE
  5
24E
100
AcDbEntity
  8
00_COMPONENTS_45
100
AcDbSpline
 62
7
  6
CONTINUOUS
 70
0
 71
3
 72
8
 73
4
 74
0
 42
0.0000001
 43
0.0000001
 44
0.0000000001
 40
0.0
 40
0.0
 40
0.0
 40
0.0
 40
1.0
 40
1.0
 40
1.0
 40
1.0
 10
368.7406209115
 20
1299.6864856999
 30
0.0
 10
368.88494301
 20
1299.8332740861
 30
0.0
 10
369.0579377553
 20
1299.950989839
 30
0.0
 10
369.2331750728
 20
1300.0590064164
 30
0.0
  0
SPLINE
  5
24F
100
AcDbEntity
  8
00_COMPONENTS_45
100
AcDbSpline
 62
7
  6
CONTINUOUS
 70
0
 71
3
 72
8
 73
4
 74
0
 42
0.0000001
 43
0.0000001
 44
0.0000000001
 40
0.0
 40
0.0
 40
0.0
 40
0.0
 40
1.0
 40
1.0
 40
1.0
 40
1.0
 10
369.2331750728
 20
1300.0590064164
 30
0.0
 10
369.3776973792
 20
1300.1480902093
 30
0.0
 10
369.5264511274
 20
1300.2303228378
 30
0.0
 10
369.6765569565
 20
1300.309637775
 30
0.0
  0
SPLINE
  5
250
100
AcDbEntity
  8
00_COMPONENTS_45
100
AcDbSpline
 62
7
  6
CONTINUOUS
 70
0
 71
3
 72
8
 73
4
 74
0
 42
0.0000001
 43
0.0000001
 44
0.0000000001
 40
0.0
 40
0.0
 40
0.0
 40
0.0
 40
1.0
 40
1.0
 40
1.0
 40
1.0
 10
369.6765569565
 20
1300.309637775
 30
0.0
 10
369.8002941757
 20
1300.3750197114
 30
0.0
 10
369.9251176354
 20
1300.4383429821
 30
0.0
 10
370.0502421856
 20
1300.5010290568
 30
0.0
  0
SPLINE
  5
251
100
AcDbEntity
  8
00_COMPONENTS_45
100
AcDbSpline
 62
7
  6
CONTINUOUS
 70
0
 71
3
 72
9
 73
5
 74
0
 42
0.0000001
 43
0.0000001
 44
0.0000000001
 40
0.0
 40
0.0
 40
0.0
 40
0.0
 40
0.3684288926
 40
1.0
 40
1.0
 40
1.0
 40
1.0
 10
388.4992052661
 20
1315.5683284457
 30
0.0
 10
388.4992052661
 20
1315.7498639367
 30
0.0
 10
388.8796796846
 20
1316.1738191443
 30
0.0
 10
389.3139963707
 20
1316.3657439526
 30
0.0
 10
389.5979668871
 20
1316.4930308802
 30
0.0
  0
SPLINE
  5
252
100
AcDbEntity
  8
00_COMPONENTS_45
100
AcDbSpline
 62
7
  6
CONTINUOUS
 70
0
 71
3
 72
8
 73
4
 74
0
 42
0.0000001
 43
0.0000001
 44
0.0000000001
 40
0.0
 40
0.0
 40
0.0
 40
0.0
 40
1.0
 40
1.0
 40
1.0
 40
1.0
 10
389.5979668871
 20
1316.4930308802
 30
0.0
 10
389.9324947306
 20
1316.6429796211
 30
0.0
 10
390.2760873295
 20
1316.7725074287
 30
0.0
 10
390.6211015694
 20
1316.8964375593
 30
0.0
  0
SPLINE
  5
253
100
AcDbEntity
  8
00_COMPONENTS_45
100
AcDbSpline
 62
7
  6
CONTINUOUS
 70
0
 71
3
 72
8
 73
4
 74
0
 42
0.0000001
 43
0.0000001
 44
0.0000000001
 40
0.0
 40
0.0
 40
0.0
 40
0.0
 40
1.0
 40
1.0
 40
1.0
 40
1.0
 10
390.6211015694
 20
1316.8964375593
 30
0.0
 10
390.9788685384
 20
1317.0249485079
 30
0.0
 10
391.3390913137
 20
1317.146549099
 30
0.0
 10
391.6992052661
 20
1317.2683284457
 30
0.0
  0
SPLINE
  5
254
100
AcDbEntity
  8
00_COMPONENTS_45
100
AcDbSpline
 62
7
  6
CONTINUOUS
 70
0
 71
3
 72
8
 73
4
 74
0
 42
0.0000001
 43
0.0000001
 44
0.0000000001
 40
0.0
 40
0.0
 40
0.0
 40
0.0
 40
1.0
 40
1.0
 40
1.0
 40
1.0
 10
391.6992057523
 20
120.2683282813
 30
0.0
 10
391.3391091481
 20
120.3901144869
 30
0.0
 10
390.9788961675
 20
120.5116995607
 30
0.0
 10
390.6211423747
 20
120.6402050779
 30
0.0
  0
SPLINE
  5
255
100
AcDbEntity
  8
00_COMPONENTS_45
100
AcDbSpline
 62
7
  6
CONTINUOUS
 70
0
 71
3
 72
9
 73
5
 74
0
 42
0.0000001
 43
0.0000001
 44
0.0000000001
 40
0.0
 40
0.0
 40
0.0
 40
0.0
 40
0.2779829711
 40
1.0
 40
1.0
 40
1.0
 40
1.0
 10
390.6211423747
 20
120.6402050779
 30
0.0
 10
390.4908398973
 20
120.6870098571
 30
0.0
 10
390.0237874885
 20
120.8593104398
 30
0.0
 10
389.560691811
 20
121.0476121325
 30
0.0
 10
389.2426985297
 20
121.2155431334
 30
0.0
  0
SPLINE
  5
256
100
AcDbEntity
  8
00_COMPONENTS_45
100
AcDbSpline
 62
7
  6
CONTINUOUS
 70
0
 71
3
 72
9
 73
5
 74
0
 42
0.0000001
 43
0.0000001
 44
0.0000000001
 40
0.0
 40
0.0
 40
0.0
 40
0.0
 40
0.3430565735
 40
1.0
 40
1.0
 40
1.0
 40
1.0
 10
389.2426985297
 20
121.2155431334
 30
0.0
 10
389.1338539639
 20
121.2730235204
 30
0.0
 10
388.8361656816
 20
121.4430285672
 30
0.0
 10
388.4992052695
 20
121.7326147587
 30
0.0
 10
388.4992052661
 20
121.9683284458
 30
0.0
  0
ENDSEC
  0
SECTION
  2
OBJECTS
  0
DICTIONARY
  5
C
100
AcDbDictionary
280
0
281
1
  3
ACAD_GROUP
350
D
  3
ACAD_MLINESTYLE
350
17
  3
ACAD_LAYOUT
350
1A
  3
ACAD_PLOTSETTINGS
350
19
  3
ACAD_PLOTSTYLENAME
350
E
  0
DICTIONARY
  5
D
102
{ACAD_REACTORS
330
C
102
}
100
AcDbDictionary
280
0
281
1
  0
ACDBDICTIONARYWDFLT
  5
E
102
{ACAD_REACTORS
330
C
102
}
100
AcDbDictionary
281
1
  3
Normal
350
F
100
AcDbDictionaryWithDefault
340
F
  0
DICTIONARY
  5
17
102
{ACAD_REACTORS
330
C
102
}
100
AcDbDictionary
280
0
281
1
  3
Standard
350
18
  0
DICTIONARY
  5
19
102
{ACAD_REACTORS
330
C
102
}
100
AcDbDictionary
281
1
  0
DICTIONARY
  5
1A
102
{ACAD_REACTORS
330
C
102
}
100
AcDbDictionary
281
1
  3
Model
350
257
  3
Layout1
350
258
  0
ACDBPLACEHOLDER
  5
F
102
{ACAD_REACTORS
330
E
102
}
  0
MLINESTYLE
  5
18
102
{ACAD_REACTORS
330
17
102
}
100
AcDbMlineStyle
  2
STANDARD
 70
0
  3

 62
256
 51
90.0
 52
90.0
 71
2
 49
0.5
 62
256
  6
BYLAYER
 49
-0.5
 62
256
  6
BYLAYER
  0
LAYOUT
  5
257
102
{ACAD_REACTORS
330
1A
102
}
100
AcDbPlotSettings
  1

  2
none_device
  4

  6

 40
0.0
 41
0.0
 42
0.0
 43
0.0
 44
210.0
 45
297.0
 46
0.0
 47
0.0
 48
0.0
 49
0.0
140
0.0
141
0.0
142
1.0
143
1.0
 70
1024
 72
1
 73
0
 74
0
  7

 75
0
147
1.0
148
0.0
149
0.0
100
AcDbLayout
  1
Model
 70
0
 71
0
 10
0.0
 20
0.0
 11
210.0
 21
297.0
 12
0.0
 22
0.0
 32
0.0
 14
0.0
 24
0.0
 34
0.0
 15
0.0
 25
0.0
 35
0.0
146
0.0
 13
0.0
 23
0.0
 33
0.0
 16
1.0
 26
0.0
 36
0.0
 17
0.0
 27
1.0
 37
0.0
 76
0
330
215
345
0
346
0
  0
LAYOUT
  5
258
102
{ACAD_REACTORS
330
1A
102
}
100
AcDbPlotSettings
  1

  2
none_device
  4

  6

 40
0.0
 41
0.0
 42
0.0
 43
0.0
 44
210.0
 45
297.0
 46
0.0
 47
0.0
 48
0.0
 49
0.0
140
0.0
141
0.0
142
1.0
143
1.0
 70
0
 72
1
 73
0
 74
0
  7

 75
0
147
1.0
148
0.0
149
0.0
100
AcDbLayout
  1
Layout1
 70
0
 71
1
 10
0.0
 20
0.0
 11
210.0
 21
297.0
 12
0.0
 22
0.0
 32
0.0
 14
0.0
 24
0.0
 34
0.0
 15
0.0
 25
0.0
 35
0.0
146
0.0
 13
0.0
 23
0.0
 33
0.0
 16
1.0
 26
0.0
 36
0.0
 17
0.0
 27
1.0
 37
0.0
 76
0
330
216
345
0
346
0
  0
ENDSEC
  0
EOF
