999
DXF file: C:\Users\sesa63760\Dev\_Creo\CAD\MCADUE0002066_3D-CAD\drw0001_4.dxf
999
Pro/ENGINEER 2019471 by Parametric Technology Corporation
  0
SECTION
  2
HEADER
  9
$ACADVER
  1
AC1024
  9
$DWGCODEPAGE
  3
ANSI_1252
  9
$EXTMAX
 10
335.5256226054
 20
474.5290948276
 30
0.0
  9
$EXTMIN
 10
0.0
 20
0.0
 30
0.0
  9
$LIMMIN
 10
0.0
 20
0.0
  9
$LIMMAX
 10
335.5256226054
 20
474.5290948276
  9
$VIEWCTR
 10
167.7628113027
 20
237.2645474138
  9
$VIEWSIZE
 40
474.5290948276
  9
$CLAYER
  8
0
  9
$LTSCALE
 40
30.9322669221
  9
$CELTYPE
  6
BYLAYER
  9
$DIMSCALE
 40
1.0
  9
$DIMASZ
 40
3.9943526501
  9
$DIMEXO
 40
1.0
  9
$DIMDLI
 40
21.3713844189
  9
$DIMEXE
 40
1.0
  9
$DIMCEN
 40
5.0616436782
  9
$DIMLFAC
 40
1.0
  9
$DIMBLK
  1
_FILLED
  9
$DIMALT
 70
0
  9
$DIMALTF
 40
0.0393700787
  9
$DIMTXT
 40
5.5920937101
  9
$DIMTOL
 70
1
  9
$DIMLIM
 70
0
  9
$DIMTFAC
 40
1.0
  9
$DIMTP
 40
0.01
  9
$DIMTM
 40
0.01
  9
$DIMGAP
 40
0.625
  9
$DIMDSEP
 70
46
  9
$AUNITS
 70
0
  9
$PDMODE
 70
3
  9
$PDSIZE
 40
0.3125
  9
$HANDSEED
  5
287
  9
$TILEMODE
 70
1
  9
$MEASUREMENT
 70
1
  9
$INSUNITS
 70
4
  0
ENDSEC
  0
SECTION
  2
CLASSES
  0
CLASS
  1
ACDBDICTIONARYWDFLT
  2
AcDbDictionaryWithDefault
  3
AutoCAD 2000
 90
0
 91
1
280
0
281
0
  0
CLASS
  1
ACDBPLACEHOLDER
  2
AcDbPlaceHolder
  3
AutoCAD 2000
 90
0
 91
1
280
0
281
0
  0
CLASS
  1
LAYOUT
  2
AcDbLayout
  3
AutoCAD 2000
 90
0
 91
0
280
0
281
0
  0
ENDSEC
  0
SECTION
  2
TABLES
  0
TABLE
  2
VPORT
  5
8
100
AcDbSymbolTable
 70
2
  0
VPORT
  5
1F4
100
AcDbSymbolTableRecord
100
AcDbViewportTableRecord
  2
*ACTIVE
 70
0
 10
0.0
 20
0.0
 11
1.0
 21
1.0
 12
167.7628113027
 22
237.2645474138
 13
0.0
 23
0.0
 14
1.0
 24
1.0
 15
0.0
 25
0.0
 16
0.0
 26
0.0
 36
1.0
 17
0.0
 27
0.0
 37
0.0
 40
474.5290948276
 41
0.7070707071
 42
50.0
 43
0.0
 44
0.0
 50
0.0
 51
0.0
 71
0
 72
100
 73
1
 74
1
 75
0
 76
0
 77
0
 78
0
  0
ENDTAB
  0
TABLE
  2
LTYPE
  5
5
100
AcDbSymbolTable
 70
6
  0
LTYPE
  5
14
100
AcDbSymbolTableRecord
100
AcDbLinetypeTableRecord
  2
BYBLOCK
 70
0
  3

 72
65
 73
0
 40
0.0
  0
LTYPE
  5
15
100
AcDbSymbolTableRecord
100
AcDbLinetypeTableRecord
  2
BYLAYER
 70
0
  3

 72
65
 73
0
 40
0.0
  0
LTYPE
  5
16
100
AcDbSymbolTableRecord
100
AcDbLinetypeTableRecord
  2
CONTINUOUS
 70
64
  3
Solid line
 72
65
 73
0
 40
0.0
  0
LTYPE
  5
1F5
100
AcDbSymbolTableRecord
100
AcDbLinetypeTableRecord
  2
CENTER
 70
64
  3
____ _ ____ _ ____ _ ____ _ ____ _ ____ _ ____
 72
65
 73
4
 40
0.6
 49
0.375
 74
0
 49
-0.075
 74
0
 49
0.075
 74
0
 49
-0.075
 74
0
  0
LTYPE
  5
1F6
100
AcDbSymbolTableRecord
100
AcDbLinetypeTableRecord
  2
HIDDEN
 70
64
  3
- - - - - - - - - - - - - - - - - - - -
 72
65
 73
2
 40
0.2
 49
0.1
 74
0
 49
-0.1
 74
0
  0
LTYPE
  5
1F7
100
AcDbSymbolTableRecord
100
AcDbLinetypeTableRecord
  2
PHANTOM
 70
64
  3
_____ _ _ _____ _ _ _____ _ _ _____
 72
65
 73
6
 40
0.8
 49
0.45
 74
0
 49
-0.05
 74
0
 49
0.1
 74
0
 49
-0.05
 74
0
 49
0.1
 74
0
 49
-0.05
 74
0
  0
LTYPE
  5
1F8
100
AcDbSymbolTableRecord
100
AcDbLinetypeTableRecord
  2
DOT
 70
64
  3
. . . . . . . . . . . . . . . . . . . .
 72
65
 73
2
 40
0.2
 49
0.1
 74
0
 49
-0.1
 74
0
  0
LTYPE
  5
1F9
100
AcDbSymbolTableRecord
100
AcDbLinetypeTableRecord
  2
DASHED
 70
64
  3
- - - - - - - - - - - - - - - - - - - -
 72
65
 73
2
 40
0.2
 49
0.1
 74
0
 49
-0.1
 74
0
  0
ENDTAB
  0
TABLE
  2
LAYER
  5
2
100
AcDbSymbolTable
 70
36
  0
LAYER
  5
10
100
AcDbSymbolTableRecord
100
AcDbLayerTableRecord
  2
0
 70
0
 62
7
  6
CONTINUOUS
370
-3
390
F
  0
LAYER
  5
1FA
100
AcDbSymbolTableRecord
100
AcDbLayerTableRecord
  2
DEFAULT_1
 70
0
 62
7
  6
CENTER
370
-3
390
F
  0
LAYER
  5
1FB
100
AcDbSymbolTableRecord
100
AcDbLayerTableRecord
  2
DEFAULT_2
 70
0
 62
8
  6
HIDDEN
370
-3
390
F
  0
LAYER
  5
1FC
100
AcDbSymbolTableRecord
100
AcDbLayerTableRecord
  2
DEFAULT_3
 70
0
 62
7
  6
PHANTOM
370
-3
390
F
  0
LAYER
  5
1FD
100
AcDbSymbolTableRecord
100
AcDbLayerTableRecord
  2
00_COMPONENTS
 70
0
 62
7
  6
CONTINUOUS
370
-3
390
F
  0
LAYER
  5
1FE
100
AcDbSymbolTableRecord
100
AcDbLayerTableRecord
  2
01_1_DEFAULT_DATUMS
 70
0
 62
7
  6
CONTINUOUS
370
-3
390
F
  0
LAYER
  5
1FF
100
AcDbSymbolTableRecord
100
AcDbLayerTableRecord
  2
01_PLANES
 70
0
 62
7
  6
CONTINUOUS
370
-3
390
F
  0
LAYER
  5
200
100
AcDbSymbolTableRecord
100
AcDbLayerTableRecord
  2
02_COORD_SYS
 70
0
 62
7
  6
CONTINUOUS
370
-3
390
F
  0
LAYER
  5
201
100
AcDbSymbolTableRecord
100
AcDbLayerTableRecord
  2
03_AXES
 70
0
 62
7
  6
CONTINUOUS
370
-3
390
F
  0
LAYER
  5
202
100
AcDbSymbolTableRecord
100
AcDbLayerTableRecord
  2
04_POINTS
 70
0
 62
7
  6
CONTINUOUS
370
-3
390
F
  0
LAYER
  5
203
100
AcDbSymbolTableRecord
100
AcDbLayerTableRecord
  2
05_CURVES
 70
0
 62
7
  6
CONTINUOUS
370
-3
390
F
  0
LAYER
  5
204
100
AcDbSymbolTableRecord
100
AcDbLayerTableRecord
  2
06_SURFS
 70
0
 62
7
  6
CONTINUOUS
370
-3
390
F
  0
LAYER
  5
205
100
AcDbSymbolTableRecord
100
AcDbLayerTableRecord
  2
07_COSMETICS
 70
0
 62
7
  6
CONTINUOUS
370
-3
390
F
  0
LAYER
  5
206
100
AcDbSymbolTableRecord
100
AcDbLayerTableRecord
  2
10_NOTES
 70
0
 62
7
  6
CONTINUOUS
370
-3
390
F
  0
LAYER
  5
207
100
AcDbSymbolTableRecord
100
AcDbLayerTableRecord
  2
11_NOTES_PUB
 70
0
 62
7
  6
CONTINUOUS
370
-3
390
F
  0
LAYER
  5
208
100
AcDbSymbolTableRecord
100
AcDbLayerTableRecord
  2
13_REF_GTOL
 70
0
 62
7
  6
CONTINUOUS
370
-3
390
F
  0
LAYER
  5
209
100
AcDbSymbolTableRecord
100
AcDbLayerTableRecord
  2
16_MISC
 70
0
 62
7
  6
CONTINUOUS
370
-3
390
F
  0
LAYER
  5
20A
100
AcDbSymbolTableRecord
100
AcDbLayerTableRecord
  2
17_NO_PRINT
 70
0
 62
7
  6
CONTINUOUS
370
-3
390
F
  0
LAYER
  5
20B
100
AcDbSymbolTableRecord
100
AcDbLayerTableRecord
  2
18_DATUM_CAMS_JOINTS
 70
0
 62
7
  6
CONTINUOUS
370
-3
390
F
  0
LAYER
  5
20C
100
AcDbSymbolTableRecord
100
AcDbLayerTableRecord
  2
19_DATUM_FUNCTIONAL
 70
0
 62
7
  6
CONTINUOUS
370
-3
390
F
  0
LAYER
  5
20D
100
AcDbSymbolTableRecord
100
AcDbLayerTableRecord
  2
20_DATUM_KINEMATIC_SCHEME
 70
0
 62
7
  6
CONTINUOUS
370
-3
390
F
  0
ENDTAB
  0
TABLE
  2
STYLE
  5
3
100
AcDbSymbolTable
 70
1
  0
STYLE
  5
11
100
AcDbSymbolTableRecord
100
AcDbTextStyleTableRecord
  2
STANDARD
 70
0
 40
0.0
 41
0.8
 50
0.0
 71
0
 42
0.2
  3
txt
  4

  0
STYLE
  5
20E
100
AcDbSymbolTableRecord
100
AcDbTextStyleTableRecord
  2
TEXTSTYLE_1
 70
0
 40
0.0
 41
0.8
 50
0.0
 71
0
 42
0.2
  3
gdt
  4

  0
ENDTAB
  0
TABLE
  2
VIEW
  5
6
100
AcDbSymbolTable
 70
0
  0
ENDTAB
  0
TABLE
  2
UCS
  5
7
100
AcDbSymbolTable
 70
0
  0
ENDTAB
  0
TABLE
  2
APPID
  5
9
100
AcDbSymbolTable
 70
1
  0
APPID
  5
20F
100
AcDbSymbolTableRecord
100
AcDbRegAppTableRecord
  2
ACAD
 70
0
  0
ENDTAB
  0
TABLE
  2
BLOCK_RECORD
  5
1
100
AcDbSymbolTable
 70
0
  0
BLOCK_RECORD
  5
210
100
AcDbSymbolTableRecord
100
AcDbBlockTableRecord
  2
*Model_Space
  0
BLOCK_RECORD
  5
211
100
AcDbSymbolTableRecord
100
AcDbBlockTableRecord
  2
*Paper_Space
  0
BLOCK_RECORD
  5
212
100
AcDbSymbolTableRecord
100
AcDbBlockTableRecord
  2
_FILLED
  0
ENDTAB
  0
TABLE
  2
DIMSTYLE
  5
A
100
AcDbSymbolTable
 70
1
100
AcDbDimStyleTable
 71
0
  0
DIMSTYLE
105
213
100
AcDbSymbolTableRecord
100
AcDbDimStyleTableRecord
  2
STANDARD
 70
0
  3

  4

 40
1.0
 41
3.9943526501
 42
1.0
 43
0.38
 44
1.0
 45
0.0
 46
0.0
 47
0.01
 48
0.01
140
5.5920937101
141
0.09
142
0.0
143
25.4
144
1.0
145
0.0
146
1.0
147
0.625
 71
1
 72
0
 73
0
 74
0
 75
0
 76
0
 77
1
 78
8
 79
2
170
0
171
1
172
0
173
0
174
0
175
0
176
0
177
0
178
0
270
2
179
2
271
2
272
2
273
2
274
2
275
0
280
0
281
0
282
0
283
1
284
8
285
0
286
0
287
3
288
0
340
11
278
46
341
212
342
212
343
212
344
212
  0
ENDTAB
  0
ENDSEC
  0
SECTION
  2
BLOCKS
  0
BLOCK
  5
20
100
AcDbEntity
  8
0
100
AcDbBlockBegin
  2
*Model_Space
 70
0
 10
0.0
 20
0.0
 30
0.0
  3
*Model_Space
  1

  0
ENDBLK
  5
21
100
AcDbEntity
  8
0
100
AcDbBlockEnd
  0
BLOCK
  5
1C
100
AcDbEntity
  8
0
100
AcDbBlockBegin
  2
*Paper_Space
 70
0
 10
0.0
 20
0.0
 30
0.0
  3
*Paper_Space
  1

  0
ENDBLK
  5
1D
100
AcDbEntity
  8
0
100
AcDbBlockEnd
  0
BLOCK
  5
214
100
AcDbEntity
  8
0
100
AcDbBlockBegin
  2
_FILLED
 70
64
 10
0.0
 20
0.0
  3
_FILLED
  1

  0
SOLID
  5
215
100
AcDbEntity
  8
0
  6
BYBLOCK
 62
0
100
AcDbTrace
 10
0.0
 20
0.0
 11
-1.0
 21
0.25
 12
-1.0
 22
-0.25
 13
-1.0
 23
-0.25
  0
ENDBLK
  5
216
100
AcDbEntity
  8
0
  6
BYBLOCK
 62
0
100
AcDbBlockEnd
  0
ENDSEC
  0
SECTION
  2
ENTITIES
  0
LINE
  5
217
100
AcDbEntity
  8
0
100
AcDbLine
 62
7
  6
CONTINUOUS
 10
37.3689535441
 20
214.3125695496
 11
37.8840302759
 21
243.8212957528
  0
LINE
  5
218
100
AcDbEntity
  8
0
100
AcDbLine
 62
7
  6
CONTINUOUS
 10
48.3689535441
 20
214.3125695496
 11
48.3776802457
 21
212.3125695496
  0
LINE
  5
219
100
AcDbEntity
  8
0
100
AcDbLine
 62
7
  6
CONTINUOUS
 10
49.5405152667
 20
214.3125695496
 11
49.5492419685
 21
212.3125695496
  0
LINE
  5
21A
100
AcDbEntity
  8
0
100
AcDbLine
 62
7
  6
CONTINUOUS
 10
47.6189535441
 20
214.3125695496
 11
47.6189535441
 21
215.5688683904
  0
LINE
  5
21B
100
AcDbEntity
  8
0
100
AcDbLine
 62
7
  6
CONTINUOUS
 10
47.8926054919
 20
244.3125695496
 11
48.0686793056
 21
254.3998315818
  0
LINE
  5
21C
100
AcDbEntity
  8
0
100
AcDbLine
 62
7
  6
CONTINUOUS
 10
49.5329223568
 20
254.3998315818
 11
49.3568504214
 21
244.3125695496
  0
LINE
  5
21D
100
AcDbEntity
  8
0
100
AcDbLine
 62
7
  6
CONTINUOUS
 10
57.5349807616
 20
233.4425390588
 11
57.7122238256
 21
223.2916091091
  0
LINE
  5
21E
100
AcDbEntity
  8
0
100
AcDbLine
 62
7
  6
CONTINUOUS
 10
58.8954662749
 20
224.983686232
 11
58.5877233602
 21
243.8212957528
  0
LINE
  5
21F
100
AcDbEntity
  8
0
100
AcDbLine
 62
7
  6
CONTINUOUS
 10
61.2537233559
 20
214.3125695496
 11
61.2573557256
 21
212.3125695496
  0
LINE
  5
220
100
AcDbEntity
  8
0
100
AcDbLine
 62
7
  6
CONTINUOUS
 10
60.6235331175
 20
224.919163826
 11
60.83668202
 21
254.3998315818
  0
LINE
  5
221
100
AcDbEntity
  8
0
100
AcDbLine
 62
7
  6
CONTINUOUS
 10
60.6918142901
 20
243.8212957528
 11
60.3840723547
 21
224.9837543874
  0
LINE
  5
222
100
AcDbEntity
  8
0
100
AcDbLine
 62
7
  6
CONTINUOUS
 10
64.0821412075
 20
214.3125695496
 11
64.0857559258
 21
212.3125695496
  0
LINE
  5
223
100
AcDbEntity
  8
0
100
AcDbLine
 62
7
  6
CONTINUOUS
 10
64.1539685179
 20
221.4430453585
 11
64.1539685179
 21
224.2884656181
  0
LINE
  5
224
100
AcDbEntity
  8
0
100
AcDbLine
 62
7
  6
CONTINUOUS
 10
64.3716774464
 20
254.3998315818
 11
64.3716774464
 21
259.3125695496
  0
LINE
  5
225
100
AcDbEntity
  8
0
100
AcDbLine
 62
7
  6
CONTINUOUS
 10
64.3716774497
 20
254.3998315818
 11
64.1539685178
 21
224.2884656181
  0
LINE
  5
226
100
AcDbEntity
  8
0
100
AcDbLine
 62
7
  6
CONTINUOUS
 10
283.6143739706
 20
224.919163826
 11
283.8538347344
 21
224.9837543878
  0
LINE
  5
227
100
AcDbEntity
  8
0
100
AcDbLine
 62
7
  6
CONTINUOUS
 10
60.6235331175
 20
224.919163826
 11
60.3840723547
 21
224.9837543874
  0
LINE
  5
228
100
AcDbEntity
  8
0
100
AcDbLine
 62
7
  6
CONTINUOUS
 10
48.3776802457
 20
212.3125695496
 11
295.8602268425
 21
212.3125695496
  0
LINE
  5
229
100
AcDbEntity
  8
0
100
AcDbLine
 62
7
  6
CONTINUOUS
 10
306.8689535441
 20
214.3125695496
 11
37.3689535441
 21
214.3125695496
  0
LINE
  5
22A
100
AcDbEntity
  8
0
100
AcDbLine
 62
7
  6
CONTINUOUS
 10
47.6189535441
 20
215.5688683904
 11
296.6189535441
 21
215.5688683904
  0
LINE
  5
22B
100
AcDbEntity
  8
0
100
AcDbLine
 62
7
  6
CONTINUOUS
 10
288.8486010019
 20
220.3112354896
 11
55.3893060863
 21
220.3112354896
  0
LINE
  5
22C
100
AcDbEntity
  8
0
100
AcDbLine
 62
7
  6
CONTINUOUS
 10
64.1539685179
 20
221.4430453585
 11
280.0839385703
 21
221.4430453585
  0
LINE
  5
22D
100
AcDbEntity
  8
0
100
AcDbLine
 62
7
  6
CONTINUOUS
 10
280.0839385703
 20
224.2884656181
 11
64.1539685178
 21
224.2884656181
  0
LINE
  5
22E
100
AcDbEntity
  8
0
100
AcDbLine
 62
7
  6
CONTINUOUS
 10
37.8840302759
 20
243.8212957528
 11
57.3470265491
 21
243.8212957528
  0
LINE
  5
22F
100
AcDbEntity
  8
0
100
AcDbLine
 62
7
  6
CONTINUOUS
 10
286.8862300035
 20
243.8212957528
 11
306.3538768122
 21
243.8212957528
  0
LINE
  5
230
100
AcDbEntity
  8
0
100
AcDbLine
 62
7
  6
CONTINUOUS
 10
285.6502365108
 20
243.8212957735
 11
286.3141208022
 21
243.8212953362
  0
LINE
  5
231
100
AcDbEntity
  8
0
100
AcDbLine
 62
7
  6
CONTINUOUS
 10
58.0609603065
 20
243.8212953771
 11
58.5877233602
 21
243.8212957528
  0
LINE
  5
232
100
AcDbEntity
  8
0
100
AcDbLine
 62
7
  6
CONTINUOUS
 10
38.385229683
 20
244.3125695496
 11
59.7727286144
 21
244.3125695496
  0
LINE
  5
233
100
AcDbEntity
  8
0
100
AcDbLine
 62
7
  6
CONTINUOUS
 10
284.4651860378
 20
244.3125695496
 11
305.8518311749
 21
244.3125695496
  0
LINE
  5
234
100
AcDbEntity
  8
0
100
AcDbLine
 62
7
  6
CONTINUOUS
 10
59.7556876003
 20
221.7982356817
 11
57.0540520437
 21
221.0695400087
  0
LINE
  5
235
100
AcDbEntity
  8
0
100
AcDbLine
 62
7
  6
CONTINUOUS
 10
57.7666038661
 20
224.6792677161
 11
58.8954662749
 21
224.983686232
  0
LINE
  5
236
100
AcDbEntity
  8
0
100
AcDbLine
 62
7
  6
CONTINUOUS
 10
294.7049847343
 20
254.3998315818
 11
283.401225071
 21
254.3998315818
  0
LINE
  5
237
100
AcDbEntity
  8
0
100
AcDbLine
 62
7
  6
CONTINUOUS
 10
60.83668202
 20
254.3998315818
 11
49.5329223568
 21
254.3998315818
  0
LINE
  5
238
100
AcDbEntity
  8
0
100
AcDbLine
 62
7
  6
CONTINUOUS
 10
64.3716774497
 20
254.3998315818
 11
279.8662296426
 21
254.3998315818
  0
LINE
  5
239
100
AcDbEntity
  8
0
100
AcDbLine
 62
7
  6
CONTINUOUS
 10
287.1838550444
 20
221.0695400087
 11
284.4822386182
 21
221.7982247226
  0
LINE
  5
23A
100
AcDbEntity
  8
0
100
AcDbLine
 62
7
  6
CONTINUOUS
 10
285.3424426423
 20
224.9837550558
 11
286.4886768806
 21
224.6745806265
  0
LINE
  5
23B
100
AcDbEntity
  8
0
100
AcDbLine
 62
7
  6
CONTINUOUS
 10
53.0679177815
 20
259.3125695496
 11
291.1699893067
 21
259.3125695496
  0
LINE
  5
23C
100
AcDbEntity
  8
0
100
AcDbLine
 62
7
  6
CONTINUOUS
 10
280.0839385703
 20
224.2884656181
 11
279.8662296426
 21
254.3998315818
  0
LINE
  5
23D
100
AcDbEntity
  8
0
100
AcDbLine
 62
7
  6
CONTINUOUS
 10
279.8662296418
 20
259.3125695496
 11
279.8662296418
 21
254.3998315818
  0
LINE
  5
23E
100
AcDbEntity
  8
0
100
AcDbLine
 62
7
  6
CONTINUOUS
 10
280.0839385677
 20
224.2884656181
 11
280.0839385677
 21
221.4430453585
  0
LINE
  5
23F
100
AcDbEntity
  8
0
100
AcDbLine
 62
7
  6
CONTINUOUS
 10
280.1557658814
 20
214.3125695496
 11
280.1521511624
 21
212.3125695496
  0
LINE
  5
240
100
AcDbEntity
  8
0
100
AcDbLine
 62
7
  6
CONTINUOUS
 10
283.8538347344
 20
224.9837543878
 11
283.5460927999
 21
243.8212957528
  0
LINE
  5
241
100
AcDbEntity
  8
0
100
AcDbLine
 62
7
  6
CONTINUOUS
 10
283.401225071
 20
254.3998315818
 11
283.6143739706
 21
224.919163826
  0
LINE
  5
242
100
AcDbEntity
  8
0
100
AcDbLine
 62
7
  6
CONTINUOUS
 10
282.9841660806
 20
214.3125695496
 11
282.9805513625
 21
212.3125695496
  0
LINE
  5
243
100
AcDbEntity
  8
0
100
AcDbLine
 62
7
  6
CONTINUOUS
 10
285.6502365108
 20
243.8212957735
 11
285.3424426423
 21
224.9837550558
  0
LINE
  5
244
100
AcDbEntity
  8
0
100
AcDbLine
 62
7
  6
CONTINUOUS
 10
286.8862300035
 20
243.8212957528
 11
286.5256767659
 21
223.2912369174
  0
LINE
  5
245
100
AcDbEntity
  8
0
100
AcDbLine
 62
7
  6
CONTINUOUS
 10
294.8810930941
 20
244.3105903916
 11
294.7049847343
 21
254.3998315818
  0
LINE
  5
246
100
AcDbEntity
  8
0
100
AcDbLine
 62
7
  6
CONTINUOUS
 10
296.1692277825
 20
254.3998315818
 11
296.3454904521
 21
244.3017500037
  0
LINE
  5
247
100
AcDbEntity
  8
0
100
AcDbLine
 62
7
  6
CONTINUOUS
 10
306.8689535441
 20
214.3125695496
 11
306.3538768122
 21
243.8212957528
  0
LINE
  5
248
100
AcDbEntity
  8
0
100
AcDbLine
 62
7
  6
CONTINUOUS
 10
296.6189535441
 20
215.5688683904
 11
296.6189535441
 21
214.3125695496
  0
LINE
  5
249
100
AcDbEntity
  8
0
100
AcDbLine
 62
7
  6
CONTINUOUS
 10
294.6973918219
 20
214.3125695496
 11
294.6886651197
 21
212.3125695496
  0
LINE
  5
24A
100
AcDbEntity
  8
0
100
AcDbLine
 62
7
  6
CONTINUOUS
 10
295.8689535441
 20
214.3125695496
 11
295.8602268424
 21
212.3125695496
  0
ARC
  5
24B
100
AcDbEntity
  8
0
100
AcDbCircle
 62
7
  6
CONTINUOUS
 10
284.5981383922
 20
698.9580341065
 40
455.1379541474
100
AcDbArc
 50
269.8675614418
 51
270.1324385517
  0
ARC
  5
24C
100
AcDbEntity
  8
0
100
AcDbCircle
 62
7
  6
CONTINUOUS
 10
59.6397425532
 20
698.382785991
 40
454.5627076524
100
AcDbArc
 50
269.8673971436
 51
270.1326064032
  0
ARC
  5
24D
100
AcDbEntity
  8
0
100
AcDbCircle
 62
7
  6
CONTINUOUS
 10
59.6397688212
 20
117.4757716105
 40
107.5105130036
100
AcDbArc
 50
89.6033341142
 51
90.3966659122
  0
ARC
  5
24E
100
AcDbEntity
  8
0
100
AcDbCircle
 62
7
  6
CONTINUOUS
 10
284.5981382596
 20
117.810819851
 40
107.175518853
100
AcDbArc
 50
89.6020938197
 51
90.3979061459
  0
ARC
  5
24F
100
AcDbEntity
  8
0
100
AcDbCircle
 62
7
  6
CONTINUOUS
 10
56.5341996685
 20
254.3134019723
 40
7.0018107734
100
AcDbArc
 50
178.7206924458
 51
179.292729013
  0
ARC
  5
250
100
AcDbEntity
  8
0
100
AcDbCircle
 62
7
  6
CONTINUOUS
 10
287.704592353
 20
254.3134126267
 40
7.0009257759
100
AcDbArc
 50
0.7072731962
 51
1.2817333277
  0
ARC
  5
251
100
AcDbEntity
  8
0
100
AcDbCircle
 62
7
  6
CONTINUOUS
 10
291.1699893068
 20
254.3125695496
 40
5.0
100
AcDbArc
 50
1.0000000002
 51
90.0
  0
ARC
  5
252
100
AcDbEntity
  8
0
100
AcDbCircle
 62
7
  6
CONTINUOUS
 10
53.0679177814
 20
254.3125695496
 40
5.0
100
AcDbArc
 50
90.0
 51
178.9999999998
  0
ARC
  5
253
100
AcDbEntity
  8
0
100
AcDbCircle
 62
7
  6
CONTINUOUS
 10
38.3839541235
 20
243.8125695496
 40
0.5
100
AcDbArc
 50
90.0
 51
178.9999999998
  0
ARC
  5
254
100
AcDbEntity
  8
0
100
AcDbCircle
 62
7
  6
CONTINUOUS
 10
305.8539529647
 20
243.8125695496
 40
0.5
100
AcDbArc
 50
1.0000000002
 51
90.0
  0
ARC
  5
255
100
AcDbEntity
  8
0
100
AcDbCircle
 62
7
  6
CONTINUOUS
 10
287.38609595
 20
243.8126283864
 40
0.499941248
100
AcDbArc
 50
90.0063104557
 51
179.0066261623
  0
ARC
  5
256
100
AcDbEntity
  8
0
100
AcDbCircle
 62
7
  6
CONTINUOUS
 10
56.8472937916
 20
243.8127527127
 40
0.499827965
100
AcDbArc
 50
0.979389352
 51
89.98157923
  0
SPLINE
  5
257
100
AcDbEntity
  8
0
100
AcDbSpline
 62
7
  6
CONTINUOUS
 70
0
 71
3
 72
11
 73
7
 74
0
 42
0.0000001
 43
0.0000001
 44
0.0000000001
 40
0.0
 40
0.0
 40
0.0
 40
0.0
 40
0.3279208691
 40
0.6068602558
 40
0.8310640814
 40
1.0
 40
1.0
 40
1.0
 40
1.0
 10
285.2038245595
 20
223.6858517082
 30
0.0
 10
285.1701253048
 20
223.4645688584
 30
0.0
 10
285.0854087909
 20
223.0583461539
 30
0.0
 10
284.9199616622
 20
222.5145394446
 30
0.0
 10
284.7280631124
 20
222.0961330804
 30
0.0
 10
284.5662625248
 20
221.8772793164
 30
0.0
 10
284.4822988936
 20
221.7982396918
 30
0.0
  0
SPLINE
  5
258
100
AcDbEntity
  8
0
100
AcDbSpline
 62
7
  6
CONTINUOUS
 70
0
 71
3
 72
9
 73
5
 74
0
 42
0.0000001
 43
0.0000001
 44
0.0000000001
 40
0.0
 40
0.0
 40
0.0
 40
0.0
 40
0.2581170138
 40
1.0
 40
1.0
 40
1.0
 40
1.0
 10
285.342442681
 20
224.9837566083
 30
0.0
 10
285.3355864684
 20
224.8716354792
 30
0.0
 10
285.3052142676
 20
224.4375361749
 30
0.0
 10
285.2562753547
 20
224.0044245875
 30
0.0
 10
285.2038245595
 20
223.6858517082
 30
0.0
  0
SPLINE
  5
259
100
AcDbEntity
  8
0
100
AcDbSpline
 62
7
  6
CONTINUOUS
 70
0
 71
3
 72
8
 73
4
 74
0
 42
0.0000001
 43
0.0000001
 44
0.0000000001
 40
0.0
 40
0.0
 40
0.0
 40
0.0
 40
1.0
 40
1.0
 40
1.0
 40
1.0
 10
286.5432264477
 20
224.2291536113
 30
0.0
 10
286.536493203
 20
224.378586374
 30
0.0
 10
286.5166720074
 20
224.5276375771
 30
0.0
 10
286.4886771791
 20
224.674578983
 30
0.0
  0
SPLINE
  5
25A
100
AcDbEntity
  8
0
100
AcDbSpline
 62
7
  6
CONTINUOUS
 70
0
 71
3
 72
11
 73
7
 74
0
 42
0.0000001
 43
0.0000001
 44
0.0000000001
 40
0.0
 40
0.0
 40
0.0
 40
0.0
 40
0.1899505783
 40
0.3927863199
 40
0.6527337942
 40
1.0
 40
1.0
 40
1.0
 40
1.0
 10
287.1838550444
 20
221.0695400087
 30
0.0
 10
287.0577831187
 20
221.1569697406
 30
0.0
 10
286.8179185217
 20
221.3765400533
 30
0.0
 10
286.5968454063
 20
221.8682452632
 30
0.0
 10
286.5180139543
 20
222.522504649
 30
0.0
 10
286.5207387835
 20
223.0128922149
 30
0.0
 10
286.5256338976
 20
223.2933331117
 30
0.0
  0
SPLINE
  5
25B
100
AcDbEntity
  8
0
100
AcDbSpline
 62
7
  6
CONTINUOUS
 70
0
 71
3
 72
9
 73
5
 74
0
 42
0.0000001
 43
0.0000001
 44
0.0000000001
 40
0.0
 40
0.0
 40
0.0
 40
0.0
 40
0.4781378946
 40
1.0
 40
1.0
 40
1.0
 40
1.0
 10
284.4822386182
 20
221.7982247226
 30
0.0
 10
283.7891591463
 20
221.6751349018
 30
0.0
 10
282.3249388235
 20
221.4992467635
 30
0.0
 10
280.8522351895
 20
221.4430438781
 30
0.0
 10
280.0839385703
 20
221.4430453585
 30
0.0
  0
SPLINE
  5
25C
100
AcDbEntity
  8
0
100
AcDbSpline
 62
7
  6
CONTINUOUS
 70
0
 71
3
 72
9
 73
5
 74
0
 42
0.0000001
 43
0.0000001
 44
0.0000000001
 40
0.0
 40
0.0
 40
0.0
 40
0.0
 40
0.521878736
 40
1.0
 40
1.0
 40
1.0
 40
1.0
 10
64.1539685179
 20
221.4430453585
 30
0.0
 10
63.3856501145
 20
221.443042762
 30
0.0
 10
61.9129477224
 20
221.4991935045
 30
0.0
 10
60.448740272
 20
221.6751491212
 30
0.0
 10
59.7556876003
 20
221.7982356817
 30
0.0
  0
SPLINE
  5
25D
100
AcDbEntity
  8
0
100
AcDbSpline
 62
7
  6
CONTINUOUS
 70
0
 71
3
 72
9
 73
5
 74
0
 42
0.0000001
 43
0.0000001
 44
0.0000000001
 40
0.0
 40
0.0
 40
0.0
 40
0.0
 40
0.1466341713
 40
1.0
 40
1.0
 40
1.0
 40
1.0
 10
284.4822398631
 20
221.7982249428
 30
0.0
 10
284.4555472884
 20
221.889737889
 30
0.0
 10
284.2718250582
 20
222.5132542374
 30
0.0
 10
284.1027457357
 20
223.1421536038
 30
0.0
 10
283.9924598098
 20
223.6858509844
 30
0.0
  0
SPLINE
  5
25E
100
AcDbEntity
  8
0
100
AcDbSpline
 62
7
  6
CONTINUOUS
 70
0
 71
3
 72
9
 73
5
 74
0
 42
0.0000001
 43
0.0000001
 44
0.0000000001
 40
0.0
 40
0.0
 40
0.0
 40
0.0
 40
0.2570823281
 40
1.0
 40
1.0
 40
1.0
 40
1.0
 10
283.9924534391
 20
223.6858518453
 30
0.0
 10
283.9441847442
 20
223.7855672163
 30
0.0
 10
283.7729031846
 20
224.1812129493
 30
0.0
 10
283.6608734619
 20
224.6024156089
 30
0.0
 10
283.6143739694
 20
224.9191638343
 30
0.0
  0
SPLINE
  5
25F
100
AcDbEntity
  8
0
100
AcDbSpline
 62
7
  6
CONTINUOUS
 70
0
 71
3
 72
9
 73
5
 74
0
 42
0.0000001
 43
0.0000001
 44
0.0000000001
 40
0.0
 40
0.0
 40
0.0
 40
0.0
 40
0.4857309729
 40
1.0
 40
1.0
 40
1.0
 40
1.0
 10
283.9924534848
 20
223.6858515511
 30
0.0
 10
284.1793482583
 20
223.6184288154
 30
0.0
 10
284.5917429036
 20
223.5591709293
 30
0.0
 10
285.0059492293
 20
223.6144675398
 30
0.0
 10
285.2038245528
 20
223.6858516637
 30
0.0
  0
SPLINE
  5
260
100
AcDbEntity
  8
0
100
AcDbSpline
 62
7
  6
CONTINUOUS
 70
0
 71
3
 72
9
 73
5
 74
0
 42
0.0000001
 43
0.0000001
 44
0.0000000001
 40
0.0
 40
0.0
 40
0.0
 40
0.0
 40
0.2377842604
 40
1.0
 40
1.0
 40
1.0
 40
1.0
 10
283.9924511077
 20
223.6858522749
 30
0.0
 10
283.9756298953
 20
223.7879610231
 30
0.0
 10
283.9125523235
 20
224.2186366806
 30
0.0
 10
283.8740648129
 20
224.6526512746
 30
0.0
 10
283.8538332238
 20
224.9837542317
 30
0.0
  0
SPLINE
  5
261
100
AcDbEntity
  8
0
100
AcDbSpline
 62
7
  6
CONTINUOUS
 70
0
 71
3
 72
12
 73
8
 74
0
 42
0.0000001
 43
0.0000001
 44
0.0000000001
 40
0.0
 40
0.0
 40
0.0
 40
0.0
 40
0.2760274939
 40
0.5432046072
 40
0.7904078031
 40
0.9014357482
 40
1.0
 40
1.0
 40
1.0
 40
1.0
 10
296.6189535441
 20
215.5688683904
 30
0.0
 10
295.9307690056
 20
216.0499223748
 30
0.0
 10
294.5760215017
 20
216.9961714866
 30
0.0
 10
292.5812180648
 20
218.3381000702
 30
0.0
 10
290.9606373009
 20
219.3385183034
 30
0.0
 10
289.7250092763
 20
219.9753378607
 30
0.0
 10
289.134032671
 20
220.2194606743
 30
0.0
 10
288.8486010019
 20
220.3112354896
 30
0.0
  0
SPLINE
  5
262
100
AcDbEntity
  8
0
100
AcDbSpline
 62
7
  6
CONTINUOUS
 70
0
 71
3
 72
12
 73
8
 74
0
 42
0.0000001
 43
0.0000001
 44
0.0000000001
 40
0.0
 40
0.0
 40
0.0
 40
0.0
 40
0.0985655851
 40
0.2095994027
 40
0.4568029486
 40
0.7239767396
 40
1.0
 40
1.0
 40
1.0
 40
1.0
 10
55.3893060863
 20
220.3112354896
 30
0.0
 10
55.1038705507
 20
220.2194594311
 30
0.0
 10
54.5128710084
 20
219.9753341912
 30
0.0
 10
53.2772322042
 20
219.3384844981
 30
0.0
 10
51.6566374566
 20
218.3380742317
 30
0.0
 10
49.6618567571
 20
216.9961498896
 30
0.0
 10
48.3071275406
 20
216.0499150058
 30
0.0
 10
47.6189535441
 20
215.5688683904
 30
0.0
  0
SPLINE
  5
263
100
AcDbEntity
  8
0
100
AcDbSpline
 62
7
  6
CONTINUOUS
 70
0
 71
3
 72
10
 73
6
 74
0
 42
0.0000001
 43
0.0000001
 44
0.0000000001
 40
0.0
 40
0.0
 40
0.0
 40
0.0
 40
0.4382941884
 40
0.7175141653
 40
1.0
 40
1.0
 40
1.0
 40
1.0
 10
286.6676204103
 20
244.3125693447
 30
0.0
 10
286.5721258658
 20
244.3125694453
 30
0.0
 10
286.4187890443
 20
244.2069990088
 30
0.0
 10
286.3354287784
 20
244.0054596933
 30
0.0
 10
286.3148807023
 20
243.8828384315
 30
0.0
 10
286.3141210953
 20
243.8212957456
 30
0.0
  0
LINE
  5
264
100
AcDbEntity
  8
0
100
AcDbLine
 62
7
  6
CONTINUOUS
 10
286.3141208022
 20
243.8212953362
 11
286.3885231382
 21
235.6595881435
  0
LINE
  5
265
100
AcDbEntity
  8
0
100
AcDbLine
 62
7
  6
CONTINUOUS
 10
286.3885231382
 20
235.6595881435
 11
286.4886768806
 21
224.6745806265
  0
SPLINE
  5
266
100
AcDbEntity
  8
0
100
AcDbSpline
 62
7
  6
CONTINUOUS
 70
0
 71
3
 72
11
 73
7
 74
0
 42
0.0000001
 43
0.0000001
 44
0.0000000001
 40
0.0
 40
0.0
 40
0.0
 40
0.0
 40
0.0775828052
 40
0.2762471807
 40
0.5868044945
 40
1.0
 40
1.0
 40
1.0
 40
1.0
 10
286.8862382012
 20
243.8212978965
 30
0.0
 10
286.8722848598
 20
243.8163726358
 30
0.0
 10
286.8178338943
 20
243.8227611395
 30
0.0
 10
286.7074507681
 20
243.8159388284
 30
0.0
 10
286.530699064
 20
243.8202787622
 30
0.0
 10
286.3929239931
 20
243.8204623669
 30
0.0
 10
286.3141210874
 20
243.8212951638
 30
0.0
  0
SPLINE
  5
267
100
AcDbEntity
  8
0
100
AcDbSpline
 62
7
  6
CONTINUOUS
 70
0
 71
3
 72
9
 73
5
 74
0
 42
0.0000001
 43
0.0000001
 44
0.0000000001
 40
0.0
 40
0.0
 40
0.0
 40
0.0
 40
0.4815743354
 40
1.0
 40
1.0
 40
1.0
 40
1.0
 10
284.4651799347
 20
244.3125606964
 30
0.0
 10
284.2957384321
 20
244.3125685882
 30
0.0
 10
283.9534644955
 20
244.1612235318
 30
0.0
 10
283.6863757302
 20
243.9378857856
 30
0.0
 10
283.5460927999
 20
243.8212957528
 30
0.0
  0
SPLINE
  5
268
100
AcDbEntity
  8
0
100
AcDbSpline
 62
7
  6
CONTINUOUS
 70
0
 71
3
 72
10
 73
6
 74
0
 42
0.0000001
 43
0.0000001
 44
0.0000000001
 40
0.0
 40
0.0
 40
0.0
 40
0.0
 40
0.2826205769
 40
0.5618795708
 40
1.0
 40
1.0
 40
1.0
 40
1.0
 10
285.6501837259
 20
243.8212957528
 30
0.0
 10
285.6509436961
 20
243.8828685365
 30
0.0
 10
285.6715135792
 20
244.005527563
 30
0.0
 10
285.7549040742
 20
244.2070627543
 30
0.0
 10
285.9082255028
 20
244.3125700206
 30
0.0
 10
286.0036833404
 20
244.3125695496
 30
0.0
  0
SPLINE
  5
269
100
AcDbEntity
  8
0
100
AcDbSpline
 62
7
  6
CONTINUOUS
 70
0
 71
3
 72
8
 73
4
 74
0
 42
0.0000001
 43
0.0000001
 44
0.0000000001
 40
0.0
 40
0.0
 40
0.0
 40
0.0
 40
1.0
 40
1.0
 40
1.0
 40
1.0
 10
57.7666038661
 20
224.6792677161
 30
0.0
 10
57.8101318275
 20
227.2763890637
 30
0.0
 10
57.8519083073
 20
229.8735400252
 30
0.0
 10
57.8924826147
 20
232.4707091963
 30
0.0
  0
SPLINE
  5
26A
100
AcDbEntity
  8
0
100
AcDbSpline
 62
7
  6
CONTINUOUS
 70
0
 71
3
 72
8
 73
4
 74
0
 42
0.0000001
 43
0.0000001
 44
0.0000000001
 40
0.0
 40
0.0
 40
0.0
 40
0.0
 40
1.0
 40
1.0
 40
1.0
 40
1.0
 10
57.8924826147
 20
232.4707091963
 30
0.0
 10
57.9515901373
 20
236.2541930125
 30
0.0
 10
58.0075243694
 20
240.0377272084
 30
0.0
 10
58.0609603065
 20
243.8212953771
 30
0.0
  0
SPLINE
  5
26B
100
AcDbEntity
  8
0
100
AcDbSpline
 62
7
  6
CONTINUOUS
 70
0
 71
3
 72
11
 73
7
 74
0
 42
0.0000001
 43
0.0000001
 44
0.0000000001
 40
0.0
 40
0.0
 40
0.0
 40
0.0
 40
0.4059367586
 40
0.7138774108
 40
0.9148647276
 40
1.0
 40
1.0
 40
1.0
 40
1.0
 10
58.0609721524
 20
243.8212950565
 30
0.0
 10
57.9643653986
 20
243.820250764
 30
0.0
 10
57.7945697068
 20
243.8192540479
 30
0.0
 10
57.5765151001
 20
243.8162393033
 30
0.0
 10
57.4357415746
 20
243.8204019996
 30
0.0
 10
57.3669067601
 20
243.8172687185
 30
0.0
 10
57.3470487544
 20
243.8212950655
 30
0.0
  0
SPLINE
  5
26C
100
AcDbEntity
  8
0
100
AcDbSpline
 62
7
  6
CONTINUOUS
 70
0
 71
3
 72
8
 73
4
 74
0
 42
0.0000001
 43
0.0000001
 44
0.0000000001
 40
0.0
 40
0.0
 40
0.0
 40
0.0
 40
1.0
 40
1.0
 40
1.0
 40
1.0
 10
57.5349978515
 20
233.4425226826
 30
0.0
 10
57.474181419
 20
236.9021378119
 30
0.0
 10
57.4112531254
 20
240.3617160336
 30
0.0
 10
57.3470157929
 20
243.8212693352
 30
0.0
  0
SPLINE
  5
26D
100
AcDbEntity
  8
0
100
AcDbSpline
 62
7
  6
CONTINUOUS
 70
0
 71
3
 72
18
 73
14
 74
0
 42
0.0000001
 43
0.0000001
 44
0.0000000001
 40
0.0
 40
0.0
 40
0.0
 40
0.0
 40
0.0043029656
 40
0.0167129437
 40
0.0372630549
 40
0.0659091045
 40
0.1025980246
 40
0.147270211
 40
0.2600998299
 40
0.4033098797
 40
0.575714323
 40
0.7754032743
 40
1.0
 40
1.0
 40
1.0
 40
1.0
 10
48.0686793056
 20
254.3998315818
 30
0.0
 10
48.068715968
 20
254.4019319683
 30
0.0
 10
48.0812581247
 20
254.4007346061
 30
0.0
 10
48.0952149034
 20
254.4041207236
 30
0.0
 10
48.1276415546
 20
254.4040025203
 30
0.0
 10
48.168519353
 20
254.4054979937
 30
0.0
 10
48.2226211626
 20
254.4060428294
 30
0.0
 10
48.3172323277
 20
254.4069218085
 30
0.0
 10
48.4641638001
 20
254.4071345635
 30
0.0
 10
48.6732767216
 20
254.4066346626
 30
0.0
 10
48.9248628477
 20
254.4052102049
 30
0.0
 10
49.2161516006
 20
254.4029320216
 30
0.0
 10
49.4232800297
 20
254.4009524679
 30
0.0
 10
49.5329223544
 20
254.3998315817
 30
0.0
  0
SPLINE
  5
26E
100
AcDbEntity
  8
0
100
AcDbSpline
 62
7
  6
CONTINUOUS
 70
0
 71
3
 72
12
 73
8
 74
0
 42
0.0000001
 43
0.0000001
 44
0.0000000001
 40
0.0
 40
0.0
 40
0.0
 40
0.0
 40
0.2876365883
 40
0.5539617119
 40
0.7885298189
 40
0.896120646
 40
1.0
 40
1.0
 40
1.0
 40
1.0
 10
49.5341341827
 20
254.4697263163
 30
0.0
 10
49.5481898101
 20
255.0991862461
 30
0.0
 10
49.7369783249
 20
256.3153903271
 30
0.0
 10
50.481631659
 20
257.9007637132
 30
0.0
 10
51.468471097
 20
258.8605860646
 30
0.0
 10
52.3753876865
 20
259.2477902455
 30
0.0
 10
52.840532973
 20
259.3125695496
 30
0.0
 10
53.0679177814
 20
259.3125695496
 30
0.0
  0
SPLINE
  5
26F
100
AcDbEntity
  8
0
100
AcDbSpline
 62
7
  6
CONTINUOUS
 70
0
 71
3
 72
18
 73
14
 74
0
 42
0.0000001
 43
0.0000001
 44
0.0000000001
 40
0.0
 40
0.0
 40
0.0
 40
0.0
 40
0.2245967258
 40
0.424285677
 40
0.5966901203
 40
0.7399001702
 40
0.8527297891
 40
0.8974019754
 40
0.9340908956
 40
0.9627369452
 40
0.9832870563
 40
0.9956970345
 40
1.0
 40
1.0
 40
1.0
 40
1.0
 10
294.704984734
 20
254.3998315818
 30
0.0
 10
294.8146270587
 20
254.4009524679
 30
0.0
 10
295.0217554878
 20
254.4029320216
 30
0.0
 10
295.3130442406
 20
254.4052102049
 30
0.0
 10
295.5646303668
 20
254.4066346626
 30
0.0
 10
295.7737432882
 20
254.4071345635
 30
0.0
 10
295.9206747606
 20
254.4069218085
 30
0.0
 10
296.0152859256
 20
254.4060428294
 30
0.0
 10
296.0693877353
 20
254.4054979937
 30
0.0
 10
296.1102655335
 20
254.4040025203
 30
0.0
 10
296.1426921848
 20
254.4041207236
 30
0.0
 10
296.1566489635
 20
254.4007346061
 30
0.0
 10
296.1691911201
 20
254.4019319683
 30
0.0
 10
296.1692277825
 20
254.3998315817
 30
0.0
  0
SPLINE
  5
270
100
AcDbEntity
  8
0
100
AcDbSpline
 62
7
  6
CONTINUOUS
 70
0
 71
3
 72
12
 73
8
 74
0
 42
0.0000001
 43
0.0000001
 44
0.0000000001
 40
0.0
 40
0.0
 40
0.0
 40
0.0
 40
0.1038799205
 40
0.211470174
 40
0.4460348185
 40
0.712356665
 40
1.0
 40
1.0
 40
1.0
 40
1.0
 10
291.1699893067
 20
259.3125695496
 30
0.0
 10
291.3973655161
 20
259.3125695496
 30
0.0
 10
291.8624904349
 20
259.2477953456
 30
0.0
 10
292.7693666113
 20
258.8606268447
 30
0.0
 10
293.756177612
 20
257.900888495
 30
0.0
 10
294.5008590887
 20
256.3156126449
 30
0.0
 10
294.6896844635
 20
255.0994604032
 30
0.0
 10
294.7037664381
 20
254.4700135413
 30
0.0
  0
SPLINE
  5
271
100
AcDbEntity
  8
0
100
AcDbSpline
 62
7
  6
CONTINUOUS
 70
0
 71
3
 72
12
 73
8
 74
0
 42
0.0000001
 43
0.0000001
 44
0.0000000001
 40
0.0
 40
0.0
 40
0.0
 40
0.0
 40
0.2875493729
 40
0.554114411
 40
0.7887569726
 40
0.8962616161
 40
1.0
 40
1.0
 40
1.0
 40
1.0
 10
283.4012250687
 20
254.3998315818
 30
0.0
 10
283.3933749871
 20
255.0358470826
 30
0.0
 10
283.2130318439
 20
256.2670573369
 30
0.0
 10
282.4722078893
 20
257.8752886404
 30
0.0
 10
281.4801808552
 20
258.8520281572
 30
0.0
 10
280.5652846311
 20
259.246560454
 30
0.0
 10
280.0957006539
 20
259.3125695496
 30
0.0
 10
279.8662296417
 20
259.3125695496
 30
0.0
  0
SPLINE
  5
272
100
AcDbEntity
  8
0
100
AcDbSpline
 62
7
  6
CONTINUOUS
 70
0
 71
3
 72
9
 73
5
 74
0
 42
0.0000001
 43
0.0000001
 44
0.0000000001
 40
0.0
 40
0.0
 40
0.0
 40
0.0
 40
0.2758111563
 40
1.0
 40
1.0
 40
1.0
 40
1.0
 10
279.8662296421
 20
254.3998315818
 30
0.0
 10
280.191220089
 20
254.4021805875
 30
0.0
 10
281.3695367228
 20
254.408529181
 30
0.0
 10
282.5479299555
 20
254.4085527156
 30
0.0
 10
283.4012250688
 20
254.3998315817
 30
0.0
  0
SPLINE
  5
273
100
AcDbEntity
  8
0
100
AcDbSpline
 62
7
  6
CONTINUOUS
 70
0
 71
3
 72
9
 73
5
 74
0
 42
0.0000001
 43
0.0000001
 44
0.0000000001
 40
0.0
 40
0.0
 40
0.0
 40
0.0
 40
0.5355359154
 40
1.0
 40
1.0
 40
1.0
 40
1.0
 10
280.0839385605
 20
224.2884632553
 30
0.0
 10
280.7273377653
 20
224.2856745211
 30
0.0
 10
281.9306512267
 20
224.3801466676
 30
0.0
 10
283.1032821837
 20
224.6951780119
 30
0.0
 10
283.6143744876
 20
224.9191615819
 30
0.0
  0
SPLINE
  5
274
100
AcDbEntity
  8
0
100
AcDbSpline
 62
7
  6
CONTINUOUS
 70
0
 71
3
 72
9
 73
5
 74
0
 42
0.0000001
 43
0.0000001
 44
0.0000000001
 40
0.0
 40
0.0
 40
0.0
 40
0.0
 40
0.2142751466
 40
1.0
 40
1.0
 40
1.0
 40
1.0
 10
60.8366820197
 20
254.3998315818
 30
0.0
 10
61.0891577846
 20
254.4024120195
 30
0.0
 10
62.2674785087
 20
254.4101354883
 30
0.0
 10
63.4458506973
 20
254.4065233857
 30
0.0
 10
64.3716774464
 20
254.3998315817
 30
0.0
  0
SPLINE
  5
275
100
AcDbEntity
  8
0
100
AcDbSpline
 62
7
  6
CONTINUOUS
 70
0
 71
3
 72
12
 73
8
 74
0
 42
0.0000001
 43
0.0000001
 44
0.0000000001
 40
0.0
 40
0.0
 40
0.0
 40
0.0
 40
0.1037383602
 40
0.2112420529
 40
0.4458814454
 40
0.7124442876
 40
1.0
 40
1.0
 40
1.0
 40
1.0
 10
64.3716774464
 20
259.3125695496
 30
0.0
 10
64.1422064708
 20
259.3125695496
 30
0.0
 10
63.6726247031
 20
259.2465605406
 30
0.0
 10
62.7577361286
 20
258.8520341281
 30
0.0
 10
61.7657160307
 20
257.8753091401
 30
0.0
 10
61.0248788615
 20
256.2670816232
 30
0.0
 10
60.8445322746
 20
255.0358611488
 30
0.0
 10
60.8366820194
 20
254.3998315818
 30
0.0
  0
SPLINE
  5
276
100
AcDbEntity
  8
0
100
AcDbSpline
 62
7
  6
CONTINUOUS
 70
0
 71
3
 72
9
 73
5
 74
0
 42
0.0000001
 43
0.0000001
 44
0.0000000001
 40
0.0
 40
0.0
 40
0.0
 40
0.0
 40
0.4644344277
 40
1.0
 40
1.0
 40
1.0
 40
1.0
 10
60.6235319892
 20
224.9191589269
 30
0.0
 10
61.1345914214
 20
224.695188822
 30
0.0
 10
62.3072189813
 20
224.3801489303
 30
0.0
 10
63.5105335668
 20
224.2856720223
 30
0.0
 10
64.1539685402
 20
224.2884604599
 30
0.0
  0
SPLINE
  5
277
100
AcDbEntity
  8
0
100
AcDbSpline
 62
7
  6
CONTINUOUS
 70
0
 71
3
 72
9
 73
5
 74
0
 42
0.0000001
 43
0.0000001
 44
0.0000000001
 40
0.0
 40
0.0
 40
0.0
 40
0.0
 40
0.2408396713
 40
1.0
 40
1.0
 40
1.0
 40
1.0
 10
60.6235331273
 20
224.919163832
 30
0.0
 10
60.6084606866
 20
224.8164924131
 30
0.0
 10
60.5294326669
 20
224.3928271609
 30
0.0
 10
60.3879739358
 20
223.9802761421
 30
0.0
 10
60.2454543608
 20
223.6858532934
 30
0.0
  0
SPLINE
  5
278
100
AcDbEntity
  8
0
100
AcDbSpline
 62
7
  6
CONTINUOUS
 70
0
 71
3
 72
9
 73
5
 74
0
 42
0.0000001
 43
0.0000001
 44
0.0000000001
 40
0.0
 40
0.0
 40
0.0
 40
0.0
 40
0.345784247
 40
1.0
 40
1.0
 40
1.0
 40
1.0
 10
60.2454485943
 20
223.6858525091
 30
0.0
 10
60.2007552572
 20
223.4655083071
 30
0.0
 10
60.0562743368
 20
222.831267436
 30
0.0
 10
59.8748748176
 20
222.2065686328
 30
0.0
 10
59.7556709127
 20
221.7982371047
 30
0.0
  0
SPLINE
  5
279
100
AcDbEntity
  8
0
100
AcDbSpline
 62
7
  6
CONTINUOUS
 70
0
 71
3
 72
9
 73
5
 74
0
 42
0.0000001
 43
0.0000001
 44
0.0000000001
 40
0.0
 40
0.0
 40
0.0
 40
0.0
 40
0.2591344017
 40
1.0
 40
1.0
 40
1.0
 40
1.0
 10
60.3840738765
 20
224.9837542303
 30
0.0
 10
60.3771959496
 20
224.8711920147
 30
0.0
 10
60.3462465728
 20
224.437140114
 30
0.0
 10
60.2978647404
 20
224.0039814435
 30
0.0
 10
60.245456447
 20
223.685853678
 30
0.0
  0
SPLINE
  5
27A
100
AcDbEntity
  8
0
100
AcDbSpline
 62
7
  6
CONTINUOUS
 70
0
 71
3
 72
9
 73
5
 74
0
 42
0.0000001
 43
0.0000001
 44
0.0000000001
 40
0.0
 40
0.0
 40
0.0
 40
0.0
 40
0.5142686752
 40
1.0
 40
1.0
 40
1.0
 40
1.0
 10
59.0340823
 20
223.6858531482
 30
0.0
 10
59.231957792
 20
223.6144695556
 30
0.0
 10
59.6461642635
 20
223.5591734427
 30
0.0
 10
60.0585591416
 20
223.6184307085
 30
0.0
 10
60.245454325
 20
223.6858530719
 30
0.0
  0
SPLINE
  5
27B
100
AcDbEntity
  8
0
100
AcDbSpline
 62
7
  6
CONTINUOUS
 70
0
 71
3
 72
11
 73
7
 74
0
 42
0.0000001
 43
0.0000001
 44
0.0000000001
 40
0.0
 40
0.0
 40
0.0
 40
0.0
 40
0.3472137152
 40
0.6071403034
 40
0.8100017156
 40
1.0
 40
1.0
 40
1.0
 40
1.0
 10
57.7122627947
 20
223.2916696025
 30
0.0
 10
57.7171538185
 20
223.011463036
 30
0.0
 10
57.7198495325
 20
222.521467211
 30
0.0
 10
57.6408988682
 20
221.8677085759
 30
0.0
 10
57.4198238564
 20
221.3763697946
 30
0.0
 10
57.180069311
 20
221.1569318354
 30
0.0
 10
57.0540520437
 20
221.0695400087
 30
0.0
  0
SPLINE
  5
27C
100
AcDbEntity
  8
0
100
AcDbSpline
 62
7
  6
CONTINUOUS
 70
0
 71
3
 72
8
 73
4
 74
0
 42
0.0000001
 43
0.0000001
 44
0.0000000001
 40
0.0
 40
0.0
 40
0.0
 40
0.0
 40
1.0
 40
1.0
 40
1.0
 40
1.0
 10
57.7665958563
 20
224.6792289164
 30
0.0
 10
57.7280352707
 20
224.5018139295
 30
0.0
 10
57.7012284469
 20
224.3207257839
 30
0.0
 10
57.6950816985
 20
224.1392727216
 30
0.0
  0
SPLINE
  5
27D
100
AcDbEntity
  8
0
100
AcDbSpline
 62
7
  6
CONTINUOUS
 70
0
 71
3
 72
9
 73
5
 74
0
 42
0.0000001
 43
0.0000001
 44
0.0000000001
 40
0.0
 40
0.0
 40
0.0
 40
0.0
 40
0.2387999127
 40
1.0
 40
1.0
 40
1.0
 40
1.0
 10
59.0340822955
 20
223.6858531782
 30
0.0
 10
59.0171988282
 20
223.7883980129
 30
0.0
 10
58.953545954
 20
224.2189837488
 30
0.0
 10
58.9156848703
 20
224.6530669169
 30
0.0
 10
58.8954653662
 20
224.983722626
 30
0.0
  0
SPLINE
  5
27E
100
AcDbEntity
  8
0
100
AcDbSpline
 62
7
  6
CONTINUOUS
 70
0
 71
3
 72
11
 73
7
 74
0
 42
0.0000001
 43
0.0000001
 44
0.0000000001
 40
0.0
 40
0.0
 40
0.0
 40
0.0
 40
0.168920971
 40
0.3932083863
 40
0.6720617561
 40
1.0
 40
1.0
 40
1.0
 40
1.0
 10
59.7556385181
 20
221.7982478711
 30
0.0
 10
59.6717309459
 20
221.8773315068
 30
0.0
 10
59.5099310265
 20
222.0962056061
 30
0.0
 10
59.3177251311
 20
222.5144701809
 30
0.0
 10
59.1527020135
 20
223.0584584294
 30
0.0
 10
59.0682999603
 20
223.4646387373
 30
0.0
 10
59.0340822955
 20
223.6858531782
 30
0.0
  0
SPLINE
  5
27F
100
AcDbEntity
  8
0
100
AcDbSpline
 62
7
  6
CONTINUOUS
 70
0
 71
3
 72
10
 73
6
 74
0
 42
0.0000001
 43
0.0000001
 44
0.0000000001
 40
0.0
 40
0.0
 40
0.0
 40
0.0
 40
0.4381215485
 40
0.7173801909
 40
1.0
 40
1.0
 40
1.0
 40
1.0
 10
58.2342267772
 20
244.3125695495
 30
0.0
 10
58.3296844536
 20
244.3125690153
 30
0.0
 10
58.483004105
 20
244.2070607696
 30
0.0
 10
58.566393888
 20
244.0055264128
 30
0.0
 10
58.5869633947
 20
243.8828681079
 30
0.0
 10
58.5877233603
 20
243.8212957528
 30
0.0
  0
SPLINE
  5
280
100
AcDbEntity
  8
0
100
AcDbSpline
 62
7
  6
CONTINUOUS
 70
0
 71
3
 72
9
 73
5
 74
0
 42
0.0000001
 43
0.0000001
 44
0.0000000001
 40
0.0
 40
0.0
 40
0.0
 40
0.0
 40
0.5184584987
 40
1.0
 40
1.0
 40
1.0
 40
1.0
 10
60.6918142901
 20
243.8212957528
 30
0.0
 10
60.5512238966
 20
243.9375337096
 30
0.0
 10
60.2846269922
 20
244.1614859619
 30
0.0
 10
59.9421723006
 20
244.3125708259
 30
0.0
 10
59.7727419174
 20
244.3125573762
 30
0.0
  0
SPLINE
  5
281
100
AcDbEntity
  8
0
100
AcDbSpline
 62
7
  6
CONTINUOUS
 70
0
 71
3
 72
8
 73
4
 74
0
 42
0.0000001
 43
0.0000001
 44
0.0000000001
 40
0.0
 40
0.0
 40
0.0
 40
0.0
 40
1.0
 40
1.0
 40
1.0
 40
1.0
 10
58.0609721397
 20
243.8212960449
 30
0.0
 10
58.0596424932
 20
243.9290199031
 30
0.0
 10
58.0323528043
 20
244.0405765926
 30
0.0
 10
57.9782131964
 20
244.1337168119
 30
0.0
  0
SPLINE
  5
282
100
AcDbEntity
  8
0
100
AcDbSpline
 62
7
  6
CONTINUOUS
 70
0
 71
3
 72
9
 73
5
 74
0
 42
0.0000001
 43
0.0000001
 44
0.0000000001
 40
0.0
 40
0.0
 40
0.0
 40
0.0
 40
0.2888065638
 40
1.0
 40
1.0
 40
1.0
 40
1.0
 10
57.9782131964
 20
244.1337168119
 30
0.0
 10
57.9621294279
 20
244.1613868631
 30
0.0
 10
57.8972888231
 20
244.2507175109
 30
0.0
 10
57.7862768243
 20
244.3125793996
 30
0.0
 10
57.707463732
 20
244.312577919
 30
0.0
  0
ELLIPSE
  5
283
100
AcDbEntity
  8
0
100
AcDbEllipse
 62
7
  6
CONTINUOUS
 10
296.6189535441
 20
222.0463724717
 30
0.0
 11
10.1148953344
 21
0.0
 31
0.0
 40
0.2679521232
 41
-2.7728811156
 42
-2.4468350283
  0
ELLIPSE
  5
284
100
AcDbEntity
  8
0
100
AcDbEllipse
 62
7
  6
CONTINUOUS
 10
47.6189535441
 20
222.0463724717
 30
0.0
 11
10.1148953344
 21
0.0
 31
0.0
 40
0.2679521232
 41
-0.6947576253
 42
-0.3687115379
  0
ENDSEC
  0
SECTION
  2
OBJECTS
  0
DICTIONARY
  5
C
100
AcDbDictionary
280
0
281
1
  3
ACAD_GROUP
350
D
  3
ACAD_MLINESTYLE
350
17
  3
ACAD_LAYOUT
350
1A
  3
ACAD_PLOTSETTINGS
350
19
  3
ACAD_PLOTSTYLENAME
350
E
  0
DICTIONARY
  5
D
102
{ACAD_REACTORS
330
C
102
}
100
AcDbDictionary
280
0
281
1
  0
ACDBDICTIONARYWDFLT
  5
E
102
{ACAD_REACTORS
330
C
102
}
100
AcDbDictionary
281
1
  3
Normal
350
F
100
AcDbDictionaryWithDefault
340
F
  0
DICTIONARY
  5
17
102
{ACAD_REACTORS
330
C
102
}
100
AcDbDictionary
280
0
281
1
  3
Standard
350
18
  0
DICTIONARY
  5
19
102
{ACAD_REACTORS
330
C
102
}
100
AcDbDictionary
281
1
  0
DICTIONARY
  5
1A
102
{ACAD_REACTORS
330
C
102
}
100
AcDbDictionary
281
1
  3
Model
350
285
  3
Layout1
350
286
  0
ACDBPLACEHOLDER
  5
F
102
{ACAD_REACTORS
330
E
102
}
  0
MLINESTYLE
  5
18
102
{ACAD_REACTORS
330
17
102
}
100
AcDbMlineStyle
  2
STANDARD
 70
0
  3

 62
256
 51
90.0
 52
90.0
 71
2
 49
0.5
 62
256
  6
BYLAYER
 49
-0.5
 62
256
  6
BYLAYER
  0
LAYOUT
  5
285
102
{ACAD_REACTORS
330
1A
102
}
100
AcDbPlotSettings
  1

  2
none_device
  4

  6

 40
0.0
 41
0.0
 42
0.0
 43
0.0
 44
210.0
 45
297.0
 46
0.0
 47
0.0
 48
0.0
 49
0.0
140
0.0
141
0.0
142
1.0
143
1.0
 70
1024
 72
1
 73
0
 74
0
  7

 75
0
147
1.0
148
0.0
149
0.0
100
AcDbLayout
  1
Model
 70
0
 71
0
 10
0.0
 20
0.0
 11
210.0
 21
297.0
 12
0.0
 22
0.0
 32
0.0
 14
0.0
 24
0.0
 34
0.0
 15
0.0
 25
0.0
 35
0.0
146
0.0
 13
0.0
 23
0.0
 33
0.0
 16
1.0
 26
0.0
 36
0.0
 17
0.0
 27
1.0
 37
0.0
 76
0
330
210
345
0
346
0
  0
LAYOUT
  5
286
102
{ACAD_REACTORS
330
1A
102
}
100
AcDbPlotSettings
  1

  2
none_device
  4

  6

 40
0.0
 41
0.0
 42
0.0
 43
0.0
 44
210.0
 45
297.0
 46
0.0
 47
0.0
 48
0.0
 49
0.0
140
0.0
141
0.0
142
1.0
143
1.0
 70
0
 72
1
 73
0
 74
0
  7

 75
0
147
1.0
148
0.0
149
0.0
100
AcDbLayout
  1
Layout1
 70
0
 71
1
 10
0.0
 20
0.0
 11
210.0
 21
297.0
 12
0.0
 22
0.0
 32
0.0
 14
0.0
 24
0.0
 34
0.0
 15
0.0
 25
0.0
 35
0.0
146
0.0
 13
0.0
 23
0.0
 33
0.0
 16
1.0
 26
0.0
 36
0.0
 17
0.0
 27
1.0
 37
0.0
 76
0
330
211
345
0
346
0
  0
ENDSEC
  0
EOF
