999
DXF file: C:\2D\Gen2D\CAD\NSYS3D12830_3D-Simplified\drw0001_2.dxf
999
Pro/ENGINEER 2019471 by Parametric Technology Corporation
  0
SECTION
  2
HEADER
  9
$ACADVER
  1
AC1024
  9
$DWGCODEPAGE
  3
ANSI_1252
  9
$EXTMAX
 10
1006.8440395238
 20
1423.9651416122
 30
0.0
  9
$EXTMIN
 10
0.0
 20
0.0
 30
0.0
  9
$LIMMIN
 10
0.0
 20
0.0
  9
$LIMMAX
 10
1006.8440395238
 20
1423.9651416122
  9
$VIEWCTR
 10
503.4220197619
 20
711.9825708061
  9
$VIEWSIZE
 40
1423.9651416122
  9
$CLAYER
  8
0
  9
$LTSCALE
 40
92.8214314532
  9
$CELTYPE
  6
BYLAYER
  9
$DIMSCALE
 40
1.0
  9
$DIMASZ
 40
11.9862385658
  9
$DIMEXO
 40
1.0
  9
$DIMDLI
 40
64.1311708222
  9
$DIMEXE
 40
1.0
  9
$DIMCEN
 40
15.1889615105
  9
$DIMLFAC
 40
1.0
  9
$DIMBLK
  1
_FILLED
  9
$DIMALT
 70
0
  9
$DIMALTF
 40
0.0393700787
  9
$DIMTXT
 40
16.7807339921
  9
$DIMTOL
 70
1
  9
$DIMLIM
 70
0
  9
$DIMTFAC
 40
1.0
  9
$DIMTP
 40
0.01
  9
$DIMTM
 40
0.01
  9
$DIMGAP
 40
0.625
  9
$DIMDSEP
 70
46
  9
$AUNITS
 70
0
  9
$PDMODE
 70
3
  9
$PDSIZE
 40
0.3125
  9
$HANDSEED
  5
40F
  9
$TILEMODE
 70
1
  9
$MEASUREMENT
 70
1
  9
$INSUNITS
 70
4
  0
ENDSEC
  0
SECTION
  2
CLASSES
  0
CLASS
  1
ACDBDICTIONARYWDFLT
  2
AcDbDictionaryWithDefault
  3
AutoCAD 2000
 90
0
 91
1
280
0
281
0
  0
CLASS
  1
ACDBPLACEHOLDER
  2
AcDbPlaceHolder
  3
AutoCAD 2000
 90
0
 91
1
280
0
281
0
  0
CLASS
  1
LAYOUT
  2
AcDbLayout
  3
AutoCAD 2000
 90
0
 91
0
280
0
281
0
  0
ENDSEC
  0
SECTION
  2
TABLES
  0
TABLE
  2
VPORT
  5
8
100
AcDbSymbolTable
 70
2
  0
VPORT
  5
1F4
100
AcDbSymbolTableRecord
100
AcDbViewportTableRecord
  2
*ACTIVE
 70
0
 10
0.0
 20
0.0
 11
1.0
 21
1.0
 12
503.4220197619
 22
711.9825708061
 13
0.0
 23
0.0
 14
1.0
 24
1.0
 15
0.0
 25
0.0
 16
0.0
 26
0.0
 36
1.0
 17
0.0
 27
0.0
 37
0.0
 40
1423.9651416122
 41
0.7070707071
 42
50.0
 43
0.0
 44
0.0
 50
0.0
 51
0.0
 71
0
 72
100
 73
1
 74
1
 75
0
 76
0
 77
0
 78
0
  0
ENDTAB
  0
TABLE
  2
LTYPE
  5
5
100
AcDbSymbolTable
 70
6
  0
LTYPE
  5
14
100
AcDbSymbolTableRecord
100
AcDbLinetypeTableRecord
  2
BYBLOCK
 70
0
  3

 72
65
 73
0
 40
0.0
  0
LTYPE
  5
15
100
AcDbSymbolTableRecord
100
AcDbLinetypeTableRecord
  2
BYLAYER
 70
0
  3

 72
65
 73
0
 40
0.0
  0
LTYPE
  5
16
100
AcDbSymbolTableRecord
100
AcDbLinetypeTableRecord
  2
CONTINUOUS
 70
64
  3
Solid line
 72
65
 73
0
 40
0.0
  0
LTYPE
  5
1F5
100
AcDbSymbolTableRecord
100
AcDbLinetypeTableRecord
  2
CENTER
 70
64
  3
____ _ ____ _ ____ _ ____ _ ____ _ ____ _ ____
 72
65
 73
4
 40
0.6
 49
0.375
 74
0
 49
-0.075
 74
0
 49
0.075
 74
0
 49
-0.075
 74
0
  0
LTYPE
  5
1F6
100
AcDbSymbolTableRecord
100
AcDbLinetypeTableRecord
  2
HIDDEN
 70
64
  3
- - - - - - - - - - - - - - - - - - - -
 72
65
 73
2
 40
0.2
 49
0.1
 74
0
 49
-0.1
 74
0
  0
LTYPE
  5
1F7
100
AcDbSymbolTableRecord
100
AcDbLinetypeTableRecord
  2
PHANTOM
 70
64
  3
_____ _ _ _____ _ _ _____ _ _ _____
 72
65
 73
6
 40
0.8
 49
0.45
 74
0
 49
-0.05
 74
0
 49
0.1
 74
0
 49
-0.05
 74
0
 49
0.1
 74
0
 49
-0.05
 74
0
  0
LTYPE
  5
1F8
100
AcDbSymbolTableRecord
100
AcDbLinetypeTableRecord
  2
DOT
 70
64
  3
. . . . . . . . . . . . . . . . . . . .
 72
65
 73
2
 40
0.2
 49
0.1
 74
0
 49
-0.1
 74
0
  0
LTYPE
  5
1F9
100
AcDbSymbolTableRecord
100
AcDbLinetypeTableRecord
  2
DASHED
 70
64
  3
- - - - - - - - - - - - - - - - - - - -
 72
65
 73
2
 40
0.2
 49
0.1
 74
0
 49
-0.1
 74
0
  0
ENDTAB
  0
TABLE
  2
LAYER
  5
2
100
AcDbSymbolTable
 70
36
  0
LAYER
  5
10
100
AcDbSymbolTableRecord
100
AcDbLayerTableRecord
  2
0
 70
0
 62
7
  6
CONTINUOUS
370
-3
390
F
  0
LAYER
  5
1FA
100
AcDbSymbolTableRecord
100
AcDbLayerTableRecord
  2
DEFAULT_1
 70
0
 62
7
  6
CENTER
370
-3
390
F
  0
LAYER
  5
1FB
100
AcDbSymbolTableRecord
100
AcDbLayerTableRecord
  2
DEFAULT_2
 70
0
 62
8
  6
HIDDEN
370
-3
390
F
  0
LAYER
  5
1FC
100
AcDbSymbolTableRecord
100
AcDbLayerTableRecord
  2
DEFAULT_3
 70
0
 62
7
  6
PHANTOM
370
-3
390
F
  0
LAYER
  5
1FD
100
AcDbSymbolTableRecord
100
AcDbLayerTableRecord
  2
00_COMPONENTS
 70
0
 62
7
  6
CONTINUOUS
370
-3
390
F
  0
LAYER
  5
1FE
100
AcDbSymbolTableRecord
100
AcDbLayerTableRecord
  2
00_COMPONENTS_1
 70
0
 62
7
  6
CONTINUOUS
370
-3
390
F
  0
LAYER
  5
1FF
100
AcDbSymbolTableRecord
100
AcDbLayerTableRecord
  2
00_COMPONENTS_10
 70
0
 62
7
  6
CONTINUOUS
370
-3
390
F
  0
LAYER
  5
200
100
AcDbSymbolTableRecord
100
AcDbLayerTableRecord
  2
00_COMPONENTS_12
 70
0
 62
7
  6
CONTINUOUS
370
-3
390
F
  0
LAYER
  5
201
100
AcDbSymbolTableRecord
100
AcDbLayerTableRecord
  2
00_COMPONENTS_13
 70
0
 62
7
  6
CONTINUOUS
370
-3
390
F
  0
LAYER
  5
202
100
AcDbSymbolTableRecord
100
AcDbLayerTableRecord
  2
00_COMPONENTS_15
 70
0
 62
7
  6
CONTINUOUS
370
-3
390
F
  0
LAYER
  5
203
100
AcDbSymbolTableRecord
100
AcDbLayerTableRecord
  2
00_COMPONENTS_16
 70
0
 62
7
  6
CONTINUOUS
370
-3
390
F
  0
LAYER
  5
204
100
AcDbSymbolTableRecord
100
AcDbLayerTableRecord
  2
00_COMPONENTS_17
 70
0
 62
7
  6
CONTINUOUS
370
-3
390
F
  0
LAYER
  5
205
100
AcDbSymbolTableRecord
100
AcDbLayerTableRecord
  2
00_COMPONENTS_18
 70
0
 62
7
  6
CONTINUOUS
370
-3
390
F
  0
LAYER
  5
206
100
AcDbSymbolTableRecord
100
AcDbLayerTableRecord
  2
00_COMPONENTS_19
 70
0
 62
7
  6
CONTINUOUS
370
-3
390
F
  0
LAYER
  5
207
100
AcDbSymbolTableRecord
100
AcDbLayerTableRecord
  2
00_COMPONENTS_2
 70
0
 62
7
  6
CONTINUOUS
370
-3
390
F
  0
LAYER
  5
208
100
AcDbSymbolTableRecord
100
AcDbLayerTableRecord
  2
00_COMPONENTS_20
 70
0
 62
7
  6
CONTINUOUS
370
-3
390
F
  0
LAYER
  5
209
100
AcDbSymbolTableRecord
100
AcDbLayerTableRecord
  2
00_COMPONENTS_21
 70
0
 62
7
  6
CONTINUOUS
370
-3
390
F
  0
LAYER
  5
20A
100
AcDbSymbolTableRecord
100
AcDbLayerTableRecord
  2
00_COMPONENTS_22
 70
0
 62
7
  6
CONTINUOUS
370
-3
390
F
  0
LAYER
  5
20B
100
AcDbSymbolTableRecord
100
AcDbLayerTableRecord
  2
00_COMPONENTS_23
 70
0
 62
7
  6
CONTINUOUS
370
-3
390
F
  0
LAYER
  5
20C
100
AcDbSymbolTableRecord
100
AcDbLayerTableRecord
  2
00_COMPONENTS_24
 70
0
 62
7
  6
CONTINUOUS
370
-3
390
F
  0
LAYER
  5
20D
100
AcDbSymbolTableRecord
100
AcDbLayerTableRecord
  2
00_COMPONENTS_25
 70
0
 62
7
  6
CONTINUOUS
370
-3
390
F
  0
LAYER
  5
20E
100
AcDbSymbolTableRecord
100
AcDbLayerTableRecord
  2
00_COMPONENTS_26
 70
0
 62
7
  6
CONTINUOUS
370
-3
390
F
  0
LAYER
  5
20F
100
AcDbSymbolTableRecord
100
AcDbLayerTableRecord
  2
00_COMPONENTS_27
 70
0
 62
7
  6
CONTINUOUS
370
-3
390
F
  0
LAYER
  5
210
100
AcDbSymbolTableRecord
100
AcDbLayerTableRecord
  2
00_COMPONENTS_28
 70
0
 62
7
  6
CONTINUOUS
370
-3
390
F
  0
LAYER
  5
211
100
AcDbSymbolTableRecord
100
AcDbLayerTableRecord
  2
00_COMPONENTS_29
 70
0
 62
7
  6
CONTINUOUS
370
-3
390
F
  0
LAYER
  5
212
100
AcDbSymbolTableRecord
100
AcDbLayerTableRecord
  2
00_COMPONENTS_3
 70
0
 62
7
  6
CONTINUOUS
370
-3
390
F
  0
LAYER
  5
213
100
AcDbSymbolTableRecord
100
AcDbLayerTableRecord
  2
00_COMPONENTS_32
 70
0
 62
7
  6
CONTINUOUS
370
-3
390
F
  0
LAYER
  5
214
100
AcDbSymbolTableRecord
100
AcDbLayerTableRecord
  2
00_COMPONENTS_33
 70
0
 62
7
  6
CONTINUOUS
370
-3
390
F
  0
LAYER
  5
215
100
AcDbSymbolTableRecord
100
AcDbLayerTableRecord
  2
00_COMPONENTS_34
 70
0
 62
7
  6
CONTINUOUS
370
-3
390
F
  0
LAYER
  5
216
100
AcDbSymbolTableRecord
100
AcDbLayerTableRecord
  2
00_COMPONENTS_35
 70
0
 62
7
  6
CONTINUOUS
370
-3
390
F
  0
LAYER
  5
217
100
AcDbSymbolTableRecord
100
AcDbLayerTableRecord
  2
00_COMPONENTS_36
 70
0
 62
7
  6
CONTINUOUS
370
-3
390
F
  0
LAYER
  5
218
100
AcDbSymbolTableRecord
100
AcDbLayerTableRecord
  2
00_COMPONENTS_38
 70
0
 62
7
  6
CONTINUOUS
370
-3
390
F
  0
LAYER
  5
219
100
AcDbSymbolTableRecord
100
AcDbLayerTableRecord
  2
00_COMPONENTS_39
 70
0
 62
7
  6
CONTINUOUS
370
-3
390
F
  0
LAYER
  5
21A
100
AcDbSymbolTableRecord
100
AcDbLayerTableRecord
  2
00_COMPONENTS_4
 70
0
 62
7
  6
CONTINUOUS
370
-3
390
F
  0
LAYER
  5
21B
100
AcDbSymbolTableRecord
100
AcDbLayerTableRecord
  2
00_COMPONENTS_40
 70
0
 62
7
  6
CONTINUOUS
370
-3
390
F
  0
LAYER
  5
21C
100
AcDbSymbolTableRecord
100
AcDbLayerTableRecord
  2
00_COMPONENTS_42
 70
0
 62
7
  6
CONTINUOUS
370
-3
390
F
  0
LAYER
  5
21D
100
AcDbSymbolTableRecord
100
AcDbLayerTableRecord
  2
00_COMPONENTS_44
 70
0
 62
7
  6
CONTINUOUS
370
-3
390
F
  0
LAYER
  5
21E
100
AcDbSymbolTableRecord
100
AcDbLayerTableRecord
  2
00_COMPONENTS_46
 70
0
 62
7
  6
CONTINUOUS
370
-3
390
F
  0
LAYER
  5
21F
100
AcDbSymbolTableRecord
100
AcDbLayerTableRecord
  2
00_COMPONENTS_7
 70
0
 62
7
  6
CONTINUOUS
370
-3
390
F
  0
LAYER
  5
220
100
AcDbSymbolTableRecord
100
AcDbLayerTableRecord
  2
00_COMPONENTS_8
 70
0
 62
7
  6
CONTINUOUS
370
-3
390
F
  0
LAYER
  5
221
100
AcDbSymbolTableRecord
100
AcDbLayerTableRecord
  2
01_1_DEFAULT_DATUMS
 70
0
 62
7
  6
CONTINUOUS
370
-3
390
F
  0
LAYER
  5
222
100
AcDbSymbolTableRecord
100
AcDbLayerTableRecord
  2
01_PLANES
 70
0
 62
7
  6
CONTINUOUS
370
-3
390
F
  0
LAYER
  5
223
100
AcDbSymbolTableRecord
100
AcDbLayerTableRecord
  2
02_COORD_SYS
 70
0
 62
7
  6
CONTINUOUS
370
-3
390
F
  0
LAYER
  5
224
100
AcDbSymbolTableRecord
100
AcDbLayerTableRecord
  2
03_AXES
 70
0
 62
7
  6
CONTINUOUS
370
-3
390
F
  0
LAYER
  5
225
100
AcDbSymbolTableRecord
100
AcDbLayerTableRecord
  2
04_POINTS
 70
0
 62
7
  6
CONTINUOUS
370
-3
390
F
  0
LAYER
  5
226
100
AcDbSymbolTableRecord
100
AcDbLayerTableRecord
  2
05_CURVES
 70
0
 62
7
  6
CONTINUOUS
370
-3
390
F
  0
LAYER
  5
227
100
AcDbSymbolTableRecord
100
AcDbLayerTableRecord
  2
06_SURFS
 70
0
 62
7
  6
CONTINUOUS
370
-3
390
F
  0
LAYER
  5
228
100
AcDbSymbolTableRecord
100
AcDbLayerTableRecord
  2
07_COSMETICS
 70
0
 62
7
  6
CONTINUOUS
370
-3
390
F
  0
LAYER
  5
229
100
AcDbSymbolTableRecord
100
AcDbLayerTableRecord
  2
10_NOTES
 70
0
 62
7
  6
CONTINUOUS
370
-3
390
F
  0
LAYER
  5
22A
100
AcDbSymbolTableRecord
100
AcDbLayerTableRecord
  2
11_NOTES_PUB
 70
0
 62
7
  6
CONTINUOUS
370
-3
390
F
  0
LAYER
  5
22B
100
AcDbSymbolTableRecord
100
AcDbLayerTableRecord
  2
13_REF_GTOL
 70
0
 62
7
  6
CONTINUOUS
370
-3
390
F
  0
LAYER
  5
22C
100
AcDbSymbolTableRecord
100
AcDbLayerTableRecord
  2
16_MISC
 70
0
 62
7
  6
CONTINUOUS
370
-3
390
F
  0
LAYER
  5
22D
100
AcDbSymbolTableRecord
100
AcDbLayerTableRecord
  2
17_NO_PRINT
 70
0
 62
7
  6
CONTINUOUS
370
-3
390
F
  0
LAYER
  5
22E
100
AcDbSymbolTableRecord
100
AcDbLayerTableRecord
  2
18_DATUM_CAMS_JOINTS
 70
0
 62
7
  6
CONTINUOUS
370
-3
390
F
  0
LAYER
  5
22F
100
AcDbSymbolTableRecord
100
AcDbLayerTableRecord
  2
19_DATUM_FUNCTIONAL
 70
0
 62
7
  6
CONTINUOUS
370
-3
390
F
  0
LAYER
  5
230
100
AcDbSymbolTableRecord
100
AcDbLayerTableRecord
  2
20_DATUM_KINEMATIC_SCHEME
 70
0
 62
7
  6
CONTINUOUS
370
-3
390
F
  0
LAYER
  5
231
100
AcDbSymbolTableRecord
100
AcDbLayerTableRecord
  2
INTFCLR_10
 70
0
 62
7
  6
CONTINUOUS
370
-3
390
F
  0
ENDTAB
  0
TABLE
  2
STYLE
  5
3
100
AcDbSymbolTable
 70
1
  0
STYLE
  5
11
100
AcDbSymbolTableRecord
100
AcDbTextStyleTableRecord
  2
STANDARD
 70
0
 40
0.0
 41
0.8
 50
0.0
 71
0
 42
0.2
  3
txt
  4

  0
STYLE
  5
232
100
AcDbSymbolTableRecord
100
AcDbTextStyleTableRecord
  2
TEXTSTYLE_1
 70
0
 40
0.0
 41
0.8
 50
0.0
 71
0
 42
0.2
  3
gdt
  4

  0
ENDTAB
  0
TABLE
  2
VIEW
  5
6
100
AcDbSymbolTable
 70
0
  0
ENDTAB
  0
TABLE
  2
UCS
  5
7
100
AcDbSymbolTable
 70
0
  0
ENDTAB
  0
TABLE
  2
APPID
  5
9
100
AcDbSymbolTable
 70
1
  0
APPID
  5
233
100
AcDbSymbolTableRecord
100
AcDbRegAppTableRecord
  2
ACAD
 70
0
  0
ENDTAB
  0
TABLE
  2
BLOCK_RECORD
  5
1
100
AcDbSymbolTable
 70
0
  0
BLOCK_RECORD
  5
234
100
AcDbSymbolTableRecord
100
AcDbBlockTableRecord
  2
*Model_Space
  0
BLOCK_RECORD
  5
235
100
AcDbSymbolTableRecord
100
AcDbBlockTableRecord
  2
*Paper_Space
  0
BLOCK_RECORD
  5
236
100
AcDbSymbolTableRecord
100
AcDbBlockTableRecord
  2
_FILLED
  0
ENDTAB
  0
TABLE
  2
DIMSTYLE
  5
A
100
AcDbSymbolTable
 70
1
100
AcDbDimStyleTable
 71
0
  0
DIMSTYLE
105
237
100
AcDbSymbolTableRecord
100
AcDbDimStyleTableRecord
  2
STANDARD
 70
0
  3

  4

 40
1.0
 41
11.9862385658
 42
1.0
 43
0.38
 44
1.0
 45
0.0
 46
0.0
 47
0.01
 48
0.01
140
16.7807339921
141
0.09
142
0.0
143
25.4
144
1.0
145
0.0
146
1.0
147
0.625
 71
1
 72
0
 73
0
 74
0
 75
0
 76
0
 77
1
 78
8
 79
2
170
0
171
1
172
0
173
0
174
0
175
0
176
0
177
0
178
0
270
2
179
2
271
2
272
2
273
2
274
2
275
0
280
0
281
0
282
0
283
1
284
8
285
0
286
0
287
3
288
0
340
11
278
46
341
236
342
236
343
236
344
236
  0
ENDTAB
  0
ENDSEC
  0
SECTION
  2
BLOCKS
  0
BLOCK
  5
20
100
AcDbEntity
  8
0
100
AcDbBlockBegin
  2
*Model_Space
 70
0
 10
0.0
 20
0.0
 30
0.0
  3
*Model_Space
  1

  0
ENDBLK
  5
21
100
AcDbEntity
  8
0
100
AcDbBlockEnd
  0
BLOCK
  5
1C
100
AcDbEntity
  8
0
100
AcDbBlockBegin
  2
*Paper_Space
 70
0
 10
0.0
 20
0.0
 30
0.0
  3
*Paper_Space
  1

  0
ENDBLK
  5
1D
100
AcDbEntity
  8
0
100
AcDbBlockEnd
  0
BLOCK
  5
238
100
AcDbEntity
  8
0
100
AcDbBlockBegin
  2
_FILLED
 70
64
 10
0.0
 20
0.0
  3
_FILLED
  1

  0
SOLID
  5
239
100
AcDbEntity
  8
0
  6
BYBLOCK
 62
0
100
AcDbTrace
 10
0.0
 20
0.0
 11
-1.0
 21
0.25
 12
-1.0
 22
-0.25
 13
-1.0
 23
-0.25
  0
ENDBLK
  5
23A
100
AcDbEntity
  8
0
  6
BYBLOCK
 62
0
100
AcDbBlockEnd
  0
ENDSEC
  0
SECTION
  2
ENTITIES
  0
LINE
  5
23B
100
AcDbEntity
  8
00_COMPONENTS_4
100
AcDbLine
 62
7
  6
CONTINUOUS
 10
143.683676958
 20
109.1084606973
 11
143.6780137584
 21
109.1149663114
  0
LINE
  5
23C
100
AcDbEntity
  8
00_COMPONENTS_4
100
AcDbLine
 62
7
  6
CONTINUOUS
 10
877.2114175015
 20
109.1290108281
 11
877.2149700079
 21
109.1297283513
  0
LINE
  5
23D
100
AcDbEntity
  8
00_COMPONENTS_4
100
AcDbLine
 62
7
  6
CONTINUOUS
 10
831.2114175015
 20
109.1290108281
 11
831.2149700079
 21
109.1297283513
  0
LINE
  5
23E
100
AcDbEntity
  8
00_COMPONENTS_4
100
AcDbLine
 62
7
  6
CONTINUOUS
 10
711.2114175015
 20
109.1290108281
 11
711.2149700079
 21
109.1297283513
  0
LINE
  5
23F
100
AcDbEntity
  8
00_COMPONENTS_4
100
AcDbLine
 62
7
  6
CONTINUOUS
 10
877.2116493641
 20
109.129797892
 11
877.2151966159
 21
109.1304991542
  0
LINE
  5
240
100
AcDbEntity
  8
00_COMPONENTS_4
100
AcDbLine
 62
7
  6
CONTINUOUS
 10
831.2116493641
 20
109.129797892
 11
831.2151966159
 21
109.1304991542
  0
LINE
  5
241
100
AcDbEntity
  8
00_COMPONENTS_4
100
AcDbLine
 62
7
  6
CONTINUOUS
 10
711.2116493641
 20
109.129797892
 11
711.2151966159
 21
109.1304991542
  0
LINE
  5
242
100
AcDbEntity
  8
00_COMPONENTS_4
100
AcDbLine
 62
7
  6
CONTINUOUS
 10
877.0549657276
 20
109.1041802667
 11
877.0462893973
 21
109.1034436498
  0
LINE
  5
243
100
AcDbEntity
  8
00_COMPONENTS_4
100
AcDbLine
 62
7
  6
CONTINUOUS
 10
831.0549657276
 20
109.1041802667
 11
831.0462893973
 21
109.1034436498
  0
LINE
  5
244
100
AcDbEntity
  8
00_COMPONENTS_4
100
AcDbLine
 62
7
  6
CONTINUOUS
 10
143.7324296083
 20
109.1041801295
 11
143.7028155956
 21
109.1067413888
  0
LINE
  5
245
100
AcDbEntity
  8
00_COMPONENTS_4
100
AcDbLine
 62
7
  6
CONTINUOUS
 10
189.7324296083
 20
109.1041801295
 11
189.7028155956
 21
109.1067413888
  0
LINE
  5
246
100
AcDbEntity
  8
00_COMPONENTS_4
100
AcDbLine
 62
7
  6
CONTINUOUS
 10
143.7028155956
 20
109.1067413888
 11
143.683676958
 21
109.1084606973
  0
LINE
  5
247
100
AcDbEntity
  8
00_COMPONENTS_4
100
AcDbLine
 62
7
  6
CONTINUOUS
 10
189.7028155956
 20
109.1067413888
 11
189.683676958
 21
109.1084606973
  0
LINE
  5
248
100
AcDbEntity
  8
00_COMPONENTS_4
100
AcDbLine
 62
7
  6
CONTINUOUS
 10
143.5765771231
 20
109.1296334434
 11
143.5722193575
 21
109.1304949374
  0
LINE
  5
249
100
AcDbEntity
  8
00_COMPONENTS_4
100
AcDbLine
 62
7
  6
CONTINUOUS
 10
189.5765771231
 20
109.1296334434
 11
189.5722193575
 21
109.1304949374
  0
LINE
  5
24A
100
AcDbEntity
  8
00_COMPONENTS_4
100
AcDbLine
 62
7
  6
CONTINUOUS
 10
309.5765771231
 20
109.1296334434
 11
309.5722193575
 21
109.1304949374
  0
LINE
  5
24B
100
AcDbEntity
  8
00_COMPONENTS_4
100
AcDbLine
 62
7
  6
CONTINUOUS
 10
143.5723840294
 20
109.1359039881
 11
143.5775069032
 21
109.1348885441
  0
LINE
  5
24C
100
AcDbEntity
  8
00_COMPONENTS_4
100
AcDbLine
 62
7
  6
CONTINUOUS
 10
189.5723840294
 20
109.1359039881
 11
189.5775069032
 21
109.1348885441
  0
LINE
  5
24D
100
AcDbEntity
  8
00_COMPONENTS_4
100
AcDbLine
 62
7
  6
CONTINUOUS
 10
309.5723840294
 20
109.1359039881
 11
309.5775069032
 21
109.1348885441
  0
LINE
  5
24E
100
AcDbEntity
  8
00_COMPONENTS_4
100
AcDbLine
 62
7
  6
CONTINUOUS
 10
143.5768101069
 20
109.1288429529
 11
143.5724459993
 21
109.1297240288
  0
LINE
  5
24F
100
AcDbEntity
  8
00_COMPONENTS_4
100
AcDbLine
 62
7
  6
CONTINUOUS
 10
189.5768101069
 20
109.1288429529
 11
189.5724459993
 21
109.1297240288
  0
LINE
  5
250
100
AcDbEntity
  8
00_COMPONENTS_4
100
AcDbLine
 62
7
  6
CONTINUOUS
 10
309.5768101069
 20
109.1288429529
 11
309.5724459993
 21
109.1297240288
  0
LINE
  5
251
100
AcDbEntity
  8
00_COMPONENTS_4
100
AcDbLine
 62
7
  6
CONTINUOUS
 10
143.5727761122
 20
109.134555052
 11
143.5779121618
 21
109.1334984334
  0
LINE
  5
252
100
AcDbEntity
  8
00_COMPONENTS_4
100
AcDbLine
 62
7
  6
CONTINUOUS
 10
189.5727761122
 20
109.134555052
 11
189.5779121618
 21
109.1334984334
  0
LINE
  5
253
100
AcDbEntity
  8
00_COMPONENTS_4
100
AcDbLine
 62
7
  6
CONTINUOUS
 10
309.5727761122
 20
109.134555052
 11
309.5779121618
 21
109.1334984334
  0
LINE
  5
254
100
AcDbEntity
  8
00_COMPONENTS_4
100
AcDbLine
 62
7
  6
CONTINUOUS
 10
189.683676958
 20
109.1084606973
 11
189.6780137584
 21
109.1149663114
  0
LINE
  5
255
100
AcDbEntity
  8
00_COMPONENTS_4
100
AcDbLine
 62
7
  6
CONTINUOUS
 10
591.2114175015
 20
109.1290108281
 11
591.2149700079
 21
109.1297283513
  0
LINE
  5
256
100
AcDbEntity
  8
00_COMPONENTS_4
100
AcDbLine
 62
7
  6
CONTINUOUS
 10
545.2114175015
 20
109.1290108281
 11
545.2149700079
 21
109.1297283513
  0
LINE
  5
257
100
AcDbEntity
  8
00_COMPONENTS_4
100
AcDbLine
 62
7
  6
CONTINUOUS
 10
477.2114175015
 20
109.1290108281
 11
477.2149700079
 21
109.1297283513
  0
LINE
  5
258
100
AcDbEntity
  8
00_COMPONENTS_4
100
AcDbLine
 62
7
  6
CONTINUOUS
 10
431.2114175015
 20
109.1290108281
 11
431.2149700079
 21
109.1297283513
  0
LINE
  5
259
100
AcDbEntity
  8
00_COMPONENTS_4
100
AcDbLine
 62
7
  6
CONTINUOUS
 10
591.2116493641
 20
109.129797892
 11
591.2151966159
 21
109.1304991542
  0
LINE
  5
25A
100
AcDbEntity
  8
00_COMPONENTS_4
100
AcDbLine
 62
7
  6
CONTINUOUS
 10
545.2116493641
 20
109.129797892
 11
545.2151966159
 21
109.1304991542
  0
LINE
  5
25B
100
AcDbEntity
  8
00_COMPONENTS_4
100
AcDbLine
 62
7
  6
CONTINUOUS
 10
477.2116493641
 20
109.129797892
 11
477.2151966159
 21
109.1304991542
  0
LINE
  5
25C
100
AcDbEntity
  8
00_COMPONENTS_4
100
AcDbLine
 62
7
  6
CONTINUOUS
 10
431.2116493641
 20
109.129797892
 11
431.2151966159
 21
109.1304991542
  0
LINE
  5
25D
100
AcDbEntity
  8
00_COMPONENTS_4
100
AcDbLine
 62
7
  6
CONTINUOUS
 10
711.0549657276
 20
109.1041802667
 11
711.0462893973
 21
109.1034436498
  0
LINE
  5
25E
100
AcDbEntity
  8
00_COMPONENTS_4
100
AcDbLine
 62
7
  6
CONTINUOUS
 10
591.0549657276
 20
109.1041802667
 11
591.0462893973
 21
109.1034436498
  0
LINE
  5
25F
100
AcDbEntity
  8
00_COMPONENTS_4
100
AcDbLine
 62
7
  6
CONTINUOUS
 10
545.0549657276
 20
109.1041802667
 11
545.0462893973
 21
109.1034436498
  0
LINE
  5
260
100
AcDbEntity
  8
00_COMPONENTS_4
100
AcDbLine
 62
7
  6
CONTINUOUS
 10
477.0549657276
 20
109.1041802667
 11
477.0462893973
 21
109.1034436498
  0
LINE
  5
261
100
AcDbEntity
  8
00_COMPONENTS_4
100
AcDbLine
 62
7
  6
CONTINUOUS
 10
431.0549657276
 20
109.1041802667
 11
431.0462893973
 21
109.1034436498
  0
LINE
  5
262
100
AcDbEntity
  8
00_COMPONENTS_4
100
AcDbLine
 62
7
  6
CONTINUOUS
 10
311.0549657276
 20
109.1041802667
 11
311.0462893973
 21
109.1034436498
  0
LINE
  5
263
100
AcDbEntity
  8
00_COMPONENTS_4
100
AcDbLine
 62
7
  6
CONTINUOUS
 10
191.0549657276
 20
109.1041802667
 11
191.0462893973
 21
109.1034436498
  0
LINE
  5
264
100
AcDbEntity
  8
00_COMPONENTS_4
100
AcDbLine
 62
7
  6
CONTINUOUS
 10
878.4558037601
 20
109.3085983852
 11
878.3904591911
 21
109.3085983852
  0
LINE
  5
265
100
AcDbEntity
  8
00_COMPONENTS_4
100
AcDbLine
 62
7
  6
CONTINUOUS
 10
876.9086973218
 20
109.3085983852
 11
875.8786973218
 21
109.3085983852
  0
LINE
  5
266
100
AcDbEntity
  8
00_COMPONENTS_4
100
AcDbLine
 62
7
  6
CONTINUOUS
 10
874.3969354525
 20
109.3085983852
 11
874.3315908835
 21
109.3085983852
  0
LINE
  5
267
100
AcDbEntity
  8
00_COMPONENTS_4
100
AcDbLine
 62
7
  6
CONTINUOUS
 10
832.4558037601
 20
109.3085983852
 11
832.3904591911
 21
109.3085983852
  0
LINE
  5
268
100
AcDbEntity
  8
00_COMPONENTS_4
100
AcDbLine
 62
7
  6
CONTINUOUS
 10
830.9086973218
 20
109.3085983852
 11
829.8786973218
 21
109.3085983852
  0
LINE
  5
269
100
AcDbEntity
  8
00_COMPONENTS_4
100
AcDbLine
 62
7
  6
CONTINUOUS
 10
828.3969354525
 20
109.3085983852
 11
828.3315908835
 21
109.3085983852
  0
LINE
  5
26A
100
AcDbEntity
  8
00_COMPONENTS_4
100
AcDbLine
 62
7
  6
CONTINUOUS
 10
712.4558037601
 20
109.3085983852
 11
712.3904591911
 21
109.3085983852
  0
LINE
  5
26B
100
AcDbEntity
  8
00_COMPONENTS_4
100
AcDbLine
 62
7
  6
CONTINUOUS
 10
710.9086973218
 20
109.3085983852
 11
709.8786973218
 21
109.3085983852
  0
LINE
  5
26C
100
AcDbEntity
  8
00_COMPONENTS_4
100
AcDbLine
 62
7
  6
CONTINUOUS
 10
708.3969354525
 20
109.3085983852
 11
708.3315908835
 21
109.3085983852
  0
LINE
  5
26D
100
AcDbEntity
  8
00_COMPONENTS_4
100
AcDbLine
 62
7
  6
CONTINUOUS
 10
592.4558037601
 20
109.3085983852
 11
592.3904591911
 21
109.3085983852
  0
LINE
  5
26E
100
AcDbEntity
  8
00_COMPONENTS_4
100
AcDbLine
 62
7
  6
CONTINUOUS
 10
590.9086973218
 20
109.3085983852
 11
589.8786973218
 21
109.3085983852
  0
LINE
  5
26F
100
AcDbEntity
  8
00_COMPONENTS_4
100
AcDbLine
 62
7
  6
CONTINUOUS
 10
588.3969354525
 20
109.3085983852
 11
588.3315908835
 21
109.3085983852
  0
LINE
  5
270
100
AcDbEntity
  8
00_COMPONENTS_4
100
AcDbLine
 62
7
  6
CONTINUOUS
 10
546.4558037601
 20
109.3085983852
 11
546.3904591911
 21
109.3085983852
  0
LINE
  5
271
100
AcDbEntity
  8
00_COMPONENTS_4
100
AcDbLine
 62
7
  6
CONTINUOUS
 10
544.9086973218
 20
109.3085983852
 11
543.8786973218
 21
109.3085983852
  0
LINE
  5
272
100
AcDbEntity
  8
00_COMPONENTS_4
100
AcDbLine
 62
7
  6
CONTINUOUS
 10
542.3969354525
 20
109.3085983852
 11
542.3315908835
 21
109.3085983852
  0
LINE
  5
273
100
AcDbEntity
  8
00_COMPONENTS_4
100
AcDbLine
 62
7
  6
CONTINUOUS
 10
478.4558037601
 20
109.3085983852
 11
478.3904591911
 21
109.3085983852
  0
LINE
  5
274
100
AcDbEntity
  8
00_COMPONENTS_4
100
AcDbLine
 62
7
  6
CONTINUOUS
 10
476.9086973218
 20
109.3085983852
 11
475.8786973218
 21
109.3085983852
  0
LINE
  5
275
100
AcDbEntity
  8
00_COMPONENTS_4
100
AcDbLine
 62
7
  6
CONTINUOUS
 10
474.3969354525
 20
109.3085983852
 11
474.3315908835
 21
109.3085983852
  0
LINE
  5
276
100
AcDbEntity
  8
00_COMPONENTS_4
100
AcDbLine
 62
7
  6
CONTINUOUS
 10
432.4558037601
 20
109.3085983852
 11
432.3904591911
 21
109.3085983852
  0
LINE
  5
277
100
AcDbEntity
  8
00_COMPONENTS_4
100
AcDbLine
 62
7
  6
CONTINUOUS
 10
430.9086973218
 20
109.3085983852
 11
429.8786973218
 21
109.3085983852
  0
LINE
  5
278
100
AcDbEntity
  8
00_COMPONENTS_4
100
AcDbLine
 62
7
  6
CONTINUOUS
 10
428.3969354525
 20
109.3085983852
 11
428.3315908835
 21
109.3085983852
  0
LINE
  5
279
100
AcDbEntity
  8
00_COMPONENTS_4
100
AcDbLine
 62
7
  6
CONTINUOUS
 10
312.4558037601
 20
109.3085983852
 11
312.3904591911
 21
109.3085983852
  0
LINE
  5
27A
100
AcDbEntity
  8
00_COMPONENTS_4
100
AcDbLine
 62
7
  6
CONTINUOUS
 10
310.9086973218
 20
109.3085983852
 11
309.8786973218
 21
109.3085983852
  0
LINE
  5
27B
100
AcDbEntity
  8
00_COMPONENTS_4
100
AcDbLine
 62
7
  6
CONTINUOUS
 10
308.3969354525
 20
109.3085983852
 11
308.3315908835
 21
109.3085983852
  0
LINE
  5
27C
100
AcDbEntity
  8
00_COMPONENTS_4
100
AcDbLine
 62
7
  6
CONTINUOUS
 10
192.4558037601
 20
109.3085983852
 11
192.3904591911
 21
109.3085983852
  0
LINE
  5
27D
100
AcDbEntity
  8
00_COMPONENTS_4
100
AcDbLine
 62
7
  6
CONTINUOUS
 10
190.9086973218
 20
109.3085983852
 11
189.8786973218
 21
109.3085983852
  0
LINE
  5
27E
100
AcDbEntity
  8
00_COMPONENTS_4
100
AcDbLine
 62
7
  6
CONTINUOUS
 10
188.3969354525
 20
109.3085983852
 11
188.3315908835
 21
109.3085983852
  0
LINE
  5
27F
100
AcDbEntity
  8
00_COMPONENTS_4
100
AcDbLine
 62
7
  6
CONTINUOUS
 10
146.4558037601
 20
109.3085983852
 11
146.3904591911
 21
109.3085983852
  0
LINE
  5
280
100
AcDbEntity
  8
00_COMPONENTS_4
100
AcDbLine
 62
7
  6
CONTINUOUS
 10
144.9086973218
 20
109.3085983852
 11
143.8786973218
 21
109.3085983852
  0
LINE
  5
281
100
AcDbEntity
  8
00_COMPONENTS_4
100
AcDbLine
 62
7
  6
CONTINUOUS
 10
142.3969354525
 20
109.3085983852
 11
142.3315908835
 21
109.3085983852
  0
LINE
  5
282
100
AcDbEntity
  8
00_COMPONENTS_16
100
AcDbLine
 62
7
  6
CONTINUOUS
 10
908.8936973218
 20
109.6329397924
 11
111.8936973218
 21
109.6329397924
  0
LINE
  5
283
100
AcDbEntity
  8
00_COMPONENTS_16
100
AcDbLine
 62
7
  6
CONTINUOUS
 10
910.3936973218
 20
111.1329397924
 11
908.8936973218
 21
111.1329397924
  0
LINE
  5
284
100
AcDbEntity
  8
00_COMPONENTS_16
100
AcDbLine
 62
7
  6
CONTINUOUS
 10
111.8936973218
 20
111.1329397924
 11
110.3936973218
 21
111.1329397924
  0
LINE
  5
285
100
AcDbEntity
  8
00_COMPONENTS_3
100
AcDbLine
 62
7
  6
CONTINUOUS
 10
908.2371311234
 20
112.1329397924
 11
907.6603391457
 21
112.1329397924
  0
LINE
  5
286
100
AcDbEntity
  8
00_COMPONENTS_3
100
AcDbLine
 62
7
  6
CONTINUOUS
 10
112.7371311207
 20
112.1329397924
 11
113.1270358576
 21
112.1329397924
  0
LINE
  5
287
100
AcDbEntity
  8
00_COMPONENTS_16
100
AcDbLine
 62
7
  6
CONTINUOUS
 10
113.5936973218
 20
112.8329397924
 11
907.1936973218
 21
112.8329397924
  0
LINE
  5
288
100
AcDbEntity
  8
00_COMPONENTS_16
100
AcDbLine
 62
7
  6
CONTINUOUS
 10
890.0802497552
 20
127.2067457842
 11
886.7216410376
 21
127.2067457842
  0
LINE
  5
289
100
AcDbEntity
  8
00_COMPONENTS_16
100
AcDbLine
 62
7
  6
CONTINUOUS
 10
134.0802497552
 20
127.2067457842
 11
130.7216410376
 21
127.2067457842
  0
LINE
  5
28A
100
AcDbEntity
  8
00_COMPONENTS_16
100
AcDbLine
 62
7
  6
CONTINUOUS
 10
131.4675033136
 20
130.7067457842
 11
137.1412092083
 21
130.7067457842
  0
LINE
  5
28B
100
AcDbEntity
  8
00_COMPONENTS_16
100
AcDbLine
 62
7
  6
CONTINUOUS
 10
883.6551598292
 20
130.7067457842
 11
889.31989133
 21
130.7067457842
  0
LINE
  5
28C
100
AcDbEntity
  8
00_COMPONENTS_2
100
AcDbLine
 62
7
  6
CONTINUOUS
 10
886.885273978
 20
136.1329397924
 11
889.31989133
 21
136.1329397924
  0
LINE
  5
28D
100
AcDbEntity
  8
00_COMPONENTS_2
100
AcDbLine
 62
7
  6
CONTINUOUS
 10
134.2309192894
 20
136.1329498099
 11
131.4675033136
 21
136.1329498099
  0
LINE
  5
28E
100
AcDbEntity
  8
00_COMPONENTS_4
100
AcDbLine
 62
7
  6
CONTINUOUS
 10
829.7324296083
 20
109.1041801295
 11
829.721958397
 21
109.1050690363
  0
LINE
  5
28F
100
AcDbEntity
  8
00_COMPONENTS_4
100
AcDbLine
 62
7
  6
CONTINUOUS
 10
309.7324296083
 20
109.1041801295
 11
309.7028155956
 21
109.1067413888
  0
LINE
  5
290
100
AcDbEntity
  8
00_COMPONENTS_4
100
AcDbLine
 62
7
  6
CONTINUOUS
 10
429.7324296083
 20
109.1041801295
 11
429.7028155956
 21
109.1067413888
  0
LINE
  5
291
100
AcDbEntity
  8
00_COMPONENTS_4
100
AcDbLine
 62
7
  6
CONTINUOUS
 10
475.7324296083
 20
109.1041801295
 11
475.7028155956
 21
109.1067413888
  0
LINE
  5
292
100
AcDbEntity
  8
00_COMPONENTS_4
100
AcDbLine
 62
7
  6
CONTINUOUS
 10
543.7324296083
 20
109.1041801295
 11
543.7028155956
 21
109.1067413888
  0
LINE
  5
293
100
AcDbEntity
  8
00_COMPONENTS_4
100
AcDbLine
 62
7
  6
CONTINUOUS
 10
589.7324296083
 20
109.1041801295
 11
589.7028155956
 21
109.1067413888
  0
LINE
  5
294
100
AcDbEntity
  8
00_COMPONENTS_4
100
AcDbLine
 62
7
  6
CONTINUOUS
 10
709.7324296083
 20
109.1041801295
 11
709.7028155956
 21
109.1067413888
  0
LINE
  5
295
100
AcDbEntity
  8
00_COMPONENTS_4
100
AcDbLine
 62
7
  6
CONTINUOUS
 10
309.7028155956
 20
109.1067413888
 11
309.683676958
 21
109.1084606973
  0
LINE
  5
296
100
AcDbEntity
  8
00_COMPONENTS_4
100
AcDbLine
 62
7
  6
CONTINUOUS
 10
429.7028155956
 20
109.1067413888
 11
429.683676958
 21
109.1084606973
  0
LINE
  5
297
100
AcDbEntity
  8
00_COMPONENTS_4
100
AcDbLine
 62
7
  6
CONTINUOUS
 10
475.7028155956
 20
109.1067413888
 11
475.683676958
 21
109.1084606973
  0
LINE
  5
298
100
AcDbEntity
  8
00_COMPONENTS_4
100
AcDbLine
 62
7
  6
CONTINUOUS
 10
543.7028155956
 20
109.1067413888
 11
543.683676958
 21
109.1084606973
  0
LINE
  5
299
100
AcDbEntity
  8
00_COMPONENTS_4
100
AcDbLine
 62
7
  6
CONTINUOUS
 10
589.7028155956
 20
109.1067413888
 11
589.683676958
 21
109.1084606973
  0
LINE
  5
29A
100
AcDbEntity
  8
00_COMPONENTS_4
100
AcDbLine
 62
7
  6
CONTINUOUS
 10
709.7028155956
 20
109.1067413888
 11
709.683676958
 21
109.1084606973
  0
LINE
  5
29B
100
AcDbEntity
  8
00_COMPONENTS_4
100
AcDbLine
 62
7
  6
CONTINUOUS
 10
429.5765771231
 20
109.1296334434
 11
429.5722193575
 21
109.1304949374
  0
LINE
  5
29C
100
AcDbEntity
  8
00_COMPONENTS_4
100
AcDbLine
 62
7
  6
CONTINUOUS
 10
475.5765771231
 20
109.1296334434
 11
475.5722193575
 21
109.1304949374
  0
LINE
  5
29D
100
AcDbEntity
  8
00_COMPONENTS_4
100
AcDbLine
 62
7
  6
CONTINUOUS
 10
543.5765771231
 20
109.1296334434
 11
543.5722193575
 21
109.1304949374
  0
LINE
  5
29E
100
AcDbEntity
  8
00_COMPONENTS_4
100
AcDbLine
 62
7
  6
CONTINUOUS
 10
589.5765771231
 20
109.1296334434
 11
589.5722193575
 21
109.1304949374
  0
LINE
  5
29F
100
AcDbEntity
  8
00_COMPONENTS_4
100
AcDbLine
 62
7
  6
CONTINUOUS
 10
429.5723840294
 20
109.1359039881
 11
429.5775069032
 21
109.1348885441
  0
LINE
  5
2A0
100
AcDbEntity
  8
00_COMPONENTS_4
100
AcDbLine
 62
7
  6
CONTINUOUS
 10
475.5723840294
 20
109.1359039881
 11
475.5775069032
 21
109.1348885441
  0
LINE
  5
2A1
100
AcDbEntity
  8
00_COMPONENTS_4
100
AcDbLine
 62
7
  6
CONTINUOUS
 10
543.5723840294
 20
109.1359039881
 11
543.5775069032
 21
109.1348885441
  0
LINE
  5
2A2
100
AcDbEntity
  8
00_COMPONENTS_4
100
AcDbLine
 62
7
  6
CONTINUOUS
 10
589.5723840294
 20
109.1359039881
 11
589.5775069032
 21
109.1348885441
  0
LINE
  5
2A3
100
AcDbEntity
  8
00_COMPONENTS_4
100
AcDbLine
 62
7
  6
CONTINUOUS
 10
429.5768101069
 20
109.1288429529
 11
429.5724459993
 21
109.1297240288
  0
LINE
  5
2A4
100
AcDbEntity
  8
00_COMPONENTS_4
100
AcDbLine
 62
7
  6
CONTINUOUS
 10
475.5768101069
 20
109.1288429529
 11
475.5724459993
 21
109.1297240288
  0
LINE
  5
2A5
100
AcDbEntity
  8
00_COMPONENTS_4
100
AcDbLine
 62
7
  6
CONTINUOUS
 10
543.5768101069
 20
109.1288429529
 11
543.5724459993
 21
109.1297240288
  0
LINE
  5
2A6
100
AcDbEntity
  8
00_COMPONENTS_4
100
AcDbLine
 62
7
  6
CONTINUOUS
 10
589.5768101069
 20
109.1288429529
 11
589.5724459993
 21
109.1297240288
  0
LINE
  5
2A7
100
AcDbEntity
  8
00_COMPONENTS_4
100
AcDbLine
 62
7
  6
CONTINUOUS
 10
429.5727761122
 20
109.134555052
 11
429.5779121618
 21
109.1334984334
  0
LINE
  5
2A8
100
AcDbEntity
  8
00_COMPONENTS_4
100
AcDbLine
 62
7
  6
CONTINUOUS
 10
475.5727761122
 20
109.134555052
 11
475.5779121618
 21
109.1334984334
  0
LINE
  5
2A9
100
AcDbEntity
  8
00_COMPONENTS_4
100
AcDbLine
 62
7
  6
CONTINUOUS
 10
543.5727761122
 20
109.134555052
 11
543.5779121618
 21
109.1334984334
  0
LINE
  5
2AA
100
AcDbEntity
  8
00_COMPONENTS_4
100
AcDbLine
 62
7
  6
CONTINUOUS
 10
589.5727761122
 20
109.134555052
 11
589.5779121618
 21
109.1334984334
  0
LINE
  5
2AB
100
AcDbEntity
  8
00_COMPONENTS_4
100
AcDbLine
 62
7
  6
CONTINUOUS
 10
311.2114175015
 20
109.1290108281
 11
311.2149700079
 21
109.1297283513
  0
LINE
  5
2AC
100
AcDbEntity
  8
00_COMPONENTS_4
100
AcDbLine
 62
7
  6
CONTINUOUS
 10
191.2114175015
 20
109.1290108281
 11
191.2149700079
 21
109.1297283513
  0
LINE
  5
2AD
100
AcDbEntity
  8
00_COMPONENTS_4
100
AcDbLine
 62
7
  6
CONTINUOUS
 10
311.2116493641
 20
109.129797892
 11
311.2151966159
 21
109.1304991542
  0
LINE
  5
2AE
100
AcDbEntity
  8
00_COMPONENTS_4
100
AcDbLine
 62
7
  6
CONTINUOUS
 10
191.2116493641
 20
109.129797892
 11
191.2151966159
 21
109.1304991542
  0
LINE
  5
2AF
100
AcDbEntity
  8
00_COMPONENTS_4
100
AcDbLine
 62
7
  6
CONTINUOUS
 10
145.0549657276
 20
109.1041802667
 11
145.0462893973
 21
109.1034436498
  0
LINE
  5
2B0
100
AcDbEntity
  8
00_COMPONENTS_4
100
AcDbLine
 62
7
  6
CONTINUOUS
 10
875.7324296083
 20
109.1041801295
 11
875.7028155956
 21
109.1067413888
  0
LINE
  5
2B1
100
AcDbEntity
  8
00_COMPONENTS_4
100
AcDbLine
 62
7
  6
CONTINUOUS
 10
829.721958397
 20
109.1050690363
 11
829.683676958
 21
109.1084606973
  0
LINE
  5
2B2
100
AcDbEntity
  8
00_COMPONENTS_4
100
AcDbLine
 62
7
  6
CONTINUOUS
 10
875.7028155956
 20
109.1067413888
 11
875.683676958
 21
109.1084606973
  0
LINE
  5
2B3
100
AcDbEntity
  8
00_COMPONENTS_4
100
AcDbLine
 62
7
  6
CONTINUOUS
 10
709.5765771231
 20
109.1296334434
 11
709.5722193575
 21
109.1304949374
  0
LINE
  5
2B4
100
AcDbEntity
  8
00_COMPONENTS_4
100
AcDbLine
 62
7
  6
CONTINUOUS
 10
829.5765771231
 20
109.1296334434
 11
829.5722193575
 21
109.1304949374
  0
LINE
  5
2B5
100
AcDbEntity
  8
00_COMPONENTS_4
100
AcDbLine
 62
7
  6
CONTINUOUS
 10
709.5723840294
 20
109.1359039881
 11
709.5775069032
 21
109.1348885441
  0
LINE
  5
2B6
100
AcDbEntity
  8
00_COMPONENTS_4
100
AcDbLine
 62
7
  6
CONTINUOUS
 10
829.5723840294
 20
109.1359039881
 11
829.5775069032
 21
109.1348885441
  0
LINE
  5
2B7
100
AcDbEntity
  8
00_COMPONENTS_4
100
AcDbLine
 62
7
  6
CONTINUOUS
 10
709.5768101069
 20
109.1288429529
 11
709.5724459993
 21
109.1297240288
  0
LINE
  5
2B8
100
AcDbEntity
  8
00_COMPONENTS_4
100
AcDbLine
 62
7
  6
CONTINUOUS
 10
829.5768101069
 20
109.1288429529
 11
829.5724459993
 21
109.1297240288
  0
LINE
  5
2B9
100
AcDbEntity
  8
00_COMPONENTS_4
100
AcDbLine
 62
7
  6
CONTINUOUS
 10
709.5727761122
 20
109.134555052
 11
709.5779121618
 21
109.1334984334
  0
LINE
  5
2BA
100
AcDbEntity
  8
00_COMPONENTS_4
100
AcDbLine
 62
7
  6
CONTINUOUS
 10
829.5727761122
 20
109.134555052
 11
829.5779121618
 21
109.1334984334
  0
LINE
  5
2BB
100
AcDbEntity
  8
00_COMPONENTS_4
100
AcDbLine
 62
7
  6
CONTINUOUS
 10
309.683676958
 20
109.1084606973
 11
309.6780137584
 21
109.1149663114
  0
LINE
  5
2BC
100
AcDbEntity
  8
00_COMPONENTS_4
100
AcDbLine
 62
7
  6
CONTINUOUS
 10
145.2114175015
 20
109.1290108281
 11
145.2149700079
 21
109.1297283513
  0
LINE
  5
2BD
100
AcDbEntity
  8
00_COMPONENTS_4
100
AcDbLine
 62
7
  6
CONTINUOUS
 10
145.2116493641
 20
109.129797892
 11
145.2151966159
 21
109.1304991542
  0
LINE
  5
2BE
100
AcDbEntity
  8
00_COMPONENTS_4
100
AcDbLine
 62
7
  6
CONTINUOUS
 10
875.5765771231
 20
109.1296334434
 11
875.5722193575
 21
109.1304949374
  0
LINE
  5
2BF
100
AcDbEntity
  8
00_COMPONENTS_4
100
AcDbLine
 62
7
  6
CONTINUOUS
 10
875.5723840294
 20
109.1359039881
 11
875.5775069032
 21
109.1348885441
  0
LINE
  5
2C0
100
AcDbEntity
  8
00_COMPONENTS_4
100
AcDbLine
 62
7
  6
CONTINUOUS
 10
875.5768101069
 20
109.1288429529
 11
875.5724459993
 21
109.1297240288
  0
LINE
  5
2C1
100
AcDbEntity
  8
00_COMPONENTS_4
100
AcDbLine
 62
7
  6
CONTINUOUS
 10
875.5727761122
 20
109.134555052
 11
875.5779121618
 21
109.1334984334
  0
LINE
  5
2C2
100
AcDbEntity
  8
00_COMPONENTS_4
100
AcDbLine
 62
7
  6
CONTINUOUS
 10
429.683676958
 20
109.1084606973
 11
429.6780137584
 21
109.1149663114
  0
LINE
  5
2C3
100
AcDbEntity
  8
00_COMPONENTS_4
100
AcDbLine
 62
7
  6
CONTINUOUS
 10
145.21586755
 20
109.1084606973
 11
145.2151966159
 21
109.1304991542
  0
LINE
  5
2C4
100
AcDbEntity
  8
00_COMPONENTS_4
100
AcDbLine
 62
7
  6
CONTINUOUS
 10
145.2159950248
 20
109.1034436498
 11
145.21586755
 21
109.1084606973
  0
LINE
  5
2C5
100
AcDbEntity
  8
00_COMPONENTS_16
100
AcDbLine
 62
7
  6
CONTINUOUS
 10
110.3936973218
 20
111.1329397924
 11
110.3936973218
 21
1308.1329397924
  0
LINE
  5
2C6
100
AcDbEntity
  8
00_COMPONENTS_16
100
AcDbLine
 62
7
  6
CONTINUOUS
 10
111.8936973218
 20
109.6329397924
 11
111.8936973218
 21
111.1329397924
  0
LINE
  5
2C7
100
AcDbEntity
  8
00_COMPONENTS_16
100
AcDbLine
 62
7
  6
CONTINUOUS
 10
111.8936973218
 20
1308.1329397924
 11
111.8936973218
 21
1309.6329397924
  0
LINE
  5
2C8
100
AcDbEntity
  8
00_COMPONENTS_3
100
AcDbLine
 62
7
  6
CONTINUOUS
 10
112.7371311234
 20
111.6646157375
 11
112.7371311234
 21
112.1329397924
  0
LINE
  5
2C9
100
AcDbEntity
  8
00_COMPONENTS_3
100
AcDbLine
 62
7
  6
CONTINUOUS
 10
112.7371311234
 20
1307.0056025142
 11
112.7371311234
 21
1307.6329397924
  0
LINE
  5
2CA
100
AcDbEntity
  8
00_COMPONENTS_16
100
AcDbLine
 62
7
  6
CONTINUOUS
 10
113.5936973218
 20
1306.4329397924
 11
113.5936973218
 21
112.8329397924
  0
LINE
  5
2CB
100
AcDbEntity
  8
00_COMPONENTS_16
100
AcDbLine
 62
7
  6
CONTINUOUS
 10
127.9675033136
 20
129.9416381909
 11
127.9675033136
 21
133.3308196887
  0
LINE
  5
2CC
100
AcDbEntity
  8
00_COMPONENTS_16
100
AcDbLine
 62
7
  6
CONTINUOUS
 10
127.9675033136
 20
1285.9416381909
 11
127.9675033136
 21
1289.3308196887
  0
LINE
  5
2CD
100
AcDbEntity
  8
00_COMPONENTS_16
100
AcDbLine
 62
7
  6
CONTINUOUS
 10
131.4675033136
 20
130.7067457842
 11
131.4675033136
 21
136.7579397924
  0
LINE
  5
2CE
100
AcDbEntity
  8
00_COMPONENTS_16
100
AcDbLine
 62
7
  6
CONTINUOUS
 10
131.4675033136
 20
1282.5079397924
 11
131.4675033136
 21
1288.5591338007
  0
LINE
  5
2CF
100
AcDbEntity
  8
00_COMPONENTS_4
100
AcDbLine
 62
7
  6
CONTINUOUS
 10
475.683676958
 20
109.1084606973
 11
475.6780137584
 21
109.1149663114
  0
LINE
  5
2D0
100
AcDbEntity
  8
00_COMPONENTS_4
100
AcDbLine
 62
7
  6
CONTINUOUS
 10
191.21586755
 20
109.1084606973
 11
191.2151966159
 21
109.1304991542
  0
LINE
  5
2D1
100
AcDbEntity
  8
00_COMPONENTS_4
100
AcDbLine
 62
7
  6
CONTINUOUS
 10
191.2159950248
 20
109.1034436498
 11
191.21586755
 21
109.1084606973
  0
LINE
  5
2D2
100
AcDbEntity
  8
00_COMPONENTS_2
100
AcDbLine
 62
7
  6
CONTINUOUS
 10
136.7371311234
 20
133.6267816341
 11
136.7371311234
 21
130.4682937948
  0
LINE
  5
2D3
100
AcDbEntity
  8
00_COMPONENTS_2
100
AcDbLine
 62
7
  6
CONTINUOUS
 10
136.7371311234
 20
1285.7363006991
 11
136.7371311234
 21
1289.5269684098
  0
LINE
  5
2D4
100
AcDbEntity
  8
00_COMPONENTS_4
100
AcDbLine
 62
7
  6
CONTINUOUS
 10
143.8786973218
 20
109.108838903
 11
143.8786973218
 21
109.3085983852
  0
LINE
  5
2D5
100
AcDbEntity
  8
00_COMPONENTS_4
100
AcDbLine
 62
7
  6
CONTINUOUS
 10
144.9086973218
 20
109.3085983852
 11
144.9086973218
 21
109.108838903
  0
LINE
  5
2D6
100
AcDbEntity
  8
00_COMPONENTS_4
100
AcDbLine
 62
7
  6
CONTINUOUS
 10
143.5714179233
 20
109.1041698877
 11
143.5713996188
 21
109.1034436498
  0
LINE
  5
2D7
100
AcDbEntity
  8
00_COMPONENTS_4
100
AcDbLine
 62
7
  6
CONTINUOUS
 10
143.5723840294
 20
109.1359039881
 11
143.5714179233
 21
109.1041698877
  0
LINE
  5
2D8
100
AcDbEntity
  8
00_COMPONENTS_4
100
AcDbLine
 62
7
  6
CONTINUOUS
 10
543.683676958
 20
109.1084606973
 11
543.6780137584
 21
109.1149663114
  0
LINE
  5
2D9
100
AcDbEntity
  8
00_COMPONENTS_4
100
AcDbLine
 62
7
  6
CONTINUOUS
 10
589.683676958
 20
109.1084606973
 11
589.6780137584
 21
109.1149663114
  0
LINE
  5
2DA
100
AcDbEntity
  8
00_COMPONENTS_4
100
AcDbLine
 62
7
  6
CONTINUOUS
 10
189.8786973218
 20
109.108838903
 11
189.8786973218
 21
109.3085983852
  0
LINE
  5
2DB
100
AcDbEntity
  8
00_COMPONENTS_4
100
AcDbLine
 62
7
  6
CONTINUOUS
 10
190.9086973218
 20
109.3085983852
 11
190.9086973218
 21
109.108838903
  0
LINE
  5
2DC
100
AcDbEntity
  8
00_COMPONENTS_4
100
AcDbLine
 62
7
  6
CONTINUOUS
 10
189.5714179233
 20
109.1041698877
 11
189.5713996188
 21
109.1034436498
  0
LINE
  5
2DD
100
AcDbEntity
  8
00_COMPONENTS_4
100
AcDbLine
 62
7
  6
CONTINUOUS
 10
189.5723840294
 20
109.1359039881
 11
189.5714179233
 21
109.1041698877
  0
LINE
  5
2DE
100
AcDbEntity
  8
00_COMPONENTS_4
100
AcDbLine
 62
7
  6
CONTINUOUS
 10
709.683676958
 20
109.1084606973
 11
709.6780137584
 21
109.1149663114
  0
LINE
  5
2DF
100
AcDbEntity
  8
00_COMPONENTS_4
100
AcDbLine
 62
7
  6
CONTINUOUS
 10
311.21586755
 20
109.1084606973
 11
311.2151966159
 21
109.1304991542
  0
LINE
  5
2E0
100
AcDbEntity
  8
00_COMPONENTS_4
100
AcDbLine
 62
7
  6
CONTINUOUS
 10
311.2159950248
 20
109.1034436498
 11
311.21586755
 21
109.1084606973
  0
LINE
  5
2E1
100
AcDbEntity
  8
00_COMPONENTS_4
100
AcDbLine
 62
7
  6
CONTINUOUS
 10
309.8786973218
 20
109.108838903
 11
309.8786973218
 21
109.3085983852
  0
LINE
  5
2E2
100
AcDbEntity
  8
00_COMPONENTS_4
100
AcDbLine
 62
7
  6
CONTINUOUS
 10
310.9086973218
 20
109.3085983852
 11
310.9086973218
 21
109.108838903
  0
LINE
  5
2E3
100
AcDbEntity
  8
00_COMPONENTS_4
100
AcDbLine
 62
7
  6
CONTINUOUS
 10
309.5714179233
 20
109.1041698877
 11
309.5713996188
 21
109.1034436498
  0
LINE
  5
2E4
100
AcDbEntity
  8
00_COMPONENTS_4
100
AcDbLine
 62
7
  6
CONTINUOUS
 10
309.5723840294
 20
109.1359039881
 11
309.5714179233
 21
109.1041698877
  0
LINE
  5
2E5
100
AcDbEntity
  8
00_COMPONENTS_4
100
AcDbLine
 62
7
  6
CONTINUOUS
 10
829.683676958
 20
109.1084606973
 11
829.6780137584
 21
109.1149663114
  0
LINE
  5
2E6
100
AcDbEntity
  8
00_COMPONENTS_4
100
AcDbLine
 62
7
  6
CONTINUOUS
 10
431.21586755
 20
109.1084606973
 11
431.2151966159
 21
109.1304991542
  0
LINE
  5
2E7
100
AcDbEntity
  8
00_COMPONENTS_4
100
AcDbLine
 62
7
  6
CONTINUOUS
 10
431.2159950248
 20
109.1034436498
 11
431.21586755
 21
109.1084606973
  0
LINE
  5
2E8
100
AcDbEntity
  8
00_COMPONENTS_4
100
AcDbLine
 62
7
  6
CONTINUOUS
 10
875.683676958
 20
109.1084606973
 11
875.6780137584
 21
109.1149663114
  0
LINE
  5
2E9
100
AcDbEntity
  8
00_COMPONENTS_4
100
AcDbLine
 62
7
  6
CONTINUOUS
 10
477.21586755
 20
109.1084606973
 11
477.2151966159
 21
109.1304991542
  0
LINE
  5
2EA
100
AcDbEntity
  8
00_COMPONENTS_4
100
AcDbLine
 62
7
  6
CONTINUOUS
 10
477.2159950248
 20
109.1034436498
 11
477.21586755
 21
109.1084606973
  0
LINE
  5
2EB
100
AcDbEntity
  8
00_COMPONENTS_4
100
AcDbLine
 62
7
  6
CONTINUOUS
 10
429.8786973218
 20
109.108838903
 11
429.8786973218
 21
109.3085983852
  0
LINE
  5
2EC
100
AcDbEntity
  8
00_COMPONENTS_4
100
AcDbLine
 62
7
  6
CONTINUOUS
 10
430.9086973218
 20
109.3085983852
 11
430.9086973218
 21
109.108838903
  0
LINE
  5
2ED
100
AcDbEntity
  8
00_COMPONENTS_4
100
AcDbLine
 62
7
  6
CONTINUOUS
 10
429.5714179233
 20
109.1041698877
 11
429.5713996188
 21
109.1034436498
  0
LINE
  5
2EE
100
AcDbEntity
  8
00_COMPONENTS_4
100
AcDbLine
 62
7
  6
CONTINUOUS
 10
429.5723840294
 20
109.1359039881
 11
429.5714179233
 21
109.1041698877
  0
LINE
  5
2EF
100
AcDbEntity
  8
00_COMPONENTS_4
100
AcDbLine
 62
7
  6
CONTINUOUS
 10
475.8786973218
 20
109.108838903
 11
475.8786973218
 21
109.3085983852
  0
LINE
  5
2F0
100
AcDbEntity
  8
00_COMPONENTS_4
100
AcDbLine
 62
7
  6
CONTINUOUS
 10
476.9086973218
 20
109.3085983852
 11
476.9086973218
 21
109.108838903
  0
LINE
  5
2F1
100
AcDbEntity
  8
00_COMPONENTS_4
100
AcDbLine
 62
7
  6
CONTINUOUS
 10
475.5714179233
 20
109.1041698877
 11
475.5713996188
 21
109.1034436498
  0
LINE
  5
2F2
100
AcDbEntity
  8
00_COMPONENTS_4
100
AcDbLine
 62
7
  6
CONTINUOUS
 10
475.5723840294
 20
109.1359039881
 11
475.5714179233
 21
109.1041698877
  0
LINE
  5
2F3
100
AcDbEntity
  8
00_COMPONENTS_4
100
AcDbLine
 62
7
  6
CONTINUOUS
 10
545.21586755
 20
109.1084606973
 11
545.2151966159
 21
109.1304991542
  0
LINE
  5
2F4
100
AcDbEntity
  8
00_COMPONENTS_4
100
AcDbLine
 62
7
  6
CONTINUOUS
 10
545.2159950248
 20
109.1034436498
 11
545.21586755
 21
109.1084606973
  0
LINE
  5
2F5
100
AcDbEntity
  8
00_COMPONENTS_4
100
AcDbLine
 62
7
  6
CONTINUOUS
 10
543.8786973218
 20
109.108838903
 11
543.8786973218
 21
109.3085983852
  0
LINE
  5
2F6
100
AcDbEntity
  8
00_COMPONENTS_4
100
AcDbLine
 62
7
  6
CONTINUOUS
 10
544.9086973218
 20
109.3085983852
 11
544.9086973218
 21
109.108838903
  0
LINE
  5
2F7
100
AcDbEntity
  8
00_COMPONENTS_4
100
AcDbLine
 62
7
  6
CONTINUOUS
 10
543.5714179233
 20
109.1041698877
 11
543.5713996188
 21
109.1034436498
  0
LINE
  5
2F8
100
AcDbEntity
  8
00_COMPONENTS_4
100
AcDbLine
 62
7
  6
CONTINUOUS
 10
543.5723840294
 20
109.1359039881
 11
543.5714179233
 21
109.1041698877
  0
LINE
  5
2F9
100
AcDbEntity
  8
00_COMPONENTS_4
100
AcDbLine
 62
7
  6
CONTINUOUS
 10
591.21586755
 20
109.1084606973
 11
591.2151966159
 21
109.1304991542
  0
LINE
  5
2FA
100
AcDbEntity
  8
00_COMPONENTS_4
100
AcDbLine
 62
7
  6
CONTINUOUS
 10
591.2159950248
 20
109.1034436498
 11
591.21586755
 21
109.1084606973
  0
LINE
  5
2FB
100
AcDbEntity
  8
00_COMPONENTS_4
100
AcDbLine
 62
7
  6
CONTINUOUS
 10
589.8786973218
 20
109.108838903
 11
589.8786973218
 21
109.3085983852
  0
LINE
  5
2FC
100
AcDbEntity
  8
00_COMPONENTS_4
100
AcDbLine
 62
7
  6
CONTINUOUS
 10
590.9086973218
 20
109.3085983852
 11
590.9086973218
 21
109.108838903
  0
LINE
  5
2FD
100
AcDbEntity
  8
00_COMPONENTS_4
100
AcDbLine
 62
7
  6
CONTINUOUS
 10
589.5714179233
 20
109.1041698877
 11
589.5713996188
 21
109.1034436498
  0
LINE
  5
2FE
100
AcDbEntity
  8
00_COMPONENTS_4
100
AcDbLine
 62
7
  6
CONTINUOUS
 10
589.5723840294
 20
109.1359039881
 11
589.5714179233
 21
109.1041698877
  0
LINE
  5
2FF
100
AcDbEntity
  8
00_COMPONENTS_4
100
AcDbLine
 62
7
  6
CONTINUOUS
 10
711.21586755
 20
109.1084606973
 11
711.2151966159
 21
109.1304991542
  0
LINE
  5
300
100
AcDbEntity
  8
00_COMPONENTS_4
100
AcDbLine
 62
7
  6
CONTINUOUS
 10
711.2159950248
 20
109.1034436498
 11
711.21586755
 21
109.1084606973
  0
LINE
  5
301
100
AcDbEntity
  8
00_COMPONENTS_4
100
AcDbLine
 62
7
  6
CONTINUOUS
 10
709.8786973218
 20
109.108838903
 11
709.8786973218
 21
109.3085983852
  0
LINE
  5
302
100
AcDbEntity
  8
00_COMPONENTS_4
100
AcDbLine
 62
7
  6
CONTINUOUS
 10
710.9086973218
 20
109.3085983852
 11
710.9086973218
 21
109.108838903
  0
LINE
  5
303
100
AcDbEntity
  8
00_COMPONENTS_4
100
AcDbLine
 62
7
  6
CONTINUOUS
 10
709.5714179233
 20
109.1041698877
 11
709.5713996188
 21
109.1034436498
  0
LINE
  5
304
100
AcDbEntity
  8
00_COMPONENTS_4
100
AcDbLine
 62
7
  6
CONTINUOUS
 10
709.5723840294
 20
109.1359039881
 11
709.5714179233
 21
109.1041698877
  0
LINE
  5
305
100
AcDbEntity
  8
00_COMPONENTS_4
100
AcDbLine
 62
7
  6
CONTINUOUS
 10
831.21586755
 20
109.1084606973
 11
831.2151966159
 21
109.1304991542
  0
LINE
  5
306
100
AcDbEntity
  8
00_COMPONENTS_4
100
AcDbLine
 62
7
  6
CONTINUOUS
 10
831.2159950248
 20
109.1034436498
 11
831.21586755
 21
109.1084606973
  0
LINE
  5
307
100
AcDbEntity
  8
00_COMPONENTS_4
100
AcDbLine
 62
7
  6
CONTINUOUS
 10
829.8786973218
 20
109.108838903
 11
829.8786973218
 21
109.3085983852
  0
LINE
  5
308
100
AcDbEntity
  8
00_COMPONENTS_4
100
AcDbLine
 62
7
  6
CONTINUOUS
 10
830.9086973218
 20
109.3085983852
 11
830.9086973218
 21
109.108838903
  0
LINE
  5
309
100
AcDbEntity
  8
00_COMPONENTS_4
100
AcDbLine
 62
7
  6
CONTINUOUS
 10
829.5714179233
 20
109.1041698877
 11
829.5713996188
 21
109.1034436498
  0
LINE
  5
30A
100
AcDbEntity
  8
00_COMPONENTS_4
100
AcDbLine
 62
7
  6
CONTINUOUS
 10
829.5723840294
 20
109.1359039881
 11
829.5714179233
 21
109.1041698877
  0
LINE
  5
30B
100
AcDbEntity
  8
00_COMPONENTS_4
100
AcDbLine
 62
7
  6
CONTINUOUS
 10
877.21586755
 20
109.1084606973
 11
877.2151966159
 21
109.1304991542
  0
LINE
  5
30C
100
AcDbEntity
  8
00_COMPONENTS_4
100
AcDbLine
 62
7
  6
CONTINUOUS
 10
877.2159950248
 20
109.1034436498
 11
877.21586755
 21
109.1084606973
  0
LINE
  5
30D
100
AcDbEntity
  8
00_COMPONENTS_4
100
AcDbLine
 62
7
  6
CONTINUOUS
 10
875.8786973218
 20
109.108838903
 11
875.8786973218
 21
109.3085983852
  0
LINE
  5
30E
100
AcDbEntity
  8
00_COMPONENTS_4
100
AcDbLine
 62
7
  6
CONTINUOUS
 10
876.9086973218
 20
109.3085983852
 11
876.9086973218
 21
109.108838903
  0
LINE
  5
30F
100
AcDbEntity
  8
00_COMPONENTS_16
100
AcDbLine
 62
7
  6
CONTINUOUS
 10
889.31989133
 20
130.7067457842
 11
889.31989133
 21
136.7579397924
  0
LINE
  5
310
100
AcDbEntity
  8
00_COMPONENTS_16
100
AcDbLine
 62
7
  6
CONTINUOUS
 10
889.31989133
 20
1282.5079397924
 11
889.31989133
 21
1288.5591338006
  0
LINE
  5
311
100
AcDbEntity
  8
00_COMPONENTS_16
100
AcDbLine
 62
7
  6
CONTINUOUS
 10
892.81989133
 20
1289.324241394
 11
892.81989133
 21
1285.9350598962
  0
LINE
  5
312
100
AcDbEntity
  8
00_COMPONENTS_16
100
AcDbLine
 62
7
  6
CONTINUOUS
 10
892.81989133
 20
133.324241394
 11
892.81989133
 21
129.9350598962
  0
LINE
  5
313
100
AcDbEntity
  8
00_COMPONENTS_4
100
AcDbLine
 62
7
  6
CONTINUOUS
 10
875.5714179233
 20
109.1041698877
 11
875.5713996188
 21
109.1034436498
  0
LINE
  5
314
100
AcDbEntity
  8
00_COMPONENTS_4
100
AcDbLine
 62
7
  6
CONTINUOUS
 10
875.5723840294
 20
109.1359039881
 11
875.5714179233
 21
109.1041698877
  0
LINE
  5
315
100
AcDbEntity
  8
00_COMPONENTS_16
100
AcDbLine
 62
7
  6
CONTINUOUS
 10
907.1936973218
 20
112.8329397924
 11
907.1936973218
 21
1306.4329397924
  0
LINE
  5
316
100
AcDbEntity
  8
00_COMPONENTS_16
100
AcDbLine
 62
7
  6
CONTINUOUS
 10
908.8936973218
 20
1309.6329397924
 11
908.8936973218
 21
1308.1329397924
  0
LINE
  5
317
100
AcDbEntity
  8
00_COMPONENTS_16
100
AcDbLine
 62
7
  6
CONTINUOUS
 10
908.8936973218
 20
111.1329397924
 11
908.8936973218
 21
109.6329397924
  0
LINE
  5
318
100
AcDbEntity
  8
00_COMPONENTS_16
100
AcDbLine
 62
7
  6
CONTINUOUS
 10
910.3936973218
 20
1308.1329397925
 11
910.3936973218
 21
111.1329397924
  0
LINE
  5
319
100
AcDbEntity
  8
00_COMPONENTS_16
100
AcDbLine
 62
7
  6
CONTINUOUS
 10
131.4675033136
 20
1288.5591338006
 11
137.1322348144
 21
1288.5591338006
  0
LINE
  5
31A
100
AcDbEntity
  8
00_COMPONENTS_16
100
AcDbLine
 62
7
  6
CONTINUOUS
 10
883.6461854353
 20
1288.5591338006
 11
889.31989133
 21
1288.5591338006
  0
LINE
  5
31B
100
AcDbEntity
  8
00_COMPONENTS_16
100
AcDbLine
 62
7
  6
CONTINUOUS
 10
130.7071448884
 20
1292.0591338006
 11
134.065753606
 21
1292.0591338006
  0
LINE
  5
31C
100
AcDbEntity
  8
00_COMPONENTS_16
100
AcDbLine
 62
7
  6
CONTINUOUS
 10
886.7071448884
 20
1292.0591338006
 11
890.065753606
 21
1292.0591338006
  0
LINE
  5
31D
100
AcDbEntity
  8
00_COMPONENTS_16
100
AcDbLine
 62
7
  6
CONTINUOUS
 10
907.1936973218
 20
1306.4329397924
 11
113.5936973218
 21
1306.4329397924
  0
LINE
  5
31E
100
AcDbEntity
  8
00_COMPONENTS_16
100
AcDbLine
 62
7
  6
CONTINUOUS
 10
110.3936973218
 20
1308.1329397924
 11
111.8936973218
 21
1308.1329397924
  0
LINE
  5
31F
100
AcDbEntity
  8
00_COMPONENTS_16
100
AcDbLine
 62
7
  6
CONTINUOUS
 10
908.8936973218
 20
1308.1329397924
 11
910.3936973218
 21
1308.1329397924
  0
LINE
  5
320
100
AcDbEntity
  8
00_COMPONENTS_16
100
AcDbLine
 62
7
  6
CONTINUOUS
 10
111.8936973218
 20
1309.6329397924
 11
908.8936973218
 21
1309.6329397924
  0
ARC
  5
321
100
AcDbEntity
  8
00_COMPONENTS_16
100
AcDbCircle
 62
7
  6
CONTINUOUS
 10
144.6582100339
 20
118.9400974745
 40
18.5983119978
100
AcDbArc
 50
147.7388741829
 51
149.4698406976
  0
ARC
  5
322
100
AcDbEntity
  8
00_COMPONENTS_16
100
AcDbCircle
 62
7
  6
CONTINUOUS
 10
103.789859172
 20
114.766959679
 40
9.8892892317
100
AcDbArc
 50
335.9181635893
 51
337.8216849921
  0
ARC
  5
323
100
AcDbEntity
  8
00_COMPONENTS_4
100
AcDbCircle
 62
7
  6
CONTINUOUS
 10
144.3936973218
 20
116.8837210424
 40
7.85078125
100
AcDbArc
 50
247.4575028646
 51
254.771891088
  0
ARC
  5
324
100
AcDbEntity
  8
00_COMPONENTS_4
100
AcDbCircle
 62
7
  6
CONTINUOUS
 10
144.3936973218
 20
116.8837210424
 40
7.85078125
100
AcDbArc
 50
285.228108912
 51
292.5424971354
  0
ARC
  5
325
100
AcDbEntity
  8
00_COMPONENTS_4
100
AcDbCircle
 62
7
  6
CONTINUOUS
 10
190.3936973218
 20
116.8837210424
 40
7.85078125
100
AcDbArc
 50
247.4575028646
 51
254.771891088
  0
ARC
  5
326
100
AcDbEntity
  8
00_COMPONENTS_4
100
AcDbCircle
 62
7
  6
CONTINUOUS
 10
190.3936973218
 20
116.8837210424
 40
7.85078125
100
AcDbArc
 50
285.228108912
 51
292.5424971354
  0
ARC
  5
327
100
AcDbEntity
  8
00_COMPONENTS_4
100
AcDbCircle
 62
7
  6
CONTINUOUS
 10
144.3936973218
 20
116.8837210424
 40
7.8338714079
100
AcDbArc
 50
277.035724314
 51
284.7669642634
  0
ARC
  5
328
100
AcDbEntity
  8
00_COMPONENTS_4
100
AcDbCircle
 62
7
  6
CONTINUOUS
 10
144.3936973218
 20
116.8837210424
 40
7.8338714079
100
AcDbArc
 50
255.2330357366
 51
262.964275686
  0
ARC
  5
329
100
AcDbEntity
  8
00_COMPONENTS_4
100
AcDbCircle
 62
7
  6
CONTINUOUS
 10
190.3936973218
 20
116.8837210424
 40
7.8338714079
100
AcDbArc
 50
277.035724314
 51
284.7669642634
  0
ARC
  5
32A
100
AcDbEntity
  8
00_COMPONENTS_4
100
AcDbCircle
 62
7
  6
CONTINUOUS
 10
190.3936973218
 20
116.8837210424
 40
7.8338714079
100
AcDbArc
 50
255.2330357366
 51
262.964275686
  0
ARC
  5
32B
100
AcDbEntity
  8
00_COMPONENTS_4
100
AcDbCircle
 62
7
  6
CONTINUOUS
 10
144.3933041239
 20
116.9091134022
 40
7.8329349577
100
AcDbArc
 50
274.8456519188
 51
275.2036317676
  0
ARC
  5
32C
100
AcDbEntity
  8
00_COMPONENTS_4
100
AcDbCircle
 62
7
  6
CONTINUOUS
 10
190.3933041239
 20
116.9091134022
 40
7.8329349577
100
AcDbArc
 50
274.8456519188
 51
275.2036317676
  0
ARC
  5
32D
100
AcDbEntity
  8
00_COMPONENTS_4
100
AcDbCircle
 62
7
  6
CONTINUOUS
 10
144.6320281141
 20
114.2669913923
 40
5.2406021028
100
AcDbArc
 50
258.396131834
 51
260.1162604875
  0
ARC
  5
32E
100
AcDbEntity
  8
00_COMPONENTS_4
100
AcDbCircle
 62
7
  6
CONTINUOUS
 10
190.6320281142
 20
114.2669913924
 40
5.2406021029
100
AcDbArc
 50
258.396131834
 51
260.1162604875
  0
ARC
  5
32F
100
AcDbEntity
  8
00_COMPONENTS_4
100
AcDbCircle
 62
7
  6
CONTINUOUS
 10
144.1762202742
 20
114.2618137577
 40
5.2361530929
100
AcDbArc
 50
280.202830677
 51
281.4026023751
  0
ARC
  5
330
100
AcDbEntity
  8
00_COMPONENTS_4
100
AcDbCircle
 62
7
  6
CONTINUOUS
 10
190.1762202742
 20
114.261813758
 40
5.2361530933
100
AcDbArc
 50
280.202830677
 51
281.402602375
  0
ARC
  5
331
100
AcDbEntity
  8
00_COMPONENTS_4
100
AcDbCircle
 62
7
  6
CONTINUOUS
 10
144.6110512903
 20
114.2611561016
 40
5.235484035
100
AcDbArc
 50
258.6065941212
 51
259.7972201016
  0
ARC
  5
332
100
AcDbEntity
  8
00_COMPONENTS_4
100
AcDbCircle
 62
7
  6
CONTINUOUS
 10
190.6110512903
 20
114.2611561015
 40
5.235484035
100
AcDbArc
 50
258.6065941211
 51
259.7972201016
  0
ARC
  5
333
100
AcDbEntity
  8
00_COMPONENTS_4
100
AcDbCircle
 62
7
  6
CONTINUOUS
 10
143.6558337997
 20
113.035236801
 40
3.9327177121
100
AcDbArc
 50
271.2424173978
 51
273.2486398697
  0
ARC
  5
334
100
AcDbEntity
  8
00_COMPONENTS_4
100
AcDbCircle
 62
7
  6
CONTINUOUS
 10
145.1315608439
 20
113.035236801
 40
3.9327177121
100
AcDbArc
 50
266.7513601303
 51
268.7575826022
  0
ARC
  5
335
100
AcDbEntity
  8
00_COMPONENTS_4
100
AcDbCircle
 62
7
  6
CONTINUOUS
 10
189.6558337997
 20
113.035236801
 40
3.9327177121
100
AcDbArc
 50
271.2424173978
 51
273.2486398697
  0
ARC
  5
336
100
AcDbEntity
  8
00_COMPONENTS_4
100
AcDbCircle
 62
7
  6
CONTINUOUS
 10
191.1315608439
 20
113.035236801
 40
3.9327177121
100
AcDbArc
 50
266.7513601303
 51
268.7575826022
  0
ARC
  5
337
100
AcDbEntity
  8
00_COMPONENTS_4
100
AcDbCircle
 62
7
  6
CONTINUOUS
 10
143.6560938586
 20
113.0068016394
 40
3.9042767203
100
AcDbArc
 50
266.7410506153
 51
268.7570032812
  0
ARC
  5
338
100
AcDbEntity
  8
00_COMPONENTS_4
100
AcDbCircle
 62
7
  6
CONTINUOUS
 10
145.131300785
 20
113.0068016394
 40
3.9042767203
100
AcDbArc
 50
271.2429967188
 51
273.2589493847
  0
ARC
  5
339
100
AcDbEntity
  8
00_COMPONENTS_4
100
AcDbCircle
 62
7
  6
CONTINUOUS
 10
189.6560938586
 20
113.0068016394
 40
3.9042767203
100
AcDbArc
 50
266.7410506153
 51
268.7570032812
  0
ARC
  5
33A
100
AcDbEntity
  8
00_COMPONENTS_4
100
AcDbCircle
 62
7
  6
CONTINUOUS
 10
191.131300785
 20
113.0068016394
 40
3.9042767203
100
AcDbArc
 50
271.2429967188
 51
273.2589493847
  0
ARC
  5
33B
100
AcDbEntity
  8
00_COMPONENTS_4
100
AcDbCircle
 62
7
  6
CONTINUOUS
 10
144.188783775
 20
112.0959776023
 40
3.0548410753
100
AcDbArc
 50
255.8082266864
 51
258.3405474596
  0
ARC
  5
33C
100
AcDbEntity
  8
00_COMPONENTS_4
100
AcDbCircle
 62
7
  6
CONTINUOUS
 10
190.188783775
 20
112.0959776022
 40
3.0548410753
100
AcDbArc
 50
255.8082266864
 51
258.3405474596
  0
ARC
  5
33D
100
AcDbEntity
  8
00_COMPONENTS_3
100
AcDbCircle
 62
7
  6
CONTINUOUS
 10
112.7352985915
 20
114.1574087453
 40
2.0244697812
100
AcDbArc
 50
270.0518299164
 51
279.4589618661
  0
CIRCLE
  5
33E
100
AcDbEntity
  8
00_COMPONENTS_16
100
AcDbCircle
 62
7
  6
CONTINUOUS
 10
132.3936973218
 20
131.6329397924
 40
5.125
  0
ARC
  5
33F
100
AcDbEntity
  8
00_COMPONENTS_2
100
AcDbCircle
 62
7
  6
CONTINUOUS
 10
136.7371311234
 20
136.1329397924
 40
2.5061581583
100
AcDbArc
 50
179.989801433
 51
270.0000000809
  0
ARC
  5
340
100
AcDbEntity
  8
00_COMPONENTS_4
100
AcDbCircle
 62
7
  6
CONTINUOUS
 10
310.6320281142
 20
114.2669913924
 40
5.2406021029
100
AcDbArc
 50
258.396131834
 51
260.1162604875
  0
ARC
  5
341
100
AcDbEntity
  8
00_COMPONENTS_4
100
AcDbCircle
 62
7
  6
CONTINUOUS
 10
310.1762202742
 20
114.261813758
 40
5.2361530933
100
AcDbArc
 50
280.2028306771
 51
281.402602375
  0
ARC
  5
342
100
AcDbEntity
  8
00_COMPONENTS_4
100
AcDbCircle
 62
7
  6
CONTINUOUS
 10
310.6110512903
 20
114.2611561017
 40
5.2354840352
100
AcDbArc
 50
258.6065941212
 51
259.7972201015
  0
ARC
  5
343
100
AcDbEntity
  8
00_COMPONENTS_4
100
AcDbCircle
 62
7
  6
CONTINUOUS
 10
309.6558337997
 20
113.035236801
 40
3.9327177121
100
AcDbArc
 50
271.2424173978
 51
273.2486398697
  0
ARC
  5
344
100
AcDbEntity
  8
00_COMPONENTS_4
100
AcDbCircle
 62
7
  6
CONTINUOUS
 10
311.1315608439
 20
113.035236801
 40
3.9327177121
100
AcDbArc
 50
266.7513601303
 51
268.7575826022
  0
ARC
  5
345
100
AcDbEntity
  8
00_COMPONENTS_4
100
AcDbCircle
 62
7
  6
CONTINUOUS
 10
309.6560938586
 20
113.0068016394
 40
3.9042767203
100
AcDbArc
 50
266.7410506153
 51
268.7570032812
  0
ARC
  5
346
100
AcDbEntity
  8
00_COMPONENTS_4
100
AcDbCircle
 62
7
  6
CONTINUOUS
 10
311.131300785
 20
113.0068016394
 40
3.9042767203
100
AcDbArc
 50
271.2429967188
 51
273.2589493847
  0
ARC
  5
347
100
AcDbEntity
  8
00_COMPONENTS_4
100
AcDbCircle
 62
7
  6
CONTINUOUS
 10
310.188783775
 20
112.0959776023
 40
3.0548410754
100
AcDbArc
 50
255.8082266864
 51
258.3405474596
  0
ARC
  5
348
100
AcDbEntity
  8
00_COMPONENTS_4
100
AcDbCircle
 62
7
  6
CONTINUOUS
 10
310.3936973218
 20
116.8837210424
 40
7.85078125
100
AcDbArc
 50
247.4575028646
 51
254.771891088
  0
ARC
  5
349
100
AcDbEntity
  8
00_COMPONENTS_4
100
AcDbCircle
 62
7
  6
CONTINUOUS
 10
310.3936973218
 20
116.8837210424
 40
7.85078125
100
AcDbArc
 50
285.228108912
 51
292.5424971354
  0
ARC
  5
34A
100
AcDbEntity
  8
00_COMPONENTS_4
100
AcDbCircle
 62
7
  6
CONTINUOUS
 10
310.3936973218
 20
116.8837210424
 40
7.8338714079
100
AcDbArc
 50
277.035724314
 51
284.7669642634
  0
ARC
  5
34B
100
AcDbEntity
  8
00_COMPONENTS_4
100
AcDbCircle
 62
7
  6
CONTINUOUS
 10
310.3936973218
 20
116.8837210424
 40
7.8338714079
100
AcDbArc
 50
255.2330357366
 51
262.964275686
  0
ARC
  5
34C
100
AcDbEntity
  8
00_COMPONENTS_4
100
AcDbCircle
 62
7
  6
CONTINUOUS
 10
310.3933041239
 20
116.9091134022
 40
7.8329349577
100
AcDbArc
 50
274.8456519188
 51
275.2036317676
  0
ARC
  5
34D
100
AcDbEntity
  8
00_COMPONENTS_4
100
AcDbCircle
 62
7
  6
CONTINUOUS
 10
476.6320281141
 20
114.2669913923
 40
5.2406021028
100
AcDbArc
 50
258.396131834
 51
260.1162604875
  0
ARC
  5
34E
100
AcDbEntity
  8
00_COMPONENTS_4
100
AcDbCircle
 62
7
  6
CONTINUOUS
 10
430.6320281141
 20
114.2669913922
 40
5.2406021027
100
AcDbArc
 50
258.3961318339
 51
260.1162604875
  0
ARC
  5
34F
100
AcDbEntity
  8
00_COMPONENTS_4
100
AcDbCircle
 62
7
  6
CONTINUOUS
 10
476.1762202742
 20
114.2618137577
 40
5.2361530929
100
AcDbArc
 50
280.202830677
 51
281.4026023751
  0
ARC
  5
350
100
AcDbEntity
  8
00_COMPONENTS_4
100
AcDbCircle
 62
7
  6
CONTINUOUS
 10
430.1762202742
 20
114.261813758
 40
5.2361530933
100
AcDbArc
 50
280.2028306771
 51
281.402602375
  0
ARC
  5
351
100
AcDbEntity
  8
00_COMPONENTS_4
100
AcDbCircle
 62
7
  6
CONTINUOUS
 10
476.6110512903
 20
114.2611561017
 40
5.2354840352
100
AcDbArc
 50
258.6065941212
 51
259.7972201016
  0
ARC
  5
352
100
AcDbEntity
  8
00_COMPONENTS_4
100
AcDbCircle
 62
7
  6
CONTINUOUS
 10
430.6110512903
 20
114.2611561016
 40
5.235484035
100
AcDbArc
 50
258.6065941212
 51
259.7972201016
  0
ARC
  5
353
100
AcDbEntity
  8
00_COMPONENTS_4
100
AcDbCircle
 62
7
  6
CONTINUOUS
 10
475.6558337997
 20
113.035236801
 40
3.9327177121
100
AcDbArc
 50
271.2424173978
 51
273.2486398697
  0
ARC
  5
354
100
AcDbEntity
  8
00_COMPONENTS_4
100
AcDbCircle
 62
7
  6
CONTINUOUS
 10
477.1315608439
 20
113.035236801
 40
3.9327177121
100
AcDbArc
 50
266.7513601303
 51
268.7575826022
  0
ARC
  5
355
100
AcDbEntity
  8
00_COMPONENTS_4
100
AcDbCircle
 62
7
  6
CONTINUOUS
 10
429.6558337997
 20
113.035236801
 40
3.9327177121
100
AcDbArc
 50
271.2424173978
 51
273.2486398697
  0
ARC
  5
356
100
AcDbEntity
  8
00_COMPONENTS_4
100
AcDbCircle
 62
7
  6
CONTINUOUS
 10
431.1315608439
 20
113.035236801
 40
3.9327177121
100
AcDbArc
 50
266.7513601303
 51
268.7575826022
  0
ARC
  5
357
100
AcDbEntity
  8
00_COMPONENTS_4
100
AcDbCircle
 62
7
  6
CONTINUOUS
 10
475.6560938586
 20
113.0068016394
 40
3.9042767203
100
AcDbArc
 50
266.7410506153
 51
268.7570032812
  0
ARC
  5
358
100
AcDbEntity
  8
00_COMPONENTS_4
100
AcDbCircle
 62
7
  6
CONTINUOUS
 10
477.131300785
 20
113.0068016394
 40
3.9042767203
100
AcDbArc
 50
271.2429967188
 51
273.2589493847
  0
ARC
  5
359
100
AcDbEntity
  8
00_COMPONENTS_4
100
AcDbCircle
 62
7
  6
CONTINUOUS
 10
429.6560938586
 20
113.0068016394
 40
3.9042767203
100
AcDbArc
 50
266.7410506153
 51
268.7570032812
  0
ARC
  5
35A
100
AcDbEntity
  8
00_COMPONENTS_4
100
AcDbCircle
 62
7
  6
CONTINUOUS
 10
431.131300785
 20
113.0068016394
 40
3.9042767203
100
AcDbArc
 50
271.2429967188
 51
273.2589493847
  0
ARC
  5
35B
100
AcDbEntity
  8
00_COMPONENTS_4
100
AcDbCircle
 62
7
  6
CONTINUOUS
 10
476.188783775
 20
112.0959776023
 40
3.0548410753
100
AcDbArc
 50
255.8082266864
 51
258.3405474596
  0
ARC
  5
35C
100
AcDbEntity
  8
00_COMPONENTS_4
100
AcDbCircle
 62
7
  6
CONTINUOUS
 10
430.188783775
 20
112.0959776022
 40
3.0548410753
100
AcDbArc
 50
255.8082266864
 51
258.3405474596
  0
ARC
  5
35D
100
AcDbEntity
  8
00_COMPONENTS_4
100
AcDbCircle
 62
7
  6
CONTINUOUS
 10
476.3936973218
 20
116.8837210424
 40
7.85078125
100
AcDbArc
 50
247.4575028646
 51
254.771891088
  0
ARC
  5
35E
100
AcDbEntity
  8
00_COMPONENTS_4
100
AcDbCircle
 62
7
  6
CONTINUOUS
 10
476.3936973218
 20
116.8837210424
 40
7.85078125
100
AcDbArc
 50
285.228108912
 51
292.5424971354
  0
ARC
  5
35F
100
AcDbEntity
  8
00_COMPONENTS_4
100
AcDbCircle
 62
7
  6
CONTINUOUS
 10
430.3936973218
 20
116.8837210424
 40
7.85078125
100
AcDbArc
 50
247.4575028646
 51
254.771891088
  0
ARC
  5
360
100
AcDbEntity
  8
00_COMPONENTS_4
100
AcDbCircle
 62
7
  6
CONTINUOUS
 10
430.3936973218
 20
116.8837210424
 40
7.85078125
100
AcDbArc
 50
285.228108912
 51
292.5424971354
  0
ARC
  5
361
100
AcDbEntity
  8
00_COMPONENTS_4
100
AcDbCircle
 62
7
  6
CONTINUOUS
 10
476.3936973218
 20
116.8837210424
 40
7.8338714079
100
AcDbArc
 50
277.035724314
 51
284.7669642634
  0
ARC
  5
362
100
AcDbEntity
  8
00_COMPONENTS_4
100
AcDbCircle
 62
7
  6
CONTINUOUS
 10
476.3936973218
 20
116.8837210424
 40
7.8338714079
100
AcDbArc
 50
255.2330357366
 51
262.964275686
  0
ARC
  5
363
100
AcDbEntity
  8
00_COMPONENTS_4
100
AcDbCircle
 62
7
  6
CONTINUOUS
 10
430.3936973218
 20
116.8837210424
 40
7.8338714079
100
AcDbArc
 50
277.035724314
 51
284.7669642634
  0
ARC
  5
364
100
AcDbEntity
  8
00_COMPONENTS_4
100
AcDbCircle
 62
7
  6
CONTINUOUS
 10
430.3936973218
 20
116.8837210424
 40
7.8338714079
100
AcDbArc
 50
255.2330357366
 51
262.964275686
  0
ARC
  5
365
100
AcDbEntity
  8
00_COMPONENTS_4
100
AcDbCircle
 62
7
  6
CONTINUOUS
 10
476.3933041238
 20
116.9091134039
 40
7.8329349593
100
AcDbArc
 50
274.8456519189
 51
275.2036317676
  0
ARC
  5
366
100
AcDbEntity
  8
00_COMPONENTS_4
100
AcDbCircle
 62
7
  6
CONTINUOUS
 10
430.3933041239
 20
116.9091134031
 40
7.8329349585
100
AcDbArc
 50
274.8456519189
 51
275.2036317676
  0
ARC
  5
367
100
AcDbEntity
  8
00_COMPONENTS_16
100
AcDbCircle
 62
7
  6
CONTINUOUS
 10
144.5663519044
 20
1300.269065566
 40
18.4903604843
100
AcDbArc
 50
210.5650559459
 51
212.2657797351
  0
ARC
  5
368
100
AcDbEntity
  8
00_COMPONENTS_16
100
AcDbCircle
 62
7
  6
CONTINUOUS
 10
115.5277172168
 20
1316.2367779638
 40
9.8892892548
100
AcDbArc
 50
245.9181635959
 51
247.8216849945
  0
CIRCLE
  5
369
100
AcDbEntity
  8
00_COMPONENTS_16
100
AcDbCircle
 62
7
  6
CONTINUOUS
 10
132.3936973218
 20
1287.6329397924
 40
5.125
  0
ARC
  5
36A
100
AcDbEntity
  8
00_COMPONENTS_2
100
AcDbCircle
 62
7
  6
CONTINUOUS
 10
136.7371311234
 20
1282.1329397924
 40
2.5061581583
100
AcDbArc
 50
104.3600837978
 51
145.0525368881
  0
ARC
  5
36B
100
AcDbEntity
  8
00_COMPONENTS_4
100
AcDbCircle
 62
7
  6
CONTINUOUS
 10
544.6320281141
 20
114.2669913921
 40
5.2406021026
100
AcDbArc
 50
258.3961318339
 51
260.1162604875
  0
ARC
  5
36C
100
AcDbEntity
  8
00_COMPONENTS_4
100
AcDbCircle
 62
7
  6
CONTINUOUS
 10
590.6320281141
 20
114.2669913921
 40
5.2406021026
100
AcDbArc
 50
258.3961318339
 51
260.1162604875
  0
ARC
  5
36D
100
AcDbEntity
  8
00_COMPONENTS_4
100
AcDbCircle
 62
7
  6
CONTINUOUS
 10
544.1762202741
 20
114.2618137584
 40
5.2361530937
100
AcDbArc
 50
280.2028306771
 51
281.402602375
  0
ARC
  5
36E
100
AcDbEntity
  8
00_COMPONENTS_4
100
AcDbCircle
 62
7
  6
CONTINUOUS
 10
590.1762202742
 20
114.261813758
 40
5.2361530933
100
AcDbArc
 50
280.2028306771
 51
281.4026023751
  0
ARC
  5
36F
100
AcDbEntity
  8
00_COMPONENTS_4
100
AcDbCircle
 62
7
  6
CONTINUOUS
 10
544.6110512904
 20
114.2611561022
 40
5.2354840357
100
AcDbArc
 50
258.6065941212
 51
259.7972201015
  0
ARC
  5
370
100
AcDbEntity
  8
00_COMPONENTS_4
100
AcDbCircle
 62
7
  6
CONTINUOUS
 10
590.6110512904
 20
114.261156102
 40
5.2354840355
100
AcDbArc
 50
258.6065941212
 51
259.7972201015
  0
ARC
  5
371
100
AcDbEntity
  8
00_COMPONENTS_4
100
AcDbCircle
 62
7
  6
CONTINUOUS
 10
543.6558337997
 20
113.0352368009
 40
3.9327177121
100
AcDbArc
 50
271.2424173978
 51
273.2486398697
  0
ARC
  5
372
100
AcDbEntity
  8
00_COMPONENTS_4
100
AcDbCircle
 62
7
  6
CONTINUOUS
 10
545.1315608439
 20
113.035236801
 40
3.9327177121
100
AcDbArc
 50
266.7513601303
 51
268.7575826022
  0
ARC
  5
373
100
AcDbEntity
  8
00_COMPONENTS_4
100
AcDbCircle
 62
7
  6
CONTINUOUS
 10
589.6558337997
 20
113.0352368009
 40
3.9327177121
100
AcDbArc
 50
271.2424173978
 51
273.2486398697
  0
ARC
  5
374
100
AcDbEntity
  8
00_COMPONENTS_4
100
AcDbCircle
 62
7
  6
CONTINUOUS
 10
591.1315608439
 20
113.035236801
 40
3.9327177121
100
AcDbArc
 50
266.7513601303
 51
268.7575826022
  0
ARC
  5
375
100
AcDbEntity
  8
00_COMPONENTS_4
100
AcDbCircle
 62
7
  6
CONTINUOUS
 10
543.6560938586
 20
113.0068016394
 40
3.9042767203
100
AcDbArc
 50
266.7410506153
 51
268.7570032812
  0
ARC
  5
376
100
AcDbEntity
  8
00_COMPONENTS_4
100
AcDbCircle
 62
7
  6
CONTINUOUS
 10
545.131300785
 20
113.0068016394
 40
3.9042767203
100
AcDbArc
 50
271.2429967188
 51
273.2589493847
  0
ARC
  5
377
100
AcDbEntity
  8
00_COMPONENTS_4
100
AcDbCircle
 62
7
  6
CONTINUOUS
 10
589.6560938586
 20
113.0068016394
 40
3.9042767203
100
AcDbArc
 50
266.7410506153
 51
268.7570032812
  0
ARC
  5
378
100
AcDbEntity
  8
00_COMPONENTS_4
100
AcDbCircle
 62
7
  6
CONTINUOUS
 10
591.131300785
 20
113.0068016394
 40
3.9042767203
100
AcDbArc
 50
271.2429967188
 51
273.2589493847
  0
ARC
  5
379
100
AcDbEntity
  8
00_COMPONENTS_4
100
AcDbCircle
 62
7
  6
CONTINUOUS
 10
544.188783775
 20
112.0959776024
 40
3.0548410755
100
AcDbArc
 50
255.8082266865
 51
258.3405474595
  0
ARC
  5
37A
100
AcDbEntity
  8
00_COMPONENTS_4
100
AcDbCircle
 62
7
  6
CONTINUOUS
 10
590.188783775
 20
112.0959776022
 40
3.0548410753
100
AcDbArc
 50
255.8082266864
 51
258.3405474596
  0
ARC
  5
37B
100
AcDbEntity
  8
00_COMPONENTS_4
100
AcDbCircle
 62
7
  6
CONTINUOUS
 10
544.3936973218
 20
116.8837210424
 40
7.85078125
100
AcDbArc
 50
247.4575028646
 51
254.771891088
  0
ARC
  5
37C
100
AcDbEntity
  8
00_COMPONENTS_4
100
AcDbCircle
 62
7
  6
CONTINUOUS
 10
544.3936973218
 20
116.8837210424
 40
7.85078125
100
AcDbArc
 50
285.228108912
 51
292.5424971354
  0
ARC
  5
37D
100
AcDbEntity
  8
00_COMPONENTS_4
100
AcDbCircle
 62
7
  6
CONTINUOUS
 10
590.3936973218
 20
116.8837210424
 40
7.85078125
100
AcDbArc
 50
247.4575028646
 51
254.771891088
  0
ARC
  5
37E
100
AcDbEntity
  8
00_COMPONENTS_4
100
AcDbCircle
 62
7
  6
CONTINUOUS
 10
590.3936973218
 20
116.8837210424
 40
7.85078125
100
AcDbArc
 50
285.228108912
 51
292.5424971354
  0
ARC
  5
37F
100
AcDbEntity
  8
00_COMPONENTS_4
100
AcDbCircle
 62
7
  6
CONTINUOUS
 10
544.3936973218
 20
116.8837210424
 40
7.8338714079
100
AcDbArc
 50
277.035724314
 51
284.7669642634
  0
ARC
  5
380
100
AcDbEntity
  8
00_COMPONENTS_4
100
AcDbCircle
 62
7
  6
CONTINUOUS
 10
544.3936973218
 20
116.8837210424
 40
7.8338714079
100
AcDbArc
 50
255.2330357366
 51
262.964275686
  0
ARC
  5
381
100
AcDbEntity
  8
00_COMPONENTS_4
100
AcDbCircle
 62
7
  6
CONTINUOUS
 10
590.3936973218
 20
116.8837210424
 40
7.8338714079
100
AcDbArc
 50
277.035724314
 51
284.7669642634
  0
ARC
  5
382
100
AcDbEntity
  8
00_COMPONENTS_4
100
AcDbCircle
 62
7
  6
CONTINUOUS
 10
590.3936973218
 20
116.8837210424
 40
7.8338714079
100
AcDbArc
 50
255.2330357366
 51
262.964275686
  0
ARC
  5
383
100
AcDbEntity
  8
00_COMPONENTS_4
100
AcDbCircle
 62
7
  6
CONTINUOUS
 10
544.3933041242
 20
116.9091133996
 40
7.8329349551
100
AcDbArc
 50
274.8456519188
 51
275.2036317677
  0
ARC
  5
384
100
AcDbEntity
  8
00_COMPONENTS_4
100
AcDbCircle
 62
7
  6
CONTINUOUS
 10
590.3933041244
 20
116.9091133972
 40
7.8329349526
100
AcDbArc
 50
274.8456519188
 51
275.2036317678
  0
ARC
  5
385
100
AcDbEntity
  8
00_COMPONENTS_4
100
AcDbCircle
 62
7
  6
CONTINUOUS
 10
710.6320281141
 20
114.2669913921
 40
5.2406021026
100
AcDbArc
 50
258.3961318339
 51
260.1162604875
  0
ARC
  5
386
100
AcDbEntity
  8
00_COMPONENTS_4
100
AcDbCircle
 62
7
  6
CONTINUOUS
 10
710.1762202743
 20
114.2618137573
 40
5.2361530925
100
AcDbArc
 50
280.202830677
 51
281.4026023751
  0
ARC
  5
387
100
AcDbEntity
  8
00_COMPONENTS_4
100
AcDbCircle
 62
7
  6
CONTINUOUS
 10
710.6110512905
 20
114.2611561024
 40
5.2354840359
100
AcDbArc
 50
258.6065941213
 51
259.7972201015
  0
ARC
  5
388
100
AcDbEntity
  8
00_COMPONENTS_4
100
AcDbCircle
 62
7
  6
CONTINUOUS
 10
709.6558337997
 20
113.0352368009
 40
3.9327177121
100
AcDbArc
 50
271.2424173978
 51
273.2486398697
  0
ARC
  5
389
100
AcDbEntity
  8
00_COMPONENTS_4
100
AcDbCircle
 62
7
  6
CONTINUOUS
 10
711.1315608439
 20
113.035236801
 40
3.9327177121
100
AcDbArc
 50
266.7513601303
 51
268.7575826022
  0
ARC
  5
38A
100
AcDbEntity
  8
00_COMPONENTS_4
100
AcDbCircle
 62
7
  6
CONTINUOUS
 10
709.6560938586
 20
113.0068016394
 40
3.9042767203
100
AcDbArc
 50
266.7410506153
 51
268.7570032812
  0
ARC
  5
38B
100
AcDbEntity
  8
00_COMPONENTS_4
100
AcDbCircle
 62
7
  6
CONTINUOUS
 10
711.131300785
 20
113.0068016394
 40
3.9042767203
100
AcDbArc
 50
271.2429967188
 51
273.2589493847
  0
ARC
  5
38C
100
AcDbEntity
  8
00_COMPONENTS_4
100
AcDbCircle
 62
7
  6
CONTINUOUS
 10
710.188783775
 20
112.0959776024
 40
3.0548410755
100
AcDbArc
 50
255.8082266865
 51
258.3405474595
  0
ARC
  5
38D
100
AcDbEntity
  8
00_COMPONENTS_4
100
AcDbCircle
 62
7
  6
CONTINUOUS
 10
710.3936973218
 20
116.8837210424
 40
7.85078125
100
AcDbArc
 50
247.4575028646
 51
254.771891088
  0
ARC
  5
38E
100
AcDbEntity
  8
00_COMPONENTS_4
100
AcDbCircle
 62
7
  6
CONTINUOUS
 10
710.3936973218
 20
116.8837210424
 40
7.85078125
100
AcDbArc
 50
285.228108912
 51
292.5424971354
  0
ARC
  5
38F
100
AcDbEntity
  8
00_COMPONENTS_4
100
AcDbCircle
 62
7
  6
CONTINUOUS
 10
710.3936973218
 20
116.8837210424
 40
7.8338714079
100
AcDbArc
 50
277.035724314
 51
284.7669642634
  0
ARC
  5
390
100
AcDbEntity
  8
00_COMPONENTS_4
100
AcDbCircle
 62
7
  6
CONTINUOUS
 10
710.3936973218
 20
116.8837210424
 40
7.8338714079
100
AcDbArc
 50
255.2330357366
 51
262.964275686
  0
ARC
  5
391
100
AcDbEntity
  8
00_COMPONENTS_4
100
AcDbCircle
 62
7
  6
CONTINUOUS
 10
710.3933041239
 20
116.9091134023
 40
7.8329349577
100
AcDbArc
 50
274.8456519189
 51
275.2036317677
  0
ARC
  5
392
100
AcDbEntity
  8
00_COMPONENTS_16
100
AcDbCircle
 62
7
  6
CONTINUOUS
 10
876.2210427276
 20
118.9968140117
 40
18.490360498
100
AcDbArc
 50
30.5650559466
 51
32.2657797346
  0
ARC
  5
393
100
AcDbEntity
  8
00_COMPONENTS_16
100
AcDbCircle
 62
7
  6
CONTINUOUS
 10
905.2596774357
 20
103.029101643
 40
9.8892892312
100
AcDbArc
 50
65.9181635906
 51
67.8216849936
  0
ARC
  5
394
100
AcDbEntity
  8
00_COMPONENTS_4
100
AcDbCircle
 62
7
  6
CONTINUOUS
 10
876.3936973218
 20
116.8837210424
 40
7.85078125
100
AcDbArc
 50
247.4575028646
 51
254.771891088
  0
ARC
  5
395
100
AcDbEntity
  8
00_COMPONENTS_4
100
AcDbCircle
 62
7
  6
CONTINUOUS
 10
876.3936973218
 20
116.8837210424
 40
7.85078125
100
AcDbArc
 50
285.228108912
 51
292.5424971354
  0
ARC
  5
396
100
AcDbEntity
  8
00_COMPONENTS_4
100
AcDbCircle
 62
7
  6
CONTINUOUS
 10
830.3936973218
 20
116.8837210424
 40
7.85078125
100
AcDbArc
 50
247.4575028646
 51
254.771891088
  0
ARC
  5
397
100
AcDbEntity
  8
00_COMPONENTS_4
100
AcDbCircle
 62
7
  6
CONTINUOUS
 10
830.3936973218
 20
116.8837210424
 40
7.85078125
100
AcDbArc
 50
285.228108912
 51
292.5424971354
  0
ARC
  5
398
100
AcDbEntity
  8
00_COMPONENTS_4
100
AcDbCircle
 62
7
  6
CONTINUOUS
 10
876.3936973218
 20
116.8837210424
 40
7.8338714079
100
AcDbArc
 50
277.035724314
 51
284.7669642634
  0
ARC
  5
399
100
AcDbEntity
  8
00_COMPONENTS_4
100
AcDbCircle
 62
7
  6
CONTINUOUS
 10
876.3936973218
 20
116.8837210424
 40
7.8338714079
100
AcDbArc
 50
255.2330357366
 51
262.964275686
  0
ARC
  5
39A
100
AcDbEntity
  8
00_COMPONENTS_4
100
AcDbCircle
 62
7
  6
CONTINUOUS
 10
830.3936973218
 20
116.8837210424
 40
7.8338714079
100
AcDbArc
 50
277.035724314
 51
284.7669642634
  0
ARC
  5
39B
100
AcDbEntity
  8
00_COMPONENTS_4
100
AcDbCircle
 62
7
  6
CONTINUOUS
 10
830.3936973218
 20
116.8837210424
 40
7.8338714079
100
AcDbArc
 50
255.2330357366
 51
262.964275686
  0
ARC
  5
39C
100
AcDbEntity
  8
00_COMPONENTS_4
100
AcDbCircle
 62
7
  6
CONTINUOUS
 10
876.3933041239
 20
116.9091134021
 40
7.8329349575
100
AcDbArc
 50
274.8456519189
 51
275.2036317677
  0
ARC
  5
39D
100
AcDbEntity
  8
00_COMPONENTS_4
100
AcDbCircle
 62
7
  6
CONTINUOUS
 10
830.3933041244
 20
116.9091133972
 40
7.8329349526
100
AcDbArc
 50
274.8456519188
 51
275.2036317678
  0
ARC
  5
39E
100
AcDbEntity
  8
00_COMPONENTS_4
100
AcDbCircle
 62
7
  6
CONTINUOUS
 10
876.6320281141
 20
114.2669913921
 40
5.2406021026
100
AcDbArc
 50
258.3961318339
 51
260.1162604875
  0
ARC
  5
39F
100
AcDbEntity
  8
00_COMPONENTS_4
100
AcDbCircle
 62
7
  6
CONTINUOUS
 10
830.6320281141
 20
114.2669913921
 40
5.2406021026
100
AcDbArc
 50
258.3961318339
 51
260.1162604875
  0
ARC
  5
3A0
100
AcDbEntity
  8
00_COMPONENTS_4
100
AcDbCircle
 62
7
  6
CONTINUOUS
 10
876.1762202742
 20
114.261813758
 40
5.2361530933
100
AcDbArc
 50
280.2028306771
 51
281.402602375
  0
ARC
  5
3A1
100
AcDbEntity
  8
00_COMPONENTS_4
100
AcDbCircle
 62
7
  6
CONTINUOUS
 10
830.1762202742
 20
114.2618137578
 40
5.2361530931
100
AcDbArc
 50
280.202830677
 51
281.4026023751
  0
ARC
  5
3A2
100
AcDbEntity
  8
00_COMPONENTS_4
100
AcDbCircle
 62
7
  6
CONTINUOUS
 10
876.6110512902
 20
114.261156101
 40
5.2354840345
100
AcDbArc
 50
258.6065941211
 51
259.7972201016
  0
ARC
  5
3A3
100
AcDbEntity
  8
00_COMPONENTS_4
100
AcDbCircle
 62
7
  6
CONTINUOUS
 10
830.6110512905
 20
114.2611561024
 40
5.2354840359
100
AcDbArc
 50
258.6065941213
 51
259.7972201015
  0
ARC
  5
3A4
100
AcDbEntity
  8
00_COMPONENTS_4
100
AcDbCircle
 62
7
  6
CONTINUOUS
 10
875.6558337997
 20
113.035236801
 40
3.9327177121
100
AcDbArc
 50
271.2424173978
 51
273.2486398697
  0
ARC
  5
3A5
100
AcDbEntity
  8
00_COMPONENTS_4
100
AcDbCircle
 62
7
  6
CONTINUOUS
 10
877.1315608439
 20
113.0352368009
 40
3.9327177121
100
AcDbArc
 50
266.7513601303
 51
268.7575826022
  0
ARC
  5
3A6
100
AcDbEntity
  8
00_COMPONENTS_4
100
AcDbCircle
 62
7
  6
CONTINUOUS
 10
829.6558337997
 20
113.0352368009
 40
3.9327177121
100
AcDbArc
 50
271.2424173978
 51
273.2486398697
  0
ARC
  5
3A7
100
AcDbEntity
  8
00_COMPONENTS_4
100
AcDbCircle
 62
7
  6
CONTINUOUS
 10
831.1315608439
 20
113.035236801
 40
3.9327177121
100
AcDbArc
 50
266.7513601303
 51
268.7575826022
  0
ARC
  5
3A8
100
AcDbEntity
  8
00_COMPONENTS_4
100
AcDbCircle
 62
7
  6
CONTINUOUS
 10
875.6560938586
 20
113.0068016394
 40
3.9042767203
100
AcDbArc
 50
266.7410506153
 51
268.7570032812
  0
ARC
  5
3A9
100
AcDbEntity
  8
00_COMPONENTS_4
100
AcDbCircle
 62
7
  6
CONTINUOUS
 10
877.131300785
 20
113.0068016394
 40
3.9042767203
100
AcDbArc
 50
271.2429967188
 51
273.2589493847
  0
ARC
  5
3AA
100
AcDbEntity
  8
00_COMPONENTS_4
100
AcDbCircle
 62
7
  6
CONTINUOUS
 10
829.6560938586
 20
113.0068016394
 40
3.9042767203
100
AcDbArc
 50
266.7410506153
 51
268.7570032812
  0
ARC
  5
3AB
100
AcDbEntity
  8
00_COMPONENTS_4
100
AcDbCircle
 62
7
  6
CONTINUOUS
 10
831.131300785
 20
113.0068016394
 40
3.9042767203
100
AcDbArc
 50
271.2429967188
 51
273.2589493847
  0
ARC
  5
3AC
100
AcDbEntity
  8
00_COMPONENTS_4
100
AcDbCircle
 62
7
  6
CONTINUOUS
 10
876.188783775
 20
112.0959776024
 40
3.0548410755
100
AcDbArc
 50
255.8082266865
 51
258.3405474595
  0
ARC
  5
3AD
100
AcDbEntity
  8
00_COMPONENTS_4
100
AcDbCircle
 62
7
  6
CONTINUOUS
 10
830.188783775
 20
112.0959776024
 40
3.0548410755
100
AcDbArc
 50
255.8082266865
 51
258.3405474595
  0
CIRCLE
  5
3AE
100
AcDbEntity
  8
00_COMPONENTS_16
100
AcDbCircle
 62
7
  6
CONTINUOUS
 10
888.3936973218
 20
131.6329397924
 40
5.125
  0
ARC
  5
3AF
100
AcDbEntity
  8
00_COMPONENTS_2
100
AcDbCircle
 62
7
  6
CONTINUOUS
 10
882.7371311234
 20
136.1329397924
 40
2.5061581583
100
AcDbArc
 50
311.6200197949
 51
338.9169000542
  0
ARC
  5
3B0
100
AcDbEntity
  8
00_COMPONENTS_16
100
AcDbCircle
 62
7
  6
CONTINUOUS
 10
876.1291846054
 20
1300.3257821131
 40
18.5983120029
100
AcDbArc
 50
327.7388741831
 51
329.4698406973
  0
ARC
  5
3B1
100
AcDbEntity
  8
00_COMPONENTS_16
100
AcDbCircle
 62
7
  6
CONTINUOUS
 10
916.9975354566
 20
1304.4989199124
 40
9.8892892153
100
AcDbArc
 50
155.9181635876
 51
157.8216849934
  0
CIRCLE
  5
3B2
100
AcDbEntity
  8
00_COMPONENTS_16
100
AcDbCircle
 62
7
  6
CONTINUOUS
 10
888.3936973218
 20
1287.6329397924
 40
5.125
  0
LINE
  5
3B3
100
AcDbEntity
  8
00_COMPONENTS_4
100
AcDbLine
 62
7
  6
CONTINUOUS
 10
143.7411052463
 20
109.1034436498
 11
143.7368428043
 21
109.1037379612
  0
LINE
  5
3B4
100
AcDbEntity
  8
00_COMPONENTS_4
100
AcDbLine
 62
7
  6
CONTINUOUS
 10
143.7368428043
 20
109.1037379612
 11
143.7324816686
 21
109.1041725673
  0
SPLINE
  5
3B5
100
AcDbEntity
  8
00_COMPONENTS_4
100
AcDbSpline
 62
7
  6
CONTINUOUS
 70
0
 71
3
 72
9
 73
5
 74
0
 42
0.0000001
 43
0.0000001
 44
0.0000000001
 40
0.0
 40
0.0
 40
0.0
 40
0.0
 40
0.2550942543
 40
1.0
 40
1.0
 40
1.0
 40
1.0
 10
143.0039328409
 20
109.2829397924
 30
0.0
 10
143.051636711
 20
109.2679622852
 30
0.0
 10
143.2393280761
 20
109.2114711992
 30
0.0
 10
143.4297799144
 20
109.164045831
 30
0.0
 10
143.5727761122
 20
109.134555052
 30
0.0
  0
SPLINE
  5
3B6
100
AcDbEntity
  8
00_COMPONENTS_4
100
AcDbSpline
 62
7
  6
CONTINUOUS
 70
0
 71
3
 72
9
 73
5
 74
0
 42
0.0000001
 43
0.0000001
 44
0.0000000001
 40
0.0
 40
0.0
 40
0.0
 40
0.0
 40
0.2461603863
 40
1.0
 40
1.0
 40
1.0
 40
1.0
 10
145.2149700079
 20
109.1297283513
 30
0.0
 10
145.2500531685
 20
109.1368267496
 30
0.0
 10
145.3922817657
 20
109.1670986782
 30
0.0
 10
145.5333004401
 20
109.2030076034
 30
0.0
 10
145.6387500315
 20
109.2329397924
 30
0.0
  0
SPLINE
  5
3B7
100
AcDbEntity
  8
00_COMPONENTS_4
100
AcDbSpline
 62
7
  6
CONTINUOUS
 70
0
 71
3
 72
9
 73
5
 74
0
 42
0.0000001
 43
0.0000001
 44
0.0000000001
 40
0.0
 40
0.0
 40
0.0
 40
0.0
 40
0.2461010597
 40
1.0
 40
1.0
 40
1.0
 40
1.0
 10
145.6387500315
 20
109.2329397924
 30
0.0
 10
145.6049429787
 20
109.2200461606
 30
0.0
 10
145.4665338155
 20
109.1704035228
 30
0.0
 10
145.3242373671
 20
109.1317305032
 30
0.0
 10
145.21586755
 20
109.1084606973
 30
0.0
  0
SPLINE
  5
3B8
100
AcDbEntity
  8
00_COMPONENTS_4
100
AcDbSpline
 62
7
  6
CONTINUOUS
 70
0
 71
3
 72
9
 73
5
 74
0
 42
0.0000001
 43
0.0000001
 44
0.0000000001
 40
0.0
 40
0.0
 40
0.0
 40
0.0
 40
0.2462189315
 40
1.0
 40
1.0
 40
1.0
 40
1.0
 10
143.0039328409
 20
109.2829397924
 30
0.0
 10
143.0385788668
 20
109.2677713147
 30
0.0
 10
143.1806059929
 20
109.2091965327
 30
0.0
 10
143.3275857019
 20
109.1627727269
 30
0.0
 10
143.4398339248
 20
109.1343685603
 30
0.0
  0
LINE
  5
3B9
100
AcDbEntity
  8
00_COMPONENTS_4
100
AcDbLine
 62
7
  6
CONTINUOUS
 10
475.7411052463
 20
109.1034436498
 11
475.7368428043
 21
109.1037379612
  0
LINE
  5
3BA
100
AcDbEntity
  8
00_COMPONENTS_4
100
AcDbLine
 62
7
  6
CONTINUOUS
 10
475.7368428043
 20
109.1037379612
 11
475.7324816686
 21
109.1041725673
  0
SPLINE
  5
3BB
100
AcDbEntity
  8
00_COMPONENTS_4
100
AcDbSpline
 62
7
  6
CONTINUOUS
 70
0
 71
3
 72
9
 73
5
 74
0
 42
0.0000001
 43
0.0000001
 44
0.0000000001
 40
0.0
 40
0.0
 40
0.0
 40
0.0
 40
0.2550942543
 40
1.0
 40
1.0
 40
1.0
 40
1.0
 10
475.0039328409
 20
109.2829397924
 30
0.0
 10
475.051636711
 20
109.2679622852
 30
0.0
 10
475.2393280761
 20
109.2114711992
 30
0.0
 10
475.4297799144
 20
109.164045831
 30
0.0
 10
475.5727761122
 20
109.134555052
 30
0.0
  0
SPLINE
  5
3BC
100
AcDbEntity
  8
00_COMPONENTS_4
100
AcDbSpline
 62
7
  6
CONTINUOUS
 70
0
 71
3
 72
9
 73
5
 74
0
 42
0.0000001
 43
0.0000001
 44
0.0000000001
 40
0.0
 40
0.0
 40
0.0
 40
0.0
 40
0.2461603863
 40
1.0
 40
1.0
 40
1.0
 40
1.0
 10
477.2149700079
 20
109.1297283513
 30
0.0
 10
477.2500531685
 20
109.1368267496
 30
0.0
 10
477.3922817657
 20
109.1670986782
 30
0.0
 10
477.5333004401
 20
109.2030076034
 30
0.0
 10
477.6387500315
 20
109.2329397924
 30
0.0
  0
SPLINE
  5
3BD
100
AcDbEntity
  8
00_COMPONENTS_4
100
AcDbSpline
 62
7
  6
CONTINUOUS
 70
0
 71
3
 72
9
 73
5
 74
0
 42
0.0000001
 43
0.0000001
 44
0.0000000001
 40
0.0
 40
0.0
 40
0.0
 40
0.0
 40
0.2461010597
 40
1.0
 40
1.0
 40
1.0
 40
1.0
 10
477.6387500315
 20
109.2329397924
 30
0.0
 10
477.6049429787
 20
109.2200461606
 30
0.0
 10
477.4665338155
 20
109.1704035228
 30
0.0
 10
477.3242373671
 20
109.1317305032
 30
0.0
 10
477.21586755
 20
109.1084606973
 30
0.0
  0
SPLINE
  5
3BE
100
AcDbEntity
  8
00_COMPONENTS_4
100
AcDbSpline
 62
7
  6
CONTINUOUS
 70
0
 71
3
 72
9
 73
5
 74
0
 42
0.0000001
 43
0.0000001
 44
0.0000000001
 40
0.0
 40
0.0
 40
0.0
 40
0.0
 40
0.2462189315
 40
1.0
 40
1.0
 40
1.0
 40
1.0
 10
475.0039328409
 20
109.2829397924
 30
0.0
 10
475.0385788668
 20
109.2677713147
 30
0.0
 10
475.1806059929
 20
109.2091965327
 30
0.0
 10
475.3275857019
 20
109.1627727269
 30
0.0
 10
475.4398339248
 20
109.1343685603
 30
0.0
  0
LINE
  5
3BF
100
AcDbEntity
  8
00_COMPONENTS_4
100
AcDbLine
 62
7
  6
CONTINUOUS
 10
543.7411052463
 20
109.1034436498
 11
543.7368428043
 21
109.1037379612
  0
LINE
  5
3C0
100
AcDbEntity
  8
00_COMPONENTS_4
100
AcDbLine
 62
7
  6
CONTINUOUS
 10
543.7368428043
 20
109.1037379612
 11
543.7324816686
 21
109.1041725673
  0
SPLINE
  5
3C1
100
AcDbEntity
  8
00_COMPONENTS_4
100
AcDbSpline
 62
7
  6
CONTINUOUS
 70
0
 71
3
 72
9
 73
5
 74
0
 42
0.0000001
 43
0.0000001
 44
0.0000000001
 40
0.0
 40
0.0
 40
0.0
 40
0.0
 40
0.2550942543
 40
1.0
 40
1.0
 40
1.0
 40
1.0
 10
543.0039328409
 20
109.2829397924
 30
0.0
 10
543.051636711
 20
109.2679622852
 30
0.0
 10
543.2393280761
 20
109.2114711992
 30
0.0
 10
543.4297799144
 20
109.164045831
 30
0.0
 10
543.5727761122
 20
109.134555052
 30
0.0
  0
SPLINE
  5
3C2
100
AcDbEntity
  8
00_COMPONENTS_4
100
AcDbSpline
 62
7
  6
CONTINUOUS
 70
0
 71
3
 72
9
 73
5
 74
0
 42
0.0000001
 43
0.0000001
 44
0.0000000001
 40
0.0
 40
0.0
 40
0.0
 40
0.0
 40
0.2461603863
 40
1.0
 40
1.0
 40
1.0
 40
1.0
 10
545.2149700079
 20
109.1297283513
 30
0.0
 10
545.2500531685
 20
109.1368267496
 30
0.0
 10
545.3922817657
 20
109.1670986782
 30
0.0
 10
545.5333004401
 20
109.2030076034
 30
0.0
 10
545.6387500315
 20
109.2329397924
 30
0.0
  0
SPLINE
  5
3C3
100
AcDbEntity
  8
00_COMPONENTS_4
100
AcDbSpline
 62
7
  6
CONTINUOUS
 70
0
 71
3
 72
9
 73
5
 74
0
 42
0.0000001
 43
0.0000001
 44
0.0000000001
 40
0.0
 40
0.0
 40
0.0
 40
0.0
 40
0.2461010597
 40
1.0
 40
1.0
 40
1.0
 40
1.0
 10
545.6387500315
 20
109.2329397924
 30
0.0
 10
545.6049429787
 20
109.2200461606
 30
0.0
 10
545.4665338155
 20
109.1704035228
 30
0.0
 10
545.3242373671
 20
109.1317305032
 30
0.0
 10
545.21586755
 20
109.1084606973
 30
0.0
  0
SPLINE
  5
3C4
100
AcDbEntity
  8
00_COMPONENTS_4
100
AcDbSpline
 62
7
  6
CONTINUOUS
 70
0
 71
3
 72
9
 73
5
 74
0
 42
0.0000001
 43
0.0000001
 44
0.0000000001
 40
0.0
 40
0.0
 40
0.0
 40
0.0
 40
0.2462189315
 40
1.0
 40
1.0
 40
1.0
 40
1.0
 10
543.0039328409
 20
109.2829397924
 30
0.0
 10
543.0385788668
 20
109.2677713147
 30
0.0
 10
543.1806059929
 20
109.2091965327
 30
0.0
 10
543.3275857019
 20
109.1627727269
 30
0.0
 10
543.4398339248
 20
109.1343685603
 30
0.0
  0
LINE
  5
3C5
100
AcDbEntity
  8
00_COMPONENTS_4
100
AcDbLine
 62
7
  6
CONTINUOUS
 10
875.7411052463
 20
109.1034436498
 11
875.7368428043
 21
109.1037379612
  0
LINE
  5
3C6
100
AcDbEntity
  8
00_COMPONENTS_4
100
AcDbLine
 62
7
  6
CONTINUOUS
 10
875.7368428043
 20
109.1037379612
 11
875.7324816686
 21
109.1041725673
  0
SPLINE
  5
3C7
100
AcDbEntity
  8
00_COMPONENTS_4
100
AcDbSpline
 62
7
  6
CONTINUOUS
 70
0
 71
3
 72
9
 73
5
 74
0
 42
0.0000001
 43
0.0000001
 44
0.0000000001
 40
0.0
 40
0.0
 40
0.0
 40
0.0
 40
0.2550942543
 40
1.0
 40
1.0
 40
1.0
 40
1.0
 10
875.0039328409
 20
109.2829397924
 30
0.0
 10
875.051636711
 20
109.2679622852
 30
0.0
 10
875.2393280761
 20
109.2114711992
 30
0.0
 10
875.4297799144
 20
109.164045831
 30
0.0
 10
875.5727761122
 20
109.134555052
 30
0.0
  0
SPLINE
  5
3C8
100
AcDbEntity
  8
00_COMPONENTS_4
100
AcDbSpline
 62
7
  6
CONTINUOUS
 70
0
 71
3
 72
9
 73
5
 74
0
 42
0.0000001
 43
0.0000001
 44
0.0000000001
 40
0.0
 40
0.0
 40
0.0
 40
0.0
 40
0.2461603863
 40
1.0
 40
1.0
 40
1.0
 40
1.0
 10
877.2149700079
 20
109.1297283513
 30
0.0
 10
877.2500531685
 20
109.1368267496
 30
0.0
 10
877.3922817657
 20
109.1670986782
 30
0.0
 10
877.5333004401
 20
109.2030076034
 30
0.0
 10
877.6387500315
 20
109.2329397924
 30
0.0
  0
SPLINE
  5
3C9
100
AcDbEntity
  8
00_COMPONENTS_4
100
AcDbSpline
 62
7
  6
CONTINUOUS
 70
0
 71
3
 72
9
 73
5
 74
0
 42
0.0000001
 43
0.0000001
 44
0.0000000001
 40
0.0
 40
0.0
 40
0.0
 40
0.0
 40
0.2461010597
 40
1.0
 40
1.0
 40
1.0
 40
1.0
 10
877.6387500315
 20
109.2329397924
 30
0.0
 10
877.6049429787
 20
109.2200461606
 30
0.0
 10
877.4665338155
 20
109.1704035228
 30
0.0
 10
877.3242373671
 20
109.1317305032
 30
0.0
 10
877.21586755
 20
109.1084606973
 30
0.0
  0
SPLINE
  5
3CA
100
AcDbEntity
  8
00_COMPONENTS_4
100
AcDbSpline
 62
7
  6
CONTINUOUS
 70
0
 71
3
 72
9
 73
5
 74
0
 42
0.0000001
 43
0.0000001
 44
0.0000000001
 40
0.0
 40
0.0
 40
0.0
 40
0.0
 40
0.2462189315
 40
1.0
 40
1.0
 40
1.0
 40
1.0
 10
875.0039328409
 20
109.2829397924
 30
0.0
 10
875.0385788668
 20
109.2677713147
 30
0.0
 10
875.1806059929
 20
109.2091965327
 30
0.0
 10
875.3275857019
 20
109.1627727269
 30
0.0
 10
875.4398339248
 20
109.1343685603
 30
0.0
  0
LINE
  5
3CB
100
AcDbEntity
  8
00_COMPONENTS_4
100
AcDbLine
 62
7
  6
CONTINUOUS
 10
189.7411052463
 20
109.1034436498
 11
189.7368428043
 21
109.1037379612
  0
LINE
  5
3CC
100
AcDbEntity
  8
00_COMPONENTS_4
100
AcDbLine
 62
7
  6
CONTINUOUS
 10
189.7368428043
 20
109.1037379612
 11
189.7324816686
 21
109.1041725673
  0
SPLINE
  5
3CD
100
AcDbEntity
  8
00_COMPONENTS_4
100
AcDbSpline
 62
7
  6
CONTINUOUS
 70
0
 71
3
 72
9
 73
5
 74
0
 42
0.0000001
 43
0.0000001
 44
0.0000000001
 40
0.0
 40
0.0
 40
0.0
 40
0.0
 40
0.2550942543
 40
1.0
 40
1.0
 40
1.0
 40
1.0
 10
189.0039328409
 20
109.2829397924
 30
0.0
 10
189.051636711
 20
109.2679622852
 30
0.0
 10
189.2393280761
 20
109.2114711992
 30
0.0
 10
189.4297799144
 20
109.164045831
 30
0.0
 10
189.5727761122
 20
109.134555052
 30
0.0
  0
SPLINE
  5
3CE
100
AcDbEntity
  8
00_COMPONENTS_4
100
AcDbSpline
 62
7
  6
CONTINUOUS
 70
0
 71
3
 72
9
 73
5
 74
0
 42
0.0000001
 43
0.0000001
 44
0.0000000001
 40
0.0
 40
0.0
 40
0.0
 40
0.0
 40
0.2461603863
 40
1.0
 40
1.0
 40
1.0
 40
1.0
 10
191.2149700079
 20
109.1297283513
 30
0.0
 10
191.2500531685
 20
109.1368267496
 30
0.0
 10
191.3922817657
 20
109.1670986782
 30
0.0
 10
191.5333004401
 20
109.2030076034
 30
0.0
 10
191.6387500315
 20
109.2329397924
 30
0.0
  0
SPLINE
  5
3CF
100
AcDbEntity
  8
00_COMPONENTS_4
100
AcDbSpline
 62
7
  6
CONTINUOUS
 70
0
 71
3
 72
9
 73
5
 74
0
 42
0.0000001
 43
0.0000001
 44
0.0000000001
 40
0.0
 40
0.0
 40
0.0
 40
0.0
 40
0.2461010597
 40
1.0
 40
1.0
 40
1.0
 40
1.0
 10
191.6387500315
 20
109.2329397924
 30
0.0
 10
191.6049429787
 20
109.2200461606
 30
0.0
 10
191.4665338155
 20
109.1704035228
 30
0.0
 10
191.3242373671
 20
109.1317305032
 30
0.0
 10
191.21586755
 20
109.1084606973
 30
0.0
  0
SPLINE
  5
3D0
100
AcDbEntity
  8
00_COMPONENTS_4
100
AcDbSpline
 62
7
  6
CONTINUOUS
 70
0
 71
3
 72
9
 73
5
 74
0
 42
0.0000001
 43
0.0000001
 44
0.0000000001
 40
0.0
 40
0.0
 40
0.0
 40
0.0
 40
0.2462189315
 40
1.0
 40
1.0
 40
1.0
 40
1.0
 10
189.0039328409
 20
109.2829397924
 30
0.0
 10
189.0385788668
 20
109.2677713147
 30
0.0
 10
189.1806059929
 20
109.2091965327
 30
0.0
 10
189.3275857019
 20
109.1627727269
 30
0.0
 10
189.4398339248
 20
109.1343685603
 30
0.0
  0
LINE
  5
3D1
100
AcDbEntity
  8
00_COMPONENTS_4
100
AcDbLine
 62
7
  6
CONTINUOUS
 10
429.7411052463
 20
109.1034436498
 11
429.7368428043
 21
109.1037379612
  0
LINE
  5
3D2
100
AcDbEntity
  8
00_COMPONENTS_4
100
AcDbLine
 62
7
  6
CONTINUOUS
 10
429.7368428043
 20
109.1037379612
 11
429.7324816686
 21
109.1041725673
  0
SPLINE
  5
3D3
100
AcDbEntity
  8
00_COMPONENTS_4
100
AcDbSpline
 62
7
  6
CONTINUOUS
 70
0
 71
3
 72
9
 73
5
 74
0
 42
0.0000001
 43
0.0000001
 44
0.0000000001
 40
0.0
 40
0.0
 40
0.0
 40
0.0
 40
0.2550942543
 40
1.0
 40
1.0
 40
1.0
 40
1.0
 10
429.0039328409
 20
109.2829397924
 30
0.0
 10
429.051636711
 20
109.2679622852
 30
0.0
 10
429.2393280761
 20
109.2114711992
 30
0.0
 10
429.4297799144
 20
109.164045831
 30
0.0
 10
429.5727761122
 20
109.134555052
 30
0.0
  0
SPLINE
  5
3D4
100
AcDbEntity
  8
00_COMPONENTS_4
100
AcDbSpline
 62
7
  6
CONTINUOUS
 70
0
 71
3
 72
9
 73
5
 74
0
 42
0.0000001
 43
0.0000001
 44
0.0000000001
 40
0.0
 40
0.0
 40
0.0
 40
0.0
 40
0.2461603863
 40
1.0
 40
1.0
 40
1.0
 40
1.0
 10
431.2149700079
 20
109.1297283513
 30
0.0
 10
431.2500531685
 20
109.1368267496
 30
0.0
 10
431.3922817657
 20
109.1670986782
 30
0.0
 10
431.5333004401
 20
109.2030076034
 30
0.0
 10
431.6387500315
 20
109.2329397924
 30
0.0
  0
SPLINE
  5
3D5
100
AcDbEntity
  8
00_COMPONENTS_4
100
AcDbSpline
 62
7
  6
CONTINUOUS
 70
0
 71
3
 72
9
 73
5
 74
0
 42
0.0000001
 43
0.0000001
 44
0.0000000001
 40
0.0
 40
0.0
 40
0.0
 40
0.0
 40
0.2461010597
 40
1.0
 40
1.0
 40
1.0
 40
1.0
 10
431.6387500315
 20
109.2329397924
 30
0.0
 10
431.6049429787
 20
109.2200461606
 30
0.0
 10
431.4665338155
 20
109.1704035228
 30
0.0
 10
431.3242373671
 20
109.1317305032
 30
0.0
 10
431.21586755
 20
109.1084606973
 30
0.0
  0
SPLINE
  5
3D6
100
AcDbEntity
  8
00_COMPONENTS_4
100
AcDbSpline
 62
7
  6
CONTINUOUS
 70
0
 71
3
 72
9
 73
5
 74
0
 42
0.0000001
 43
0.0000001
 44
0.0000000001
 40
0.0
 40
0.0
 40
0.0
 40
0.0
 40
0.2462189315
 40
1.0
 40
1.0
 40
1.0
 40
1.0
 10
429.0039328409
 20
109.2829397924
 30
0.0
 10
429.0385788668
 20
109.2677713147
 30
0.0
 10
429.1806059929
 20
109.2091965327
 30
0.0
 10
429.3275857019
 20
109.1627727269
 30
0.0
 10
429.4398339248
 20
109.1343685603
 30
0.0
  0
LINE
  5
3D7
100
AcDbEntity
  8
00_COMPONENTS_4
100
AcDbLine
 62
7
  6
CONTINUOUS
 10
309.7411052463
 20
109.1034436498
 11
309.7368428043
 21
109.1037379612
  0
LINE
  5
3D8
100
AcDbEntity
  8
00_COMPONENTS_4
100
AcDbLine
 62
7
  6
CONTINUOUS
 10
309.7368428043
 20
109.1037379612
 11
309.7324816686
 21
109.1041725673
  0
SPLINE
  5
3D9
100
AcDbEntity
  8
00_COMPONENTS_4
100
AcDbSpline
 62
7
  6
CONTINUOUS
 70
0
 71
3
 72
9
 73
5
 74
0
 42
0.0000001
 43
0.0000001
 44
0.0000000001
 40
0.0
 40
0.0
 40
0.0
 40
0.0
 40
0.2550942543
 40
1.0
 40
1.0
 40
1.0
 40
1.0
 10
309.0039328409
 20
109.2829397924
 30
0.0
 10
309.051636711
 20
109.2679622852
 30
0.0
 10
309.2393280761
 20
109.2114711992
 30
0.0
 10
309.4297799144
 20
109.164045831
 30
0.0
 10
309.5727761122
 20
109.134555052
 30
0.0
  0
SPLINE
  5
3DA
100
AcDbEntity
  8
00_COMPONENTS_4
100
AcDbSpline
 62
7
  6
CONTINUOUS
 70
0
 71
3
 72
9
 73
5
 74
0
 42
0.0000001
 43
0.0000001
 44
0.0000000001
 40
0.0
 40
0.0
 40
0.0
 40
0.0
 40
0.2461603863
 40
1.0
 40
1.0
 40
1.0
 40
1.0
 10
311.2149700079
 20
109.1297283513
 30
0.0
 10
311.2500531685
 20
109.1368267496
 30
0.0
 10
311.3922817657
 20
109.1670986782
 30
0.0
 10
311.5333004401
 20
109.2030076034
 30
0.0
 10
311.6387500315
 20
109.2329397924
 30
0.0
  0
SPLINE
  5
3DB
100
AcDbEntity
  8
00_COMPONENTS_4
100
AcDbSpline
 62
7
  6
CONTINUOUS
 70
0
 71
3
 72
9
 73
5
 74
0
 42
0.0000001
 43
0.0000001
 44
0.0000000001
 40
0.0
 40
0.0
 40
0.0
 40
0.0
 40
0.2461010597
 40
1.0
 40
1.0
 40
1.0
 40
1.0
 10
311.6387500315
 20
109.2329397924
 30
0.0
 10
311.6049429787
 20
109.2200461606
 30
0.0
 10
311.4665338155
 20
109.1704035228
 30
0.0
 10
311.3242373671
 20
109.1317305032
 30
0.0
 10
311.21586755
 20
109.1084606973
 30
0.0
  0
SPLINE
  5
3DC
100
AcDbEntity
  8
00_COMPONENTS_4
100
AcDbSpline
 62
7
  6
CONTINUOUS
 70
0
 71
3
 72
9
 73
5
 74
0
 42
0.0000001
 43
0.0000001
 44
0.0000000001
 40
0.0
 40
0.0
 40
0.0
 40
0.0
 40
0.2462189315
 40
1.0
 40
1.0
 40
1.0
 40
1.0
 10
309.0039328409
 20
109.2829397924
 30
0.0
 10
309.0385788668
 20
109.2677713147
 30
0.0
 10
309.1806059929
 20
109.2091965327
 30
0.0
 10
309.3275857019
 20
109.1627727269
 30
0.0
 10
309.4398339248
 20
109.1343685603
 30
0.0
  0
LINE
  5
3DD
100
AcDbEntity
  8
00_COMPONENTS_4
100
AcDbLine
 62
7
  6
CONTINUOUS
 10
709.7411052463
 20
109.1034436498
 11
709.7368428043
 21
109.1037379612
  0
LINE
  5
3DE
100
AcDbEntity
  8
00_COMPONENTS_4
100
AcDbLine
 62
7
  6
CONTINUOUS
 10
709.7368428043
 20
109.1037379612
 11
709.7324816686
 21
109.1041725673
  0
SPLINE
  5
3DF
100
AcDbEntity
  8
00_COMPONENTS_4
100
AcDbSpline
 62
7
  6
CONTINUOUS
 70
0
 71
3
 72
9
 73
5
 74
0
 42
0.0000001
 43
0.0000001
 44
0.0000000001
 40
0.0
 40
0.0
 40
0.0
 40
0.0
 40
0.2550942543
 40
1.0
 40
1.0
 40
1.0
 40
1.0
 10
709.0039328409
 20
109.2829397924
 30
0.0
 10
709.051636711
 20
109.2679622852
 30
0.0
 10
709.2393280761
 20
109.2114711992
 30
0.0
 10
709.4297799144
 20
109.164045831
 30
0.0
 10
709.5727761122
 20
109.134555052
 30
0.0
  0
SPLINE
  5
3E0
100
AcDbEntity
  8
00_COMPONENTS_4
100
AcDbSpline
 62
7
  6
CONTINUOUS
 70
0
 71
3
 72
9
 73
5
 74
0
 42
0.0000001
 43
0.0000001
 44
0.0000000001
 40
0.0
 40
0.0
 40
0.0
 40
0.0
 40
0.2461603863
 40
1.0
 40
1.0
 40
1.0
 40
1.0
 10
711.2149700079
 20
109.1297283513
 30
0.0
 10
711.2500531685
 20
109.1368267496
 30
0.0
 10
711.3922817657
 20
109.1670986782
 30
0.0
 10
711.5333004401
 20
109.2030076034
 30
0.0
 10
711.6387500315
 20
109.2329397924
 30
0.0
  0
SPLINE
  5
3E1
100
AcDbEntity
  8
00_COMPONENTS_4
100
AcDbSpline
 62
7
  6
CONTINUOUS
 70
0
 71
3
 72
9
 73
5
 74
0
 42
0.0000001
 43
0.0000001
 44
0.0000000001
 40
0.0
 40
0.0
 40
0.0
 40
0.0
 40
0.2461010597
 40
1.0
 40
1.0
 40
1.0
 40
1.0
 10
711.6387500315
 20
109.2329397924
 30
0.0
 10
711.6049429787
 20
109.2200461606
 30
0.0
 10
711.4665338155
 20
109.1704035228
 30
0.0
 10
711.3242373671
 20
109.1317305032
 30
0.0
 10
711.21586755
 20
109.1084606973
 30
0.0
  0
SPLINE
  5
3E2
100
AcDbEntity
  8
00_COMPONENTS_4
100
AcDbSpline
 62
7
  6
CONTINUOUS
 70
0
 71
3
 72
9
 73
5
 74
0
 42
0.0000001
 43
0.0000001
 44
0.0000000001
 40
0.0
 40
0.0
 40
0.0
 40
0.0
 40
0.2462189315
 40
1.0
 40
1.0
 40
1.0
 40
1.0
 10
709.0039328409
 20
109.2829397924
 30
0.0
 10
709.0385788668
 20
109.2677713147
 30
0.0
 10
709.1806059929
 20
109.2091965327
 30
0.0
 10
709.3275857019
 20
109.1627727269
 30
0.0
 10
709.4398339248
 20
109.1343685603
 30
0.0
  0
LINE
  5
3E3
100
AcDbEntity
  8
00_COMPONENTS_4
100
AcDbLine
 62
7
  6
CONTINUOUS
 10
829.7411052463
 20
109.1034436498
 11
829.7368428043
 21
109.1037379612
  0
LINE
  5
3E4
100
AcDbEntity
  8
00_COMPONENTS_4
100
AcDbLine
 62
7
  6
CONTINUOUS
 10
829.7368428043
 20
109.1037379612
 11
829.7324816686
 21
109.1041725673
  0
SPLINE
  5
3E5
100
AcDbEntity
  8
00_COMPONENTS_4
100
AcDbSpline
 62
7
  6
CONTINUOUS
 70
0
 71
3
 72
9
 73
5
 74
0
 42
0.0000001
 43
0.0000001
 44
0.0000000001
 40
0.0
 40
0.0
 40
0.0
 40
0.0
 40
0.2550942543
 40
1.0
 40
1.0
 40
1.0
 40
1.0
 10
829.0039328409
 20
109.2829397924
 30
0.0
 10
829.051636711
 20
109.2679622852
 30
0.0
 10
829.2393280761
 20
109.2114711992
 30
0.0
 10
829.4297799144
 20
109.164045831
 30
0.0
 10
829.5727761122
 20
109.134555052
 30
0.0
  0
SPLINE
  5
3E6
100
AcDbEntity
  8
00_COMPONENTS_4
100
AcDbSpline
 62
7
  6
CONTINUOUS
 70
0
 71
3
 72
9
 73
5
 74
0
 42
0.0000001
 43
0.0000001
 44
0.0000000001
 40
0.0
 40
0.0
 40
0.0
 40
0.0
 40
0.2461603863
 40
1.0
 40
1.0
 40
1.0
 40
1.0
 10
831.2149700079
 20
109.1297283513
 30
0.0
 10
831.2500531685
 20
109.1368267496
 30
0.0
 10
831.3922817657
 20
109.1670986782
 30
0.0
 10
831.5333004401
 20
109.2030076034
 30
0.0
 10
831.6387500315
 20
109.2329397924
 30
0.0
  0
SPLINE
  5
3E7
100
AcDbEntity
  8
00_COMPONENTS_4
100
AcDbSpline
 62
7
  6
CONTINUOUS
 70
0
 71
3
 72
9
 73
5
 74
0
 42
0.0000001
 43
0.0000001
 44
0.0000000001
 40
0.0
 40
0.0
 40
0.0
 40
0.0
 40
0.2461010597
 40
1.0
 40
1.0
 40
1.0
 40
1.0
 10
831.6387500315
 20
109.2329397924
 30
0.0
 10
831.6049429787
 20
109.2200461606
 30
0.0
 10
831.4665338155
 20
109.1704035228
 30
0.0
 10
831.3242373671
 20
109.1317305032
 30
0.0
 10
831.21586755
 20
109.1084606973
 30
0.0
  0
SPLINE
  5
3E8
100
AcDbEntity
  8
00_COMPONENTS_4
100
AcDbSpline
 62
7
  6
CONTINUOUS
 70
0
 71
3
 72
9
 73
5
 74
0
 42
0.0000001
 43
0.0000001
 44
0.0000000001
 40
0.0
 40
0.0
 40
0.0
 40
0.0
 40
0.2462189315
 40
1.0
 40
1.0
 40
1.0
 40
1.0
 10
829.0039328409
 20
109.2829397924
 30
0.0
 10
829.0385788668
 20
109.2677713147
 30
0.0
 10
829.1806059929
 20
109.2091965327
 30
0.0
 10
829.3275857019
 20
109.1627727269
 30
0.0
 10
829.4398339248
 20
109.1343685603
 30
0.0
  0
LINE
  5
3E9
100
AcDbEntity
  8
00_COMPONENTS_4
100
AcDbLine
 62
7
  6
CONTINUOUS
 10
589.7411052463
 20
109.1034436498
 11
589.7368428043
 21
109.1037379612
  0
LINE
  5
3EA
100
AcDbEntity
  8
00_COMPONENTS_4
100
AcDbLine
 62
7
  6
CONTINUOUS
 10
589.7368428043
 20
109.1037379612
 11
589.7324816686
 21
109.1041725673
  0
SPLINE
  5
3EB
100
AcDbEntity
  8
00_COMPONENTS_4
100
AcDbSpline
 62
7
  6
CONTINUOUS
 70
0
 71
3
 72
9
 73
5
 74
0
 42
0.0000001
 43
0.0000001
 44
0.0000000001
 40
0.0
 40
0.0
 40
0.0
 40
0.0
 40
0.2550942543
 40
1.0
 40
1.0
 40
1.0
 40
1.0
 10
589.0039328409
 20
109.2829397924
 30
0.0
 10
589.051636711
 20
109.2679622852
 30
0.0
 10
589.2393280761
 20
109.2114711992
 30
0.0
 10
589.4297799144
 20
109.164045831
 30
0.0
 10
589.5727761122
 20
109.134555052
 30
0.0
  0
SPLINE
  5
3EC
100
AcDbEntity
  8
00_COMPONENTS_4
100
AcDbSpline
 62
7
  6
CONTINUOUS
 70
0
 71
3
 72
9
 73
5
 74
0
 42
0.0000001
 43
0.0000001
 44
0.0000000001
 40
0.0
 40
0.0
 40
0.0
 40
0.0
 40
0.2461603863
 40
1.0
 40
1.0
 40
1.0
 40
1.0
 10
591.2149700079
 20
109.1297283513
 30
0.0
 10
591.2500531685
 20
109.1368267496
 30
0.0
 10
591.3922817657
 20
109.1670986782
 30
0.0
 10
591.5333004401
 20
109.2030076034
 30
0.0
 10
591.6387500315
 20
109.2329397924
 30
0.0
  0
SPLINE
  5
3ED
100
AcDbEntity
  8
00_COMPONENTS_4
100
AcDbSpline
 62
7
  6
CONTINUOUS
 70
0
 71
3
 72
9
 73
5
 74
0
 42
0.0000001
 43
0.0000001
 44
0.0000000001
 40
0.0
 40
0.0
 40
0.0
 40
0.0
 40
0.2461010597
 40
1.0
 40
1.0
 40
1.0
 40
1.0
 10
591.6387500315
 20
109.2329397924
 30
0.0
 10
591.6049429787
 20
109.2200461606
 30
0.0
 10
591.4665338155
 20
109.1704035228
 30
0.0
 10
591.3242373671
 20
109.1317305032
 30
0.0
 10
591.21586755
 20
109.1084606973
 30
0.0
  0
SPLINE
  5
3EE
100
AcDbEntity
  8
00_COMPONENTS_4
100
AcDbSpline
 62
7
  6
CONTINUOUS
 70
0
 71
3
 72
9
 73
5
 74
0
 42
0.0000001
 43
0.0000001
 44
0.0000000001
 40
0.0
 40
0.0
 40
0.0
 40
0.0
 40
0.2462189315
 40
1.0
 40
1.0
 40
1.0
 40
1.0
 10
589.0039328409
 20
109.2829397924
 30
0.0
 10
589.0385788668
 20
109.2677713147
 30
0.0
 10
589.1806059929
 20
109.2091965327
 30
0.0
 10
589.3275857019
 20
109.1627727269
 30
0.0
 10
589.4398339248
 20
109.1343685603
 30
0.0
  0
SPLINE
  5
3EF
100
AcDbEntity
  8
00_COMPONENTS_16
100
AcDbSpline
 62
7
  6
CONTINUOUS
 70
0
 71
3
 72
9
 73
5
 74
0
 42
0.0000001
 43
0.0000001
 44
0.0000000001
 40
0.0
 40
0.0
 40
0.0
 40
0.0
 40
0.2248649872
 40
1.0
 40
1.0
 40
1.0
 40
1.0
 10
130.6686910093
 20
128.9250328038
 30
0.0
 10
130.566193876
 20
128.8352707137
 30
0.0
 10
130.0935528425
 20
128.4552721558
 30
0.0
 10
129.5783778877
 20
128.1324306719
 30
0.0
 10
129.1744293464
 20
127.8928460158
 30
0.0
  0
SPLINE
  5
3F0
100
AcDbEntity
  8
00_COMPONENTS_16
100
AcDbSpline
 62
7
  6
CONTINUOUS
 70
0
 71
3
 72
9
 73
5
 74
0
 42
0.0000001
 43
0.0000001
 44
0.0000000001
 40
0.0
 40
0.0
 40
0.0
 40
0.0
 40
0.2248647138
 40
1.0
 40
1.0
 40
1.0
 40
1.0
 10
890.1187036343
 20
1290.3408467811
 30
0.0
 10
890.2212010482
 20
1290.4306081515
 30
0.0
 10
890.6938450471
 20
1290.8106023819
 30
0.0
 10
891.2090175536
 20
1291.1334452788
 30
0.0
 10
891.6129607528
 20
1291.3730386085
 30
0.0
  0
SPLINE
  5
3F1
100
AcDbEntity
  8
00_COMPONENTS_16
100
AcDbSpline
 62
7
  6
CONTINUOUS
 70
0
 71
3
 72
9
 73
5
 74
0
 42
0.0000001
 43
0.0000001
 44
0.0000000001
 40
0.0
 40
0.0
 40
0.0
 40
0.0
 40
0.5991198564
 40
1.0
 40
1.0
 40
1.0
 40
1.0
 10
113.5936979413
 20
112.8329407656
 30
0.0
 10
113.3301518304
 20
112.4189635074
 30
0.0
 10
112.9372881742
 20
111.7392642487
 30
0.0
 10
112.2220636324
 20
111.1329394684
 30
0.0
 10
111.8936966505
 20
111.1329397924
 30
0.0
  0
SPLINE
  5
3F2
100
AcDbEntity
  8
00_COMPONENTS_16
100
AcDbSpline
 62
7
  6
CONTINUOUS
 70
0
 71
3
 72
9
 73
5
 74
0
 42
0.0000001
 43
0.0000001
 44
0.0000000001
 40
0.0
 40
0.0
 40
0.0
 40
0.0
 40
0.4008707291
 40
1.0
 40
1.0
 40
1.0
 40
1.0
 10
908.8936979931
 20
111.1329397924
 30
0.0
 10
908.5653372359
 20
111.1329394725
 30
0.0
 10
907.8500779075
 20
111.7392162002
 30
0.0
 10
907.4572470504
 20
112.4189541355
 30
0.0
 10
907.1936956347
 20
112.8329397924
 30
0.0
  0
SPLINE
  5
3F3
100
AcDbEntity
  8
00_COMPONENTS_16
100
AcDbSpline
 62
7
  6
CONTINUOUS
 70
0
 71
3
 72
9
 73
5
 74
0
 42
0.0000001
 43
0.0000001
 44
0.0000000001
 40
0.0
 40
0.0
 40
0.0
 40
0.0
 40
0.5991197999
 40
1.0
 40
1.0
 40
1.0
 40
1.0
 10
907.1936963487
 20
112.832940412
 30
0.0
 10
907.6076734667
 20
112.5693943902
 30
0.0
 10
908.2873725284
 20
112.1765306993
 30
0.0
 10
908.8936973218
 20
111.4613067406
 30
0.0
 10
908.8936973218
 20
111.1329397924
 30
0.0
  0
SPLINE
  5
3F4
100
AcDbEntity
  8
00_COMPONENTS_16
100
AcDbSpline
 62
7
  6
CONTINUOUS
 70
0
 71
3
 72
9
 73
5
 74
0
 42
0.0000001
 43
0.0000001
 44
0.0000000001
 40
0.0
 40
0.0
 40
0.0
 40
0.0
 40
0.400870003
 40
1.0
 40
1.0
 40
1.0
 40
1.0
 10
908.8936973218
 20
1308.1329397924
 30
0.0
 10
908.8936973218
 20
1307.8045798088
 30
0.0
 10
908.2874183533
 20
1307.0893231216
 30
0.0
 10
907.6076832186
 20
1306.6964897539
 30
0.0
 10
907.1936973218
 20
1306.4329381053
 30
0.0
  0
SPLINE
  5
3F5
100
AcDbEntity
  8
00_COMPONENTS_16
100
AcDbSpline
 62
7
  6
CONTINUOUS
 70
0
 71
3
 72
9
 73
5
 74
0
 42
0.0000001
 43
0.0000001
 44
0.0000000001
 40
0.0
 40
0.0
 40
0.0
 40
0.0
 40
0.5991198565
 40
1.0
 40
1.0
 40
1.0
 40
1.0
 10
907.1936967023
 20
1306.4329388193
 30
0.0
 10
907.4572428133
 20
1306.8469160774
 30
0.0
 10
907.8501064693
 20
1307.5266153363
 30
0.0
 10
908.5653310112
 20
1308.1329401165
 30
0.0
 10
908.8936979931
 20
1308.1329397924
 30
0.0
  0
SPLINE
  5
3F6
100
AcDbEntity
  8
00_COMPONENTS_16
100
AcDbSpline
 62
7
  6
CONTINUOUS
 70
0
 71
3
 72
9
 73
5
 74
0
 42
0.0000001
 43
0.0000001
 44
0.0000000001
 40
0.0
 40
0.0
 40
0.0
 40
0.0
 40
0.4008701336
 40
1.0
 40
1.0
 40
1.0
 40
1.0
 10
111.8936966505
 20
1308.1329397924
 30
0.0
 10
112.2220568454
 20
1308.1329401124
 30
0.0
 10
112.937314614
 20
1307.5266617081
 30
0.0
 10
113.3301473735
 20
1306.8469257557
 30
0.0
 10
113.5936990089
 20
1306.4329397924
 30
0.0
  0
SPLINE
  5
3F7
100
AcDbEntity
  8
00_COMPONENTS_16
100
AcDbSpline
 62
7
  6
CONTINUOUS
 70
0
 71
3
 72
9
 73
5
 74
0
 42
0.0000001
 43
0.0000001
 44
0.0000000001
 40
0.0
 40
0.0
 40
0.0
 40
0.0
 40
0.5991197998
 40
1.0
 40
1.0
 40
1.0
 40
1.0
 10
113.5936982949
 20
1306.4329391729
 30
0.0
 10
113.1797211769
 20
1306.6964851947
 30
0.0
 10
112.5000221152
 20
1307.0893488856
 30
0.0
 10
111.8936973218
 20
1307.8045728442
 30
0.0
 10
111.8936973218
 20
1308.1329397924
 30
0.0
  0
SPLINE
  5
3F8
100
AcDbEntity
  8
00_COMPONENTS_16
100
AcDbSpline
 62
7
  6
CONTINUOUS
 70
0
 71
3
 72
9
 73
5
 74
0
 42
0.0000001
 43
0.0000001
 44
0.0000000001
 40
0.0
 40
0.0
 40
0.0
 40
0.0
 40
0.400870003
 40
1.0
 40
1.0
 40
1.0
 40
1.0
 10
111.8936973218
 20
111.1329397924
 30
0.0
 10
111.8936973218
 20
111.461299776
 30
0.0
 10
112.4999762903
 20
112.1765564633
 30
0.0
 10
113.1797114251
 20
112.5693898309
 30
0.0
 10
113.5936973218
 20
112.8329414795
 30
0.0
  0
SPLINE
  5
3F9
100
AcDbEntity
  8
00_COMPONENTS_16
100
AcDbSpline
 62
7
  6
CONTINUOUS
 70
0
 71
3
 72
9
 73
5
 74
0
 42
0.0000001
 43
0.0000001
 44
0.0000000001
 40
0.0
 40
0.0
 40
0.0
 40
0.0
 40
0.7677769024
 40
1.0
 40
1.0
 40
1.0
 40
1.0
 10
907.1936973218
 20
1306.4329397924
 30
0.0
 10
907.6572027016
 20
1306.5896992837
 30
0.0
 10
908.2615407142
 20
1306.7926872071
 30
0.0
 10
908.8558209155
 20
1307.023155088
 30
0.0
 10
908.9928022098
 20
1307.079174355
 30
0.0
  0
SPLINE
  5
3FA
100
AcDbEntity
  8
00_COMPONENTS_16
100
AcDbSpline
 62
7
  6
CONTINUOUS
 70
0
 71
3
 72
8
 73
4
 74
0
 42
0.0000001
 43
0.0000001
 44
0.0000000001
 40
0.0
 40
0.0
 40
0.0
 40
0.0
 40
1.0
 40
1.0
 40
1.0
 40
1.0
 10
908.9928022098
 20
1307.079174355
 30
0.0
 10
909.215879868
 20
1307.1704032119
 30
0.0
 10
909.4370852694
 20
1307.2676202508
 30
0.0
 10
909.6502238918
 20
1307.3801292438
 30
0.0
  0
SPLINE
  5
3FB
100
AcDbEntity
  8
00_COMPONENTS_16
100
AcDbSpline
 62
7
  6
CONTINUOUS
 70
0
 71
3
 72
9
 73
5
 74
0
 42
0.0000001
 43
0.0000001
 44
0.0000000001
 40
0.0
 40
0.0
 40
0.0
 40
0.0
 40
0.3430019893
 40
1.0
 40
1.0
 40
1.0
 40
1.0
 10
909.6502238918
 20
1307.3801292438
 30
0.0
 10
909.7590636009
 20
1307.4375822099
 30
0.0
 10
910.0567957589
 20
1307.60754646
 30
0.0
 10
910.3936973218
 20
1307.8972017561
 30
0.0
 10
910.3936973218
 20
1308.1329397924
 30
0.0
  0
SPLINE
  5
3FC
100
AcDbEntity
  8
00_COMPONENTS_16
100
AcDbSpline
 62
7
  6
CONTINUOUS
 70
0
 71
3
 72
9
 73
5
 74
0
 42
0.0000001
 43
0.0000001
 44
0.0000000001
 40
0.0
 40
0.0
 40
0.0
 40
0.0
 40
0.3683694942
 40
1.0
 40
1.0
 40
1.0
 40
1.0
 10
910.3936973218
 20
111.1329397924
 30
0.0
 10
910.3936973218
 20
111.3144480126
 30
0.0
 10
910.0131996106
 20
111.7383826802
 30
0.0
 10
909.5789116762
 20
111.9303574285
 30
0.0
 10
909.2949134788
 20
112.0576625236
 30
0.0
  0
SPLINE
  5
3FD
100
AcDbEntity
  8
00_COMPONENTS_16
100
AcDbSpline
 62
7
  6
CONTINUOUS
 70
0
 71
3
 72
9
 73
5
 74
0
 42
0.0000001
 43
0.0000001
 44
0.0000000001
 40
0.0
 40
0.0
 40
0.0
 40
0.0
 40
0.2322029074
 40
1.0
 40
1.0
 40
1.0
 40
1.0
 10
908.992788603
 20
112.1867171902
 30
0.0
 10
908.8558192279
 20
112.2427281226
 30
0.0
 10
908.2615410233
 20
112.4731850833
 30
0.0
 10
907.6572107548
 20
112.6761775766
 30
0.0
 10
907.1936973218
 20
112.8329397925
 30
0.0
  0
SPLINE
  5
3FE
100
AcDbEntity
  8
00_COMPONENTS_16
100
AcDbSpline
 62
7
  6
CONTINUOUS
 70
0
 71
3
 72
9
 73
5
 74
0
 42
0.0000001
 43
0.0000001
 44
0.0000000001
 40
0.0
 40
0.0
 40
0.0
 40
0.0
 40
0.7677768825
 40
1.0
 40
1.0
 40
1.0
 40
1.0
 10
113.5936973218
 20
1306.4329397924
 30
0.0
 10
113.4369378373
 20
1306.8964451714
 30
0.0
 10
113.2339500198
 20
1307.5007832409
 30
0.0
 10
113.0034818667
 20
1308.0950633501
 30
0.0
 10
112.9474625715
 20
1308.2320446499
 30
0.0
  0
SPLINE
  5
3FF
100
AcDbEntity
  8
00_COMPONENTS_16
100
AcDbSpline
 62
7
  6
CONTINUOUS
 70
0
 71
3
 72
8
 73
4
 74
0
 42
0.0000001
 43
0.0000001
 44
0.0000000001
 40
0.0
 40
0.0
 40
0.0
 40
0.0
 40
1.0
 40
1.0
 40
1.0
 40
1.0
 10
112.9474625715
 20
1308.2320446499
 30
0.0
 10
112.8562336996
 20
1308.4551222416
 30
0.0
 10
112.7590168289
 20
1308.676327632
 30
0.0
 10
112.6465082145
 20
1308.8894663913
 30
0.0
  0
SPLINE
  5
400
100
AcDbEntity
  8
00_COMPONENTS_16
100
AcDbSpline
 62
7
  6
CONTINUOUS
 70
0
 71
3
 72
9
 73
5
 74
0
 42
0.0000001
 43
0.0000001
 44
0.0000000001
 40
0.0
 40
0.0
 40
0.0
 40
0.0
 40
0.3430016565
 40
1.0
 40
1.0
 40
1.0
 40
1.0
 10
112.6465082145
 20
1308.8894663913
 30
0.0
 10
112.589055464
 20
1308.998306128
 30
0.0
 10
112.4190914674
 20
1309.2960386722
 30
0.0
 10
112.1294355603
 20
1309.6329397924
 30
0.0
 10
111.8936973218
 20
1309.6329397924
 30
0.0
  0
SPLINE
  5
401
100
AcDbEntity
  8
00_COMPONENTS_16
100
AcDbSpline
 62
7
  6
CONTINUOUS
 70
0
 71
3
 72
9
 73
5
 74
0
 42
0.0000001
 43
0.0000001
 44
0.0000000001
 40
0.0
 40
0.0
 40
0.0
 40
0.0
 40
0.3683694942
 40
1.0
 40
1.0
 40
1.0
 40
1.0
 10
908.8936973218
 20
1309.6329397924
 30
0.0
 10
908.7121891017
 20
1309.6329397924
 30
0.0
 10
908.288254434
 20
1309.2524420813
 30
0.0
 10
908.0962796858
 20
1308.8181541469
 30
0.0
 10
907.9689745906
 20
1308.5341559495
 30
0.0
  0
SPLINE
  5
402
100
AcDbEntity
  8
00_COMPONENTS_16
100
AcDbSpline
 62
7
  6
CONTINUOUS
 70
0
 71
3
 72
9
 73
5
 74
0
 42
0.0000001
 43
0.0000001
 44
0.0000000001
 40
0.0
 40
0.0
 40
0.0
 40
0.0
 40
0.2322029074
 40
1.0
 40
1.0
 40
1.0
 40
1.0
 10
907.8399199241
 20
1308.2320310738
 30
0.0
 10
907.7839089917
 20
1308.0950616987
 30
0.0
 10
907.553452031
 20
1307.500783494
 30
0.0
 10
907.3504595376
 20
1306.8964532254
 30
0.0
 10
907.1936973218
 20
1306.4329397924
 30
0.0
  0
SPLINE
  5
403
100
AcDbEntity
  8
00_COMPONENTS_16
100
AcDbSpline
 62
7
  6
CONTINUOUS
 70
0
 71
3
 72
9
 73
5
 74
0
 42
0.0000001
 43
0.0000001
 44
0.0000000001
 40
0.0
 40
0.0
 40
0.0
 40
0.0
 40
0.7677768199
 40
1.0
 40
1.0
 40
1.0
 40
1.0
 10
907.1936973218
 20
112.8329397924
 30
0.0
 10
907.3504567986
 20
112.3694344207
 30
0.0
 10
907.5534442671
 20
111.7650961669
 30
0.0
 10
907.7839132775
 20
111.1708163475
 30
0.0
 10
907.8399326615
 20
111.0338350309
 30
0.0
  0
SPLINE
  5
404
100
AcDbEntity
  8
00_COMPONENTS_16
100
AcDbSpline
 62
7
  6
CONTINUOUS
 70
0
 71
3
 72
8
 73
4
 74
0
 42
0.0000001
 43
0.0000001
 44
0.0000000001
 40
0.0
 40
0.0
 40
0.0
 40
0.0
 40
1.0
 40
1.0
 40
1.0
 40
1.0
 10
907.8399326615
 20
111.0338350309
 30
0.0
 10
907.9311617392
 20
110.8107572626
 30
0.0
 10
908.0283782567
 20
110.5895515239
 30
0.0
 10
908.1408859304
 20
110.3764119953
 30
0.0
  0
SPLINE
  5
405
100
AcDbEntity
  8
00_COMPONENTS_16
100
AcDbSpline
 62
7
  6
CONTINUOUS
 70
0
 71
3
 72
9
 73
5
 74
0
 42
0.0000001
 43
0.0000001
 44
0.0000000001
 40
0.0
 40
0.0
 40
0.0
 40
0.0
 40
0.3430005575
 40
1.0
 40
1.0
 40
1.0
 40
1.0
 10
908.1408859304
 20
110.3764119953
 30
0.0
 10
908.198337958
 20
110.2675723255
 30
0.0
 10
908.3683010553
 20
109.9698389251
 30
0.0
 10
908.6579586933
 20
109.6329397924
 30
0.0
 10
908.8936973218
 20
109.6329397924
 30
0.0
  0
SPLINE
  5
406
100
AcDbEntity
  8
00_COMPONENTS_16
100
AcDbSpline
 62
7
  6
CONTINUOUS
 70
0
 71
3
 72
9
 73
5
 74
0
 42
0.0000001
 43
0.0000001
 44
0.0000000001
 40
0.0
 40
0.0
 40
0.0
 40
0.0
 40
0.7677769024
 40
1.0
 40
1.0
 40
1.0
 40
1.0
 10
113.5936973218
 20
112.8329397924
 30
0.0
 10
113.130191942
 20
112.6761803012
 30
0.0
 10
112.5258539294
 20
112.4731923777
 30
0.0
 10
111.9315737282
 20
112.2427244969
 30
0.0
 10
111.7945924338
 20
112.1867052298
 30
0.0
  0
SPLINE
  5
407
100
AcDbEntity
  8
00_COMPONENTS_16
100
AcDbSpline
 62
7
  6
CONTINUOUS
 70
0
 71
3
 72
8
 73
4
 74
0
 42
0.0000001
 43
0.0000001
 44
0.0000000001
 40
0.0
 40
0.0
 40
0.0
 40
0.0
 40
1.0
 40
1.0
 40
1.0
 40
1.0
 10
111.7945924338
 20
112.1867052298
 30
0.0
 10
111.5715147756
 20
112.095476373
 30
0.0
 10
111.3503093742
 20
111.9982593341
 30
0.0
 10
111.1371707518
 20
111.8857503411
 30
0.0
  0
SPLINE
  5
408
100
AcDbEntity
  8
00_COMPONENTS_16
100
AcDbSpline
 62
7
  6
CONTINUOUS
 70
0
 71
3
 72
9
 73
5
 74
0
 42
0.0000001
 43
0.0000001
 44
0.0000000001
 40
0.0
 40
0.0
 40
0.0
 40
0.0
 40
0.3430019893
 40
1.0
 40
1.0
 40
1.0
 40
1.0
 10
111.1371707518
 20
111.8857503411
 30
0.0
 10
111.0283310427
 20
111.828297375
 30
0.0
 10
110.7305988847
 20
111.6583331248
 30
0.0
 10
110.3936973218
 20
111.3686778288
 30
0.0
 10
110.3936973218
 20
111.1329397924
 30
0.0
  0
SPLINE
  5
409
100
AcDbEntity
  8
00_COMPONENTS_16
100
AcDbSpline
 62
7
  6
CONTINUOUS
 70
0
 71
3
 72
9
 73
5
 74
0
 42
0.0000001
 43
0.0000001
 44
0.0000000001
 40
0.0
 40
0.0
 40
0.0
 40
0.0
 40
0.3683694942
 40
1.0
 40
1.0
 40
1.0
 40
1.0
 10
110.3936973218
 20
1308.1329397924
 30
0.0
 10
110.3936973218
 20
1307.9514315723
 30
0.0
 10
110.7741950329
 20
1307.5274969046
 30
0.0
 10
111.2084829675
 20
1307.3355221564
 30
0.0
 10
111.4924811649
 20
1307.2082170612
 30
0.0
  0
SPLINE
  5
40A
100
AcDbEntity
  8
00_COMPONENTS_16
100
AcDbSpline
 62
7
  6
CONTINUOUS
 70
0
 71
3
 72
9
 73
5
 74
0
 42
0.0000001
 43
0.0000001
 44
0.0000000001
 40
0.0
 40
0.0
 40
0.0
 40
0.0
 40
0.2322029073
 40
1.0
 40
1.0
 40
1.0
 40
1.0
 10
111.7946060407
 20
1307.0791623946
 30
0.0
 10
111.9315754158
 20
1307.0231514623
 30
0.0
 10
112.5258536204
 20
1306.7926945016
 30
0.0
 10
113.1301838889
 20
1306.5897020082
 30
0.0
 10
113.5936973218
 20
1306.4329397924
 30
0.0
  0
SPLINE
  5
40B
100
AcDbEntity
  8
00_COMPONENTS_16
100
AcDbSpline
 62
7
  6
CONTINUOUS
 70
0
 71
3
 72
9
 73
5
 74
0
 42
0.0000001
 43
0.0000001
 44
0.0000000001
 40
0.0
 40
0.0
 40
0.0
 40
0.0
 40
0.3683694942
 40
1.0
 40
1.0
 40
1.0
 40
1.0
 10
111.8936973218
 20
109.6329397924
 30
0.0
 10
112.0752055419
 20
109.6329397924
 30
0.0
 10
112.4991402096
 20
110.0134375036
 30
0.0
 10
112.6911149578
 20
110.4477254381
 30
0.0
 10
112.818420053
 20
110.7317236355
 30
0.0
  0
SPLINE
  5
40C
100
AcDbEntity
  8
00_COMPONENTS_16
100
AcDbSpline
 62
7
  6
CONTINUOUS
 70
0
 71
3
 72
9
 73
5
 74
0
 42
0.0000001
 43
0.0000001
 44
0.0000000001
 40
0.0
 40
0.0
 40
0.0
 40
0.0
 40
0.2322029074
 40
1.0
 40
1.0
 40
1.0
 40
1.0
 10
112.9474747196
 20
111.0338485112
 30
0.0
 10
113.0034856519
 20
111.1708178863
 30
0.0
 10
113.2339426126
 20
111.765096091
 30
0.0
 10
113.436935106
 20
112.3694263595
 30
0.0
 10
113.5936973218
 20
112.8329397924
 30
0.0
  0
ENDSEC
  0
SECTION
  2
OBJECTS
  0
DICTIONARY
  5
C
100
AcDbDictionary
280
0
281
1
  3
ACAD_GROUP
350
D
  3
ACAD_MLINESTYLE
350
17
  3
ACAD_LAYOUT
350
1A
  3
ACAD_PLOTSETTINGS
350
19
  3
ACAD_PLOTSTYLENAME
350
E
  0
DICTIONARY
  5
D
102
{ACAD_REACTORS
330
C
102
}
100
AcDbDictionary
280
0
281
1
  0
ACDBDICTIONARYWDFLT
  5
E
102
{ACAD_REACTORS
330
C
102
}
100
AcDbDictionary
281
1
  3
Normal
350
F
100
AcDbDictionaryWithDefault
340
F
  0
DICTIONARY
  5
17
102
{ACAD_REACTORS
330
C
102
}
100
AcDbDictionary
280
0
281
1
  3
Standard
350
18
  0
DICTIONARY
  5
19
102
{ACAD_REACTORS
330
C
102
}
100
AcDbDictionary
281
1
  0
DICTIONARY
  5
1A
102
{ACAD_REACTORS
330
C
102
}
100
AcDbDictionary
281
1
  3
Model
350
40D
  3
Layout1
350
40E
  0
ACDBPLACEHOLDER
  5
F
102
{ACAD_REACTORS
330
E
102
}
  0
MLINESTYLE
  5
18
102
{ACAD_REACTORS
330
17
102
}
100
AcDbMlineStyle
  2
STANDARD
 70
0
  3

 62
256
 51
90.0
 52
90.0
 71
2
 49
0.5
 62
256
  6
BYLAYER
 49
-0.5
 62
256
  6
BYLAYER
  0
LAYOUT
  5
40D
102
{ACAD_REACTORS
330
1A
102
}
100
AcDbPlotSettings
  1

  2
none_device
  4

  6

 40
0.0
 41
0.0
 42
0.0
 43
0.0
 44
210.0
 45
297.0
 46
0.0
 47
0.0
 48
0.0
 49
0.0
140
0.0
141
0.0
142
1.0
143
1.0
 70
1024
 72
1
 73
0
 74
0
  7

 75
0
147
1.0
148
0.0
149
0.0
100
AcDbLayout
  1
Model
 70
0
 71
0
 10
0.0
 20
0.0
 11
210.0
 21
297.0
 12
0.0
 22
0.0
 32
0.0
 14
0.0
 24
0.0
 34
0.0
 15
0.0
 25
0.0
 35
0.0
146
0.0
 13
0.0
 23
0.0
 33
0.0
 16
1.0
 26
0.0
 36
0.0
 17
0.0
 27
1.0
 37
0.0
 76
0
330
234
345
0
346
0
  0
LAYOUT
  5
40E
102
{ACAD_REACTORS
330
1A
102
}
100
AcDbPlotSettings
  1

  2
none_device
  4

  6

 40
0.0
 41
0.0
 42
0.0
 43
0.0
 44
210.0
 45
297.0
 46
0.0
 47
0.0
 48
0.0
 49
0.0
140
0.0
141
0.0
142
1.0
143
1.0
 70
0
 72
1
 73
0
 74
0
  7

 75
0
147
1.0
148
0.0
149
0.0
100
AcDbLayout
  1
Layout1
 70
0
 71
1
 10
0.0
 20
0.0
 11
210.0
 21
297.0
 12
0.0
 22
0.0
 32
0.0
 14
0.0
 24
0.0
 34
0.0
 15
0.0
 25
0.0
 35
0.0
146
0.0
 13
0.0
 23
0.0
 33
0.0
 16
1.0
 26
0.0
 36
0.0
 17
0.0
 27
1.0
 37
0.0
 76
0
330
235
345
0
346
0
  0
ENDSEC
  0
EOF
