999
DXF file: C:\Users\sesa63760\Dev\_Creo\CAD\MCADID0005236_3D-CAD\drw0001_4.dxf
999
Pro/ENGINEER 2019471 by Parametric Technology Corporation
  0
SECTION
  2
HEADER
  9
$ACADVER
  1
AC1024
  9
$DWGCODEPAGE
  3
ANSI_1252
  9
$EXTMAX
 10
62.7436649251
 20
88.7374689655
 30
0.0
  9
$EXTMIN
 10
0.0
 20
0.0
 30
0.0
  9
$LIMMIN
 10
0.0
 20
0.0
  9
$LIMMAX
 10
62.7436649251
 20
88.7374689655
  9
$VIEWCTR
 10
31.3718324626
 20
44.3687344828
  9
$VIEWSIZE
 40
88.7374689655
  9
$CLAYER
  8
0
  9
$LTSCALE
 40
5.7843683474
  9
$CELTYPE
  6
BYLAYER
  9
$DIMSCALE
 40
1.0
  9
$DIMASZ
 40
0.746948392
  9
$DIMEXO
 40
1.0
  9
$DIMDLI
 40
3.9964726764
  9
$DIMEXE
 40
1.0
  9
$DIMCEN
 40
0.9465330023
  9
$DIMLFAC
 40
1.0
  9
$DIMBLK
  1
_FILLED
  9
$DIMALT
 70
0
  9
$DIMALTF
 40
0.0393700787
  9
$DIMTXT
 40
1.0457277488
  9
$DIMTOL
 70
1
  9
$DIMLIM
 70
0
  9
$DIMTFAC
 40
1.0
  9
$DIMTP
 40
0.01
  9
$DIMTM
 40
0.01
  9
$DIMGAP
 40
0.625
  9
$DIMDSEP
 70
46
  9
$AUNITS
 70
0
  9
$PDMODE
 70
3
  9
$PDSIZE
 40
0.3125
  9
$HANDSEED
  5
2AB
  9
$TILEMODE
 70
1
  9
$MEASUREMENT
 70
1
  9
$INSUNITS
 70
4
  0
ENDSEC
  0
SECTION
  2
CLASSES
  0
CLASS
  1
ACDBDICTIONARYWDFLT
  2
AcDbDictionaryWithDefault
  3
AutoCAD 2000
 90
0
 91
1
280
0
281
0
  0
CLASS
  1
ACDBPLACEHOLDER
  2
AcDbPlaceHolder
  3
AutoCAD 2000
 90
0
 91
1
280
0
281
0
  0
CLASS
  1
LAYOUT
  2
AcDbLayout
  3
AutoCAD 2000
 90
0
 91
0
280
0
281
0
  0
ENDSEC
  0
SECTION
  2
TABLES
  0
TABLE
  2
VPORT
  5
8
100
AcDbSymbolTable
 70
2
  0
VPORT
  5
1F4
100
AcDbSymbolTableRecord
100
AcDbViewportTableRecord
  2
*ACTIVE
 70
0
 10
0.0
 20
0.0
 11
1.0
 21
1.0
 12
31.3718324626
 22
44.3687344828
 13
0.0
 23
0.0
 14
1.0
 24
1.0
 15
0.0
 25
0.0
 16
0.0
 26
0.0
 36
1.0
 17
0.0
 27
0.0
 37
0.0
 40
88.7374689655
 41
0.7070707071
 42
50.0
 43
0.0
 44
0.0
 50
0.0
 51
0.0
 71
0
 72
100
 73
1
 74
1
 75
0
 76
0
 77
0
 78
0
  0
ENDTAB
  0
TABLE
  2
LTYPE
  5
5
100
AcDbSymbolTable
 70
6
  0
LTYPE
  5
14
100
AcDbSymbolTableRecord
100
AcDbLinetypeTableRecord
  2
BYBLOCK
 70
0
  3

 72
65
 73
0
 40
0.0
  0
LTYPE
  5
15
100
AcDbSymbolTableRecord
100
AcDbLinetypeTableRecord
  2
BYLAYER
 70
0
  3

 72
65
 73
0
 40
0.0
  0
LTYPE
  5
16
100
AcDbSymbolTableRecord
100
AcDbLinetypeTableRecord
  2
CONTINUOUS
 70
64
  3
Solid line
 72
65
 73
0
 40
0.0
  0
LTYPE
  5
1F5
100
AcDbSymbolTableRecord
100
AcDbLinetypeTableRecord
  2
CENTER
 70
64
  3
____ _ ____ _ ____ _ ____ _ ____ _ ____ _ ____
 72
65
 73
4
 40
0.6
 49
0.375
 74
0
 49
-0.075
 74
0
 49
0.075
 74
0
 49
-0.075
 74
0
  0
LTYPE
  5
1F6
100
AcDbSymbolTableRecord
100
AcDbLinetypeTableRecord
  2
HIDDEN
 70
64
  3
- - - - - - - - - - - - - - - - - - - -
 72
65
 73
2
 40
0.2
 49
0.1
 74
0
 49
-0.1
 74
0
  0
LTYPE
  5
1F7
100
AcDbSymbolTableRecord
100
AcDbLinetypeTableRecord
  2
PHANTOM
 70
64
  3
_____ _ _ _____ _ _ _____ _ _ _____
 72
65
 73
6
 40
0.8
 49
0.45
 74
0
 49
-0.05
 74
0
 49
0.1
 74
0
 49
-0.05
 74
0
 49
0.1
 74
0
 49
-0.05
 74
0
  0
LTYPE
  5
1F8
100
AcDbSymbolTableRecord
100
AcDbLinetypeTableRecord
  2
DOT
 70
64
  3
. . . . . . . . . . . . . . . . . . . .
 72
65
 73
2
 40
0.2
 49
0.1
 74
0
 49
-0.1
 74
0
  0
LTYPE
  5
1F9
100
AcDbSymbolTableRecord
100
AcDbLinetypeTableRecord
  2
DASHED
 70
64
  3
- - - - - - - - - - - - - - - - - - - -
 72
65
 73
2
 40
0.2
 49
0.1
 74
0
 49
-0.1
 74
0
  0
ENDTAB
  0
TABLE
  2
LAYER
  5
2
100
AcDbSymbolTable
 70
36
  0
LAYER
  5
10
100
AcDbSymbolTableRecord
100
AcDbLayerTableRecord
  2
0
 70
0
 62
7
  6
CONTINUOUS
370
-3
390
F
  0
LAYER
  5
1FA
100
AcDbSymbolTableRecord
100
AcDbLayerTableRecord
  2
DEFAULT_1
 70
0
 62
7
  6
CENTER
370
-3
390
F
  0
LAYER
  5
1FB
100
AcDbSymbolTableRecord
100
AcDbLayerTableRecord
  2
DEFAULT_2
 70
0
 62
7
  6
HIDDEN
370
-3
390
F
  0
LAYER
  5
1FC
100
AcDbSymbolTableRecord
100
AcDbLayerTableRecord
  2
DEFAULT_3
 70
0
 62
7
  6
PHANTOM
370
-3
390
F
  0
LAYER
  5
1FD
100
AcDbSymbolTableRecord
100
AcDbLayerTableRecord
  2
00_COMPONENTS
 70
0
 62
7
  6
CONTINUOUS
370
-3
390
F
  0
LAYER
  5
1FE
100
AcDbSymbolTableRecord
100
AcDbLayerTableRecord
  2
00_COMPONENTS_1
 70
0
 62
7
  6
CONTINUOUS
370
-3
390
F
  0
LAYER
  5
1FF
100
AcDbSymbolTableRecord
100
AcDbLayerTableRecord
  2
00_COMPONENTS_2
 70
0
 62
7
  6
CONTINUOUS
370
-3
390
F
  0
LAYER
  5
200
100
AcDbSymbolTableRecord
100
AcDbLayerTableRecord
  2
01_1_DEFAULT_DATUMS
 70
0
 62
7
  6
CONTINUOUS
370
-3
390
F
  0
LAYER
  5
201
100
AcDbSymbolTableRecord
100
AcDbLayerTableRecord
  2
01_PLANES
 70
0
 62
7
  6
CONTINUOUS
370
-3
390
F
  0
LAYER
  5
202
100
AcDbSymbolTableRecord
100
AcDbLayerTableRecord
  2
02_COORD_SYS
 70
0
 62
7
  6
CONTINUOUS
370
-3
390
F
  0
LAYER
  5
203
100
AcDbSymbolTableRecord
100
AcDbLayerTableRecord
  2
03_AXES
 70
0
 62
7
  6
CONTINUOUS
370
-3
390
F
  0
LAYER
  5
204
100
AcDbSymbolTableRecord
100
AcDbLayerTableRecord
  2
04_POINTS
 70
0
 62
7
  6
CONTINUOUS
370
-3
390
F
  0
LAYER
  5
205
100
AcDbSymbolTableRecord
100
AcDbLayerTableRecord
  2
05_CURVES
 70
0
 62
7
  6
CONTINUOUS
370
-3
390
F
  0
LAYER
  5
206
100
AcDbSymbolTableRecord
100
AcDbLayerTableRecord
  2
06_SURFS
 70
0
 62
7
  6
CONTINUOUS
370
-3
390
F
  0
LAYER
  5
207
100
AcDbSymbolTableRecord
100
AcDbLayerTableRecord
  2
07_COSMETICS
 70
0
 62
7
  6
CONTINUOUS
370
-3
390
F
  0
LAYER
  5
208
100
AcDbSymbolTableRecord
100
AcDbLayerTableRecord
  2
10_NOTES
 70
0
 62
7
  6
CONTINUOUS
370
-3
390
F
  0
LAYER
  5
209
100
AcDbSymbolTableRecord
100
AcDbLayerTableRecord
  2
11_NOTES_PUB
 70
0
 62
7
  6
CONTINUOUS
370
-3
390
F
  0
LAYER
  5
20A
100
AcDbSymbolTableRecord
100
AcDbLayerTableRecord
  2
13_REF_GTOL
 70
0
 62
7
  6
CONTINUOUS
370
-3
390
F
  0
LAYER
  5
20B
100
AcDbSymbolTableRecord
100
AcDbLayerTableRecord
  2
16_MISC
 70
0
 62
7
  6
CONTINUOUS
370
-3
390
F
  0
LAYER
  5
20C
100
AcDbSymbolTableRecord
100
AcDbLayerTableRecord
  2
17_NO_PRINT
 70
0
 62
7
  6
CONTINUOUS
370
-3
390
F
  0
LAYER
  5
20D
100
AcDbSymbolTableRecord
100
AcDbLayerTableRecord
  2
18_DATUM_CAMS_JOINTS
 70
0
 62
7
  6
CONTINUOUS
370
-3
390
F
  0
LAYER
  5
20E
100
AcDbSymbolTableRecord
100
AcDbLayerTableRecord
  2
19_DATUM_FUNCTIONAL
 70
0
 62
7
  6
CONTINUOUS
370
-3
390
F
  0
LAYER
  5
20F
100
AcDbSymbolTableRecord
100
AcDbLayerTableRecord
  2
20_DATUM_KINEMATIC_SCHEME
 70
0
 62
7
  6
CONTINUOUS
370
-3
390
F
  0
LAYER
  5
210
100
AcDbSymbolTableRecord
100
AcDbLayerTableRecord
  2
INTF_BLANK
 70
0
 62
7
  6
CONTINUOUS
370
-3
390
F
  0
LAYER
  5
211
100
AcDbSymbolTableRecord
100
AcDbLayerTableRecord
  2
SHELL1
 70
0
 62
7
  6
CONTINUOUS
370
-3
390
F
  0
LAYER
  5
212
100
AcDbSymbolTableRecord
100
AcDbLayerTableRecord
  2
SHELL1_1
 70
0
 62
7
  6
CONTINUOUS
370
-3
390
F
  0
LAYER
  5
213
100
AcDbSymbolTableRecord
100
AcDbLayerTableRecord
  2
SHELL2
 70
0
 62
7
  6
CONTINUOUS
370
-3
390
F
  0
LAYER
  5
214
100
AcDbSymbolTableRecord
100
AcDbLayerTableRecord
  2
_BLACK_HOLE
 70
0
 62
7
  6
CONTINUOUS
370
-3
390
F
  0
LAYER
  5
215
100
AcDbSymbolTableRecord
100
AcDbLayerTableRecord
  2
black
 70
0
 62
7
  6
CONTINUOUS
370
-3
390
F
  0
ENDTAB
  0
TABLE
  2
STYLE
  5
3
100
AcDbSymbolTable
 70
1
  0
STYLE
  5
11
100
AcDbSymbolTableRecord
100
AcDbTextStyleTableRecord
  2
STANDARD
 70
0
 40
0.0
 41
1.0
 50
0.0
 71
0
 42
0.2
  3
ARIAL.TTF
  4

  0
STYLE
  5
216
100
AcDbSymbolTableRecord
100
AcDbTextStyleTableRecord
  2
TEXTSTYLE_1
 70
0
 40
0.0
 41
0.8
 50
0.0
 71
0
 42
0.2
  3
gdt
  4

  0
ENDTAB
  0
TABLE
  2
VIEW
  5
6
100
AcDbSymbolTable
 70
0
  0
ENDTAB
  0
TABLE
  2
UCS
  5
7
100
AcDbSymbolTable
 70
0
  0
ENDTAB
  0
TABLE
  2
APPID
  5
9
100
AcDbSymbolTable
 70
1
  0
APPID
  5
217
100
AcDbSymbolTableRecord
100
AcDbRegAppTableRecord
  2
ACAD
 70
0
  0
ENDTAB
  0
TABLE
  2
BLOCK_RECORD
  5
1
100
AcDbSymbolTable
 70
0
  0
BLOCK_RECORD
  5
218
100
AcDbSymbolTableRecord
100
AcDbBlockTableRecord
  2
*Model_Space
  0
BLOCK_RECORD
  5
219
100
AcDbSymbolTableRecord
100
AcDbBlockTableRecord
  2
*Paper_Space
  0
BLOCK_RECORD
  5
21A
100
AcDbSymbolTableRecord
100
AcDbBlockTableRecord
  2
_FILLED
  0
ENDTAB
  0
TABLE
  2
DIMSTYLE
  5
A
100
AcDbSymbolTable
 70
1
100
AcDbDimStyleTable
 71
0
  0
DIMSTYLE
105
21B
100
AcDbSymbolTableRecord
100
AcDbDimStyleTableRecord
  2
STANDARD
 70
0
  3

  4

 40
1.0
 41
0.746948392
 42
1.0
 43
0.38
 44
1.0
 45
0.0
 46
0.0
 47
0.01
 48
0.01
140
1.0457277488
141
0.09
142
0.0
143
25.4
144
1.0
145
0.0
146
1.0
147
0.625
 71
1
 72
0
 73
0
 74
0
 75
0
 76
0
 77
1
 78
8
 79
2
170
0
171
1
172
0
173
0
174
0
175
0
176
0
177
0
178
0
270
2
179
2
271
2
272
2
273
2
274
2
275
0
280
0
281
0
282
0
283
1
284
8
285
0
286
0
287
3
288
0
340
11
278
46
341
21A
342
21A
343
21A
344
21A
  0
ENDTAB
  0
ENDSEC
  0
SECTION
  2
BLOCKS
  0
BLOCK
  5
20
100
AcDbEntity
  8
0
100
AcDbBlockBegin
  2
*Model_Space
 70
0
 10
0.0
 20
0.0
 30
0.0
  3
*Model_Space
  1

  0
ENDBLK
  5
21
100
AcDbEntity
  8
0
100
AcDbBlockEnd
  0
BLOCK
  5
1C
100
AcDbEntity
  8
0
100
AcDbBlockBegin
  2
*Paper_Space
 70
0
 10
0.0
 20
0.0
 30
0.0
  3
*Paper_Space
  1

  0
ENDBLK
  5
1D
100
AcDbEntity
  8
0
100
AcDbBlockEnd
  0
BLOCK
  5
21C
100
AcDbEntity
  8
0
100
AcDbBlockBegin
  2
_FILLED
 70
64
 10
0.0
 20
0.0
  3
_FILLED
  1

  0
SOLID
  5
21D
100
AcDbEntity
  8
0
  6
BYBLOCK
 62
0
100
AcDbTrace
 10
0.0
 20
0.0
 11
-1.0
 21
0.25
 12
-1.0
 22
-0.25
 13
-1.0
 23
-0.25
  0
ENDBLK
  5
21E
100
AcDbEntity
  8
0
  6
BYBLOCK
 62
0
100
AcDbBlockEnd
  0
ENDSEC
  0
SECTION
  2
ENTITIES
  0
LINE
  5
21F
100
AcDbEntity
  8
00_COMPONENTS
100
AcDbLine
 62
7
  6
BYLAYER
 10
16.4256359068
 20
14.2014
 11
16.6796359068
 21
13.9474
  0
LINE
  5
220
100
AcDbEntity
  8
00_COMPONENTS
100
AcDbLine
 62
7
  6
BYLAYER
 10
16.6796359068
 20
13.9474
 11
48.1716359148
 21
13.9474
  0
LINE
  5
221
100
AcDbEntity
  8
00_COMPONENTS
100
AcDbLine
 62
7
  6
BYLAYER
 10
16.4256359068
 20
14.2014
 11
48.4256359148
 21
14.2014
  0
LINE
  5
222
100
AcDbEntity
  8
00_COMPONENTS
100
AcDbLine
 62
7
  6
BYLAYER
 10
14.9631359108
 20
20.9385747664
 11
16.0319359068
 21
20.321502801
  0
LINE
  5
223
100
AcDbEntity
  8
00_COMPONENTS
100
AcDbLine
 62
7
  6
BYLAYER
 10
6.9880359108
 20
47.9314207444
 11
6.9880359108
 21
72.4436
  0
LINE
  5
224
100
AcDbEntity
  8
00_COMPONENTS
100
AcDbLine
 62
7
  6
BYLAYER
 10
8.2580359108
 20
66.0015884865
 11
8.2580359108
 21
67.3697552916
  0
LINE
  5
225
100
AcDbEntity
  8
00_COMPONENTS
100
AcDbLine
 62
7
  6
BYLAYER
 10
8.5120359108
 20
72.4436
 11
8.5120359108
 21
74.247
  0
LINE
  5
226
100
AcDbEntity
  8
00_COMPONENTS
100
AcDbLine
 62
7
  6
BYLAYER
 10
48.4256359148
 20
19.639594398
 11
16.4256359068
 21
19.639594398
  0
LINE
  5
227
100
AcDbEntity
  8
00_COMPONENTS
100
AcDbLine
 62
7
  6
BYLAYER
 10
16.0319359068
 20
20.321502801
 11
48.8193359148
 21
20.321502801
  0
LINE
  5
228
100
AcDbEntity
  8
00_COMPONENTS
100
AcDbLine
 62
7
  6
BYLAYER
 10
10.5477744418
 20
66.1091123781
 11
10.5477744418
 21
66.7556908188
  0
LINE
  5
229
100
AcDbEntity
  8
00_COMPONENTS
100
AcDbLine
 62
7
  6
BYLAYER
 10
10.9880359108
 20
40.3634
 11
10.9880359108
 21
47.8056
  0
LINE
  5
22A
100
AcDbEntity
  8
00_COMPONENTS
100
AcDbLine
 62
7
  6
BYLAYER
 10
11.9664359108
 20
72.4436
 11
11.9664359108
 21
74.247
  0
LINE
  5
22B
100
AcDbEntity
  8
00_COMPONENTS
100
AcDbLine
 62
7
  6
BYLAYER
 10
12.1310359108
 20
40.3634
 11
12.1310359108
 21
37.9631
  0
LINE
  5
22C
100
AcDbEntity
  8
00_COMPONENTS
100
AcDbLine
 62
7
  6
BYLAYER
 10
12.5818859108
 20
37.9631
 11
12.5818859108
 21
36.3756
  0
LINE
  5
22D
100
AcDbEntity
  8
00_COMPONENTS
100
AcDbLine
 62
7
  6
BYLAYER
 10
13.3756359108
 20
28.5016
 11
13.3756359108
 21
30.0256
  0
LINE
  5
22E
100
AcDbEntity
  8
00_COMPONENTS
100
AcDbLine
 62
7
  6
BYLAYER
 10
14.0106359108
 20
27.2316
 11
14.0106359108
 21
28.5016
  0
LINE
  5
22F
100
AcDbEntity
  8
00_COMPONENTS
100
AcDbLine
 62
7
  6
BYLAYER
 10
14.7604359108
 20
57.1053225452
 11
12.0464003104
 21
55.7083225452
  0
LINE
  5
230
100
AcDbEntity
  8
00_COMPONENTS
100
AcDbLine
 62
7
  6
BYLAYER
 10
14.7604359108
 20
72.4436
 11
14.7604359108
 21
69.3872386224
  0
LINE
  5
231
100
AcDbEntity
  8
00_COMPONENTS
100
AcDbLine
 62
7
  6
BYLAYER
 10
14.7604359108
 20
68.4953616031
 11
14.7604359108
 21
66.3729468622
  0
LINE
  5
232
100
AcDbEntity
  8
00_COMPONENTS
100
AcDbLine
 62
7
  6
BYLAYER
 10
14.7604359108
 20
63.8943961727
 11
14.7604359108
 21
57.1053225452
  0
LINE
  5
233
100
AcDbEntity
  8
00_COMPONENTS
100
AcDbLine
 62
7
  6
BYLAYER
 10
14.9631359108
 20
20.9385747664
 11
14.9631359108
 21
27.2316
  0
LINE
  5
234
100
AcDbEntity
  8
00_COMPONENTS
100
AcDbLine
 62
7
  6
BYLAYER
 10
16.4256359068
 20
19.639594398
 11
16.4256359068
 21
14.2014
  0
LINE
  5
235
100
AcDbEntity
  8
00_COMPONENTS
100
AcDbLine
 62
7
  6
BYLAYER
 10
14.0106359108
 20
27.2316
 11
50.8406359108
 21
27.2316
  0
LINE
  5
236
100
AcDbEntity
  8
00_COMPONENTS
100
AcDbLine
 62
7
  6
BYLAYER
 10
13.3756359108
 20
28.5016
 11
51.4756359108
 21
28.5016
  0
LINE
  5
237
100
AcDbEntity
  8
00_COMPONENTS
100
AcDbLine
 62
7
  6
BYLAYER
 10
17.4396359108
 20
36.3756
 11
17.4396359108
 21
30.0256
  0
LINE
  5
238
100
AcDbEntity
  8
00_COMPONENTS
100
AcDbLine
 62
7
  6
BYLAYER
 10
51.4756359108
 20
30.0256
 11
13.3756359108
 21
30.0256
  0
LINE
  5
239
100
AcDbEntity
  8
00_COMPONENTS
100
AcDbLine
 62
7
  6
BYLAYER
 10
19.6880359108
 20
47.8056
 11
19.6880359108
 21
55.3544965402
  0
LINE
  5
23A
100
AcDbEntity
  8
00_COMPONENTS
100
AcDbLine
 62
7
  6
BYLAYER
 10
19.6880359108
 20
57.4591485502
 11
19.6880359108
 21
72.4436
  0
LINE
  5
23B
100
AcDbEntity
  8
00_COMPONENTS
100
AcDbLine
 62
7
  6
BYLAYER
 10
22.2280359108
 20
47.8056
 11
22.2280359108
 21
72.4436
  0
LINE
  5
23C
100
AcDbEntity
  8
00_COMPONENTS
100
AcDbLine
 62
7
  6
BYLAYER
 10
22.2534359108
 20
72.4436
 11
22.2534359108
 21
47.8056
  0
LINE
  5
23D
100
AcDbEntity
  8
00_COMPONENTS
100
AcDbLine
 62
7
  6
BYLAYER
 10
12.5818859108
 20
36.3756
 11
52.2693859108
 21
36.3756
  0
LINE
  5
23E
100
AcDbEntity
  8
00_COMPONENTS
100
AcDbLine
 62
7
  6
BYLAYER
 10
9.2928833066
 20
68.8003550621
 11
10.0292582749
 21
67.3697552916
  0
LINE
  5
23F
100
AcDbEntity
  8
00_COMPONENTS
100
AcDbLine
 62
7
  6
BYLAYER
 10
25.1924315779
 20
27.2316
 11
25.1924315779
 21
21.7692512057
  0
LINE
  5
240
100
AcDbEntity
  8
00_COMPONENTS
100
AcDbLine
 62
7
  6
BYLAYER
 10
25.9148378986
 20
45.3248666667
 11
25.9148378986
 21
40.3634
  0
LINE
  5
241
100
AcDbEntity
  8
00_COMPONENTS
100
AcDbLine
 62
7
  6
BYLAYER
 10
26.5273085092
 20
47.8056
 11
26.5273085092
 21
45.3248666667
  0
LINE
  5
242
100
AcDbEntity
  8
00_COMPONENTS
100
AcDbLine
 62
7
  6
BYLAYER
 10
12.1310359108
 20
37.9631
 11
52.7202359108
 21
37.9631
  0
LINE
  5
243
100
AcDbEntity
  8
00_COMPONENTS
100
AcDbLine
 62
7
  6
BYLAYER
 10
14.7604359108
 20
69.3872386224
 11
14.6565777561
 21
69.6497975567
  0
LINE
  5
244
100
AcDbEntity
  8
00_COMPONENTS
100
AcDbLine
 62
7
  6
BYLAYER
 10
28.8701359108
 20
47.8056
 11
28.8701359108
 21
72.4436
  0
LINE
  5
245
100
AcDbEntity
  8
00_COMPONENTS
100
AcDbLine
 62
7
  6
BYLAYER
 10
28.8860359108
 20
47.8056
 11
28.8860359108
 21
72.4436
  0
LINE
  5
246
100
AcDbEntity
  8
00_COMPONENTS
100
AcDbLine
 62
7
  6
BYLAYER
 10
29.3565422335
 20
28.5016
 11
29.3565422335
 21
27.2316
  0
LINE
  5
247
100
AcDbEntity
  8
00_COMPONENTS
100
AcDbLine
 62
7
  6
BYLAYER
 10
10.9880359108
 20
40.3634
 11
53.8632359108
 21
40.3634
  0
LINE
  5
248
100
AcDbEntity
  8
00_COMPONENTS
100
AcDbLine
 62
7
  6
BYLAYER
 10
14.8182437141
 20
69.0971418541
 11
14.7089410884
 21
69.3094906138
  0
LINE
  5
249
100
AcDbEntity
  8
00_COMPONENTS
100
AcDbLine
 62
7
  6
BYLAYER
 10
30.8381359108
 20
47.8056
 11
30.8381359108
 21
40.3634
  0
LINE
  5
24A
100
AcDbEntity
  8
00_COMPONENTS
100
AcDbLine
 62
7
  6
BYLAYER
 10
34.0131359108
 20
47.8056
 11
34.0131359108
 21
40.3634
  0
LINE
  5
24B
100
AcDbEntity
  8
00_COMPONENTS
100
AcDbLine
 62
7
  6
BYLAYER
 10
10.9880359108
 20
45.3248666667
 11
26.5273085091
 21
45.3248666667
  0
LINE
  5
24C
100
AcDbEntity
  8
00_COMPONENTS
100
AcDbLine
 62
7
  6
BYLAYER
 10
38.3239633125
 20
45.3248666667
 11
53.8632359108
 21
45.3248666667
  0
LINE
  5
24D
100
AcDbEntity
  8
00_COMPONENTS
100
AcDbLine
 62
7
  6
BYLAYER
 10
35.4947295881
 20
27.2316
 11
35.4947295881
 21
28.5016
  0
LINE
  5
24E
100
AcDbEntity
  8
00_COMPONENTS
100
AcDbLine
 62
7
  6
BYLAYER
 10
49.6639307332
 20
69.3094906138
 11
49.5546281076
 21
69.0971418541
  0
LINE
  5
24F
100
AcDbEntity
  8
00_COMPONENTS
100
AcDbLine
 62
7
  6
BYLAYER
 10
53.8632359108
 20
47.8056
 11
10.9880359108
 21
47.8056
  0
LINE
  5
250
100
AcDbEntity
  8
00_COMPONENTS
100
AcDbLine
 62
7
  6
BYLAYER
 10
22.2280359108
 20
47.831
 11
22.2534359108
 21
47.831
  0
LINE
  5
251
100
AcDbEntity
  8
00_COMPONENTS
100
AcDbLine
 62
7
  6
BYLAYER
 10
42.1194359108
 20
47.831
 11
42.1448359108
 21
47.831
  0
LINE
  5
252
100
AcDbEntity
  8
00_COMPONENTS
100
AcDbLine
 62
7
  6
BYLAYER
 10
19.6880359108
 20
47.9314207444
 11
6.9880359108
 21
47.9314207444
  0
LINE
  5
253
100
AcDbEntity
  8
00_COMPONENTS
100
AcDbLine
 62
7
  6
BYLAYER
 10
44.6848359108
 20
47.9314207444
 11
57.3848359108
 21
47.9314207444
  0
LINE
  5
254
100
AcDbEntity
  8
00_COMPONENTS
100
AcDbLine
 62
7
  6
BYLAYER
 10
38.3239633125
 20
45.3248666667
 11
38.3239633125
 21
47.8056
  0
LINE
  5
255
100
AcDbEntity
  8
00_COMPONENTS
100
AcDbLine
 62
7
  6
BYLAYER
 10
38.936433923
 20
40.3634
 11
38.936433923
 21
45.3248666667
  0
LINE
  5
256
100
AcDbEntity
  8
00_COMPONENTS
100
AcDbLine
 62
7
  6
BYLAYER
 10
39.6588402438
 20
27.2316
 11
39.6588402438
 21
21.7692512057
  0
LINE
  5
257
100
AcDbEntity
  8
00_COMPONENTS
100
AcDbLine
 62
7
  6
BYLAYER
 10
49.7162940655
 20
69.6497975567
 11
49.6124359108
 21
69.3872386224
  0
LINE
  5
258
100
AcDbEntity
  8
00_COMPONENTS
100
AcDbLine
 62
7
  6
BYLAYER
 10
42.1194359108
 20
47.8056
 11
42.1194359108
 21
72.4436
  0
LINE
  5
259
100
AcDbEntity
  8
00_COMPONENTS
100
AcDbLine
 62
7
  6
BYLAYER
 10
42.1448359108
 20
47.8056
 11
42.1448359108
 21
72.4436
  0
LINE
  5
25A
100
AcDbEntity
  8
00_COMPONENTS
100
AcDbLine
 62
7
  6
BYLAYER
 10
54.3436135467
 20
67.3697552916
 11
55.0799885151
 21
68.8003550621
  0
LINE
  5
25B
100
AcDbEntity
  8
00_COMPONENTS
100
AcDbLine
 62
7
  6
BYLAYER
 10
44.6848359108
 20
72.4436
 11
44.6848359108
 21
57.4591485502
  0
LINE
  5
25C
100
AcDbEntity
  8
00_COMPONENTS
100
AcDbLine
 62
7
  6
BYLAYER
 10
44.6848359108
 20
55.3544965402
 11
44.6848359108
 21
47.8056
  0
LINE
  5
25D
100
AcDbEntity
  8
00_COMPONENTS
100
AcDbLine
 62
7
  6
BYLAYER
 10
44.6848359108
 20
55.3544965402
 11
42.1448359108
 21
55.3544965402
  0
LINE
  5
25E
100
AcDbEntity
  8
00_COMPONENTS
100
AcDbLine
 62
7
  6
BYLAYER
 10
22.2280359108
 20
55.3544965402
 11
19.6880359108
 21
55.3544965402
  0
LINE
  5
25F
100
AcDbEntity
  8
00_COMPONENTS
100
AcDbLine
 62
7
  6
BYLAYER
 10
22.2280359108
 20
55.7083225452
 11
12.0464003103
 21
55.7083225452
  0
LINE
  5
260
100
AcDbEntity
  8
00_COMPONENTS
100
AcDbLine
 62
7
  6
BYLAYER
 10
42.1448359108
 20
55.7083225452
 11
52.3264715113
 21
55.7083225452
  0
LINE
  5
261
100
AcDbEntity
  8
00_COMPONENTS
100
AcDbLine
 62
7
  6
BYLAYER
 10
22.2280359108
 20
57.1053225452
 11
14.7604359108
 21
57.1053225452
  0
LINE
  5
262
100
AcDbEntity
  8
00_COMPONENTS
100
AcDbLine
 62
7
  6
BYLAYER
 10
42.1448359108
 20
57.1053225452
 11
49.6124359108
 21
57.1053225452
  0
LINE
  5
263
100
AcDbEntity
  8
00_COMPONENTS
100
AcDbLine
 62
7
  6
BYLAYER
 10
19.6880359108
 20
57.4591485502
 11
22.2280359108
 21
57.4591485502
  0
LINE
  5
264
100
AcDbEntity
  8
00_COMPONENTS
100
AcDbLine
 62
7
  6
BYLAYER
 10
42.1448359108
 20
57.4591485502
 11
44.6848359108
 21
57.4591485502
  0
LINE
  5
265
100
AcDbEntity
  8
00_COMPONENTS
100
AcDbLine
 62
7
  6
BYLAYER
 10
10.8461348504
 20
65.8043251658
 11
10.0397744418
 21
66.1335204242
  0
LINE
  5
266
100
AcDbEntity
  8
00_COMPONENTS
100
AcDbLine
 62
7
  6
BYLAYER
 10
10.5477744418
 20
66.1091123781
 11
11.2005709174
 21
65.8426093329
  0
LINE
  5
267
100
AcDbEntity
  8
00_COMPONENTS
100
AcDbLine
 62
7
  6
BYLAYER
 10
10.5477744418
 20
66.7556908188
 11
12.2555472105
 21
66.0584955055
  0
LINE
  5
268
100
AcDbEntity
  8
00_COMPONENTS
100
AcDbLine
 62
7
  6
BYLAYER
 10
47.4116359108
 20
30.0256
 11
47.4116359108
 21
36.3756
  0
LINE
  5
269
100
AcDbEntity
  8
00_COMPONENTS
100
AcDbLine
 62
7
  6
BYLAYER
 10
48.4256359148
 20
14.2014
 11
48.4256359148
 21
19.639594398
  0
LINE
  5
26A
100
AcDbEntity
  8
00_COMPONENTS
100
AcDbLine
 62
7
  6
BYLAYER
 10
49.6124359108
 20
57.1053225452
 11
49.6124359108
 21
63.8943961727
  0
LINE
  5
26B
100
AcDbEntity
  8
00_COMPONENTS
100
AcDbLine
 62
7
  6
BYLAYER
 10
49.6124359108
 20
66.3729468622
 11
49.6124359108
 21
68.4953616031
  0
LINE
  5
26C
100
AcDbEntity
  8
00_COMPONENTS
100
AcDbLine
 62
7
  6
BYLAYER
 10
49.6124359108
 20
69.3872386224
 11
49.6124359108
 21
72.4436
  0
LINE
  5
26D
100
AcDbEntity
  8
00_COMPONENTS
100
AcDbLine
 62
7
  6
BYLAYER
 10
49.8881359108
 20
27.2316
 11
49.8881359108
 21
20.9385747664
  0
LINE
  5
26E
100
AcDbEntity
  8
00_COMPONENTS
100
AcDbLine
 62
7
  6
BYLAYER
 10
50.8406359108
 20
28.5016
 11
50.8406359108
 21
27.2316
  0
LINE
  5
26F
100
AcDbEntity
  8
00_COMPONENTS
100
AcDbLine
 62
7
  6
BYLAYER
 10
12.0464003104
 20
55.7083225452
 11
6.9880359108
 21
54.4064724396
  0
LINE
  5
270
100
AcDbEntity
  8
00_COMPONENTS
100
AcDbLine
 62
7
  6
BYLAYER
 10
57.3848359108
 20
54.4064724396
 11
52.3264715113
 21
55.7083225452
  0
LINE
  5
271
100
AcDbEntity
  8
00_COMPONENTS
100
AcDbLine
 62
7
  6
BYLAYER
 10
51.4756359108
 20
30.0256
 11
51.4756359108
 21
28.5016
  0
LINE
  5
272
100
AcDbEntity
  8
00_COMPONENTS
100
AcDbLine
 62
7
  6
BYLAYER
 10
52.2693859108
 20
36.3756
 11
52.2693859108
 21
37.9631
  0
LINE
  5
273
100
AcDbEntity
  8
00_COMPONENTS
100
AcDbLine
 62
7
  6
BYLAYER
 10
52.4064359108
 20
72.4436
 11
52.4064359108
 21
74.247
  0
LINE
  5
274
100
AcDbEntity
  8
00_COMPONENTS
100
AcDbLine
 62
7
  6
BYLAYER
 10
52.7202359108
 20
37.9631
 11
52.7202359108
 21
40.3634
  0
LINE
  5
275
100
AcDbEntity
  8
00_COMPONENTS
100
AcDbLine
 62
7
  6
BYLAYER
 10
19.6880359108
 20
63.8943961727
 11
14.7604359108
 21
63.8943961727
  0
LINE
  5
276
100
AcDbEntity
  8
00_COMPONENTS
100
AcDbLine
 62
7
  6
BYLAYER
 10
44.6848359108
 20
63.8943961727
 11
49.6124359108
 21
63.8943961727
  0
LINE
  5
277
100
AcDbEntity
  8
00_COMPONENTS
100
AcDbLine
 62
7
  6
BYLAYER
 10
52.3264715113
 20
55.7083225452
 11
49.6124359108
 21
57.1053225452
  0
LINE
  5
278
100
AcDbEntity
  8
00_COMPONENTS
100
AcDbLine
 62
7
  6
BYLAYER
 10
53.8632359108
 20
47.8056
 11
53.8632359108
 21
40.3634
  0
LINE
  5
279
100
AcDbEntity
  8
00_COMPONENTS
100
AcDbLine
 62
7
  6
BYLAYER
 10
55.8608359108
 20
72.4436
 11
55.8608359108
 21
74.247
  0
LINE
  5
27A
100
AcDbEntity
  8
00_COMPONENTS
100
AcDbLine
 62
7
  6
BYLAYER
 10
6.9880359108
 20
61.8940460672
 11
14.7604359108
 21
63.8943961727
  0
LINE
  5
27B
100
AcDbEntity
  8
00_COMPONENTS
100
AcDbLine
 62
7
  6
BYLAYER
 10
19.6880359108
 20
66.3729468622
 11
14.7604359108
 21
66.3729468622
  0
LINE
  5
27C
100
AcDbEntity
  8
00_COMPONENTS
100
AcDbLine
 62
7
  6
BYLAYER
 10
44.6848359108
 20
66.3729468622
 11
49.6124359108
 21
66.3729468622
  0
LINE
  5
27D
100
AcDbEntity
  8
00_COMPONENTS
100
AcDbLine
 62
7
  6
BYLAYER
 10
8.2580359108
 20
67.3697552916
 11
10.0292582749
 21
67.3697552916
  0
LINE
  5
27E
100
AcDbEntity
  8
00_COMPONENTS
100
AcDbLine
 62
7
  6
BYLAYER
 10
54.3436135467
 20
67.3697552916
 11
56.1148359108
 21
67.3697552916
  0
LINE
  5
27F
100
AcDbEntity
  8
00_COMPONENTS
100
AcDbLine
 62
7
  6
BYLAYER
 10
57.3848359108
 20
61.8940460672
 11
49.6124359108
 21
63.8943961727
  0
LINE
  5
280
100
AcDbEntity
  8
00_COMPONENTS
100
AcDbLine
 62
7
  6
BYLAYER
 10
56.1148359108
 20
67.3697552916
 11
56.1148359108
 21
66.0015884865
  0
LINE
  5
281
100
AcDbEntity
  8
00_COMPONENTS
100
AcDbLine
 62
7
  6
BYLAYER
 10
57.3848359108
 20
47.9314207444
 11
57.3848359108
 21
72.4436
  0
LINE
  5
282
100
AcDbEntity
  8
00_COMPONENTS
100
AcDbLine
 62
7
  6
BYLAYER
 10
14.7604359108
 20
66.3729468622
 11
6.9880359108
 21
64.3725967566
  0
LINE
  5
283
100
AcDbEntity
  8
00_COMPONENTS
100
AcDbLine
 62
7
  6
BYLAYER
 10
57.3848359108
 20
64.3725967566
 11
49.6124359108
 21
66.3729468622
  0
LINE
  5
284
100
AcDbEntity
  8
00_COMPONENTS
100
AcDbLine
 62
7
  6
BYLAYER
 10
48.8193359148
 20
20.321502801
 11
49.8881359108
 21
20.9385747664
  0
LINE
  5
285
100
AcDbEntity
  8
00_COMPONENTS
100
AcDbLine
 62
7
  6
BYLAYER
 10
9.2928833066
 20
66.267922836
 11
6.9880359108
 21
65.6747338941
  0
LINE
  5
286
100
AcDbEntity
  8
00_COMPONENTS
100
AcDbLine
 62
7
  6
BYLAYER
 10
42.1448359108
 20
72.4182
 11
42.1194359108
 21
72.4182
  0
LINE
  5
287
100
AcDbEntity
  8
00_COMPONENTS
100
AcDbLine
 62
7
  6
BYLAYER
 10
22.2534359108
 20
72.4182
 11
22.2280359108
 21
72.4182
  0
LINE
  5
288
100
AcDbEntity
  8
00_COMPONENTS
100
AcDbLine
 62
7
  6
BYLAYER
 10
6.9880359108
 20
72.4436
 11
28.8701359108
 21
72.4436
  0
LINE
  5
289
100
AcDbEntity
  8
00_COMPONENTS
100
AcDbLine
 62
7
  6
BYLAYER
 10
28.8860359108
 20
72.4436
 11
57.3848359108
 21
72.4436
  0
LINE
  5
28A
100
AcDbEntity
  8
00_COMPONENTS
100
AcDbLine
 62
7
  6
BYLAYER
 10
57.3848359108
 20
65.6747338941
 11
55.0799885151
 21
66.267922836
  0
LINE
  5
28B
100
AcDbEntity
  8
00_COMPONENTS
100
AcDbLine
 62
7
  6
BYLAYER
 10
6.9880359108
 20
68.2071661203
 11
9.2928833066
 21
68.8003550621
  0
LINE
  5
28C
100
AcDbEntity
  8
00_COMPONENTS
100
AcDbLine
 62
7
  6
BYLAYER
 10
55.8608359108
 20
74.247
 11
52.4064359108
 21
74.247
  0
LINE
  5
28D
100
AcDbEntity
  8
00_COMPONENTS
100
AcDbLine
 62
7
  6
BYLAYER
 10
11.9664359108
 20
74.247
 11
8.5120359108
 21
74.247
  0
LINE
  5
28E
100
AcDbEntity
  8
00_COMPONENTS
100
AcDbLine
 62
7
  6
BYLAYER
 10
55.0799885151
 20
68.8003550621
 11
57.3848359108
 21
68.2071661203
  0
LINE
  5
28F
100
AcDbEntity
  8
00_COMPONENTS
100
AcDbLine
 62
7
  6
BYLAYER
 10
48.1716359148
 20
13.9474
 11
48.4256359148
 21
14.2014
  0
ARC
  5
290
100
AcDbEntity
  8
00_COMPONENTS
100
AcDbCircle
 62
7
  6
BYLAYER
 10
11.8435422901
 20
64.4824628251
 40
2.079664176
100
AcDbArc
 50
128.5403706278
 51
133.7507702357
  0
ARC
  5
291
100
AcDbEntity
  8
00_COMPONENTS
100
AcDbCircle
 62
7
  6
BYLAYER
 10
49.2130359148
 20
19.639594398
 40
0.7874
100
AcDbArc
 50
120.0
 51
180.0
  0
ARC
  5
292
100
AcDbEntity
  8
00_COMPONENTS
100
AcDbCircle
 62
7
  6
BYLAYER
 10
15.6382359068
 20
19.639594398
 40
0.7874
100
AcDbArc
 50
0.0
 51
60.0
  0
SPLINE
  5
293
100
AcDbEntity
  8
00_COMPONENTS
100
AcDbSpline
 62
7
  6
BYLAYER
 70
0
 71
3
 72
15
 73
11
 74
0
 42
0.0000001
 43
0.0000001
 44
0.0000000001
 40
0.0
 40
0.0
 40
0.0
 40
0.0
 40
0.1262633288
 40
0.251511948
 40
0.3759715474
 40
0.5
 40
0.6240284526
 40
0.748488052
 40
0.8737366712
 40
1.0
 40
1.0
 40
1.0
 40
1.0
 10
14.9631359108
 20
21.7692512057
 30
0.0
 10
15.3809815503
 20
21.6386912767
 30
0.0
 10
16.2213741958
 20
21.4033725446
 30
0.0
 10
17.4989884029
 20
21.1390672608
 30
0.0
 10
18.7858523003
 20
20.9755222326
 30
0.0
 10
20.0777837444
 20
20.9201518383
 30
0.0
 10
21.3697151885
 20
20.9755222326
 30
0.0
 10
22.6565790858
 20
21.1390672608
 30
0.0
 10
23.9341932929
 20
21.4033725446
 30
0.0
 10
24.7745859384
 20
21.6386912767
 30
0.0
 10
25.1924315779
 20
21.7692512057
 30
0.0
  0
SPLINE
  5
294
100
AcDbEntity
  8
00_COMPONENTS
100
AcDbSpline
 62
7
  6
BYLAYER
 70
0
 71
3
 72
15
 73
11
 74
0
 42
0.0000001
 43
0.0000001
 44
0.0000000001
 40
0.0
 40
0.0
 40
0.0
 40
0.0
 40
0.1250002153
 40
0.2500024236
 40
0.3750010983
 40
0.5
 40
0.6249989017
 40
0.7499975764
 40
0.8749997847
 40
1.0
 40
1.0
 40
1.0
 40
1.0
 10
25.1924315779
 20
21.7692512057
 30
0.0
 10
25.7859886128
 20
21.6381093002
 30
0.0
 10
26.9791547032
 20
21.4021226982
 30
0.0
 10
28.7844379256
 20
21.1384085727
 30
0.0
 10
30.6017721108
 20
20.9753685873
 30
0.0
 10
32.4256359108
 20
20.9201966017
 30
0.0
 10
34.2494997108
 20
20.9753685873
 30
0.0
 10
36.066833896
 20
21.1384085727
 30
0.0
 10
37.8721171184
 20
21.4021226982
 30
0.0
 10
39.0652832089
 20
21.6381093002
 30
0.0
 10
39.6588402438
 20
21.7692512057
 30
0.0
  0
SPLINE
  5
295
100
AcDbEntity
  8
00_COMPONENTS
100
AcDbSpline
 62
7
  6
BYLAYER
 70
0
 71
3
 72
15
 73
11
 74
0
 42
0.0000001
 43
0.0000001
 44
0.0000000001
 40
0.0
 40
0.0
 40
0.0
 40
0.0
 40
0.1262633288
 40
0.251511948
 40
0.3759715474
 40
0.5
 40
0.6240284526
 40
0.748488052
 40
0.8737366712
 40
1.0
 40
1.0
 40
1.0
 40
1.0
 10
39.6588402438
 20
21.7692512057
 30
0.0
 10
40.0766858832
 20
21.6386912767
 30
0.0
 10
40.9170785288
 20
21.4033725446
 30
0.0
 10
42.1946927359
 20
21.1390672608
 30
0.0
 10
43.4815566332
 20
20.9755222326
 30
0.0
 10
44.7734880773
 20
20.9201518383
 30
0.0
 10
46.0654195214
 20
20.9755222326
 30
0.0
 10
47.3522834187
 20
21.1390672608
 30
0.0
 10
48.6298976258
 20
21.4033725446
 30
0.0
 10
49.4702902714
 20
21.6386912767
 30
0.0
 10
49.8881359108
 20
21.7692512057
 30
0.0
  0
SPLINE
  5
296
100
AcDbEntity
  8
00_COMPONENTS
100
AcDbSpline
 62
7
  6
BYLAYER
 70
0
 71
3
 72
11
 73
7
 74
0
 42
0.0000001
 43
0.0000001
 44
0.0000000001
 40
0.0
 40
0.0
 40
0.0
 40
0.0
 40
0.2321786272
 40
0.4789529933
 40
0.7365927127
 40
1.0
 40
1.0
 40
1.0
 40
1.0
 10
10.5477744418
 20
66.7556908188
 30
0.0
 10
10.6705385619
 20
66.8536812291
 30
0.0
 10
10.9459078253
 20
67.02900742
 30
0.0
 10
11.4094490398
 20
67.2179405542
 30
0.0
 10
11.917748112
 20
67.3345991439
 30
0.0
 10
12.2708317485
 20
67.3607750355
 30
0.0
 10
12.4490359108
 20
67.3607750355
 30
0.0
  0
SPLINE
  5
297
100
AcDbEntity
  8
00_COMPONENTS
100
AcDbSpline
 62
7
  6
BYLAYER
 70
0
 71
3
 72
9
 73
5
 74
0
 42
0.0000001
 43
0.0000001
 44
0.0000000001
 40
0.0
 40
0.0
 40
0.0
 40
0.0
 40
0.2573487613
 40
1.0
 40
1.0
 40
1.0
 40
1.0
 10
12.4490359108
 20
67.3607750355
 30
0.0
 10
12.573091677
 20
67.3607750355
 30
0.0
 10
13.0545284914
 20
67.3359207278
 30
0.0
 10
13.5331547431
 20
67.2120622913
 30
0.0
 10
13.8570436676
 20
67.0595563902
 30
0.0
  0
SPLINE
  5
298
100
AcDbEntity
  8
00_COMPONENTS
100
AcDbSpline
 62
7
  6
BYLAYER
 70
0
 71
3
 72
9
 73
5
 74
0
 42
0.0000001
 43
0.0000001
 44
0.0000000001
 40
0.0
 40
0.0
 40
0.0
 40
0.0
 40
0.2477717144
 40
1.0
 40
1.0
 40
1.0
 40
1.0
 10
9.9616004074
 20
65.9281187398
 30
0.0
 10
9.9666945557
 20
65.9455515605
 30
0.0
 10
9.9886669035
 20
66.0154911712
 30
0.0
 10
10.0162316819
 20
66.0836601903
 30
0.0
 10
10.0397744418
 20
66.1335204242
 30
0.0
  0
SPLINE
  5
299
100
AcDbEntity
  8
00_COMPONENTS
100
AcDbSpline
 62
7
  6
BYLAYER
 70
0
 71
3
 72
14
 73
10
 74
0
 42
0.0000001
 43
0.0000001
 44
0.0000000001
 40
0.0
 40
0.0
 40
0.0
 40
0.0
 40
0.132142359
 40
0.2663158809
 40
0.4002889432
 40
0.5319213427
 40
0.6591968977
 40
0.7804309731
 40
1.0
 40
1.0
 40
1.0
 40
1.0
 10
11.7998390064
 20
65.9073388618
 30
0.0
 10
11.9747403288
 20
65.9523524842
 30
0.0
 10
12.3219864847
 20
66.0647309164
 30
0.0
 10
12.8207728757
 20
66.2921572684
 30
0.0
 10
13.2901270923
 20
66.5742590559
 30
0.0
 10
13.7163969592
 20
66.9026762732
 30
0.0
 10
14.0875875977
 20
67.2686283352
 30
0.0
 10
14.4808017199
 20
67.7739369997
 30
0.0
 10
14.6879375052
 20
68.2041624404
 30
0.0
 10
14.7604359108
 20
68.4953616031
 30
0.0
  0
SPLINE
  5
29A
100
AcDbEntity
  8
00_COMPONENTS
100
AcDbSpline
 62
7
  6
BYLAYER
 70
0
 71
3
 72
13
 73
9
 74
0
 42
0.0000001
 43
0.0000001
 44
0.0000000001
 40
0.0
 40
0.0
 40
0.0
 40
0.0
 40
0.1056420789
 40
0.2162752006
 40
0.3325821657
 40
0.4549973815
 40
0.7173494177
 40
1.0
 40
1.0
 40
1.0
 40
1.0
 10
9.2928833066
 20
66.267922836
 30
0.0
 10
9.3628433737
 20
66.2074972273
 30
0.0
 10
9.5170859299
 20
66.096103802
 30
0.0
 10
9.7775830093
 20
65.9640948732
 30
0.0
 10
10.0679947144
 20
65.8655879373
 30
0.0
 10
10.4987883712
 20
65.7787040328
 30
0.0
 10
11.0873979385
 20
65.7650173017
 30
0.0
 10
11.5603095252
 20
65.8456921603
 30
0.0
 10
11.7998390064
 20
65.9073388618
 30
0.0
  0
SPLINE
  5
29B
100
AcDbEntity
  8
00_COMPONENTS
100
AcDbSpline
 62
7
  6
BYLAYER
 70
0
 71
3
 72
15
 73
11
 74
0
 42
0.0000001
 43
0.0000001
 44
0.0000000001
 40
0.0
 40
0.0
 40
0.0
 40
0.0
 40
0.104125605
 40
0.2112476426
 40
0.3239422654
 40
0.4438838908
 40
0.5718527346
 40
0.707766468
 40
0.8509438515
 40
1.0
 40
1.0
 40
1.0
 40
1.0
 10
14.6566683362
 20
69.6498441749
 30
0.0
 10
14.6059909511
 20
69.7483277552
 30
0.0
 10
14.4789903568
 20
69.9366184379
 30
0.0
 10
14.2244100111
 20
70.1727488642
 30
0.0
 10
13.9120716911
 20
70.3592668846
 30
0.0
 10
13.5502383855
 20
70.4922588336
 30
0.0
 10
13.1477184926
 20
70.5694127108
 30
0.0
 10
12.7138729478
 20
70.5895029983
 30
0.0
 10
12.2588992692
 20
70.5522267905
 30
0.0
 10
11.953384969
 20
70.4908659417
 30
0.0
 10
11.7998390064
 20
70.451348459
 30
0.0
  0
SPLINE
  5
29C
100
AcDbEntity
  8
00_COMPONENTS
100
AcDbSpline
 62
7
  6
BYLAYER
 70
0
 71
3
 72
11
 73
7
 74
0
 42
0.0000001
 43
0.0000001
 44
0.0000000001
 40
0.0
 40
0.0
 40
0.0
 40
0.0
 40
0.2538815877
 40
0.510686144
 40
0.7619495882
 40
1.0
 40
1.0
 40
1.0
 40
1.0
 10
11.7998390064
 20
70.451348459
 30
0.0
 10
11.5494393064
 20
70.3869041347
 30
0.0
 10
11.0562482626
 20
70.2130678588
 30
0.0
 10
10.3725136078
 20
69.8393219654
 30
0.0
 10
9.7708219105
 20
69.3697959051
 30
0.0
 10
9.4352441913
 20
68.9965920456
 30
0.0
 10
9.2928833066
 20
68.8003550621
 30
0.0
  0
SPLINE
  5
29D
100
AcDbEntity
  8
00_COMPONENTS
100
AcDbSpline
 62
7
  6
BYLAYER
 70
0
 71
3
 72
14
 73
10
 74
0
 42
0.0000001
 43
0.0000001
 44
0.0000000001
 40
0.0
 40
0.0
 40
0.0
 40
0.0
 40
0.2805815934
 40
0.4161582185
 40
0.5462378553
 40
0.6696948191
 40
0.78608161
 40
0.8957563072
 40
1.0
 40
1.0
 40
1.0
 40
1.0
 10
51.9238359108
 20
67.3607750355
 30
0.0
 10
52.2100914801
 20
67.3607750355
 30
0.0
 10
52.6374071414
 20
67.31018056
 30
0.0
 10
53.1693053144
 20
67.139990429
 30
0.0
 10
53.5287204334
 20
66.9680766328
 30
0.0
 10
53.842234605
 20
66.7551886529
 30
0.0
 10
54.1008728775
 20
66.5068958092
 30
0.0
 10
54.2966882481
 20
66.2299843843
 30
0.0
 10
54.3826605948
 20
66.0270077758
 30
0.0
 10
54.4122298387
 20
65.92484932
 30
0.0
  0
SPLINE
  5
29E
100
AcDbEntity
  8
00_COMPONENTS
100
AcDbSpline
 62
7
  6
BYLAYER
 70
0
 71
3
 72
9
 73
5
 74
0
 42
0.0000001
 43
0.0000001
 44
0.0000000001
 40
0.0
 40
0.0
 40
0.0
 40
0.0
 40
0.24161918
 40
1.0
 40
1.0
 40
1.0
 40
1.0
 10
50.5158501465
 20
67.0595753822
 30
0.0
 10
50.6212433266
 20
67.1092044797
 30
0.0
 10
51.0700169247
 20
67.2873736137
 30
0.0
 10
51.5581921431
 20
67.3607750355
 30
0.0
 10
51.9238359108
 20
67.3607750355
 30
0.0
  0
SPLINE
  5
29F
100
AcDbEntity
  8
00_COMPONENTS
100
AcDbSpline
 62
7
  6
BYLAYER
 70
0
 71
3
 72
14
 73
10
 74
0
 42
0.0000001
 43
0.0000001
 44
0.0000000001
 40
0.0
 40
0.0
 40
0.0
 40
0.0
 40
0.2195690269
 40
0.3408031023
 40
0.4680786573
 40
0.5997110568
 40
0.7336841191
 40
0.867857641
 40
1.0
 40
1.0
 40
1.0
 40
1.0
 10
49.6124359108
 20
68.4953616031
 30
0.0
 10
49.6849343164
 20
68.2041624404
 30
0.0
 10
49.8920701017
 20
67.7739369997
 30
0.0
 10
50.285284224
 20
67.2686283352
 30
0.0
 10
50.6564748625
 20
66.9026762732
 30
0.0
 10
51.0827447294
 20
66.5742590559
 30
0.0
 10
51.552098946
 20
66.2921572684
 30
0.0
 10
52.050885337
 20
66.0647309164
 30
0.0
 10
52.3981314929
 20
65.9523524842
 30
0.0
 10
52.5730328153
 20
65.9073388618
 30
0.0
  0
SPLINE
  5
2A0
100
AcDbEntity
  8
00_COMPONENTS
100
AcDbSpline
 62
7
  6
BYLAYER
 70
0
 71
3
 72
13
 73
9
 74
0
 42
0.0000001
 43
0.0000001
 44
0.0000000001
 40
0.0
 40
0.0
 40
0.0
 40
0.0
 40
0.2826505823
 40
0.5450026185
 40
0.6674178343
 40
0.7837247994
 40
0.8943579211
 40
1.0
 40
1.0
 40
1.0
 40
1.0
 10
52.5730328153
 20
65.9073388618
 30
0.0
 10
52.8125622964
 20
65.8456921603
 30
0.0
 10
53.2854738832
 20
65.7650173017
 30
0.0
 10
53.8740834504
 20
65.7787040328
 30
0.0
 10
54.3048771073
 20
65.8655879373
 30
0.0
 10
54.5952888124
 20
65.9640948732
 30
0.0
 10
54.8557858917
 20
66.096103802
 30
0.0
 10
55.0100284479
 20
66.2074972273
 30
0.0
 10
55.0799885151
 20
66.267922836
 30
0.0
  0
SPLINE
  5
2A1
100
AcDbEntity
  8
00_COMPONENTS
100
AcDbSpline
 62
7
  6
BYLAYER
 70
0
 71
3
 72
15
 73
11
 74
0
 42
0.0000001
 43
0.0000001
 44
0.0000000001
 40
0.0
 40
0.0
 40
0.0
 40
0.0
 40
0.1490561485
 40
0.292233532
 40
0.4281472654
 40
0.5561161092
 40
0.6760577346
 40
0.7887523574
 40
0.895874395
 40
1.0
 40
1.0
 40
1.0
 40
1.0
 10
52.5730328153
 20
70.451348459
 30
0.0
 10
52.4194868527
 20
70.4908659417
 30
0.0
 10
52.1139725525
 20
70.5522267905
 30
0.0
 10
51.6589988738
 20
70.5895029983
 30
0.0
 10
51.2251533291
 20
70.5694127108
 30
0.0
 10
50.8226334361
 20
70.4922588336
 30
0.0
 10
50.4608001306
 20
70.3592668846
 30
0.0
 10
50.1484618106
 20
70.1727488642
 30
0.0
 10
49.8938814649
 20
69.9366184379
 30
0.0
 10
49.7668808706
 20
69.7483277552
 30
0.0
 10
49.7162034855
 20
69.6498441749
 30
0.0
  0
SPLINE
  5
2A2
100
AcDbEntity
  8
00_COMPONENTS
100
AcDbSpline
 62
7
  6
BYLAYER
 70
0
 71
3
 72
11
 73
7
 74
0
 42
0.0000001
 43
0.0000001
 44
0.0000000001
 40
0.0
 40
0.0
 40
0.0
 40
0.0
 40
0.2380504118
 40
0.489313856
 40
0.7461184123
 40
1.0
 40
1.0
 40
1.0
 40
1.0
 10
55.0799885151
 20
68.8003550621
 30
0.0
 10
54.9376276304
 20
68.9965920457
 30
0.0
 10
54.6020499112
 20
69.3697959051
 30
0.0
 10
54.0003582139
 20
69.8393219654
 30
0.0
 10
53.316623559
 20
70.2130678588
 30
0.0
 10
52.8234325153
 20
70.3869041347
 30
0.0
 10
52.5730328153
 20
70.451348459
 30
0.0
  0
ELLIPSE
  5
2A3
100
AcDbEntity
  8
00_COMPONENTS
100
AcDbEllipse
 62
7
  6
BYLAYER
 10
11.8698781084
 20
68.0432745007
 30
0.0
 11
3.4193096007
 21
-0.0
 31
0.0
 40
0.6644630244
 41
0.5315947947
 42
0.5911452022
  0
ELLIPSE
  5
2A4
100
AcDbEntity
  8
00_COMPONENTS
100
AcDbEllipse
 62
7
  6
BYLAYER
 10
11.4076359108
 20
68.9413001128
 30
0.0
 11
3.4193096007
 21
-0.0
 31
0.0
 40
0.6644630244
 41
-0.1975579181
 42
0.1975579181
  0
ELLIPSE
  5
2A5
100
AcDbEntity
  8
00_COMPONENTS
100
AcDbEllipse
 62
7
  6
BYLAYER
 10
12.868321255
 20
66.1035391785
 30
0.0
 11
3.4193096007
 21
0.0
 31
0.0
 40
0.6644630244
 41
7.3215210918
 42
8.8336327586
  0
ELLIPSE
  5
2A6
100
AcDbEntity
  8
00_COMPONENTS
100
AcDbEllipse
 62
7
  6
BYLAYER
 10
52.9652359108
 20
68.9413001128
 30
0.0
 11
3.4193096007
 21
0.0
 31
0.0
 40
0.6644630244
 41
2.9440347355
 42
3.3391505717
  0
ELLIPSE
  5
2A7
100
AcDbEntity
  8
00_COMPONENTS
100
AcDbEllipse
 62
7
  6
BYLAYER
 10
52.5029937133
 20
68.0432745007
 30
0.0
 11
3.4193096007
 21
0.0
 31
0.0
 40
0.6644630244
 41
2.5504474514
 42
2.6099721559
  0
ELLIPSE
  5
2A8
100
AcDbEntity
  8
00_COMPONENTS
100
AcDbEllipse
 62
7
  6
BYLAYER
 10
51.5045505667
 20
66.1035391785
 30
0.0
 11
3.4193096007
 21
0.0
 31
0.0
 40
0.6644630244
 41
0.5911452022
 42
2.1032571002
  0
ENDSEC
  0
SECTION
  2
OBJECTS
  0
DICTIONARY
  5
C
100
AcDbDictionary
280
0
281
1
  3
ACAD_GROUP
350
D
  3
ACAD_MLINESTYLE
350
17
  3
ACAD_LAYOUT
350
1A
  3
ACAD_PLOTSETTINGS
350
19
  3
ACAD_PLOTSTYLENAME
350
E
  0
DICTIONARY
  5
D
102
{ACAD_REACTORS
330
C
102
}
100
AcDbDictionary
280
0
281
1
  0
ACDBDICTIONARYWDFLT
  5
E
102
{ACAD_REACTORS
330
C
102
}
100
AcDbDictionary
281
1
  3
Normal
350
F
100
AcDbDictionaryWithDefault
340
F
  0
DICTIONARY
  5
17
102
{ACAD_REACTORS
330
C
102
}
100
AcDbDictionary
280
0
281
1
  3
Standard
350
18
  0
DICTIONARY
  5
19
102
{ACAD_REACTORS
330
C
102
}
100
AcDbDictionary
281
1
  0
DICTIONARY
  5
1A
102
{ACAD_REACTORS
330
C
102
}
100
AcDbDictionary
281
1
  3
Model
350
2A9
  3
Layout1
350
2AA
  0
ACDBPLACEHOLDER
  5
F
102
{ACAD_REACTORS
330
E
102
}
  0
MLINESTYLE
  5
18
102
{ACAD_REACTORS
330
17
102
}
100
AcDbMlineStyle
  2
STANDARD
 70
0
  3

 62
256
 51
90.0
 52
90.0
 71
2
 49
0.5
 62
256
  6
BYLAYER
 49
-0.5
 62
256
  6
BYLAYER
  0
LAYOUT
  5
2A9
102
{ACAD_REACTORS
330
1A
102
}
100
AcDbPlotSettings
  1

  2
none_device
  4

  6

 40
0.0
 41
0.0
 42
0.0
 43
0.0
 44
210.0
 45
297.0
 46
0.0
 47
0.0
 48
0.0
 49
0.0
140
0.0
141
0.0
142
1.0
143
1.0
 70
1024
 72
1
 73
0
 74
0
  7

 75
0
147
1.0
148
0.0
149
0.0
100
AcDbLayout
  1
Model
 70
0
 71
0
 10
0.0
 20
0.0
 11
210.0
 21
297.0
 12
0.0
 22
0.0
 32
0.0
 14
0.0
 24
0.0
 34
0.0
 15
0.0
 25
0.0
 35
0.0
146
0.0
 13
0.0
 23
0.0
 33
0.0
 16
1.0
 26
0.0
 36
0.0
 17
0.0
 27
1.0
 37
0.0
 76
0
330
218
345
0
346
0
  0
LAYOUT
  5
2AA
102
{ACAD_REACTORS
330
1A
102
}
100
AcDbPlotSettings
  1

  2
none_device
  4

  6

 40
0.0
 41
0.0
 42
0.0
 43
0.0
 44
210.0
 45
297.0
 46
0.0
 47
0.0
 48
0.0
 49
0.0
140
0.0
141
0.0
142
1.0
143
1.0
 70
0
 72
1
 73
0
 74
0
  7

 75
0
147
1.0
148
0.0
149
0.0
100
AcDbLayout
  1
Layout1
 70
0
 71
1
 10
0.0
 20
0.0
 11
210.0
 21
297.0
 12
0.0
 22
0.0
 32
0.0
 14
0.0
 24
0.0
 34
0.0
 15
0.0
 25
0.0
 35
0.0
146
0.0
 13
0.0
 23
0.0
 33
0.0
 16
1.0
 26
0.0
 36
0.0
 17
0.0
 27
1.0
 37
0.0
 76
0
330
219
345
0
346
0
  0
ENDSEC
  0
EOF
