999
DXF file: C:\Users\sesa63760\Dev\_Creo\CAD\MCADID0003889_3D-CAD\drw0001_1.dxf
999
Pro/ENGINEER 2019471 by Parametric Technology Corporation
  0
SECTION
  2
HEADER
  9
$ACADVER
  1
AC1024
  9
$DWGCODEPAGE
  3
ANSI_1252
  9
$EXTMAX
 10
52.0457079126
 20
73.6075011906
 30
0.0
  9
$EXTMIN
 10
-0.0
 20
0.0
 30
0.0
  9
$LIMMIN
 10
-0.0
 20
0.0
  9
$LIMMAX
 10
52.0457079126
 20
73.6075011906
  9
$VIEWCTR
 10
26.0228539563
 20
36.8037505953
  9
$VIEWSIZE
 40
73.6075011906
  9
$CLAYER
  8
0
  9
$LTSCALE
 40
4.7981185961
  9
$CELTYPE
  6
BYLAYER
  9
$DIMSCALE
 40
1.0
  9
$DIMASZ
 40
0.6195917609
  9
$DIMEXO
 40
1.0
  9
$DIMDLI
 40
3.3150637573
  9
$DIMEXE
 40
1.0
  9
$DIMCEN
 40
0.7851466794
  9
$DIMLFAC
 40
1.0
  9
$DIMBLK
  1
_FILLED
  9
$DIMALT
 70
0
  9
$DIMALTF
 40
0.0393700787
  9
$DIMTXT
 40
0.8674284652
  9
$DIMTOL
 70
1
  9
$DIMLIM
 70
0
  9
$DIMTFAC
 40
1.0
  9
$DIMTP
 40
0.01
  9
$DIMTM
 40
0.01
  9
$DIMGAP
 40
0.625
  9
$DIMDSEP
 70
46
  9
$AUNITS
 70
0
  9
$PDMODE
 70
3
  9
$PDSIZE
 40
0.3125
  9
$HANDSEED
  5
3AD
  9
$TILEMODE
 70
1
  9
$MEASUREMENT
 70
1
  9
$INSUNITS
 70
4
  0
ENDSEC
  0
SECTION
  2
CLASSES
  0
CLASS
  1
ACDBDICTIONARYWDFLT
  2
AcDbDictionaryWithDefault
  3
AutoCAD 2000
 90
0
 91
1
280
0
281
0
  0
CLASS
  1
ACDBPLACEHOLDER
  2
AcDbPlaceHolder
  3
AutoCAD 2000
 90
0
 91
1
280
0
281
0
  0
CLASS
  1
LAYOUT
  2
AcDbLayout
  3
AutoCAD 2000
 90
0
 91
0
280
0
281
0
  0
ENDSEC
  0
SECTION
  2
TABLES
  0
TABLE
  2
VPORT
  5
8
100
AcDbSymbolTable
 70
2
  0
VPORT
  5
1F4
100
AcDbSymbolTableRecord
100
AcDbViewportTableRecord
  2
*ACTIVE
 70
0
 10
0.0
 20
0.0
 11
1.0
 21
1.0
 12
26.0228539563
 22
36.8037505953
 13
0.0
 23
0.0
 14
1.0
 24
1.0
 15
0.0
 25
0.0
 16
0.0
 26
0.0
 36
1.0
 17
0.0
 27
0.0
 37
0.0
 40
73.6075011906
 41
0.7070707071
 42
50.0
 43
0.0
 44
0.0
 50
0.0
 51
0.0
 71
0
 72
100
 73
1
 74
1
 75
0
 76
0
 77
0
 78
0
  0
ENDTAB
  0
TABLE
  2
LTYPE
  5
5
100
AcDbSymbolTable
 70
6
  0
LTYPE
  5
14
100
AcDbSymbolTableRecord
100
AcDbLinetypeTableRecord
  2
BYBLOCK
 70
0
  3

 72
65
 73
0
 40
0.0
  0
LTYPE
  5
15
100
AcDbSymbolTableRecord
100
AcDbLinetypeTableRecord
  2
BYLAYER
 70
0
  3

 72
65
 73
0
 40
0.0
  0
LTYPE
  5
16
100
AcDbSymbolTableRecord
100
AcDbLinetypeTableRecord
  2
CONTINUOUS
 70
64
  3
Solid line
 72
65
 73
0
 40
0.0
  0
LTYPE
  5
1F5
100
AcDbSymbolTableRecord
100
AcDbLinetypeTableRecord
  2
CENTER
 70
64
  3
____ _ ____ _ ____ _ ____ _ ____ _ ____ _ ____
 72
65
 73
4
 40
0.6
 49
0.375
 74
0
 49
-0.075
 74
0
 49
0.075
 74
0
 49
-0.075
 74
0
  0
LTYPE
  5
1F6
100
AcDbSymbolTableRecord
100
AcDbLinetypeTableRecord
  2
HIDDEN
 70
64
  3
- - - - - - - - - - - - - - - - - - - -
 72
65
 73
2
 40
0.2
 49
0.1
 74
0
 49
-0.1
 74
0
  0
LTYPE
  5
1F7
100
AcDbSymbolTableRecord
100
AcDbLinetypeTableRecord
  2
PHANTOM
 70
64
  3
_____ _ _ _____ _ _ _____ _ _ _____
 72
65
 73
6
 40
0.8
 49
0.45
 74
0
 49
-0.05
 74
0
 49
0.1
 74
0
 49
-0.05
 74
0
 49
0.1
 74
0
 49
-0.05
 74
0
  0
LTYPE
  5
1F8
100
AcDbSymbolTableRecord
100
AcDbLinetypeTableRecord
  2
DOT
 70
64
  3
. . . . . . . . . . . . . . . . . . . .
 72
65
 73
2
 40
0.2
 49
0.1
 74
0
 49
-0.1
 74
0
  0
LTYPE
  5
1F9
100
AcDbSymbolTableRecord
100
AcDbLinetypeTableRecord
  2
DASHED
 70
64
  3
- - - - - - - - - - - - - - - - - - - -
 72
65
 73
2
 40
0.2
 49
0.1
 74
0
 49
-0.1
 74
0
  0
ENDTAB
  0
TABLE
  2
LAYER
  5
2
100
AcDbSymbolTable
 70
36
  0
LAYER
  5
10
100
AcDbSymbolTableRecord
100
AcDbLayerTableRecord
  2
0
 70
0
 62
7
  6
CONTINUOUS
370
-3
390
F
  0
LAYER
  5
1FA
100
AcDbSymbolTableRecord
100
AcDbLayerTableRecord
  2
DEFAULT_1
 70
0
 62
7
  6
CENTER
370
-3
390
F
  0
LAYER
  5
1FB
100
AcDbSymbolTableRecord
100
AcDbLayerTableRecord
  2
DEFAULT_2
 70
0
 62
7
  6
HIDDEN
370
-3
390
F
  0
LAYER
  5
1FC
100
AcDbSymbolTableRecord
100
AcDbLayerTableRecord
  2
DEFAULT_3
 70
0
 62
7
  6
PHANTOM
370
-3
390
F
  0
LAYER
  5
1FD
100
AcDbSymbolTableRecord
100
AcDbLayerTableRecord
  2
00_COMPONENTS
 70
0
 62
7
  6
CONTINUOUS
370
-3
390
F
  0
LAYER
  5
1FE
100
AcDbSymbolTableRecord
100
AcDbLayerTableRecord
  2
01_1_DEFAULT_DATUMS
 70
0
 62
7
  6
CONTINUOUS
370
-3
390
F
  0
LAYER
  5
1FF
100
AcDbSymbolTableRecord
100
AcDbLayerTableRecord
  2
01_PLANES
 70
0
 62
7
  6
CONTINUOUS
370
-3
390
F
  0
LAYER
  5
200
100
AcDbSymbolTableRecord
100
AcDbLayerTableRecord
  2
02_COORD_SYS
 70
0
 62
7
  6
CONTINUOUS
370
-3
390
F
  0
LAYER
  5
201
100
AcDbSymbolTableRecord
100
AcDbLayerTableRecord
  2
03_AXES
 70
0
 62
7
  6
CONTINUOUS
370
-3
390
F
  0
LAYER
  5
202
100
AcDbSymbolTableRecord
100
AcDbLayerTableRecord
  2
04_POINTS
 70
0
 62
7
  6
CONTINUOUS
370
-3
390
F
  0
LAYER
  5
203
100
AcDbSymbolTableRecord
100
AcDbLayerTableRecord
  2
05_CURVES
 70
0
 62
7
  6
CONTINUOUS
370
-3
390
F
  0
LAYER
  5
204
100
AcDbSymbolTableRecord
100
AcDbLayerTableRecord
  2
06_SURFS
 70
0
 62
7
  6
CONTINUOUS
370
-3
390
F
  0
LAYER
  5
205
100
AcDbSymbolTableRecord
100
AcDbLayerTableRecord
  2
07_COSMETICS
 70
0
 62
7
  6
CONTINUOUS
370
-3
390
F
  0
LAYER
  5
206
100
AcDbSymbolTableRecord
100
AcDbLayerTableRecord
  2
10_NOTES
 70
0
 62
7
  6
CONTINUOUS
370
-3
390
F
  0
LAYER
  5
207
100
AcDbSymbolTableRecord
100
AcDbLayerTableRecord
  2
11_NOTES_PUB
 70
0
 62
7
  6
CONTINUOUS
370
-3
390
F
  0
LAYER
  5
208
100
AcDbSymbolTableRecord
100
AcDbLayerTableRecord
  2
13_REF_GTOL
 70
0
 62
7
  6
CONTINUOUS
370
-3
390
F
  0
LAYER
  5
209
100
AcDbSymbolTableRecord
100
AcDbLayerTableRecord
  2
16_MISC
 70
0
 62
7
  6
CONTINUOUS
370
-3
390
F
  0
LAYER
  5
20A
100
AcDbSymbolTableRecord
100
AcDbLayerTableRecord
  2
17_NO_PRINT
 70
0
 62
7
  6
CONTINUOUS
370
-3
390
F
  0
LAYER
  5
20B
100
AcDbSymbolTableRecord
100
AcDbLayerTableRecord
  2
18_DATUM_CAMS_JOINTS
 70
0
 62
7
  6
CONTINUOUS
370
-3
390
F
  0
LAYER
  5
20C
100
AcDbSymbolTableRecord
100
AcDbLayerTableRecord
  2
19_DATUM_FUNCTIONAL
 70
0
 62
7
  6
CONTINUOUS
370
-3
390
F
  0
LAYER
  5
20D
100
AcDbSymbolTableRecord
100
AcDbLayerTableRecord
  2
20_DATUM_KINEMATIC_SCHEME
 70
0
 62
7
  6
CONTINUOUS
370
-3
390
F
  0
ENDTAB
  0
TABLE
  2
STYLE
  5
3
100
AcDbSymbolTable
 70
1
  0
STYLE
  5
11
100
AcDbSymbolTableRecord
100
AcDbTextStyleTableRecord
  2
STANDARD
 70
0
 40
0.0
 41
1.0
 50
0.0
 71
0
 42
0.2
  3
ARIAL.TTF
  4

  0
STYLE
  5
20E
100
AcDbSymbolTableRecord
100
AcDbTextStyleTableRecord
  2
TEXTSTYLE_1
 70
0
 40
0.0
 41
0.8
 50
0.0
 71
0
 42
0.2
  3
gdt
  4

  0
ENDTAB
  0
TABLE
  2
VIEW
  5
6
100
AcDbSymbolTable
 70
0
  0
ENDTAB
  0
TABLE
  2
UCS
  5
7
100
AcDbSymbolTable
 70
0
  0
ENDTAB
  0
TABLE
  2
APPID
  5
9
100
AcDbSymbolTable
 70
1
  0
APPID
  5
20F
100
AcDbSymbolTableRecord
100
AcDbRegAppTableRecord
  2
ACAD
 70
0
  0
ENDTAB
  0
TABLE
  2
BLOCK_RECORD
  5
1
100
AcDbSymbolTable
 70
0
  0
BLOCK_RECORD
  5
210
100
AcDbSymbolTableRecord
100
AcDbBlockTableRecord
  2
*Model_Space
  0
BLOCK_RECORD
  5
211
100
AcDbSymbolTableRecord
100
AcDbBlockTableRecord
  2
*Paper_Space
  0
BLOCK_RECORD
  5
212
100
AcDbSymbolTableRecord
100
AcDbBlockTableRecord
  2
_FILLED
  0
ENDTAB
  0
TABLE
  2
DIMSTYLE
  5
A
100
AcDbSymbolTable
 70
1
100
AcDbDimStyleTable
 71
0
  0
DIMSTYLE
105
213
100
AcDbSymbolTableRecord
100
AcDbDimStyleTableRecord
  2
STANDARD
 70
0
  3

  4

 40
1.0
 41
0.6195917609
 42
1.0
 43
0.38
 44
1.0
 45
0.0
 46
0.0
 47
0.01
 48
0.01
140
0.8674284652
141
0.09
142
0.0
143
25.4
144
1.0
145
0.0
146
1.0
147
0.625
 71
1
 72
0
 73
0
 74
0
 75
0
 76
0
 77
1
 78
8
 79
2
170
0
171
1
172
0
173
0
174
0
175
0
176
0
177
0
178
0
270
2
179
2
271
2
272
2
273
2
274
2
275
0
280
0
281
0
282
0
283
1
284
8
285
0
286
0
287
3
288
0
340
11
278
46
341
212
342
212
343
212
344
212
  0
ENDTAB
  0
ENDSEC
  0
SECTION
  2
BLOCKS
  0
BLOCK
  5
20
100
AcDbEntity
  8
0
100
AcDbBlockBegin
  2
*Model_Space
 70
0
 10
0.0
 20
0.0
 30
0.0
  3
*Model_Space
  1

  0
ENDBLK
  5
21
100
AcDbEntity
  8
0
100
AcDbBlockEnd
  0
BLOCK
  5
1C
100
AcDbEntity
  8
0
100
AcDbBlockBegin
  2
*Paper_Space
 70
0
 10
0.0
 20
0.0
 30
0.0
  3
*Paper_Space
  1

  0
ENDBLK
  5
1D
100
AcDbEntity
  8
0
100
AcDbBlockEnd
  0
BLOCK
  5
214
100
AcDbEntity
  8
0
100
AcDbBlockBegin
  2
_FILLED
 70
64
 10
0.0
 20
0.0
  3
_FILLED
  1

  0
SOLID
  5
215
100
AcDbEntity
  8
0
  6
BYBLOCK
 62
0
100
AcDbTrace
 10
0.0
 20
0.0
 11
-1.0
 21
0.25
 12
-1.0
 22
-0.25
 13
-1.0
 23
-0.25
  0
ENDBLK
  5
216
100
AcDbEntity
  8
0
  6
BYBLOCK
 62
0
100
AcDbBlockEnd
  0
ENDSEC
  0
SECTION
  2
ENTITIES
  0
LINE
  5
217
100
AcDbEntity
  8
0
100
AcDbLine
 62
7
  6
BYLAYER
 10
9.6224716999
 20
23.9183250711
 11
9.6224716999
 21
23.46402521
  0
LINE
  5
218
100
AcDbEntity
  8
0
100
AcDbLine
 62
7
  6
BYLAYER
 10
10.47100337
 20
22.9741363046
 11
10.47100337
 21
23.4284361657
  0
LINE
  5
219
100
AcDbEntity
  8
0
100
AcDbLine
 62
7
  6
BYLAYER
 10
6.8056238545
 20
30.6248128589
 11
7.5968506486
 21
31.3442455773
  0
LINE
  5
21A
100
AcDbEntity
  8
0
100
AcDbLine
 62
7
  6
BYLAYER
 10
34.6627465178
 20
51.5816320934
 11
33.4189609561
 21
50.8635366058
  0
LINE
  5
21B
100
AcDbEntity
  8
0
100
AcDbLine
 62
7
  6
BYLAYER
 10
28.4692342223
 20
48.0058276767
 11
29.7130192592
 21
48.7239229517
  0
LINE
  5
21C
100
AcDbEntity
  8
0
100
AcDbLine
 62
7
  6
BYLAYER
 10
19.6633812214
 20
27.7559268068
 11
19.6633850485
 21
27.2252160357
  0
LINE
  5
21D
100
AcDbEntity
  8
0
100
AcDbLine
 62
7
  6
BYLAYER
 10
7.9124326923
 20
31.5751036815
 11
7.5968506486
 21
31.3442455773
  0
LINE
  5
21E
100
AcDbEntity
  8
0
100
AcDbLine
 62
7
  6
BYLAYER
 10
15.8804410657
 20
34.3082104701
 11
15.4208353412
 21
34.5735715459
  0
LINE
  5
21F
100
AcDbEntity
  8
0
100
AcDbLine
 62
7
  6
BYLAYER
 10
33.8672913608
 20
48.488043772
 11
35.1110769134
 21
49.2061392561
  0
LINE
  5
220
100
AcDbEntity
  8
0
100
AcDbLine
 62
7
  6
BYLAYER
 10
40.0608064685
 20
52.063850207
 11
38.8170193455
 21
51.3457533403
  0
LINE
  5
221
100
AcDbEntity
  8
0
100
AcDbLine
 62
7
  6
BYLAYER
 10
40.5124530341
 20
51.8405769815
 11
39.3451694484
 21
51.1666496585
  0
LINE
  5
222
100
AcDbEntity
  8
0
100
AcDbLine
 62
7
  6
BYLAYER
 10
34.395442652
 20
48.3089405553
 11
35.5627260813
 21
48.9828680096
  0
LINE
  5
223
100
AcDbEntity
  8
0
100
AcDbLine
 62
7
  6
BYLAYER
 10
31.1100279028
 20
45.6609808642
 11
20.2695927215
 21
39.4022900535
  0
LINE
  5
224
100
AcDbEntity
  8
0
100
AcDbLine
 62
7
  6
BYLAYER
 10
12.4207401284
 20
34.8707799455
 11
8.5316690237
 21
32.6254370992
  0
LINE
  5
225
100
AcDbEntity
  8
0
100
AcDbLine
 62
7
  6
BYLAYER
 10
19.3451477677
 20
38.1180104666
 11
14.0517644526
 21
35.0618924273
  0
LINE
  5
226
100
AcDbEntity
  8
0
100
AcDbLine
 62
7
  6
BYLAYER
 10
7.9124326923
 20
31.5751036815
 11
8.0571247631
 21
31.6586249483
  0
LINE
  5
227
100
AcDbEntity
  8
0
100
AcDbLine
 62
7
  6
BYLAYER
 10
8.0538840386
 20
31.6566995395
 11
8.0572911578
 21
31.6583362733
  0
LINE
  5
228
100
AcDbEntity
  8
0
100
AcDbLine
 62
7
  6
BYLAYER
 10
41.7358204801
 20
36.0336938118
 11
41.7768128797
 21
36.0420479049
  0
LINE
  5
229
100
AcDbEntity
  8
0
100
AcDbLine
 62
7
  6
BYLAYER
 10
34.072900184
 20
49.2703001654
 11
34.1132258462
 21
49.3158492487
  0
LINE
  5
22A
100
AcDbEntity
  8
0
100
AcDbLine
 62
7
  6
BYLAYER
 10
10.6016773245
 20
29.1727412846
 11
10.4027916874
 21
29.0579152939
  0
LINE
  5
22B
100
AcDbEntity
  8
0
100
AcDbLine
 62
7
  6
BYLAYER
 10
41.7441032877
 20
45.2570332695
 11
41.8299810556
 21
45.3022627577
  0
LINE
  5
22C
100
AcDbEntity
  8
0
100
AcDbLine
 62
7
  6
BYLAYER
 10
42.1692444935
 20
44.9340364074
 11
42.5047313022
 21
45.1107282086
  0
LINE
  5
22D
100
AcDbEntity
  8
0
100
AcDbLine
 62
7
  6
BYLAYER
 10
27.7242834179
 20
43.7181897673
 11
27.7249153585
 21
43.7065968916
  0
LINE
  5
22E
100
AcDbEntity
  8
0
100
AcDbLine
 62
7
  6
BYLAYER
 10
27.7242834179
 20
43.7181897673
 11
27.7242885935
 21
43.7062343075
  0
LINE
  5
22F
100
AcDbEntity
  8
0
100
AcDbLine
 62
7
  6
BYLAYER
 10
11.5521595222
 20
28.0184395169
 11
9.9027939259
 21
27.0661835301
  0
LINE
  5
230
100
AcDbEntity
  8
0
100
AcDbLine
 62
7
  6
BYLAYER
 10
12.0569729422
 20
27.1551931259
 11
10.4027916874
 21
26.2001568339
  0
LINE
  5
231
100
AcDbEntity
  8
0
100
AcDbLine
 62
7
  6
BYLAYER
 10
42.3186381754
 20
44.429979067
 11
42.2327604075
 21
44.3847495789
  0
LINE
  5
232
100
AcDbEntity
  8
0
100
AcDbLine
 62
7
  6
BYLAYER
 10
7.7242604815
 20
30.0230895344
 11
8.2724397234
 21
30.2042825144
  0
LINE
  5
233
100
AcDbEntity
  8
0
100
AcDbLine
 62
7
  6
BYLAYER
 10
21.9675709329
 20
38.3032215433
 11
21.0576758942
 21
38.4272411519
  0
LINE
  5
234
100
AcDbEntity
  8
0
100
AcDbLine
 62
7
  6
BYLAYER
 10
27.7242834179
 20
43.7181897673
 11
27.7254881528
 21
43.7069275926
  0
LINE
  5
235
100
AcDbEntity
  8
0
100
AcDbLine
 62
7
  6
BYLAYER
 10
26.166744158
 20
31.0299967525
 11
25.8191963763
 21
30.1799965266
  0
LINE
  5
236
100
AcDbEntity
  8
0
100
AcDbLine
 62
7
  6
BYLAYER
 10
9.746738878
 20
24.1929966361
 11
12.5459217689
 21
25.8090959848
  0
LINE
  5
237
100
AcDbEntity
  8
0
100
AcDbLine
 62
7
  6
BYLAYER
 10
12.5605842155
 20
25.7429412325
 11
12.3776779639
 21
25.6373408893
  0
LINE
  5
238
100
AcDbEntity
  8
0
100
AcDbLine
 62
7
  6
BYLAYER
 10
40.0384501661
 20
41.2890060549
 11
41.2057337501
 21
41.9629333775
  0
LINE
  5
239
100
AcDbEntity
  8
0
100
AcDbLine
 62
7
  6
BYLAYER
 10
46.1554576386
 20
44.8206408408
 11
44.9881763739
 21
44.1467145961
  0
LINE
  5
23A
100
AcDbEntity
  8
0
100
AcDbLine
 62
7
  6
BYLAYER
 10
42.8698624621
 20
43.1962011293
 11
42.7707039155
 21
43.1778690722
  0
LINE
  5
23B
100
AcDbEntity
  8
0
100
AcDbLine
 62
7
  6
BYLAYER
 10
32.8947485693
 20
49.2178823882
 11
32.8929056411
 21
49.2059776741
  0
LINE
  5
23C
100
AcDbEntity
  8
0
100
AcDbLine
 62
7
  6
BYLAYER
 10
32.904328144
 20
49.2212375485
 11
32.9022023301
 21
49.2092418085
  0
LINE
  5
23D
100
AcDbEntity
  8
0
100
AcDbLine
 62
7
  6
BYLAYER
 10
40.9927984427
 20
46.3515421543
 11
41.0626352498
 21
46.4222153605
  0
LINE
  5
23E
100
AcDbEntity
  8
0
100
AcDbLine
 62
7
  6
BYLAYER
 10
41.4919086558
 20
46.0084073452
 11
41.7647304567
 21
46.2844966062
  0
LINE
  5
23F
100
AcDbEntity
  8
0
100
AcDbLine
 62
7
  6
BYLAYER
 10
41.6346990343
 20
45.612013573
 11
41.5648622272
 21
45.5413403668
  0
LINE
  5
240
100
AcDbEntity
  8
0
100
AcDbLine
 62
7
  6
BYLAYER
 10
46.3774237631
 20
44.2059356162
 11
45.1336389582
 21
43.4878404976
  0
LINE
  5
241
100
AcDbEntity
  8
0
100
AcDbLine
 62
7
  6
BYLAYER
 10
40.1839121261
 20
40.6301313387
 11
41.4276969051
 21
41.3482266322
  0
LINE
  5
242
100
AcDbEntity
  8
0
100
AcDbLine
 62
7
  6
BYLAYER
 10
10.47100337
 20
23.4284361657
 11
12.7090489841
 21
24.7205646905
  0
LINE
  5
243
100
AcDbEntity
  8
0
100
AcDbLine
 62
7
  6
BYLAYER
 10
12.6705447901
 20
24.2440345553
 11
10.47100337
 21
22.9741363046
  0
LINE
  5
244
100
AcDbEntity
  8
0
100
AcDbLine
 62
7
  6
BYLAYER
 10
42.7300305625
 20
43.798281872
 11
43.1173995566
 21
43.8698971932
  0
LINE
  5
245
100
AcDbEntity
  8
0
100
AcDbLine
 62
7
  6
BYLAYER
 10
42.3811593024
 20
44.0841987505
 11
42.4803178489
 21
44.1025308076
  0
LINE
  5
246
100
AcDbEntity
  8
0
100
AcDbLine
 62
7
  6
BYLAYER
 10
40.1513923232
 20
47.3325469887
 11
40.202943557
 21
47.4263924179
  0
LINE
  5
247
100
AcDbEntity
  8
0
100
AcDbLine
 62
7
  6
BYLAYER
 10
24.6951238164
 20
28.8515248178
 11
19.3900702617
 21
25.7886690027
  0
LINE
  5
248
100
AcDbEntity
  8
0
100
AcDbLine
 62
7
  6
BYLAYER
 10
13.4538292846
 20
22.3036641939
 11
13.3124085172
 21
22.2220153631
  0
LINE
  5
249
100
AcDbEntity
  8
0
100
AcDbLine
 62
7
  6
BYLAYER
 10
36.9811536188
 20
35.1942708603
 11
26.2695658602
 21
29.0099696998
  0
LINE
  5
24A
100
AcDbEntity
  8
0
100
AcDbLine
 62
7
  6
BYLAYER
 10
18.4207132671
 20
24.4784595918
 11
14.5316421625
 21
22.2331167455
  0
LINE
  5
24B
100
AcDbEntity
  8
0
100
AcDbLine
 62
7
  6
BYLAYER
 10
12.4508994134
 20
25.6599436476
 11
12.3776779639
 21
25.6373408893
  0
LINE
  5
24C
100
AcDbEntity
  8
0
100
AcDbLine
 62
7
  6
BYLAYER
 10
43.2706550922
 20
41.950334398
 11
43.1614028042
 21
41.9594889793
  0
LINE
  5
24D
100
AcDbEntity
  8
0
100
AcDbLine
 62
7
  6
BYLAYER
 10
40.7197931804
 20
46.9868635193
 11
40.9211812563
 21
47.3534765041
  0
LINE
  5
24E
100
AcDbEntity
  8
0
100
AcDbLine
 62
7
  6
BYLAYER
 10
40.8400274056
 20
46.7043130857
 11
40.7884761717
 21
46.6104676565
  0
LINE
  5
24F
100
AcDbEntity
  8
0
100
AcDbLine
 62
7
  6
BYLAYER
 10
12.9546876963
 20
22.0641441977
 11
13.3124085172
 21
22.2220153631
  0
LINE
  5
250
100
AcDbEntity
  8
0
100
AcDbLine
 62
7
  6
BYLAYER
 10
43.156242737
 20
42.6376478241
 11
43.5830435581
 21
42.6018848899
  0
LINE
  5
251
100
AcDbEntity
  8
0
100
AcDbLine
 62
7
  6
BYLAYER
 10
42.8834909821
 20
42.8707344637
 11
42.9927432701
 21
42.8615798824
  0
LINE
  5
252
100
AcDbEntity
  8
0
100
AcDbLine
 62
7
  6
BYLAYER
 10
39.2469284141
 20
48.1685174702
 11
39.2785371756
 21
48.2825188531
  0
LINE
  5
253
100
AcDbEntity
  8
0
100
AcDbLine
 62
7
  6
BYLAYER
 10
39.8777144941
 20
47.8379565432
 11
40.0011960662
 21
48.2833100088
  0
LINE
  5
254
100
AcDbEntity
  8
0
100
AcDbLine
 62
7
  6
BYLAYER
 10
39.9601646891
 20
47.6717702001
 11
39.9285559276
 21
47.5577688171
  0
LINE
  5
255
100
AcDbEntity
  8
0
100
AcDbLine
 62
7
  6
BYLAYER
 10
40.1839120997
 20
33.4326998035
 11
41.4276969047
 21
34.1507949221
  0
LINE
  5
256
100
AcDbEntity
  8
0
100
AcDbLine
 62
7
  6
BYLAYER
 10
46.3774267411
 20
37.0085057557
 11
45.1336396948
 21
36.290409212
  0
LINE
  5
257
100
AcDbEntity
  8
0
100
AcDbLine
 62
7
  6
BYLAYER
 10
46.1554605615
 20
36.5617575972
 11
44.9881771103
 21
35.8878301666
  0
LINE
  5
258
100
AcDbEntity
  8
0
100
AcDbLine
 62
7
  6
BYLAYER
 10
40.0384501987
 20
33.0301210106
 11
41.2057337569
 21
33.7040485125
  0
LINE
  5
259
100
AcDbEntity
  8
0
100
AcDbLine
 62
7
  6
BYLAYER
 10
11.9360256061
 20
21.7386433189
 11
12.9546876963
 21
22.0641441977
  0
LINE
  5
25A
100
AcDbEntity
  8
0
100
AcDbLine
 62
7
  6
BYLAYER
 10
43.5081342609
 20
40.732422055
 11
43.3922996899
 21
40.7687690389
  0
LINE
  5
25B
100
AcDbEntity
  8
0
100
AcDbLine
 62
7
  6
BYLAYER
 10
43.434182207
 20
41.489437997
 11
43.8866971254
 21
41.3474462574
  0
LINE
  5
25C
100
AcDbEntity
  8
0
100
AcDbLine
 62
7
  6
BYLAYER
 10
43.2349529735
 20
41.6556421497
 11
43.3507875444
 21
41.6192951658
  0
LINE
  5
25D
100
AcDbEntity
  8
0
100
AcDbLine
 62
7
  6
BYLAYER
 10
43.5746671922
 20
39.581608805
 11
43.4559733567
 21
39.6439799695
  0
LINE
  5
25E
100
AcDbEntity
  8
0
100
AcDbLine
 62
7
  6
BYLAYER
 10
37.3662004731
 20
49.303405366
 11
37.3555501155
 21
49.4461962999
  0
LINE
  5
25F
100
AcDbEntity
  8
0
100
AcDbLine
 62
7
  6
BYLAYER
 10
38.3084769298
 20
48.8325848196
 11
38.3191272874
 21
48.963078058
  0
LINE
  5
260
100
AcDbEntity
  8
0
100
AcDbLine
 62
7
  6
BYLAYER
 10
38.9927376986
 20
48.5343315869
 11
39.0343439674
 21
49.0441115062
  0
LINE
  5
261
100
AcDbEntity
  8
0
100
AcDbLine
 62
7
  6
BYLAYER
 10
39.0233903967
 20
48.4832900484
 11
39.0127400391
 21
48.3527968099
  0
LINE
  5
262
100
AcDbEntity
  8
0
100
AcDbLine
 62
7
  6
BYLAYER
 10
35.5911014962
 20
49.6077015756
 11
35.6012386763
 21
49.6094140474
  0
LINE
  5
263
100
AcDbEntity
  8
0
100
AcDbLine
 62
7
  6
BYLAYER
 10
35.5909958965
 20
49.6079577221
 11
35.6012386763
 21
49.6094140474
  0
LINE
  5
264
100
AcDbEntity
  8
0
100
AcDbLine
 62
7
  6
BYLAYER
 10
35.5487653888
 20
49.6079450779
 11
35.5904643404
 21
49.6114732947
  0
LINE
  5
265
100
AcDbEntity
  8
0
100
AcDbLine
 62
7
  6
BYLAYER
 10
43.5549157694
 20
40.3905567993
 11
44.018600583
 21
40.1468999855
  0
LINE
  5
266
100
AcDbEntity
  8
0
100
AcDbLine
 62
7
  6
BYLAYER
 10
43.4242489989
 20
40.4779758753
 11
43.5429428344
 21
40.4156047107
  0
LINE
  5
267
100
AcDbEntity
  8
0
100
AcDbLine
 62
7
  6
BYLAYER
 10
43.4681154631
 20
38.5348827327
 11
43.3503772806
 21
38.6212734174
  0
LINE
  5
268
100
AcDbEntity
  8
0
100
AcDbLine
 62
7
  6
BYLAYER
 10
43.4452949283
 20
39.3755868034
 11
43.5630331108
 21
39.2891961188
  0
LINE
  5
269
100
AcDbEntity
  8
0
100
AcDbLine
 62
7
  6
BYLAYER
 10
43.1919037338
 20
37.6258864755
 11
43.0789054062
 21
37.7335200126
  0
LINE
  5
26A
100
AcDbEntity
  8
0
100
AcDbLine
 62
7
  6
BYLAYER
 10
38.0598132248
 20
49.112789715
 11
38.0704635823
 21
48.9699987811
  0
LINE
  5
26B
100
AcDbEntity
  8
0
100
AcDbLine
 62
7
  6
BYLAYER
 10
43.2974143282
 20
38.3839066261
 11
43.4104126557
 21
38.2762730889
  0
LINE
  5
26C
100
AcDbEntity
  8
0
100
AcDbLine
 62
7
  6
BYLAYER
 10
42.7549096764
 20
36.8838359209
 11
42.6502830631
 21
37.00925288
  0
LINE
  5
26D
100
AcDbEntity
  8
0
100
AcDbLine
 62
7
  6
BYLAYER
 10
42.9853602028
 20
37.53480876
 11
43.0899868161
 21
37.4093918009
  0
LINE
  5
26E
100
AcDbEntity
  8
0
100
AcDbLine
 62
7
  6
BYLAYER
 10
42.1711786396
 20
36.3325811844
 11
42.0782865261
 21
36.4717505612
  0
LINE
  5
26F
100
AcDbEntity
  8
0
100
AcDbLine
 62
7
  6
BYLAYER
 10
42.5191622285
 20
36.8555839092
 11
42.6120543421
 21
36.7164145324
  0
LINE
  5
270
100
AcDbEntity
  8
0
100
AcDbLine
 62
7
  6
BYLAYER
 10
34.5489594565
 20
49.5058674396
 11
34.6348372244
 21
49.36147709
  0
LINE
  5
271
100
AcDbEntity
  8
0
100
AcDbLine
 62
7
  6
BYLAYER
 10
41.9138043917
 20
36.3680629194
 11
41.9919763766
 21
36.2196141432
  0
LINE
  5
272
100
AcDbEntity
  8
0
100
AcDbLine
 62
7
  6
BYLAYER
 10
34.8140782849
 20
49.4388191204
 11
34.7442414778
 21
49.5901311011
  0
LINE
  5
273
100
AcDbEntity
  8
0
100
AcDbLine
 62
7
  6
BYLAYER
 10
35.3163052624
 20
49.7397854721
 11
35.3861420694
 21
49.5884734915
  0
LINE
  5
274
100
AcDbEntity
  8
0
100
AcDbLine
 62
7
  6
BYLAYER
 10
35.5904643404
 20
49.6114732947
 11
35.5389131066
 21
49.7648436148
  0
LINE
  5
275
100
AcDbEntity
  8
0
100
AcDbLine
 62
7
  6
BYLAYER
 10
36.1759969551
 20
49.7512985261
 11
36.227548189
 21
49.5979282061
  0
LINE
  5
276
100
AcDbEntity
  8
0
100
AcDbLine
 62
7
  6
BYLAYER
 10
36.4503845845
 20
49.5658465495
 11
36.418775823
 21
49.7163457608
  0
LINE
  5
277
100
AcDbEntity
  8
0
100
AcDbLine
 62
7
  6
BYLAYER
 10
37.1004033365
 20
49.5400365626
 11
37.132012098
 21
49.3895373514
  0
LINE
  5
278
100
AcDbEntity
  8
0
100
AcDbLine
 62
7
  6
BYLAYER
 10
36.2123677089
 20
49.548096973
 11
36.2175137848
 21
49.5465292835
  0
LINE
  5
279
100
AcDbEntity
  8
0
100
AcDbLine
 62
7
  6
BYLAYER
 10
43.3144184728
 20
38.479337585
 11
43.3043273706
 21
38.4121658203
  0
LINE
  5
27A
100
AcDbEntity
  8
0
100
AcDbLine
 62
7
  6
BYLAYER
 10
43.2998743184
 20
38.3835331727
 11
43.2912070894
 21
38.3264409035
  0
LINE
  5
27B
100
AcDbEntity
  8
0
100
AcDbLine
 62
7
  6
BYLAYER
 10
38.0643637615
 20
49.047908913
 11
38.0566931571
 21
49.0511947878
  0
LINE
  5
27C
100
AcDbEntity
  8
0
100
AcDbLine
 62
7
  6
BYLAYER
 10
38.0653763909
 20
49.0382035166
 11
38.0576668251
 21
49.0419717867
  0
LINE
  5
27D
100
AcDbEntity
  8
0
100
AcDbLine
 62
7
  6
BYLAYER
 10
38.0427073546
 20
49.0800176927
 11
38.0630495542
 21
49.0693997632
  0
LINE
  5
27E
100
AcDbEntity
  8
0
100
AcDbLine
 62
7
  6
BYLAYER
 10
43.3182890661
 20
38.4709281239
 11
43.3144207166
 21
38.4793354321
  0
ARC
  5
27F
100
AcDbEntity
  8
0
100
AcDbCircle
 62
7
  6
BYLAYER
 10
10.4309201623
 20
-14.8409745703
 40
64.4107601786
100
AcDbArc
 50
59.0646829423
 51
59.1873040186
  0
ARC
  5
280
100
AcDbEntity
  8
0
100
AcDbCircle
 62
7
  6
BYLAYER
 10
3.1426491952
 20
26.1643774122
 40
40.1243611113
100
AcDbArc
 50
14.8854486777
 51
15.3055976452
  0
ARC
  5
281
100
AcDbEntity
  8
0
100
AcDbCircle
 62
7
  6
BYLAYER
 10
10.2538140012
 20
25.4237475605
 40
34.2027601141
100
AcDbArc
 50
44.1074018061
 51
44.3271427114
  0
ARC
  5
282
100
AcDbEntity
  8
0
100
AcDbCircle
 62
7
  6
BYLAYER
 10
25.990726113
 20
22.715725582
 40
28.9269793865
100
AcDbArc
 50
67.3573067455
 51
68.0984089303
  0
ARC
  5
283
100
AcDbEntity
  8
0
100
AcDbCircle
 62
7
  6
BYLAYER
 10
27.7838220411
 20
22.1267670802
 40
28.6874628346
100
AcDbArc
 50
72.9140436046
 51
73.5255085886
  0
ARC
  5
284
100
AcDbEntity
  8
0
100
AcDbCircle
 62
7
  6
BYLAYER
 10
24.7924211375
 20
23.730866588
 40
28.6034100998
100
AcDbArc
 50
62.4033978464
 51
63.1912166725
  0
ARC
  5
285
100
AcDbEntity
  8
0
100
AcDbCircle
 62
7
  6
BYLAYER
 10
28.1081426643
 20
23.1787652825
 40
27.586606866
100
AcDbArc
 50
72.5813074536
 51
72.904788662
  0
ARC
  5
286
100
AcDbEntity
  8
0
100
AcDbCircle
 62
7
  6
BYLAYER
 10
30.1467547871
 20
22.4527696367
 40
27.5054566958
100
AcDbArc
 50
78.5772074442
 51
79.5496588185
  0
ARC
  5
287
100
AcDbEntity
  8
0
100
AcDbCircle
 62
7
  6
BYLAYER
 10
24.4385813196
 20
25.3953453265
 40
27.3356205904
100
AcDbArc
 50
57.830579059
 51
58.7337301458
  0
ARC
  5
288
100
AcDbEntity
  8
0
100
AcDbCircle
 62
7
  6
BYLAYER
 10
30.1832402374
 20
20.8812604131
 40
24.5341016339
100
AcDbArc
 50
57.4508075554
 51
57.8604972491
  0
ARC
  5
289
100
AcDbEntity
  8
0
100
AcDbCircle
 62
7
  6
BYLAYER
 10
31.7852030485
 20
26.1652458863
 40
22.1870767107
100
AcDbArc
 50
64.733707366
 51
65.4808009962
  0
ARC
  5
28A
100
AcDbEntity
  8
0
100
AcDbCircle
 62
7
  6
BYLAYER
 10
31.4933495528
 20
25.5935451966
 40
22.1750020946
100
AcDbArc
 50
61.7750435208
 51
62.4665622562
  0
ARC
  5
28B
100
AcDbEntity
  8
0
100
AcDbCircle
 62
7
  6
BYLAYER
 10
31.3452820685
 20
24.1071740138
 40
22.0272891494
100
AcDbArc
 50
57.8647696715
 51
58.4115434046
  0
ARC
  5
28C
100
AcDbEntity
  8
0
100
AcDbCircle
 62
7
  6
BYLAYER
 10
31.4246637952
 20
25.0614535187
 40
21.9524402296
100
AcDbArc
 50
59.430016254
 51
60.0594273072
  0
ARC
  5
28D
100
AcDbEntity
  8
0
100
AcDbCircle
 62
7
  6
BYLAYER
 10
4.7447591509
 20
23.5266500829
 40
8.6911620664
100
AcDbArc
 50
31.5728268212
 51
39.5513962868
  0
ARC
  5
28E
100
AcDbEntity
  8
0
100
AcDbCircle
 62
7
  6
BYLAYER
 10
12.5423714948
 20
23.8805237559
 40
1.8213239416
100
AcDbArc
 50
300.307718813
 51
311.6328715503
  0
ARC
  5
28F
100
AcDbEntity
  8
0
100
AcDbCircle
 62
7
  6
BYLAYER
 10
12.4106401375
 20
23.7839675132
 40
1.8035678197
100
AcDbArc
 50
299.9993090506
 51
305.0461130698
  0
ARC
  5
290
100
AcDbEntity
  8
0
100
AcDbCircle
 62
7
  6
BYLAYER
 10
12.5530840815
 20
23.8638827381
 40
1.801551451
100
AcDbArc
 50
299.9986947816
 51
300.2806640565
  0
ARC
  5
291
100
AcDbEntity
  8
0
100
AcDbCircle
 62
7
  6
BYLAYER
 10
12.6276768447
 20
25.2043275412
 40
0.5
100
AcDbArc
 50
119.9998519061
 51
281.6129759796
  0
ARC
  5
292
100
AcDbEntity
  8
0
100
AcDbCircle
 62
7
  6
BYLAYER
 10
7.9181502731
 20
26.5625667174
 40
3.7594481386
100
AcDbArc
 50
60.6153201536
 51
61.8690809778
  0
ARC
  5
293
100
AcDbEntity
  8
0
100
AcDbCircle
 62
7
  6
BYLAYER
 10
8.9638625392
 20
30.078712493
 40
1.8216192689
100
AcDbArc
 50
108.4030275908
 51
119.8522238653
  0
ARC
  5
294
100
AcDbEntity
  8
0
100
AcDbCircle
 62
7
  6
BYLAYER
 10
8.8157921755
 20
30.0100812079
 40
1.8070223584
100
AcDbArc
 50
114.8348851258
 51
119.9943251701
  0
ARC
  5
295
100
AcDbEntity
  8
0
100
AcDbCircle
 62
7
  6
BYLAYER
 10
10.1527928067
 20
26.633170182
 40
0.5
100
AcDbArc
 50
119.9998519061
 51
299.9998519061
  0
ARC
  5
296
100
AcDbEntity
  8
0
100
AcDbCircle
 62
7
  6
BYLAYER
 10
10.1527928067
 20
29.490928642
 40
0.5
100
AcDbArc
 50
134.521519979
 51
299.9998519061
  0
ARC
  5
297
100
AcDbEntity
  8
0
100
AcDbCircle
 62
7
  6
BYLAYER
 10
0.4457255087
 20
47.4133030755
 40
38.578455882
100
AcDbArc
 50
1.3954510761
 51
1.6143977914
  0
ARC
  5
298
100
AcDbEntity
  8
0
100
AcDbCircle
 62
7
  6
BYLAYER
 10
14.6752372774
 20
42.752094616
 40
28.9561761816
100
AcDbArc
 50
350.5962088657
 51
351.2084717687
  0
ARC
  5
299
100
AcDbEntity
  8
0
100
AcDbCircle
 62
7
  6
BYLAYER
 10
15.0478264994
 20
41.0996074779
 40
28.5188507401
100
AcDbArc
 50
355.6235870574
 51
356.4365528353
  0
ARC
  5
29A
100
AcDbEntity
  8
0
100
AcDbCircle
 62
7
  6
BYLAYER
 10
15.3785609057
 20
44.6216636281
 40
28.4306913499
100
AcDbArc
 50
345.0259301553
 51
345.6542241829
  0
ARC
  5
29B
100
AcDbEntity
  8
0
100
AcDbCircle
 62
7
  6
BYLAYER
 10
15.4639764277
 20
39.8599639574
 40
28.0959820091
100
AcDbArc
 50
0.1919411086
 51
0.5752436386
  0
ARC
  5
29C
100
AcDbEntity
  8
0
100
AcDbCircle
 62
7
  6
BYLAYER
 10
16.1959864083
 20
44.4118900082
 40
27.5867784847
100
AcDbArc
 50
345.6556705795
 51
345.9794110641
  0
ARC
  5
29D
100
AcDbEntity
  8
0
100
AcDbCircle
 62
7
  6
BYLAYER
 10
18.0161571369
 20
39.1434242219
 40
25.5260585545
100
AcDbArc
 50
4.3507852656
 51
5.2733047506
  0
ARC
  5
29E
100
AcDbEntity
  8
0
100
AcDbCircle
 62
7
  6
BYLAYER
 10
24.9823078368
 20
27.5306966057
 40
25.1844782685
100
AcDbArc
 50
53.7398951805
 51
54.6574979609
  0
ARC
  5
29F
100
AcDbEntity
  8
0
100
AcDbCircle
 62
7
  6
BYLAYER
 10
20.7854668755
 20
39.0411588096
 40
22.6580283758
100
AcDbArc
 50
8.1790275995
 51
9.1331382935
  0
ARC
  5
2A0
100
AcDbEntity
  8
0
100
AcDbCircle
 62
7
  6
BYLAYER
 10
26.5084891407
 20
30.0801521985
 40
22.0861506423
100
AcDbArc
 50
49.9505392513
 51
50.9042358092
  0
ARC
  5
2A1
100
AcDbEntity
  8
0
100
AcDbCircle
 62
7
  6
BYLAYER
 10
21.6827061236
 20
30.1614361318
 40
21.9255495168
100
AcDbArc
 50
17.9544547502
 51
18.5805021724
  0
ARC
  5
2A2
100
AcDbEntity
  8
0
100
AcDbCircle
 62
7
  6
BYLAYER
 10
32.3339477598
 20
26.9262192339
 40
21.8524748088
100
AcDbArc
 50
68.2362291457
 51
69.0387013316
  0
ARC
  5
2A3
100
AcDbEntity
  8
0
100
AcDbCircle
 62
7
  6
BYLAYER
 10
21.4318328131
 20
37.2644103879
 40
18.6592874487
100
AcDbArc
 50
40.6243282849
 51
41.3152167777
  0
ARC
  5
2A4
100
AcDbEntity
  8
0
100
AcDbCircle
 62
7
  6
BYLAYER
 10
24.0055242506
 20
35.4047188035
 40
18.4080793489
100
AcDbArc
 50
18.836879506
 51
20.871193689
  0
ARC
  5
2A5
100
AcDbEntity
  8
0
100
AcDbCircle
 62
7
  6
BYLAYER
 10
28.9580285466
 20
38.2633555125
 40
18.4051503186
100
AcDbArc
 50
18.8369372779
 51
20.8715744433
  0
ARC
  5
2A6
100
AcDbEntity
  8
0
100
AcDbCircle
 62
7
  6
BYLAYER
 10
28.9476120936
 20
32.8329273538
 40
18.1921040357
100
AcDbArc
 50
46.4058010646
 51
47.4264697517
  0
ARC
  5
2A7
100
AcDbEntity
  8
0
100
AcDbCircle
 62
7
  6
BYLAYER
 10
32.0986690525
 20
35.5245615474
 40
13.7824056991
100
AcDbArc
 50
43.0562811394
 51
44.1925266027
  0
ARC
  5
2A8
100
AcDbEntity
  8
0
100
AcDbCircle
 62
7
  6
BYLAYER
 10
28.1390528636
 20
37.8177273924
 40
13.7496358241
100
AcDbArc
 50
11.6357617201
 51
14.8785139259
  0
ARC
  5
2A9
100
AcDbEntity
  8
0
100
AcDbCircle
 62
7
  6
BYLAYER
 10
30.6184523867
 20
38.4504013342
 40
13.1394969485
100
AcDbArc
 50
31.4309485672
 51
33.0277134702
  0
ARC
  5
2AA
100
AcDbEntity
  8
0
100
AcDbCircle
 62
7
  6
BYLAYER
 10
28.7919873361
 20
37.3965350251
 40
13.1253067702
100
AcDbArc
 50
31.4300853551
 51
33.0285766823
  0
ARC
  5
2AB
100
AcDbEntity
  8
0
100
AcDbCircle
 62
7
  6
BYLAYER
 10
30.7303529856
 20
38.5045497804
 40
13.0153396372
100
AcDbArc
 50
25.4743134789
 51
27.0819894851
  0
ARC
  5
2AC
100
AcDbEntity
  8
0
100
AcDbCircle
 62
7
  6
BYLAYER
 10
29.5771938587
 20
37.4433524833
 40
12.9995005508
100
AcDbArc
 50
62.5842869818
 51
64.8050418447
  0
ARC
  5
2AD
100
AcDbEntity
  8
0
100
AcDbCircle
 62
7
  6
BYLAYER
 10
30.7963066554
 20
38.5536630237
 40
12.8370332926
100
AcDbArc
 50
31.479266457
 51
32.9793955804
  0
ARC
  5
2AE
100
AcDbEntity
  8
0
100
AcDbCircle
 62
7
  6
BYLAYER
 10
30.8744336296
 20
38.58959118
 40
12.7512920154
100
AcDbArc
 50
25.5250676059
 51
27.0312353582
  0
ARC
  5
2AF
100
AcDbEntity
  8
0
100
AcDbCircle
 62
7
  6
BYLAYER
 10
31.1891283343
 20
38.8597531038
 40
12.4369198033
100
AcDbArc
 50
37.4497593884
 51
39.1053164896
  0
ARC
  5
2B0
100
AcDbEntity
  8
0
100
AcDbCircle
 62
7
  6
BYLAYER
 10
29.3892508651
 20
37.828772271
 40
12.3877637321
100
AcDbArc
 50
37.446474438
 51
39.10860144
  0
ARC
  5
2B1
100
AcDbEntity
  8
0
100
AcDbCircle
 62
7
  6
BYLAYER
 10
31.3796268563
 20
38.9757138543
 40
12.1167615749
100
AcDbArc
 50
37.4976827166
 51
39.0573931613
  0
ARC
  5
2B2
100
AcDbEntity
  8
0
100
AcDbCircle
 62
7
  6
BYLAYER
 10
31.5855774235
 20
38.8624727342
 40
12.0878571565
100
AcDbArc
 50
19.3195695257
 51
21.0092803961
  0
ARC
  5
2B3
100
AcDbEntity
  8
0
100
AcDbCircle
 62
7
  6
BYLAYER
 10
31.6803444899
 20
38.9309513815
 40
11.8757055395
100
AcDbArc
 50
19.3751187093
 51
20.9537312124
  0
ARC
  5
2B4
100
AcDbEntity
  8
0
100
AcDbCircle
 62
7
  6
BYLAYER
 10
30.4502226396
 20
38.7773229521
 40
10.963921186
100
AcDbArc
 50
43.7929877606
 51
45.5969399897
  0
ARC
  5
2B5
100
AcDbEntity
  8
0
100
AcDbCircle
 62
7
  6
BYLAYER
 10
25.2352583438
 20
32.0265945871
 40
3.3021601647
100
AcDbArc
 50
258.8621477342
 51
259.4608785419
  0
ARC
  5
2B6
100
AcDbEntity
  8
0
100
AcDbCircle
 62
7
  6
BYLAYER
 10
25.2235914008
 20
31.9636476225
 40
3.2381411362
100
AcDbArc
 50
259.4601122775
 51
260.72994344
  0
ARC
  5
2B7
100
AcDbEntity
  8
0
100
AcDbCircle
 62
7
  6
BYLAYER
 10
24.9742840209
 20
31.6355136817
 40
2.8060364062
100
AcDbArc
 50
264.5485297322
 51
265.6301931852
  0
ARC
  5
2B8
100
AcDbEntity
  8
0
100
AcDbCircle
 62
7
  6
BYLAYER
 10
16.8697235271
 20
46.5520381076
 40
27.2686834283
100
AcDbArc
 50
338.8465371401
 51
339.8257766309
  0
ARC
  5
2B9
100
AcDbEntity
  8
0
100
AcDbCircle
 62
7
  6
BYLAYER
 10
16.4423873366
 20
39.8703988079
 40
27.1175156553
100
AcDbArc
 50
0.5739519435
 51
1.0990957563
  0
ARC
  5
2BA
100
AcDbEntity
  8
0
100
AcDbCircle
 62
7
  6
BYLAYER
 10
19.16486753
 20
48.2988441217
 40
25.4475230482
100
AcDbArc
 50
332.8134605048
 51
333.025237721
  0
ARC
  5
2BB
100
AcDbEntity
  8
0
100
AcDbCircle
 62
7
  6
BYLAYER
 10
16.5852935748
 20
46.6874441404
 40
23.3594812075
100
AcDbArc
 50
2.135213292
 51
2.5875757214
  0
ARC
  5
2BC
100
AcDbEntity
  8
0
100
AcDbCircle
 62
7
  6
BYLAYER
 10
20.0558248329
 20
45.6116944975
 40
22.2108501693
100
AcDbArc
 50
356.8333239144
 51
357.5388652027
  0
ARC
  5
2BD
100
AcDbEntity
  8
0
100
AcDbCircle
 62
7
  6
BYLAYER
 10
20.7638072872
 20
45.6153867912
 40
22.1414767294
100
AcDbArc
 50
353.6795938134
 51
354.4402341493
  0
ARC
  5
2BE
100
AcDbEntity
  8
0
100
AcDbCircle
 62
7
  6
BYLAYER
 10
19.5513037894
 20
45.7711370039
 40
22.0147578122
100
AcDbArc
 50
359.4019186245
 51
0.0478961583
  0
ARC
  5
2BF
100
AcDbEntity
  8
0
100
AcDbCircle
 62
7
  6
BYLAYER
 10
18.8685692387
 20
46.1278135188
 40
21.9252200656
100
AcDbArc
 50
1.2613911691
 51
1.8319264685
  0
ARC
  5
2C0
100
AcDbEntity
  8
0
100
AcDbCircle
 62
7
  6
BYLAYER
 10
21.7740848235
 20
45.7345936508
 40
21.7179369553
100
AcDbArc
 50
349.9897544872
 51
350.8062431186
  0
ARC
  5
2C1
100
AcDbEntity
  8
0
100
AcDbCircle
 62
7
  6
BYLAYER
 10
23.0636422767
 20
45.9227733826
 40
20.9718399979
100
AcDbArc
 50
345.7733469975
 51
346.6485911628
  0
ARC
  5
2C2
100
AcDbEntity
  8
0
100
AcDbCircle
 62
7
  6
BYLAYER
 10
24.5034387205
 20
46.162228219
 40
20.0421089033
100
AcDbArc
 50
341.0206315257
 51
341.7104172221
  0
ARC
  5
2C3
100
AcDbEntity
  8
0
100
AcDbCircle
 62
7
  6
BYLAYER
 10
28.0605168287
 20
52.2205854237
 40
20.0108549835
100
AcDbArc
 50
321.476322789
 51
322.8893090313
  0
ARC
  5
2C4
100
AcDbEntity
  8
0
100
AcDbCircle
 62
7
  6
BYLAYER
 10
24.7260931797
 20
46.0882097847
 40
19.8074739312
100
AcDbArc
 50
341.7115911314
 51
341.9596095328
  0
ARC
  5
2C5
100
AcDbEntity
  8
0
100
AcDbCircle
 62
7
  6
BYLAYER
 10
28.3990761858
 20
51.9527374363
 40
19.5791569279
100
AcDbArc
 50
320.8131108498
 51
321.4724701325
  0
ARC
  5
2C6
100
AcDbEntity
  8
0
100
AcDbCircle
 62
7
  6
BYLAYER
 10
28.9880016602
 20
45.3698773277
 40
19.2951973094
100
AcDbArc
 50
332.8389728178
 51
334.3203179595
  0
ARC
  5
2C7
100
AcDbEntity
  8
0
100
AcDbCircle
 62
7
  6
BYLAYER
 10
24.2410983182
 20
39.6196387563
 40
18.9552525106
100
AcDbArc
 50
11.7207090872
 51
12.7353328613
  0
ARC
  5
2C8
100
AcDbEntity
  8
0
100
AcDbCircle
 62
7
  6
BYLAYER
 10
26.1350529443
 20
46.3890283006
 40
18.886646283
100
AcDbArc
 50
335.7145491609
 51
336.7161001991
  0
ARC
  5
2C9
100
AcDbEntity
  8
0
100
AcDbCircle
 62
7
  6
BYLAYER
 10
24.4311511701
 20
42.3169083379
 40
18.8565101579
100
AcDbArc
 50
332.8219027622
 51
334.3377058623
  0
ARC
  5
2CA
100
AcDbEntity
  8
0
100
AcDbCircle
 62
7
  6
BYLAYER
 10
27.6602208914
 20
46.6889360708
 40
17.8307405577
100
AcDbArc
 50
329.8513019321
 51
330.9135800807
  0
ARC
  5
2CB
100
AcDbEntity
  8
0
100
AcDbCircle
 62
7
  6
BYLAYER
 10
29.0585400497
 20
47.0860911114
 40
16.9197561087
100
AcDbArc
 50
323.446980014
 51
324.5621591079
  0
ARC
  5
2CC
100
AcDbEntity
  8
0
100
AcDbCircle
 62
7
  6
BYLAYER
 10
30.2691060463
 20
47.655944365
 40
16.2647758835
100
AcDbArc
 50
316.5569826131
 51
317.7100876736
  0
ARC
  5
2CD
100
AcDbEntity
  8
0
100
AcDbCircle
 62
7
  6
BYLAYER
 10
28.0790932059
 20
40.8587467637
 40
14.6676614842
100
AcDbArc
 50
15.0117523356
 51
16.1314358473
  0
ARC
  5
2CE
100
AcDbEntity
  8
0
100
AcDbCircle
 62
7
  6
BYLAYER
 10
32.2353456822
 20
39.785975841
 40
11.03895744
100
AcDbArc
 50
43.799119358
 51
45.5908083922
  0
ARC
  5
2CF
100
AcDbEntity
  8
0
100
AcDbCircle
 62
7
  6
BYLAYER
 10
32.4168122364
 20
39.9027365933
 40
10.7250087007
100
AcDbArc
 50
43.8486404016
 51
45.5412873487
  0
ARC
  5
2D0
100
AcDbEntity
  8
0
100
AcDbCircle
 62
7
  6
BYLAYER
 10
31.9028535305
 20
42.637864808
 40
10.1641772409
100
AcDbArc
 50
18.063857579
 51
19.3665151308
  0
ARC
  5
2D1
100
AcDbEntity
  8
0
100
AcDbCircle
 62
7
  6
BYLAYER
 10
29.517441127
 20
44.2438376393
 40
8.6334722847
100
AcDbArc
 50
37.5063551195
 51
38.2547900702
  0
ARC
  5
2D2
100
AcDbEntity
  8
0
100
AcDbCircle
 62
7
  6
BYLAYER
 10
33.0979786667
 20
27.9005940287
 40
21.1801394525
100
AcDbArc
 50
72.2626490458
 51
73.1230781996
  0
ARC
  5
2D3
100
AcDbEntity
  8
0
100
AcDbCircle
 62
7
  6
BYLAYER
 10
34.008397387
 20
29.0432658462
 40
20.2511193093
100
AcDbArc
 50
76.8190406038
 51
77.7406072829
  0
ARC
  5
2D4
100
AcDbEntity
  8
0
100
AcDbCircle
 62
7
  6
BYLAYER
 10
34.9973854493
 20
30.267768242
 40
19.1824599362
100
AcDbArc
 50
81.9218654333
 51
82.9065176091
  0
ARC
  5
2D5
100
AcDbEntity
  8
0
100
AcDbCircle
 62
7
  6
BYLAYER
 10
36.0183718252
 20
31.4849625634
 40
18.0860444719
100
AcDbArc
 50
87.583687849
 51
88.6312728044
  0
ARC
  5
2D6
100
AcDbEntity
  8
0
100
AcDbCircle
 62
7
  6
BYLAYER
 10
37.0546165416
 20
32.5463808583
 40
17.127788106
100
AcDbArc
 50
93.8007922139
 51
94.9038586718
  0
ARC
  5
2D7
100
AcDbEntity
  8
0
100
AcDbCircle
 62
7
  6
BYLAYER
 10
38.1341055439
 20
33.3790909906
 40
16.3993125597
100
AcDbArc
 50
100.5347673645
 51
101.6802168219
  0
ARC
  5
2D8
100
AcDbEntity
  8
0
100
AcDbCircle
 62
7
  6
BYLAYER
 10
33.1312858121
 20
33.8115195103
 40
10.5812986269
100
AcDbArc
 50
20.9355128388
 51
21.7262457867
  0
ARC
  5
2D9
100
AcDbEntity
  8
0
100
AcDbCircle
 62
7
  6
BYLAYER
 10
38.9097579369
 20
36.6137520796
 40
3.0140767503
100
AcDbArc
 50
355.3244077216
 51
357.3009290576
  0
ARC
  5
2DA
100
AcDbEntity
  8
0
100
AcDbCircle
 62
7
  6
BYLAYER
 10
34.5826599662
 20
40.4139360014
 40
12.8736393495
100
AcDbArc
 50
62.5731884729
 51
64.8156531465
  0
ARC
  5
2DB
100
AcDbEntity
  8
0
100
AcDbCircle
 62
7
  6
BYLAYER
 10
33.0784167669
 20
39.3079492753
 40
10.5291937591
100
AcDbArc
 50
12.6807151143
 51
14.5342073218
  0
ARC
  5
2DC
100
AcDbEntity
  8
0
100
AcDbCircle
 62
7
  6
BYLAYER
 10
33.1175075751
 20
39.3674051434
 40
10.3729807667
100
AcDbArc
 50
12.7440353465
 51
14.4708870895
  0
ARC
  5
2DD
100
AcDbEntity
  8
0
100
AcDbCircle
 62
7
  6
BYLAYER
 10
37.077235375
 20
42.2620483286
 40
9.6827295737
100
AcDbArc
 50
38.2506621923
 51
39.2478571572
  0
ARC
  5
2DE
100
AcDbEntity
  8
0
100
AcDbCircle
 62
7
  6
BYLAYER
 10
37.1633925966
 20
42.3323166216
 40
9.5715509287
100
AcDbArc
 50
39.2484122193
 51
39.6146187178
  0
ARC
  5
2DF
100
AcDbEntity
  8
0
100
AcDbCircle
 62
7
  6
BYLAYER
 10
37.4477234858
 20
42.4843452197
 40
9.2979356508
100
AcDbArc
 50
38.5786498395
 51
39.6139588805
  0
ARC
  5
2E0
100
AcDbEntity
  8
0
100
AcDbCircle
 62
7
  6
BYLAYER
 10
35.627157816
 20
37.8678607917
 40
9.2531451649
100
AcDbArc
 50
39.8596111125
 51
41.1990377396
  0
ARC
  5
2E1
100
AcDbEntity
  8
0
100
AcDbCircle
 62
7
  6
BYLAYER
 10
33.4638551974
 20
41.1555358226
 40
9.1980657546
100
AcDbArc
 50
50.7900730527
 51
52.8125678705
  0
ARC
  5
2E2
100
AcDbEntity
  8
0
100
AcDbCircle
 62
7
  6
BYLAYER
 10
33.6191666229
 20
41.2575156424
 40
8.9125556965
100
AcDbArc
 50
50.843410693
 51
52.7592302302
  0
ARC
  5
2E3
100
AcDbEntity
  8
0
100
AcDbCircle
 62
7
  6
BYLAYER
 10
34.9622480703
 20
39.6331686616
 40
8.6162943778
100
AcDbArc
 50
5.2101431069
 51
7.3296819246
  0
ARC
  5
2E4
100
AcDbEntity
  8
0
100
AcDbCircle
 62
7
  6
BYLAYER
 10
34.949620708
 20
39.6940241366
 40
8.5108110658
100
AcDbArc
 50
5.2851470283
 51
7.2546780032
  0
ARC
  5
2E5
100
AcDbEntity
  8
0
100
AcDbCircle
 62
7
  6
BYLAYER
 10
34.5781187135
 20
42.7827480229
 40
7.2243771007
100
AcDbArc
 50
58.8131086128
 51
61.1880139135
  0
ARC
  5
2E6
100
AcDbEntity
  8
0
100
AcDbCircle
 62
7
  6
BYLAYER
 10
34.6984516789
 20
42.8545334616
 40
6.9835077397
100
AcDbArc
 50
58.8730645813
 51
61.1280579451
  0
ARC
  5
2E7
100
AcDbEntity
  8
0
100
AcDbCircle
 62
7
  6
BYLAYER
 10
36.9136970337
 20
39.7001878044
 40
6.6620255502
100
AcDbArc
 50
356.4630799932
 51
358.9801247459
  0
ARC
  5
2E8
100
AcDbEntity
  8
0
100
AcDbCircle
 62
7
  6
BYLAYER
 10
36.8620269113
 20
39.7719211002
 40
6.5951875377
100
AcDbArc
 50
356.5547647405
 51
358.8884399986
  0
ARC
  5
2E9
100
AcDbEntity
  8
0
100
AcDbCircle
 62
7
  6
BYLAYER
 10
37.5250493045
 20
40.2818746527
 40
6.034798503
100
AcDbArc
 50
356.7263315802
 51
358.5915626372
  0
ARC
  5
2EA
100
AcDbEntity
  8
0
100
AcDbCircle
 62
7
  6
BYLAYER
 10
35.2570903827
 20
44.7264227616
 40
5.9119112452
100
AcDbArc
 50
20.8303666644
 51
22.4795292297
  0
ARC
  5
2EB
100
AcDbEntity
  8
0
100
AcDbCircle
 62
7
  6
BYLAYER
 10
35.3606123974
 20
44.4158502399
 40
5.4114838983
100
AcDbArc
 50
68.367682945
 51
71.2463498774
  0
ARC
  5
2EC
100
AcDbEntity
  8
0
100
AcDbCircle
 62
7
  6
BYLAYER
 10
35.9851137347
 20
44.2047805729
 40
5.2705950372
100
AcDbArc
 50
66.8559175864
 51
67.1635698108
  0
ARC
  5
2ED
100
AcDbEntity
  8
0
100
AcDbCircle
 62
7
  6
BYLAYER
 10
35.446811695
 20
44.4461263905
 40
5.2227590723
100
AcDbArc
 50
68.4381890451
 51
71.1758437773
  0
ARC
  5
2EE
100
AcDbEntity
  8
0
100
AcDbCircle
 62
7
  6
BYLAYER
 10
39.076727886
 20
39.5877154343
 40
5.0935772304
100
AcDbArc
 50
36.7825744899
 51
38.5176925416
  0
ARC
  5
2EF
100
AcDbEntity
  8
0
100
AcDbCircle
 62
7
  6
BYLAYER
 10
38.6174383066
 20
39.4814576758
 40
4.9421729027
100
AcDbArc
 50
345.8856904513
 51
348.9579065762
  0
ARC
  5
2F0
100
AcDbEntity
  8
0
100
AcDbCircle
 62
7
  6
BYLAYER
 10
38.5442371766
 20
39.5690611604
 40
4.8987023082
100
AcDbArc
 50
345.9993829953
 51
348.8442140321
  0
ARC
  5
2F1
100
AcDbEntity
  8
0
100
AcDbCircle
 62
7
  6
BYLAYER
 10
35.7312608203
 20
45.801563186
 40
3.9746948923
100
AcDbArc
 50
80.0392777256
 51
83.5756135845
  0
ARC
  5
2F2
100
AcDbEntity
  8
0
100
AcDbCircle
 62
7
  6
BYLAYER
 10
35.7924781248
 20
45.7860274455
 40
3.8366487158
100
AcDbArc
 50
80.1261507211
 51
83.488740589
  0
ARC
  5
2F3
100
AcDbEntity
  8
0
100
AcDbCircle
 62
7
  6
BYLAYER
 10
35.7655601725
 20
46.7500752381
 40
3.023275915
100
AcDbArc
 50
94.2993478801
 51
98.5457286613
  0
ARC
  5
2F4
100
AcDbEntity
  8
0
100
AcDbCircle
 62
7
  6
BYLAYER
 10
35.8136982588
 20
46.7064354237
 40
2.9135798803
100
AcDbArc
 50
95.2171323445
 51
98.4383992082
  0
ARC
  5
2F5
100
AcDbEntity
  8
0
100
AcDbCircle
 62
7
  6
BYLAYER
 10
35.9933437525
 20
46.8143697168
 40
2.8224134603
100
AcDbArc
 50
98.19569362
 51
99.0458107989
  0
ARC
  5
2F6
100
AcDbEntity
  8
0
100
AcDbCircle
 62
7
  6
BYLAYER
 10
35.9837994234
 20
46.8723548688
 40
2.7636488911
100
AcDbArc
 50
99.0394054364
 51
101.2081943944
  0
ARC
  5
2F7
100
AcDbEntity
  8
0
100
AcDbCircle
 62
7
  6
BYLAYER
 10
35.6674060168
 20
47.1822704648
 40
2.5787643572
100
AcDbArc
 50
110.9766322278
 51
115.7035006716
  0
ARC
  5
2F8
100
AcDbEntity
  8
0
100
AcDbCircle
 62
7
  6
BYLAYER
 10
35.7197605321
 20
47.0935222727
 40
2.5140957891
100
AcDbArc
 50
111.1150429792
 51
115.5650899202
  0
ARC
  5
2F9
100
AcDbEntity
  8
0
100
AcDbCircle
 62
7
  6
BYLAYER
 10
35.9118569213
 20
47.1335227073
 40
2.4923628846
100
AcDbArc
 50
108.1424357698
 51
118.5376947508
  0
ARC
  5
2FA
100
AcDbEntity
  8
0
100
AcDbCircle
 62
7
  6
BYLAYER
 10
37.6678007445
 20
46.7839057031
 40
2.4484146638
100
AcDbArc
 50
23.0371797291
 51
25.499452994
  0
ARC
  5
2FB
100
AcDbEntity
  8
0
100
AcDbCircle
 62
7
  6
BYLAYER
 10
33.7655525382
 20
47.2913526464
 40
2.2452329655
100
AcDbArc
 50
64.8102774655
 51
67.2215370175
  0
ARC
  5
2FC
100
AcDbEntity
  8
0
100
AcDbCircle
 62
7
  6
BYLAYER
 10
45.8090623763
 20
29.169621095
 40
25.6021936325
100
AcDbArc
 50
132.6313788383
 51
133.4518215882
  0
ARC
  5
2FD
100
AcDbEntity
  8
0
100
AcDbCircle
 62
7
  6
BYLAYER
 10
39.4998575083
 20
45.0192779458
 40
5.996298523
100
AcDbArc
 50
57.5195869224
 51
58.3920849611
  0
ARC
  5
2FE
100
AcDbEntity
  8
0
100
AcDbCircle
 62
7
  6
BYLAYER
 10
40.9285809663
 20
42.8600697584
 40
5.8168727988
100
AcDbArc
 50
0.0088863413
 51
1.5267806054
  0
ARC
  5
2FF
100
AcDbEntity
  8
0
100
AcDbCircle
 62
7
  6
BYLAYER
 10
39.6157673807
 20
45.2092672411
 40
5.7737445639
100
AcDbArc
 50
58.3835616918
 51
59.9968758138
  0
ARC
  5
300
100
AcDbEntity
  8
0
100
AcDbCircle
 62
7
  6
BYLAYER
 10
39.8590088338
 20
45.6410781786
 40
5.2781675232
100
AcDbArc
 50
59.9395686677
 51
63.9948180284
  0
ARC
  5
301
100
AcDbEntity
  8
0
100
AcDbCircle
 62
7
  6
BYLAYER
 10
39.8478431577
 20
39.0678981363
 40
3.6417219507
100
AcDbArc
 50
332.9081569458
 51
336.6735325743
  0
ARC
  5
302
100
AcDbEntity
  8
0
100
AcDbCircle
 62
7
  6
BYLAYER
 10
39.7704088705
 20
39.1696518076
 40
3.6067469913
100
AcDbArc
 50
333.0460930711
 51
336.535596449
  0
ARC
  5
303
100
AcDbEntity
  8
0
100
AcDbCircle
 62
7
  6
BYLAYER
 10
41.3840351517
 20
38.7822367354
 40
3.4354794493
100
AcDbArc
 50
274.2652733462
 51
275.103844462
  0
ARC
  5
304
100
AcDbEntity
  8
0
100
AcDbCircle
 62
7
  6
BYLAYER
 10
40.5246048178
 20
38.6422263213
 40
2.8401050267
100
AcDbArc
 50
317.3063928641
 51
321.7474679943
  0
ARC
  5
305
100
AcDbEntity
  8
0
100
AcDbCircle
 62
7
  6
BYLAYER
 10
40.4552343154
 20
38.7494429109
 40
2.801160536
100
AcDbArc
 50
317.4605265973
 51
321.5933342612
  0
ARC
  5
306
100
AcDbEntity
  8
0
100
AcDbCircle
 62
7
  6
BYLAYER
 10
41.229106242
 20
38.7471784007
 40
2.7600149495
100
AcDbArc
 50
281.4458967162
 51
289.7008823387
  0
ARC
  5
307
100
AcDbEntity
  8
0
100
AcDbCircle
 62
7
  6
BYLAYER
 10
41.2796016012
 20
38.6104651877
 40
2.6142821212
100
AcDbArc
 50
289.6690536646
 51
307.5076045125
  0
ARC
  5
308
100
AcDbEntity
  8
0
100
AcDbCircle
 62
7
  6
BYLAYER
 10
40.7268590139
 20
38.4251193378
 40
2.5425922018
100
AcDbArc
 50
299.8393560807
 51
304.6143613956
  0
ARC
  5
309
100
AcDbEntity
  8
0
100
AcDbCircle
 62
7
  6
BYLAYER
 10
40.6696763996
 20
38.5239570419
 40
2.4891231243
100
AcDbArc
 50
299.9884766256
 51
304.4652408507
  0
ARC
  5
30A
100
AcDbEntity
  8
0
100
AcDbCircle
 62
7
  6
BYLAYER
 10
40.8029040037
 20
38.666380452
 40
2.4627426645
100
AcDbArc
 50
296.9875967337
 51
307.4661183464
  0
ARC
  5
30B
100
AcDbEntity
  8
0
100
AcDbCircle
 62
7
  6
BYLAYER
 10
44.329979838
 20
48.4283739998
 40
18.7504612697
100
AcDbArc
 50
236.0826571425
 51
238.0061015799
  0
ARC
  5
30C
100
AcDbEntity
  8
0
100
AcDbCircle
 62
7
  6
BYLAYER
 10
39.8163754756
 20
65.162801773
 40
17.7042127932
100
AcDbArc
 50
250.3650308627
 51
252.169956864
  0
ARC
  5
30D
100
AcDbEntity
  8
0
100
AcDbCircle
 62
7
  6
BYLAYER
 10
44.6688525945
 20
67.7339136996
 40
17.4016020048
100
AcDbArc
 50
250.3495283534
 51
252.1858482682
  0
ARC
  5
30E
100
AcDbEntity
  8
0
100
AcDbCircle
 62
7
  6
BYLAYER
 10
40.2734256181
 20
51.2122811155
 40
15.915040761
100
AcDbArc
 50
274.8918140786
 51
275.1053414913
  0
ARC
  5
30F
100
AcDbEntity
  8
0
100
AcDbCircle
 62
7
  6
BYLAYER
 10
50.2749005253
 20
32.5455354939
 40
24.8932099355
100
AcDbArc
 50
132.6197863986
 51
133.4635903891
  0
ARC
  5
310
100
AcDbEntity
  8
0
100
AcDbCircle
 62
7
  6
BYLAYER
 10
59.7947816244
 20
45.305180897
 40
20.1604139553
100
AcDbArc
 50
191.4908202827
 51
193.4085190136
  0
ARC
  5
311
100
AcDbEntity
  8
0
100
AcDbCircle
 62
7
  6
BYLAYER
 10
56.4993569441
 20
31.9561700991
 40
12.1640929492
100
AcDbArc
 50
159.1259894972
 51
161.1423123091
  0
ARC
  5
312
100
AcDbEntity
  8
0
100
AcDbCircle
 62
7
  6
BYLAYER
 10
51.3486446338
 20
29.1710295264
 40
11.950442889
100
AcDbArc
 50
159.1077331012
 51
161.1601177367
  0
ARC
  5
313
100
AcDbEntity
  8
0
100
AcDbCircle
 62
7
  6
BYLAYER
 10
51.5585256419
 20
54.5484418738
 40
27.9821872567
100
AcDbArc
 50
229.7945681845
 51
230.7850119997
  0
ARC
  5
314
100
AcDbEntity
  8
0
100
AcDbCircle
 62
7
  6
BYLAYER
 10
64.9142202119
 20
48.2002815069
 40
20.3341738886
100
AcDbArc
 50
191.4988057326
 51
193.4001174266
  0
SPLINE
  5
315
100
AcDbEntity
  8
0
100
AcDbSpline
 62
7
  6
BYLAYER
 70
0
 71
3
 72
13
 73
9
 74
0
 42
0.0000001
 43
0.0000001
 44
0.0000000001
 40
0.0
 40
0.0
 40
0.0
 40
0.0
 40
0.1080962395
 40
0.2182384117
 40
0.3322530688
 40
0.4516807472
 40
0.7106591577
 40
1.0
 40
1.0
 40
1.0
 40
1.0
 10
9.7467406781
 20
24.1929935185
 30
0.0
 10
9.7369024109
 20
24.1873157534
 30
0.0
 10
9.7179886037
 20
24.1741156294
 30
0.0
 10
9.6930057513
 20
24.1495150918
 30
0.0
 10
9.671502144
 20
24.1203344401
 30
0.0
 10
9.6471330873
 20
24.074506971
 30
0.0
 10
9.6270587082
 20
24.0065213806
 30
0.0
 10
9.6224716999
 20
23.9487298612
 30
0.0
 10
9.6224716999
 20
23.9183250711
 30
0.0
  0
SPLINE
  5
316
100
AcDbEntity
  8
0
100
AcDbSpline
 62
7
  6
BYLAYER
 70
0
 71
3
 72
9
 73
5
 74
0
 42
0.0000001
 43
0.0000001
 44
0.0000000001
 40
0.0
 40
0.0
 40
0.0
 40
0.0
 40
0.5180960765
 40
1.0
 40
1.0
 40
1.0
 40
1.0
 10
9.6224716999
 20
23.46402521
 30
0.0
 10
9.758364149
 20
23.3626419662
 30
0.0
 10
10.0312609333
 20
23.1806211697
 30
0.0
 10
10.3250198199
 20
23.0337880148
 30
0.0
 10
10.47100337
 20
22.9741363046
 30
0.0
  0
SPLINE
  5
317
100
AcDbEntity
  8
0
100
AcDbSpline
 62
7
  6
BYLAYER
 70
0
 71
3
 72
22
 73
18
 74
0
 42
0.0000001
 43
0.0000001
 44
0.0000000001
 40
0.0
 40
0.0
 40
0.0
 40
0.0
 40
0.0623723762
 40
0.1287691697
 40
0.1983773216
 40
0.2703689161
 40
0.4173897834
 40
0.4904342226
 40
0.5617427099
 40
0.6303587685
 40
0.6954667374
 40
0.7564318543
 40
0.8128854303
 40
0.8648032571
 40
0.9125911014
 40
0.9571796485
 40
1.0
 40
1.0
 40
1.0
 40
1.0
 10
10.5063476692
 20
26.4290498048
 30
0.0
 10
10.5063476692
 20
26.4497831137
 30
0.0
 10
10.5035265513
 20
26.4926153261
 30
0.0
 10
10.4919798554
 20
26.5576492831
 30
0.0
 10
10.4731721725
 20
26.6242995319
 30
0.0
 10
10.4387587073
 20
26.7139579032
 30
0.0
 10
10.3922855509
 20
26.7998414095
 30
0.0
 10
10.3357475478
 20
26.8785911394
 30
0.0
 10
10.2895019561
 20
26.9323279192
 30
0.0
 10
10.2403308269
 20
26.979675858
 30
0.0
 10
10.1892769527
 20
27.019652965
 30
0.0
 10
10.1373876115
 20
27.0513939856
 30
0.0
 10
10.0857252075
 20
27.0742251437
 30
0.0
 10
10.03531671
 20
27.0876251294
 30
0.0
 10
9.9871497441
 20
27.0911605979
 30
0.0
 10
9.9422934647
 20
27.0845970624
 30
0.0
 10
9.9151231554
 20
27.0732966509
 30
0.0
 10
9.902794888
 20
27.0661818634
 30
0.0
  0
SPLINE
  5
318
100
AcDbEntity
  8
0
100
AcDbSpline
 62
7
  6
BYLAYER
 70
0
 71
3
 72
9
 73
5
 74
0
 42
0.0000001
 43
0.0000001
 44
0.0000000001
 40
0.0
 40
0.0
 40
0.0
 40
0.0
 40
0.5285411611
 40
1.0
 40
1.0
 40
1.0
 40
1.0
 10
12.5853799765
 20
25.6340664158
 30
0.0
 10
12.5631076077
 20
25.6438254713
 30
0.0
 10
12.5190934884
 20
25.6584921808
 30
0.0
 10
12.4725038048
 20
25.6618735991
 30
0.0
 10
12.4508994134
 20
25.6599436476
 30
0.0
  0
SPLINE
  5
319
100
AcDbEntity
  8
0
100
AcDbSpline
 62
7
  6
BYLAYER
 70
0
 71
3
 72
22
 73
18
 74
0
 42
0.0000001
 43
0.0000001
 44
0.0000000001
 40
0.0
 40
0.0
 40
0.0
 40
0.0
 40
0.0623733404
 40
0.1287715891
 40
0.1983811323
 40
0.2703737487
 40
0.4173924854
 40
0.490435588
 40
0.5617443409
 40
0.630360647
 40
0.6954682792
 40
0.7564328602
 40
0.812885679
 40
0.86480325
 40
0.912591202
 40
0.9571796562
 40
1.0
 40
1.0
 40
1.0
 40
1.0
 10
10.47100337
 20
23.4284361657
 30
0.0
 10
10.47100337
 20
23.4533164606
 30
0.0
 10
10.4676177739
 20
23.5047159482
 30
0.0
 10
10.4537613253
 20
23.5827579722
 30
0.0
 10
10.4311912414
 20
23.662739442
 30
0.0
 10
10.3898941766
 20
23.7703289354
 30
0.0
 10
10.3341271018
 20
23.8733881061
 30
0.0
 10
10.2662813746
 20
23.9678857717
 30
0.0
 10
10.2107871617
 20
24.0323696011
 30
0.0
 10
10.151781655
 20
24.089186836
 30
0.0
 10
10.0905170167
 20
24.1371586012
 30
0.0
 10
10.0282507381
 20
24.1752478109
 30
0.0
 10
9.9662562509
 20
24.2026441331
 30
0.0
 10
9.9057667624
 20
24.2187245844
 30
0.0
 10
9.8479665291
 20
24.2229670859
 30
0.0
 10
9.794139344
 20
24.2150904454
 30
0.0
 10
9.7615345696
 20
24.2015312254
 30
0.0
 10
9.7467406781
 20
24.1929935185
 30
0.0
  0
SPLINE
  5
31A
100
AcDbEntity
  8
0
100
AcDbSpline
 62
7
  6
BYLAYER
 70
0
 71
3
 72
13
 73
9
 74
0
 42
0.0000001
 43
0.0000001
 44
0.0000000001
 40
0.0
 40
0.0
 40
0.0
 40
0.0
 40
0.1080922486
 40
0.2182177871
 40
0.3322508422
 40
0.45169089
 40
0.7106042323
 40
1.0
 40
1.0
 40
1.0
 40
1.0
 10
10.4027920914
 20
26.2001561342
 30
0.0
 10
10.4109894586
 20
26.2048891409
 30
0.0
 10
10.4267503646
 20
26.215886203
 30
0.0
 10
10.4475736512
 20
26.2363837563
 30
0.0
 10
10.4654823449
 20
26.2607107666
 30
0.0
 10
10.4857993795
 20
26.2988913233
 30
0.0
 10
10.5025289488
 20
26.3555484121
 30
0.0
 10
10.5063476692
 20
26.4037074352
 30
0.0
 10
10.5063476692
 20
26.4290498048
 30
0.0
  0
SPLINE
  5
31B
100
AcDbEntity
  8
0
100
AcDbSpline
 62
7
  6
BYLAYER
 70
0
 71
3
 72
12
 73
8
 74
0
 42
0.0000001
 43
0.0000001
 44
0.0000000001
 40
0.0
 40
0.0
 40
0.0
 40
0.0
 40
0.1107321365
 40
0.2231111773
 40
0.4582798086
 40
0.7155187351
 40
1.0
 40
1.0
 40
1.0
 40
1.0
 10
10.4027920914
 20
29.0579145942
 30
0.0
 10
10.4100739749
 20
29.0621190176
 30
0.0
 10
10.4241239442
 20
29.0717246649
 30
0.0
 10
10.4496857972
 20
29.095498817
 30
0.0
 10
10.4760711133
 20
29.1338389222
 30
0.0
 10
10.4968200681
 20
29.1895418342
 30
0.0
 10
10.5032853272
 20
29.230432204
 30
0.0
 10
10.5049954439
 20
29.2519666546
 30
0.0
  0
SPLINE
  5
31C
100
AcDbEntity
  8
0
100
AcDbSpline
 62
7
  6
BYLAYER
 70
0
 71
3
 72
9
 73
5
 74
0
 42
0.0000001
 43
0.0000001
 44
0.0000000001
 40
0.0
 40
0.0
 40
0.0
 40
0.0
 40
0.2447515384
 40
1.0
 40
1.0
 40
1.0
 40
1.0
 10
42.5191622954
 20
36.855583809
 30
0.0
 10
42.5211158093
 20
36.860783962
 30
0.0
 10
42.528877792
 20
36.88211275
 30
0.0
 10
42.5357695243
 20
36.9037560914
 30
0.0
 10
42.5405221144
 20
36.9202254988
 30
0.0
  0
SPLINE
  5
31D
100
AcDbEntity
  8
0
100
AcDbSpline
 62
7
  6
BYLAYER
 70
0
 71
3
 72
9
 73
5
 74
0
 42
0.0000001
 43
0.0000001
 44
0.0000000001
 40
0.0
 40
0.0
 40
0.0
 40
0.0
 40
0.2324488534
 40
1.0
 40
1.0
 40
1.0
 40
1.0
 10
38.992737474
 20
48.5343290007
 30
0.0
 10
38.9941355096
 20
48.5317563815
 30
0.0
 10
38.9999654591
 20
48.5205887274
 30
0.0
 10
39.0051440911
 20
48.5090893595
 30
0.0
 10
39.0088683317
 20
48.5001673058
 30
0.0
  0
SPLINE
  5
31E
100
AcDbEntity
  8
0
100
AcDbSpline
 62
7
  6
BYLAYER
 70
0
 71
3
 72
9
 73
5
 74
0
 42
0.0000001
 43
0.0000001
 44
0.0000000001
 40
0.0
 40
0.0
 40
0.0
 40
0.0
 40
0.2570997113
 40
1.0
 40
1.0
 40
1.0
 40
1.0
 10
43.3831639812
 20
41.5617864252
 30
0.0
 10
43.3876791088
 20
41.5556889143
 30
0.0
 10
43.4051142647
 20
41.5318792237
 30
0.0
 10
43.42201182
 20
41.5076732998
 30
0.0
 10
43.434182207
 20
41.489437997
 30
0.0
  0
SPLINE
  5
31F
100
AcDbEntity
  8
0
100
AcDbSpline
 62
7
  6
BYLAYER
 70
0
 71
3
 72
9
 73
5
 74
0
 42
0.0000001
 43
0.0000001
 44
0.0000000001
 40
0.0
 40
0.0
 40
0.0
 40
0.0
 40
0.2831692189
 40
1.0
 40
1.0
 40
1.0
 40
1.0
 10
43.5425638187
 20
40.407238805
 30
0.0
 10
43.5438362463
 20
40.4057474643
 30
0.0
 10
43.5482530742
 20
40.400420136
 30
0.0
 10
43.5523798908
 20
40.3948226412
 30
0.0
 10
43.5549157694
 20
40.3905567993
 30
0.0
  0
SPLINE
  5
320
100
AcDbEntity
  8
0
100
AcDbSpline
 62
7
  6
BYLAYER
 70
0
 71
3
 72
9
 73
5
 74
0
 42
0.0000001
 43
0.0000001
 44
0.0000000001
 40
0.0
 40
0.0
 40
0.0
 40
0.0
 40
0.252469512
 40
1.0
 40
1.0
 40
1.0
 40
1.0
 10
33.151024331
 20
50.6133177327
 30
0.0
 10
33.1265450322
 20
50.4964475613
 30
0.0
 10
33.0321740307
 20
50.0330071756
 30
0.0
 10
32.9489275861
 20
49.5672535684
 30
0.0
 10
32.8947485693
 20
49.2178823882
 30
0.0
  0
SPLINE
  5
321
100
AcDbEntity
  8
0
100
AcDbSpline
 62
7
  6
BYLAYER
 70
0
 71
3
 72
9
 73
5
 74
0
 42
0.0000001
 43
0.0000001
 44
0.0000000001
 40
0.0
 40
0.0
 40
0.0
 40
0.0
 40
0.2453733151
 40
1.0
 40
1.0
 40
1.0
 40
1.0
 10
35.3861420708
 20
49.5884734886
 30
0.0
 10
35.3911041968
 20
49.5882943743
 30
0.0
 10
35.41131722
 20
49.5873087998
 30
0.0
 10
35.4314785631
 20
49.5853130308
 30
0.0
 10
35.44661504
 20
49.5832937476
 30
0.0
  0
SPLINE
  5
322
100
AcDbEntity
  8
0
100
AcDbSpline
 62
7
  6
BYLAYER
 70
0
 71
3
 72
11
 73
7
 74
0
 42
0.0000001
 43
0.0000001
 44
0.0000000001
 40
0.0
 40
0.0
 40
0.0
 40
0.0
 40
0.2389819974
 40
0.4861213094
 40
0.7402427411
 40
1.0
 40
1.0
 40
1.0
 40
1.0
 10
46.8161871175
 20
40.8605384792
 30
0.0
 10
46.8161871175
 20
40.5512122873
 30
0.0
 10
46.7950627168
 20
39.9218608711
 30
0.0
 10
46.7064239829
 20
38.9673870817
 30
0.0
 10
46.5661264536
 20
37.9920621797
 30
0.0
 10
46.4443627759
 20
37.3379897388
 30
0.0
 10
46.3774237627
 20
37.0085040847
 30
0.0
  0
SPLINE
  5
323
100
AcDbEntity
  8
0
100
AcDbSpline
 62
7
  6
BYLAYER
 70
0
 71
3
 72
11
 73
7
 74
0
 42
0.0000001
 43
0.0000001
 44
0.0000000001
 40
0.0
 40
0.0
 40
0.0
 40
0.0
 40
0.271761966
 40
0.530868792
 40
0.7744602652
 40
1.0
 40
1.0
 40
1.0
 40
1.0
 10
34.6627465178
 20
51.5816320934
 30
0.0
 10
34.9448283763
 20
51.6391560532
 30
0.0
 10
35.4967582341
 20
51.7471911283
 30
0.0
 10
36.3050917398
 20
51.8879218422
 30
0.0
 10
37.068511625
 20
51.9996766409
 30
0.0
 10
37.5625619411
 20
52.0547997263
 30
0.0
 10
37.8005368338
 20
52.076058334
 30
0.0
  0
SPLINE
  5
324
100
AcDbEntity
  8
0
100
AcDbSpline
 62
7
  6
BYLAYER
 70
0
 71
3
 72
11
 73
7
 74
0
 42
0.0000001
 43
0.0000001
 44
0.0000000001
 40
0.0
 40
0.0
 40
0.0
 40
0.0
 40
0.2248506524
 40
0.4683864819
 40
0.7278086714
 40
1.0
 40
1.0
 40
1.0
 40
1.0
 10
41.6896598014
 20
35.3603789217
 30
0.0
 10
41.9391561369
 20
35.3826667335
 30
0.0
 10
42.4578407146
 20
35.4410870724
 30
0.0
 10
43.2599409695
 20
35.5603426325
 30
0.0
 10
44.1103441508
 20
35.7108714537
 30
0.0
 10
44.6912428775
 20
35.826367216
 30
0.0
 10
44.9881771103
 20
35.8878301666
 30
0.0
  0
SPLINE
  5
325
100
AcDbEntity
  8
0
100
AcDbSpline
 62
7
  6
BYLAYER
 70
0
 71
3
 72
11
 73
7
 74
0
 42
0.0000001
 43
0.0000001
 44
0.0000000001
 40
0.0
 40
0.0
 40
0.0
 40
0.0
 40
0.2517029633
 40
0.5026365719
 40
0.7522746714
 40
1.0
 40
1.0
 40
1.0
 40
1.0
 10
40.5124530341
 20
51.8405769815
 30
0.0
 10
40.8149641952
 20
51.5970922352
 30
0.0
 10
41.4098954308
 20
51.0992849387
 30
0.0
 10
42.2647580812
 20
50.3135534034
 30
0.0
 10
43.0708262893
 20
49.4861923504
 30
0.0
 10
43.5715185869
 20
48.9038914965
 30
0.0
 10
43.8109703439
 20
48.6060118969
 30
0.0
  0
SPLINE
  5
326
100
AcDbEntity
  8
0
100
AcDbSpline
 62
7
  6
BYLAYER
 70
0
 71
3
 72
11
 73
7
 74
0
 42
0.0000001
 43
0.0000001
 44
0.0000000001
 40
0.0
 40
0.0
 40
0.0
 40
0.0
 40
0.2890301303
 40
0.5505043565
 40
0.7863877938
 40
1.0
 40
1.0
 40
1.0
 40
1.0
 10
37.8005368338
 20
52.076058334
 30
0.0
 10
38.0178344308
 20
52.0954699056
 30
0.0
 10
38.4325413505
 20
52.124121762
 30
0.0
 10
39.026274864
 20
52.1356605993
 30
0.0
 10
39.5628566465
 20
52.1163084521
 30
0.0
 10
39.9008463723
 20
52.0841208603
 30
0.0
 10
40.0608035347
 20
52.0638483424
 30
0.0
  0
SPLINE
  5
327
100
AcDbEntity
  8
0
100
AcDbSpline
 62
7
  6
BYLAYER
 70
0
 71
3
 72
11
 73
7
 74
0
 42
0.0000001
 43
0.0000001
 44
0.0000000001
 40
0.0
 40
0.0
 40
0.0
 40
0.0
 40
0.236933419
 40
0.4817761881
 40
0.7358522891
 40
1.0
 40
1.0
 40
1.0
 40
1.0
 10
46.3774237631
 20
44.2059356162
 30
0.0
 10
46.4459729012
 20
43.947678295
 30
0.0
 10
46.5706714041
 20
43.4184881236
 30
0.0
 10
46.710215638
 20
42.5998631695
 30
0.0
 10
46.7972569035
 20
41.7430724266
 30
0.0
 10
46.8161871175
 20
41.1584291814
 30
0.0
 10
46.8161871175
 20
40.8605384792
 30
0.0
  0
SPLINE
  5
328
100
AcDbEntity
  8
0
100
AcDbSpline
 62
7
  6
BYLAYER
 70
0
 71
3
 72
11
 73
7
 74
0
 42
0.0000001
 43
0.0000001
 44
0.0000000001
 40
0.0
 40
0.0
 40
0.0
 40
0.0
 40
0.2543804591
 40
0.5058292794
 40
0.7542979003
 40
1.0
 40
1.0
 40
1.0
 40
1.0
 10
43.8109703439
 20
48.6060118969
 30
0.0
 10
44.0480242617
 20
48.3111156321
 30
0.0
 10
44.5003132626
 20
47.7090738584
 30
0.0
 10
45.1150827469
 20
46.7697247281
 30
0.0
 10
45.666246421
 20
45.8066940487
 30
0.0
 10
45.9978542635
 20
45.1503657172
 30
0.0
 10
46.1554605346
 20
44.8206425568
 30
0.0
  0
SPLINE
  5
329
100
AcDbEntity
  8
0
100
AcDbSpline
 62
7
  6
BYLAYER
 70
0
 71
3
 72
9
 73
5
 74
0
 42
0.0000001
 43
0.0000001
 44
0.0000000001
 40
0.0
 40
0.0
 40
0.0
 40
0.0
 40
0.5038384724
 40
1.0
 40
1.0
 40
1.0
 40
1.0
 10
34.1132285544
 20
49.3158455516
 30
0.0
 10
34.1774428237
 20
49.388371719
 30
0.0
 10
34.3122483465
 20
49.5259943307
 30
0.0
 10
34.4608628029
 20
49.6486283958
 30
0.0
 10
34.5376373609
 20
49.705244748
 30
0.0
  0
SPLINE
  5
32A
100
AcDbEntity
  8
0
100
AcDbSpline
 62
7
  6
BYLAYER
 70
0
 71
3
 72
32
 73
28
 74
0
 42
0.0000001
 43
0.0000001
 44
0.0000000001
 40
0.0
 40
0.0
 40
0.0
 40
0.0
 40
0.0214730033
 40
0.0430007103
 40
0.0648229872
 40
0.0871633082
 40
0.1102193177
 40
0.1341550937
 40
0.1590988484
 40
0.1851423042
 40
0.2123424957
 40
0.2407252585
 40
0.270287376
 40
0.3010016663
 40
0.3656417883
 40
0.4340698428
 40
0.5054549309
 40
0.5788121611
 40
0.6530613248
 40
0.7270809712
 40
0.7997595196
 40
0.8352752244
 40
0.8700709635
 40
0.9040328434
 40
0.9370660755
 40
0.9690862272
 40
1.0
 40
1.0
 40
1.0
 40
1.0
 10
34.5604685062
 20
49.7218926229
 30
0.0
 10
34.6524283354
 20
49.7881929656
 30
0.0
 10
34.8454536819
 20
49.9091461218
 30
0.0
 10
35.1575872638
 20
50.0517445742
 30
0.0
 10
35.4898730746
 20
50.1543270815
 30
0.0
 10
35.8401690648
 20
50.2163639178
 30
0.0
 10
36.2063835383
 20
50.2375930221
 30
0.0
 10
36.5863675121
 20
50.2180412769
 30
0.0
 10
36.9779593102
 20
50.1579401869
 30
0.0
 10
37.3789594544
 20
50.0577161817
 30
0.0
 10
37.7871456632
 20
49.9180290828
 30
0.0
 10
38.20023266
 20
49.7396813079
 30
0.0
 10
38.6159557637
 20
49.5237459771
 30
0.0
 10
39.1801694948
 20
49.1814915344
 30
0.0
 10
39.8761958418
 20
48.664826996
 30
0.0
 10
40.6702629877
 20
47.9310317266
 30
0.0
 10
41.4197926987
 20
47.0892427627
 30
0.0
 10
42.1080065974
 20
46.1583231292
 30
0.0
 10
42.7195730784
 20
45.1590378506
 30
0.0
 10
43.2407519874
 20
44.1138328706
 30
0.0
 10
43.5928347954
 20
43.2169952613
 30
0.0
 10
43.8185287041
 20
42.4963406369
 30
0.0
 10
43.9574208373
 20
41.9633890062
 30
0.0
 10
44.0664067693
 20
41.436900039
 30
0.0
 10
44.1448979957
 20
40.9197950659
 30
0.0
 10
44.192370561
 20
40.4150861033
 30
0.0
 10
44.2034343468
 20
40.082744715
 30
0.0
 10
44.2034343469
 20
39.919533342
 30
0.0
  0
SPLINE
  5
32B
100
AcDbEntity
  8
0
100
AcDbSpline
 62
7
  6
BYLAYER
 70
0
 71
3
 72
9
 73
5
 74
0
 42
0.0000001
 43
0.0000001
 44
0.0000000001
 40
0.0
 40
0.0
 40
0.0
 40
0.0
 40
0.2579321655
 40
1.0
 40
1.0
 40
1.0
 40
1.0
 10
38.0306403826
 20
49.062248306
 30
0.0
 10
37.9726415469
 20
49.0866718939
 30
0.0
 10
37.7461113336
 20
49.1772995412
 30
0.0
 10
37.5127321406
 20
49.2511883279
 30
0.0
 10
37.3368908294
 20
49.2943173871
 30
0.0
  0
SPLINE
  5
32C
100
AcDbEntity
  8
0
100
AcDbSpline
 62
7
  6
BYLAYER
 70
0
 71
3
 72
13
 73
9
 74
0
 42
0.0000001
 43
0.0000001
 44
0.0000000001
 40
0.0
 40
0.0
 40
0.0
 40
0.0
 40
0.2711320066
 40
0.5252270574
 40
0.6471824414
 40
0.7664744442
 40
0.88382094
 40
1.0
 40
1.0
 40
1.0
 40
1.0
 10
37.3368908294
 20
49.2943173871
 30
0.0
 10
37.1557691557
 20
49.3387415746
 30
0.0
 10
36.7983545889
 20
49.4010173589
 30
0.0
 10
36.3508288327
 20
49.4055240683
 30
0.0
 10
36.0125058614
 20
49.361598589
 30
0.0
 10
35.7716959818
 20
49.30638434
 30
0.0
 10
35.5413769869
 20
49.2286940258
 30
0.0
 10
35.3949481173
 20
49.1618495871
 30
0.0
 10
35.3240833445
 20
49.1249193171
 30
0.0
  0
SPLINE
  5
32D
100
AcDbEntity
  8
0
100
AcDbSpline
 62
7
  6
BYLAYER
 70
0
 71
3
 72
14
 73
10
 74
0
 42
0.0000001
 43
0.0000001
 44
0.0000000001
 40
0.0
 40
0.0
 40
0.0
 40
0.0
 40
0.1189872284
 40
0.2376655513
 40
0.357139052
 40
0.4784739887
 40
0.6026564051
 40
0.730555867
 40
1.0
 40
1.0
 40
1.0
 40
1.0
 10
41.8174765025
 20
36.9835108056
 30
0.0
 10
41.902202342
 20
37.0166467653
 30
0.0
 10
42.0677441302
 20
37.0927835131
 30
0.0
 10
42.3010924192
 20
37.2357730211
 30
0.0
 10
42.5173386454
 20
37.4064631926
 30
0.0
 10
42.7154187584
 20
37.6038746905
 30
0.0
 10
42.894382035
 20
37.8270796153
 30
0.0
 10
43.1100948001
 20
38.1630964951
 30
0.0
 10
43.2349375885
 20
38.4425785308
 30
0.0
 10
43.3033716611
 20
38.6368910721
 30
0.0
  0
SPLINE
  5
32E
100
AcDbEntity
  8
0
100
AcDbSpline
 62
7
  6
BYLAYER
 70
0
 71
3
 72
9
 73
5
 74
0
 42
0.0000001
 43
0.0000001
 44
0.0000000001
 40
0.0
 40
0.0
 40
0.0
 40
0.0
 40
0.2421692699
 40
1.0
 40
1.0
 40
1.0
 40
1.0
 10
43.3033716611
 20
38.6368910721
 30
0.0
 10
43.3228231612
 20
38.6921218992
 30
0.0
 10
43.3978439144
 20
38.922042805
 30
0.0
 10
43.4521110365
 20
39.1585592533
 30
0.0
 10
43.483015081
 20
39.3391762575
 30
0.0
  0
SPLINE
  5
32F
100
AcDbEntity
  8
0
100
AcDbSpline
 62
7
  6
BYLAYER
 70
0
 71
3
 72
9
 73
5
 74
0
 42
0.0000001
 43
0.0000001
 44
0.0000000001
 40
0.0
 40
0.0
 40
0.0
 40
0.0
 40
0.5048007281
 40
1.0
 40
1.0
 40
1.0
 40
1.0
 10
42.8438307672
 20
37.2756930704
 30
0.0
 10
42.797889824
 20
37.2117951719
 30
0.0
 10
42.7017475759
 20
37.0888156497
 30
0.0
 10
42.5955075832
 20
36.974417189
 30
0.0
 10
42.540521815
 20
36.9202257428
 30
0.0
  0
SPLINE
  5
330
100
AcDbEntity
  8
0
100
AcDbSpline
 62
7
  6
BYLAYER
 70
0
 71
3
 72
19
 73
15
 74
0
 42
0.0000001
 43
0.0000001
 44
0.0000000001
 40
0.0
 40
0.0
 40
0.0
 40
0.0
 40
0.1490976733
 40
0.2931847091
 40
0.4308869016
 40
0.4970074532
 40
0.5611450693
 40
0.6232178726
 40
0.6831753197
 40
0.7409958453
 40
0.7966954486
 40
0.8503287907
 40
0.902005759
 40
1.0
 40
1.0
 40
1.0
 40
1.0
 10
41.6896592638
 20
47.3812798385
 30
0.0
 10
41.4655983709
 20
47.6600131463
 30
0.0
 10
41.0034297903
 20
48.1912586559
 30
0.0
 10
40.2617076029
 20
48.9126823076
 30
0.0
 10
39.6124852398
 20
49.4392275595
 30
0.0
 10
39.0838021286
 20
49.8051712231
 30
0.0
 10
38.6908811805
 20
50.0473531388
 30
0.0
 10
38.2978723813
 20
50.2598832586
 30
0.0
 10
37.9064513298
 20
50.4418977909
 30
0.0
 10
37.5182372823
 20
50.5925530121
 30
0.0
 10
37.1349261659
 20
50.7112510462
 30
0.0
 10
36.7579923678
 20
50.797404665
 30
0.0
 10
36.2750689579
 20
50.8671655793
 30
0.0
 10
35.9133431292
 20
50.8722404051
 30
0.0
 10
35.6792269751
 20
50.8513263102
 30
0.0
  0
SPLINE
  5
331
100
AcDbEntity
  8
0
100
AcDbSpline
 62
7
  6
BYLAYER
 70
0
 71
3
 72
15
 73
11
 74
0
 42
0.0000001
 43
0.0000001
 44
0.0000000001
 40
0.0
 40
0.0
 40
0.0
 40
0.0
 40
0.1108410465
 40
0.2280578197
 40
0.3507094003
 40
0.4776259691
 40
0.60747378
 40
0.7388131747
 40
0.8701524766
 40
1.0
 40
1.0
 40
1.0
 40
1.0
 10
44.6948756059
 20
39.6358060176
 30
0.0
 10
44.6948756059
 20
39.9481346224
 30
0.0
 10
44.6574653692
 20
40.5911221815
 30
0.0
 10
44.5019182061
 20
41.5684135407
 30
0.0
 10
44.2479642811
 20
42.5716139371
 30
0.0
 10
43.8999107421
 20
43.5837145977
 30
0.0
 10
43.4636414389
 20
44.5877097329
 30
0.0
 10
42.9465145861
 20
45.5666447702
 30
0.0
 10
42.3573333651
 20
46.5038948836
 30
0.0
 10
41.9188956943
 20
47.096108625
 30
0.0
 10
41.6896592638
 20
47.3812798385
 30
0.0
  0
SPLINE
  5
332
100
AcDbEntity
  8
0
100
AcDbSpline
 62
7
  6
BYLAYER
 70
0
 71
3
 72
22
 73
18
 74
0
 42
0.0000001
 43
0.0000001
 44
0.0000000001
 40
0.0
 40
0.0
 40
0.0
 40
0.0
 40
0.058308139
 40
0.1153047388
 40
0.1713679043
 40
0.2269530059
 40
0.2825406469
 40
0.3386013684
 40
0.3955853647
 40
0.4539070015
 40
0.5139331762
 40
0.5759708082
 40
0.6402675959
 40
0.7070030982
 40
0.8481639006
 40
0.9227833103
 40
1.0
 40
1.0
 40
1.0
 40
1.0
 10
41.6896592841
 20
35.3603786237
 30
0.0
 10
41.8016175434
 20
35.3703798957
 30
0.0
 10
42.022223092
 20
35.4011361505
 30
0.0
 10
42.3433984686
 20
35.4810609412
 30
0.0
 10
42.6489895252
 20
35.5939884975
 30
0.0
 10
42.9375188776
 20
35.7393591488
 30
0.0
 10
43.2076622681
 20
35.916566014
 30
0.0
 10
43.4582350368
 20
36.1247269865
 30
0.0
 10
43.6880613662
 20
36.3629231894
 30
0.0
 10
43.8962079124
 20
36.6299827813
 30
0.0
 10
44.0817604882
 20
36.9247268096
 30
0.0
 10
44.2440296131
 20
37.2457995375
 30
0.0
 10
44.3823194556
 20
37.5918389205
 30
0.0
 10
44.536944848
 20
38.0937465542
 30
0.0
 10
44.6368772727
 20
38.6313204855
 30
0.0
 10
44.686708002
 20
39.1941365287
 30
0.0
 10
44.6948756059
 20
39.4869507954
 30
0.0
 10
44.6948756059
 20
39.6358060176
 30
0.0
  0
SPLINE
  5
333
100
AcDbEntity
  8
0
100
AcDbSpline
 62
7
  6
BYLAYER
 70
0
 71
3
 72
15
 73
11
 74
0
 42
0.0000001
 43
0.0000001
 44
0.0000000001
 40
0.0
 40
0.0
 40
0.0
 40
0.0
 40
0.1274310937
 40
0.2517381521
 40
0.3740164546
 40
0.4955643164
 40
0.6177103084
 40
0.7417315423
 40
0.8688135769
 40
1.0
 40
1.0
 40
1.0
 40
1.0
 10
35.6792269751
 20
50.8513263102
 30
0.0
 10
35.553318417
 20
50.8400788874
 30
0.0
 10
35.3055537497
 20
50.8039827794
 30
0.0
 10
34.946547292
 20
50.7068664283
 30
0.0
 10
34.6077663629
 20
50.5679077589
 30
0.0
 10
34.2913292679
 20
50.3879434101
 30
0.0
 10
33.9990683639
 20
50.1680452524
 30
0.0
 10
33.7326932117
 20
49.9095208078
 30
0.0
 10
33.4936833272
 20
49.6140229366
 30
0.0
 10
33.3558720528
 20
49.3973321143
 30
0.0
 10
33.2918230412
 20
49.2840497916
 30
0.0
  0
SPLINE
  5
334
100
AcDbEntity
  8
0
100
AcDbSpline
 62
7
  6
BYLAYER
 70
0
 71
3
 72
15
 73
11
 74
0
 42
0.0000001
 43
0.0000001
 44
0.0000000001
 40
0.0
 40
0.0
 40
0.0
 40
0.0
 40
0.1467895654
 40
0.2867837411
 40
0.4198772181
 40
0.5463382122
 40
0.6666659825
 40
0.7816257178
 40
0.8922902582
 40
1.0
 40
1.0
 40
1.0
 40
1.0
 10
44.2034343469
 20
39.919533342
 30
0.0
 10
44.2034343469
 20
39.7354305787
 30
0.0
 10
44.189938172
 20
39.3755508768
 30
0.0
 10
44.1261154073
 20
38.8521645036
 30
0.0
 10
44.0194723389
 20
38.361712063
 30
0.0
 10
43.8707339011
 20
37.9081032402
 30
0.0
 10
43.680922747
 20
37.4948297519
 30
0.0
 10
43.4511931508
 20
37.1252530604
 30
0.0
 10
43.1832847011
 20
36.8025826212
 30
0.0
 10
42.9785285807
 20
36.6188584241
 30
0.0
 10
42.8713509829
 20
36.5366269791
 30
0.0
  0
SPLINE
  5
335
100
AcDbEntity
  8
0
100
AcDbSpline
 62
7
  6
BYLAYER
 70
0
 71
3
 72
11
 73
7
 74
0
 42
0.0000001
 43
0.0000001
 44
0.0000000001
 40
0.0
 40
0.0
 40
0.0
 40
0.0
 40
0.2717619614
 40
0.5308687901
 40
0.7744602656
 40
1.0
 40
1.0
 40
1.0
 40
1.0
 10
38.8170185985
 20
51.3457529138
 30
0.0
 10
38.5349367093
 20
51.2882289456
 30
0.0
 10
37.9830067811
 20
51.1801938688
 30
0.0
 10
37.1746731744
 20
51.0394631262
 30
0.0
 10
36.4112531881
 20
50.9277083084
 30
0.0
 10
35.9172028072
 20
50.8725852153
 30
0.0
 10
35.6792278848
 20
50.8513266051
 30
0.0
  0
SPLINE
  5
336
100
AcDbEntity
  8
0
100
AcDbSpline
 62
7
  6
BYLAYER
 70
0
 71
3
 72
11
 73
7
 74
0
 42
0.0000001
 43
0.0000001
 44
0.0000000001
 40
0.0
 40
0.0
 40
0.0
 40
0.0
 40
0.2543805608
 40
0.5058291475
 40
0.75429779
 40
1.0
 40
1.0
 40
1.0
 40
1.0
 10
41.689659779
 20
47.3812801379
 30
0.0
 10
41.4526057566
 20
47.6761765292
 30
0.0
 10
41.0003116437
 20
48.2782143995
 30
0.0
 10
40.385551179
 20
49.217569481
 30
0.0
 10
39.8343864682
 20
50.1805991056
 30
0.0
 10
39.5027757941
 20
50.8369263381
 30
0.0
 10
39.3451694484
 20
51.1666496585
 30
0.0
  0
SPLINE
  5
337
100
AcDbEntity
  8
0
100
AcDbSpline
 62
7
  6
BYLAYER
 70
0
 71
3
 72
11
 73
7
 74
0
 42
0.0000001
 43
0.0000001
 44
0.0000000001
 40
0.0
 40
0.0
 40
0.0
 40
0.0
 40
0.2890301296
 40
0.550504354
 40
0.7863877843
 40
1.0
 40
1.0
 40
1.0
 40
1.0
 10
35.6792278848
 20
50.8513266051
 30
0.0
 10
35.4619302664
 20
50.8319150318
 30
0.0
 10
35.047223307
 20
50.8032631768
 30
0.0
 10
34.4534897405
 20
50.791724335
 30
0.0
 10
33.9169079055
 20
50.8110765126
 30
0.0
 10
33.5789181412
 20
50.8432640803
 30
0.0
 10
33.4189609561
 20
50.8635366058
 30
0.0
  0
SPLINE
  5
338
100
AcDbEntity
  8
0
100
AcDbSpline
 62
7
  6
BYLAYER
 70
0
 71
3
 72
11
 73
7
 74
0
 42
0.0000001
 43
0.0000001
 44
0.0000000001
 40
0.0
 40
0.0
 40
0.0
 40
0.0
 40
0.2369329394
 40
0.4817761643
 40
0.7358520224
 40
1.0
 40
1.0
 40
1.0
 40
1.0
 10
45.1336389582
 20
36.2904087926
 30
0.0
 10
45.0650899491
 20
36.5486656222
 30
0.0
 10
44.940385481
 20
37.0778545346
 30
0.0
 10
44.8008493145
 20
37.8964807055
 30
0.0
 10
44.7138023212
 20
38.7532714011
 30
0.0
 10
44.6948756059
 20
39.3379149783
 30
0.0
 10
44.6948756059
 20
39.6358060176
 30
0.0
  0
SPLINE
  5
339
100
AcDbEntity
  8
0
100
AcDbSpline
 62
7
  6
BYLAYER
 70
0
 71
3
 72
11
 73
7
 74
0
 42
0.0000001
 43
0.0000001
 44
0.0000000001
 40
0.0
 40
0.0
 40
0.0
 40
0.0
 40
0.251702922
 40
0.5026365542
 40
0.7522747737
 40
1.0
 40
1.0
 40
1.0
 40
1.0
 10
44.988177111
 20
44.1467150346
 30
0.0
 10
44.6856659999
 20
44.3901997381
 30
0.0
 10
44.0907365177
 20
44.8880091907
 30
0.0
 10
43.2358750102
 20
45.6737418051
 30
0.0
 10
42.429799041
 20
46.5010956023
 30
0.0
 10
41.9291114376
 20
47.0834006642
 30
0.0
 10
41.689659779
 20
47.3812801379
 30
0.0
  0
SPLINE
  5
33A
100
AcDbEntity
  8
0
100
AcDbSpline
 62
7
  6
BYLAYER
 70
0
 71
3
 72
11
 73
7
 74
0
 42
0.0000001
 43
0.0000001
 44
0.0000000001
 40
0.0
 40
0.0
 40
0.0
 40
0.0
 40
0.2389818248
 40
0.4861212776
 40
0.7402424515
 40
1.0
 40
1.0
 40
1.0
 40
1.0
 10
44.6948756059
 20
39.6358060176
 30
0.0
 10
44.6948756059
 20
39.9451320062
 30
0.0
 10
44.7159978674
 20
40.5744835357
 30
0.0
 10
44.8046396553
 20
41.5289567028
 30
0.0
 10
44.9449323547
 20
42.5042825905
 30
0.0
 10
45.0666998649
 20
43.158354455
 30
0.0
 10
45.1336389582
 20
43.4878404976
 30
0.0
  0
SPLINE
  5
33B
100
AcDbEntity
  8
0
100
AcDbSpline
 62
7
  6
BYLAYER
 70
0
 71
3
 72
11
 73
7
 74
0
 42
0.0000001
 43
0.0000001
 44
0.0000000001
 40
0.0
 40
0.0
 40
0.0
 40
0.0
 40
0.2599670011
 40
0.5142403454
 40
0.7613530039
 40
1.0
 40
1.0
 40
1.0
 40
1.0
 10
28.2012974625
 20
47.7556086209
 30
0.0
 10
28.1289526759
 20
47.4102169215
 30
0.0
 10
27.9970455272
 20
46.7245623684
 30
0.0
 10
27.8443553149
 20
45.7020429411
 30
0.0
 10
27.7474733621
 20
44.7016790702
 30
0.0
 10
27.7242834179
 20
44.0421363008
 30
0.0
 10
27.7242834179
 20
43.7181897673
 30
0.0
  0
SPLINE
  5
33C
100
AcDbEntity
  8
0
100
AcDbSpline
 62
7
  6
BYLAYER
 70
0
 71
3
 72
11
 73
7
 74
0
 42
0.0000001
 43
0.0000001
 44
0.0000000001
 40
0.0
 40
0.0
 40
0.0
 40
0.0
 40
0.2248506531
 40
0.4683864831
 40
0.7278086718
 40
1.0
 40
1.0
 40
1.0
 40
1.0
 10
36.7399329409
 20
32.5026698446
 30
0.0
 10
36.9894292688
 20
32.5249576557
 30
0.0
 10
37.5081138307
 20
32.5833779917
 30
0.0
 10
38.3102140589
 20
32.7026335501
 30
0.0
 10
39.1606172135
 20
32.8531623544
 30
0.0
 10
39.7415159157
 20
32.9686581313
 30
0.0
 10
40.0384501412
 20
33.0301210654
 30
0.0
  0
SPLINE
  5
33D
100
AcDbEntity
  8
0
100
AcDbSpline
 62
7
  6
BYLAYER
 70
0
 71
3
 72
11
 73
7
 74
0
 42
0.0000001
 43
0.0000001
 44
0.0000000001
 40
0.0
 40
0.0
 40
0.0
 40
0.0
 40
0.251702922
 40
0.5026365541
 40
0.7522747736
 40
1.0
 40
1.0
 40
1.0
 40
1.0
 10
35.5627260889
 20
48.9828680021
 30
0.0
 10
35.8652372048
 20
48.7393833084
 30
0.0
 10
36.4601666729
 20
48.2415738464
 30
0.0
 10
37.3150281808
 20
47.4558412439
 30
0.0
 10
38.1211041411
 20
46.628487448
 30
0.0
 10
38.6217917444
 20
46.0461823925
 30
0.0
 10
38.861243402
 20
45.748302921
 30
0.0
  0
SPLINE
  5
33E
100
AcDbEntity
  8
0
100
AcDbSpline
 62
7
  6
BYLAYER
 70
0
 71
3
 72
11
 73
7
 74
0
 42
0.0000001
 43
0.0000001
 44
0.0000000001
 40
0.0
 40
0.0
 40
0.0
 40
0.0
 40
0.2890301304
 40
0.5505043556
 40
0.7863877817
 40
1.0
 40
1.0
 40
1.0
 40
1.0
 10
32.8508099733
 20
49.2183492569
 30
0.0
 10
33.0681075933
 20
49.2377608305
 30
0.0
 10
33.4828145556
 20
49.2664126827
 30
0.0
 10
34.0765481248
 20
49.2779515403
 30
0.0
 10
34.6131299569
 20
49.2585993163
 30
0.0
 10
34.9511197322
 20
49.2264118337
 30
0.0
 10
35.1110769134
 20
49.2061392561
 30
0.0
  0
SPLINE
  5
33F
100
AcDbEntity
  8
0
100
AcDbSpline
 62
7
  6
BYLAYER
 70
0
 71
3
 72
11
 73
7
 74
0
 42
0.0000001
 43
0.0000001
 44
0.0000000001
 40
0.0
 40
0.0
 40
0.0
 40
0.0
 40
0.2394936104
 40
0.4856250348
 40
0.7390225407
 40
1.0
 40
1.0
 40
1.0
 40
1.0
 10
41.6061275399
 20
40.5908817261
 30
0.0
 10
41.6479464603
 20
40.3871400126
 30
0.0
 10
41.7228961506
 20
39.971911729
 30
0.0
 10
41.8050412986
 20
39.3351069608
 30
0.0
 10
41.8554715579
 20
38.6762798476
 30
0.0
 10
41.866460257
 20
38.2294763397
 30
0.0
 10
41.866460257
 20
38.0028294021
 30
0.0
  0
SPLINE
  5
340
100
AcDbEntity
  8
0
100
AcDbSpline
 62
7
  6
BYLAYER
 70
0
 71
3
 72
11
 73
7
 74
0
 42
0.0000001
 43
0.0000001
 44
0.0000000001
 40
0.0
 40
0.0
 40
0.0
 40
0.0
 40
0.2543805609
 40
0.5058291474
 40
0.7542977902
 40
1.0
 40
1.0
 40
1.0
 40
1.0
 10
38.861243402
 20
45.748302921
 30
0.0
 10
39.0982974266
 20
45.4534065281
 30
0.0
 10
39.5505915479
 20
44.8513686575
 30
0.0
 10
40.165352003
 20
43.912013562
 30
0.0
 10
40.7165167521
 20
42.9489839489
 30
0.0
 10
41.0481273624
 20
42.29265668
 30
0.0
 10
41.2057337501
 20
41.9629333775
 30
0.0
  0
SPLINE
  5
341
100
AcDbEntity
  8
0
100
AcDbSpline
 62
7
  6
BYLAYER
 70
0
 71
3
 72
11
 73
7
 74
0
 42
0.0000001
 43
0.0000001
 44
0.0000000001
 40
0.0
 40
0.0
 40
0.0
 40
0.0
 40
0.2389818248
 40
0.4861212775
 40
0.7402424521
 40
1.0
 40
1.0
 40
1.0
 40
1.0
 10
41.866460257
 20
38.0028294021
 30
0.0
 10
41.866460257
 20
37.6935034135
 30
0.0
 10
41.8453379915
 20
37.0641518848
 30
0.0
 10
41.7566962204
 20
36.1096787142
 30
0.0
 10
41.6164034699
 20
35.1343528359
 30
0.0
 10
41.4946360579
 20
34.4802809517
 30
0.0
 10
41.4276969047
 20
34.1507949221
 30
0.0
  0
SPLINE
  5
342
100
AcDbEntity
  8
0
100
AcDbSpline
 62
7
  6
BYLAYER
 70
0
 71
3
 72
11
 73
7
 74
0
 42
0.0000001
 43
0.0000001
 44
0.0000000001
 40
0.0
 40
0.0
 40
0.0
 40
0.0
 40
0.2121701034
 40
0.447296155
 40
0.709141116
 40
1.0
 40
1.0
 40
1.0
 40
1.0
 10
34.3954426378
 20
32.5260230331
 30
0.0
 10
34.5600389076
 20
32.5033253153
 30
0.0
 10
34.9086772439
 20
32.4667560761
 30
0.0
 10
35.4638393767
 20
32.4430996506
 30
0.0
 10
36.0810381116
 20
32.4529348622
 30
0.0
 10
36.5130600031
 20
32.4824029042
 30
0.0
 10
36.7399329409
 20
32.5026698446
 30
0.0
  0
SPLINE
  5
343
100
AcDbEntity
  8
0
100
AcDbSpline
 62
7
  6
BYLAYER
 70
0
 71
3
 72
11
 73
7
 74
0
 42
0.0000001
 43
0.0000001
 44
0.0000000001
 40
0.0
 40
0.0
 40
0.0
 40
0.0
 40
0.271761961
 40
0.5308687898
 40
0.7744602649
 40
1.0
 40
1.0
 40
1.0
 40
1.0
 10
29.7130192756
 20
48.7239229508
 30
0.0
 10
29.9951011643
 20
48.781446912
 30
0.0
 10
30.5470310875
 20
48.8894819968
 30
0.0
 10
31.3553646901
 20
49.0302127358
 30
0.0
 10
32.1187846729
 20
49.1419675527
 30
0.0
 10
32.6128350514
 20
49.1970906466
 30
0.0
 10
32.8508099733
 20
49.2183492569
 30
0.0
  0
SPLINE
  5
344
100
AcDbEntity
  8
0
100
AcDbSpline
 62
7
  6
BYLAYER
 70
0
 71
3
 72
19
 73
15
 74
0
 42
0.0000001
 43
0.0000001
 44
0.0000000001
 40
0.0
 40
0.0
 40
0.0
 40
0.0
 40
0.1490976733
 40
0.2931847091
 40
0.4308869016
 40
0.4970074532
 40
0.5611450693
 40
0.6232178726
 40
0.6831753197
 40
0.7409958453
 40
0.7966954486
 40
0.8503287907
 40
0.902005759
 40
1.0
 40
1.0
 40
1.0
 40
1.0
 10
36.7399324045
 20
44.5235707601
 30
0.0
 10
36.5158715115
 20
44.8023040679
 30
0.0
 10
36.0537029309
 20
45.3335495778
 30
0.0
 10
35.3119807433
 20
46.0549732297
 30
0.0
 10
34.6627583801
 20
46.5815184818
 30
0.0
 10
34.1340752688
 20
46.9474621455
 30
0.0
 10
33.7411543206
 20
47.1896440613
 30
0.0
 10
33.3481455213
 20
47.4021741812
 30
0.0
 10
32.9567244698
 20
47.5841887136
 30
0.0
 10
32.5685104222
 20
47.7348439349
 30
0.0
 10
32.1851993057
 20
47.853541969
 30
0.0
 10
31.8082655076
 20
47.9396955879
 30
0.0
 10
31.3253420975
 20
48.0094565022
 30
0.0
 10
30.9636162688
 20
48.014531328
 30
0.0
 10
30.7295001146
 20
47.9936172331
 30
0.0
  0
SPLINE
  5
345
100
AcDbEntity
  8
0
100
AcDbSpline
 62
7
  6
BYLAYER
 70
0
 71
3
 72
15
 73
11
 74
0
 42
0.0000001
 43
0.0000001
 44
0.0000000001
 40
0.0
 40
0.0
 40
0.0
 40
0.0
 40
0.1108410465
 40
0.2280578197
 40
0.3507094003
 40
0.4776259691
 40
0.60747378
 40
0.7388131747
 40
0.8701524766
 40
1.0
 40
1.0
 40
1.0
 40
1.0
 10
39.7451487454
 20
36.7780969405
 30
0.0
 10
39.7451487454
 20
37.0904255452
 30
0.0
 10
39.7077385087
 20
37.7334131042
 30
0.0
 10
39.5521913456
 20
38.7107044632
 30
0.0
 10
39.2982374208
 20
39.7139048594
 30
0.0
 10
38.9501838819
 20
40.7260055198
 30
0.0
 10
38.5139145789
 20
41.7300006549
 30
0.0
 10
37.996787726
 20
42.7089356917
 30
0.0
 10
37.4076065065
 20
43.6461858061
 30
0.0
 10
36.9691688326
 20
44.2383995447
 30
0.0
 10
36.7399324045
 20
44.5235707601
 30
0.0
  0
SPLINE
  5
346
100
AcDbEntity
  8
0
100
AcDbSpline
 62
7
  6
BYLAYER
 70
0
 71
3
 72
22
 73
18
 74
0
 42
0.0000001
 43
0.0000001
 44
0.0000000001
 40
0.0
 40
0.0
 40
0.0
 40
0.0
 40
0.058308139
 40
0.1153047388
 40
0.1713679043
 40
0.2269530059
 40
0.2825406469
 40
0.3386013684
 40
0.3955853647
 40
0.4539070015
 40
0.5139331762
 40
0.5759708082
 40
0.6402675959
 40
0.7070030982
 40
0.8481639006
 40
0.9227833103
 40
1.0
 40
1.0
 40
1.0
 40
1.0
 10
36.7399324236
 20
32.5026695466
 30
0.0
 10
36.8518906829
 20
32.5126708186
 30
0.0
 10
37.0724962315
 20
32.5434270734
 30
0.0
 10
37.3936716081
 20
32.6233518641
 30
0.0
 10
37.6992626647
 20
32.7362794204
 30
0.0
 10
37.9877920171
 20
32.8816500717
 30
0.0
 10
38.2579354076
 20
33.0588569369
 30
0.0
 10
38.5085081763
 20
33.2670179094
 30
0.0
 10
38.7383345057
 20
33.5052141123
 30
0.0
 10
38.9464810519
 20
33.7722737042
 30
0.0
 10
39.1320336277
 20
34.0670177325
 30
0.0
 10
39.2943027527
 20
34.3880904604
 30
0.0
 10
39.4325925951
 20
34.7341298434
 30
0.0
 10
39.5872179875
 20
35.2360374771
 30
0.0
 10
39.6871504122
 20
35.7736114084
 30
0.0
 10
39.7369811415
 20
36.3364274516
 30
0.0
 10
39.7451487454
 20
36.6292417183
 30
0.0
 10
39.7451487454
 20
36.7780969405
 30
0.0
  0
SPLINE
  5
347
100
AcDbEntity
  8
0
100
AcDbSpline
 62
7
  6
BYLAYER
 70
0
 71
3
 72
13
 73
9
 74
0
 42
0.0000001
 43
0.0000001
 44
0.0000000001
 40
0.0
 40
0.0
 40
0.0
 40
0.0
 40
0.2780481278
 40
0.409838831
 40
0.5367829034
 40
0.6590041749
 40
0.776753173
 40
1.0
 40
1.0
 40
1.0
 40
1.0
 10
33.7254731815
 20
33.313219637
 30
0.0
 10
33.9795732261
 20
33.1660664327
 30
0.0
 10
34.3666369886
 20
32.9692133132
 30
0.0
 10
34.8952014506
 20
32.7634120165
 30
0.0
 10
35.2797316383
 20
32.6439298625
 30
0.0
 10
35.6578459274
 20
32.5571825476
 30
0.0
 10
36.1422498415
 20
32.4868957159
 30
0.0
 10
36.5051067545
 20
32.481691973
 30
0.0
 10
36.7399324236
 20
32.5026695466
 30
0.0
  0
SPLINE
  5
348
100
AcDbEntity
  8
0
100
AcDbSpline
 62
7
  6
BYLAYER
 70
0
 71
3
 72
22
 73
18
 74
0
 42
0.0000001
 43
0.0000001
 44
0.0000000001
 40
0.0
 40
0.0
 40
0.0
 40
0.0
 40
0.058308141
 40
0.1153047412
 40
0.1713679077
 40
0.2269530096
 40
0.2825406506
 40
0.338601372
 40
0.3955853679
 40
0.453907004
 40
0.5139331779
 40
0.5759708093
 40
0.6402675964
 40
0.7070030983
 40
0.8481639002
 40
0.92278331
 40
1.0
 40
1.0
 40
1.0
 40
1.0
 10
30.7295001146
 20
47.9936172331
 30
0.0
 10
30.6175418413
 20
47.9836159905
 30
0.0
 10
30.3969362682
 20
47.9528597502
 30
0.0
 10
30.0757608697
 20
47.8729349323
 30
0.0
 10
29.7701697807
 20
47.7600073966
 30
0.0
 10
29.4816403849
 20
47.6146367778
 30
0.0
 10
29.2114969584
 20
47.4374299262
 30
0.0
 10
28.9609241589
 20
47.2292689584
 30
0.0
 10
28.7310977984
 20
46.9910727582
 30
0.0
 10
28.5229512231
 20
46.7240131648
 30
0.0
 10
28.3373986217
 20
46.4292691299
 30
0.0
 10
28.1751294743
 20
46.1081963906
 30
0.0
 10
28.0368396125
 20
45.7621569922
 30
0.0
 10
27.882214198
 20
45.2602493317
 30
0.0
 10
27.7822817592
 20
44.7226753672
 30
0.0
 10
27.7324510229
 20
44.159859287
 30
0.0
 10
27.7242834179
 20
43.867045
 30
0.0
 10
27.7242834179
 20
43.7181897673
 30
0.0
  0
SPLINE
  5
349
100
AcDbEntity
  8
0
100
AcDbSpline
 62
7
  6
BYLAYER
 70
0
 71
3
 72
11
 73
7
 74
0
 42
0.0000001
 43
0.0000001
 44
0.0000000001
 40
0.0
 40
0.0
 40
0.0
 40
0.0
 40
0.271761966
 40
0.5308687924
 40
0.7744602658
 40
1.0
 40
1.0
 40
1.0
 40
1.0
 10
33.8672913608
 20
48.488043772
 30
0.0
 10
33.585209499
 20
48.4305198186
 30
0.0
 10
33.0332796392
 20
48.3224847331
 30
0.0
 10
32.2249461269
 20
48.1817540212
 30
0.0
 10
31.461526237
 20
48.0699992201
 30
0.0
 10
30.9674759179
 20
48.0148761356
 30
0.0
 10
30.7295010243
 20
47.993617528
 30
0.0
  0
SPLINE
  5
34A
100
AcDbEntity
  8
0
100
AcDbSpline
 62
7
  6
BYLAYER
 70
0
 71
3
 72
11
 73
7
 74
0
 42
0.0000001
 43
0.0000001
 44
0.0000000001
 40
0.0
 40
0.0
 40
0.0
 40
0.0
 40
0.254380459
 40
0.5058292795
 40
0.7542979007
 40
1.0
 40
1.0
 40
1.0
 40
1.0
 10
36.7399329526
 20
44.5235710163
 30
0.0
 10
36.5028790247
 20
44.81846729
 30
0.0
 10
36.0505900055
 20
45.4205090835
 30
0.0
 10
35.4358204997
 20
46.3598582461
 30
0.0
 10
34.8846567664
 20
47.3228889391
 30
0.0
 10
34.5530489821
 20
47.9792173273
 30
0.0
 10
34.3954426641
 20
48.3089404788
 30
0.0
  0
SPLINE
  5
34B
100
AcDbEntity
  8
0
100
AcDbSpline
 62
7
  6
BYLAYER
 70
0
 71
3
 72
11
 73
7
 74
0
 42
0.0000001
 43
0.0000001
 44
0.0000000001
 40
0.0
 40
0.0
 40
0.0
 40
0.0
 40
0.2369334191
 40
0.4817761881
 40
0.7358522891
 40
1.0
 40
1.0
 40
1.0
 40
1.0
 10
40.1839120997
 20
33.4326998035
 30
0.0
 10
40.115362982
 20
33.6909571302
 30
0.0
 10
39.9906644505
 20
34.220147294
 30
0.0
 10
39.8511202269
 20
35.0387722509
 30
0.0
 10
39.7640789588
 20
35.8955629929
 30
0.0
 10
39.7451487454
 20
36.4802062383
 30
0.0
 10
39.7451487454
 20
36.7780969405
 30
0.0
  0
SPLINE
  5
34C
100
AcDbEntity
  8
0
100
AcDbSpline
 62
7
  6
BYLAYER
 70
0
 71
3
 72
11
 73
7
 74
0
 42
0.0000001
 43
0.0000001
 44
0.0000000001
 40
0.0
 40
0.0
 40
0.0
 40
0.0
 40
0.2517029632
 40
0.5026365717
 40
0.7522746714
 40
1.0
 40
1.0
 40
1.0
 40
1.0
 10
40.0384501661
 20
41.2890060549
 30
0.0
 10
39.7359390084
 20
41.5324907844
 30
0.0
 10
39.1410078056
 20
42.0302980792
 30
0.0
 10
38.286145175
 20
42.816029577
 30
0.0
 10
37.4800769868
 20
43.6433905959
 30
0.0
 10
36.9793847052
 20
44.2256914296
 30
0.0
 10
36.7399329526
 20
44.5235710163
 30
0.0
  0
SPLINE
  5
34D
100
AcDbEntity
  8
0
100
AcDbSpline
 62
7
  6
BYLAYER
 70
0
 71
3
 72
11
 73
7
 74
0
 42
0.0000001
 43
0.0000001
 44
0.0000000001
 40
0.0
 40
0.0
 40
0.0
 40
0.0
 40
0.2389819974
 40
0.4861213093
 40
0.7402427418
 40
1.0
 40
1.0
 40
1.0
 40
1.0
 10
39.7451487454
 20
36.7780969405
 30
0.0
 10
39.7451487454
 20
37.0874231325
 30
0.0
 10
39.7662731501
 20
37.7167745478
 30
0.0
 10
39.8549118671
 20
38.6712483408
 30
0.0
 10
39.9952094476
 20
39.6465732333
 30
0.0
 10
40.1169730271
 20
40.300645694
 30
0.0
 10
40.1839121002
 20
40.630131335
 30
0.0
  0
SPLINE
  5
34E
100
AcDbEntity
  8
0
100
AcDbSpline
 62
7
  6
BYLAYER
 70
0
 71
3
 72
11
 73
7
 74
0
 42
0.0000001
 43
0.0000001
 44
0.0000000001
 40
0.0
 40
0.0
 40
0.0
 40
0.0
 40
0.2890301292
 40
0.550504357
 40
0.7863877904
 40
1.0
 40
1.0
 40
1.0
 40
1.0
 10
30.7295010243
 20
47.993617528
 30
0.0
 10
30.5122034294
 20
47.9742059568
 30
0.0
 10
30.0974965123
 20
47.9455541064
 30
0.0
 10
29.5037630036
 20
47.9340152507
 30
0.0
 10
28.9671812288
 20
47.9533674453
 30
0.0
 10
28.6291914947
 20
47.985554949
 30
0.0
 10
28.4692343373
 20
48.0058275194
 30
0.0
  0
SPLINE
  5
34F
100
AcDbEntity
  8
0
100
AcDbSpline
 62
7
  6
BYLAYER
 70
0
 71
3
 72
11
 73
7
 74
0
 42
0.0000001
 43
0.0000001
 44
0.0000000001
 40
0.0
 40
0.0
 40
0.0
 40
0.0
 40
0.224337825
 40
0.4643547528
 40
0.7225623719
 40
1.0
 40
1.0
 40
1.0
 40
1.0
 10
8.2724397234
 20
30.2042825144
 30
0.0
 10
8.3820035101
 20
30.218106511
 30
0.0
 10
8.6121356317
 20
30.2234235773
 30
0.0
 10
8.9651291851
 20
30.168954191
 30
0.0
 10
9.3305363748
 20
30.053952873
 30
0.0
 10
9.5702436113
 20
29.9423084197
 30
0.0
 10
9.6906843648
 20
29.8779208766
 30
0.0
  0
SPLINE
  5
350
100
AcDbEntity
  8
0
100
AcDbSpline
 62
7
  6
BYLAYER
 70
0
 71
3
 72
20
 73
16
 74
0
 42
0.0000001
 43
0.0000001
 44
0.0000000001
 40
0.0
 40
0.0
 40
0.0
 40
0.0
 40
0.153369046
 40
0.300511708
 40
0.3712406896
 40
0.4398342274
 40
0.5061484316
 40
0.5700843925
 40
0.631582141
 40
0.6906307418
 40
0.8014881975
 40
0.85366675
 40
0.9039320188
 40
0.9525865197
 40
1.0
 40
1.0
 40
1.0
 40
1.0
 10
7.9402595092
 20
23.6747616925
 30
0.0
 10
8.092869976
 20
23.4903846139
 30
0.0
 10
8.4077394317
 20
23.1418621264
 30
0.0
 10
8.8355176991
 20
22.7496578664
 30
0.0
 10
9.1879777156
 20
22.4743467811
 30
0.0
 10
9.4515254841
 20
22.2909372182
 30
0.0
 10
9.7163902442
 20
22.1288928152
 30
0.0
 10
9.9811621088
 20
21.9890358548
 30
0.0
 10
10.2445522357
 20
21.8721193809
 30
0.0
 10
10.5846828048
 20
21.7502322189
 30
0.0
 10
10.9244729867
 20
21.67189406
 30
0.0
 10
11.2566956527
 20
21.6446037119
 30
0.0
 10
11.4929084519
 20
21.6494587871
 30
0.0
 10
11.7197825871
 20
21.6792727049
 30
0.0
 10
11.8655402985
 20
21.7161317429
 30
0.0
 10
11.9360223937
 20
21.7386500096
 30
0.0
  0
SPLINE
  5
351
100
AcDbEntity
  8
0
100
AcDbSpline
 62
7
  6
BYLAYER
 70
0
 71
3
 72
15
 73
11
 74
0
 42
0.0000001
 43
0.0000001
 44
0.0000000001
 40
0.0
 40
0.0
 40
0.0
 40
0.0
 40
0.129364157
 40
0.2605083263
 40
0.3918433232
 40
0.5218308046
 40
0.6489499117
 40
0.7718018208
 40
0.8891493881
 40
1.0
 40
1.0
 40
1.0
 40
1.0
 10
11.1509133979
 20
28.6073992517
 30
0.0
 10
11.2712129315
 20
28.4620587844
 30
0.0
 10
11.5015248856
 20
28.1592904977
 30
0.0
 10
11.8112904223
 20
27.6784107942
 30
0.0
 10
12.0836232561
 20
27.1743096286
 30
0.0
 10
12.3137066236
 20
26.6559838057
 30
0.0
 10
12.4974673364
 20
26.1325394232
 30
0.0
 10
12.6316709913
 20
25.6131838979
 30
0.0
 10
12.7139348743
 20
25.1071123325
 30
0.0
 10
12.7337478874
 20
24.7741062884
 30
0.0
 10
12.7337534098
 20
24.6124384287
 30
0.0
  0
SPLINE
  5
352
100
AcDbEntity
  8
0
100
AcDbSpline
 62
7
  6
BYLAYER
 70
0
 71
3
 72
24
 73
20
 74
0
 42
0.0000001
 43
0.0000001
 44
0.0000000001
 40
0.0
 40
0.0
 40
0.0
 40
0.0
 40
0.072308177
 40
0.1455690614
 40
0.2191747751
 40
0.2925701345
 40
0.3651758041
 40
0.4364380458
 40
0.5058377171
 40
0.572901392
 40
0.637222003
 40
0.6984768721
 40
0.7564476502
 40
0.8110449049
 40
0.8623371124
 40
0.9105774733
 40
0.9562261369
 40
0.978302178
 40
1.0
 40
1.0
 40
1.0
 40
1.0
 10
12.5844762607
 20
29.7926754458
 30
0.0
 10
12.7069042451
 20
29.6447634803
 30
0.0
 10
12.9434994769
 20
29.3386789652
 30
0.0
 10
13.2695647629
 20
28.8561583837
 30
0.0
 10
13.5661959047
 20
28.3516283802
 30
0.0
 10
13.8299127977
 20
27.8310946076
 30
0.0
 10
14.0576330918
 20
27.3005863451
 30
0.0
 10
14.2466977554
 20
26.7663238917
 30
0.0
 10
14.3949041829
 20
26.2345425016
 30
0.0
 10
14.5005009726
 20
25.7114304282
 30
0.0
 10
14.562249238
 20
25.2030643956
 30
0.0
 10
14.5794077956
 20
24.7153199777
 30
0.0
 10
14.5517036917
 20
24.2538035669
 30
0.0
 10
14.4793195689
 20
23.8238111836
 30
0.0
 10
14.3628631497
 20
23.4302621531
 30
0.0
 10
14.2034214688
 20
23.0778222696
 30
0.0
 10
14.0338411308
 20
22.8189575569
 30
0.0
 10
13.8789089381
 20
22.6386822414
 30
0.0
 10
13.795474063
 20
22.5574753324
 30
0.0
 10
13.7523773945
 20
22.5192351668
 30
0.0
  0
SPLINE
  5
353
100
AcDbEntity
  8
0
100
AcDbSpline
 62
7
  6
BYLAYER
 70
0
 71
3
 72
14
 73
10
 74
0
 42
0.0000001
 43
0.0000001
 44
0.0000000001
 40
0.0
 40
0.0
 40
0.0
 40
0.0
 40
0.2120167007
 40
0.3283583239
 40
0.4514128696
 40
0.5807918476
 40
0.7158848908
 40
0.8559630751
 40
1.0
 40
1.0
 40
1.0
 40
1.0
 10
21.9675736624
 20
38.3032117275
 30
0.0
 10
22.2000748149
 20
38.2715252631
 30
0.0
 10
22.5537650827
 20
38.168851353
 30
0.0
 10
23.0058697339
 20
37.9556132336
 30
0.0
 10
23.3570467415
 20
37.7462433933
 30
0.0
 10
23.7052387595
 20
37.4950373913
 30
0.0
 10
24.046739386
 20
37.2047803071
 30
0.0
 10
24.3774856734
 20
36.8788812631
 30
0.0
 10
24.5859424324
 20
36.6430902284
 30
0.0
 10
24.6875882432
 20
36.5202863471
 30
0.0
  0
SPLINE
  5
354
100
AcDbEntity
  8
0
100
AcDbSpline
 62
7
  6
BYLAYER
 70
0
 71
3
 72
12
 73
8
 74
0
 42
0.0000001
 43
0.0000001
 44
0.0000000001
 40
0.0
 40
0.0
 40
0.0
 40
0.0
 40
0.2534576455
 40
0.5036320821
 40
0.7520626399
 40
0.8759705783
 40
1.0
 40
1.0
 40
1.0
 40
1.0
 10
21.0576758942
 20
38.4272411519
 30
0.0
 10
20.9094178926
 20
38.4474488666
 30
0.0
 10
20.6114761282
 20
38.467137625
 30
0.0
 10
20.1674476465
 20
38.4274961694
 30
0.0
 10
19.8100575173
 20
38.3335342142
 30
0.0
 10
19.5386878948
 20
38.2221599871
 30
0.0
 10
19.4085589547
 20
38.1546207139
 30
0.0
 10
19.3451477677
 20
38.1180104666
 30
0.0
  0
SPLINE
  5
355
100
AcDbEntity
  8
0
100
AcDbSpline
 62
7
  6
BYLAYER
 70
0
 71
3
 72
18
 73
14
 74
0
 42
0.0000001
 43
0.0000001
 44
0.0000000001
 40
0.0
 40
0.0
 40
0.0
 40
0.0
 40
0.1374486843
 40
0.2766427451
 40
0.4146238072
 40
0.5484925044
 40
0.6130829254
 40
0.675701585
 40
0.7361031075
 40
0.7940895111
 40
0.8495181341
 40
0.9023167773
 40
1.0
 40
1.0
 40
1.0
 40
1.0
 10
24.6875882432
 20
36.5202863471
 30
0.0
 10
24.8605878114
 20
36.3112760764
 30
0.0
 10
25.1858185142
 20
35.8710939926
 30
0.0
 10
25.6022702756
 20
35.1649153185
 30
0.0
 10
25.9409882729
 20
34.4260208018
 30
0.0
 10
26.1521090565
 20
33.7947367548
 30
0.0
 10
26.2718375456
 20
33.2931982732
 30
0.0
 10
26.3353931229
 20
32.9280930712
 30
0.0
 10
26.3732817096
 20
32.5725203037
 30
0.0
 10
26.3851958354
 20
32.2293215028
 30
0.0
 10
26.3709718883
 20
31.9010915966
 30
0.0
 10
26.318767898
 20
31.4977883434
 30
0.0
 10
26.239723952
 20
31.208478106
 30
0.0
 10
26.1667408004
 20
31.030000173
 30
0.0
  0
SPLINE
  5
356
100
AcDbEntity
  8
0
100
AcDbSpline
 62
7
  6
BYLAYER
 70
0
 71
3
 72
12
 73
8
 74
0
 42
0.0000001
 43
0.0000001
 44
0.0000000001
 40
0.0
 40
0.0
 40
0.0
 40
0.0
 40
0.2534576455
 40
0.5036320821
 40
0.7520626399
 40
0.8759705783
 40
1.0
 40
1.0
 40
1.0
 40
1.0
 10
25.8191963763
 20
30.1799965266
 30
0.0
 10
25.7625670538
 20
30.0414977663
 30
0.0
 10
25.6306457518
 20
29.7736289323
 30
0.0
 10
25.374299118
 20
29.40891104
 30
0.0
 10
25.114229256
 20
29.146384431
 30
0.0
 10
24.8820906078
 20
28.9670597577
 30
0.0
 10
24.7585350033
 20
28.8881350651
 30
0.0
 10
24.6951238164
 20
28.8515248178
 30
0.0
  0
SPLINE
  5
357
100
AcDbEntity
  8
0
100
AcDbSpline
 62
7
  6
BYLAYER
 70
0
 71
3
 72
16
 73
12
 74
0
 42
0.0000001
 43
0.0000001
 44
0.0000000001
 40
0.0
 40
0.0
 40
0.0
 40
0.0
 40
0.1485911951
 40
0.2894711072
 40
0.4226819458
 40
0.5485896231
 40
0.6679356729
 40
0.7818629491
 40
0.8919012321
 40
0.9460798507
 40
1.0
 40
1.0
 40
1.0
 40
1.0
 10
19.6633834851
 20
27.2252169384
 30
0.0
 10
19.663381166
 20
27.0689336408
 30
0.0
 10
19.6508045581
 20
26.7642660129
 30
0.0
 10
19.5908036152
 20
26.3230648005
 30
0.0
 10
19.490639956
 20
25.913564545
 30
0.0
 10
19.3510371909
 20
25.5397021391
 30
0.0
 10
19.1730500059
 20
25.2051027452
 30
0.0
 10
18.9581884876
 20
24.9132124957
 30
0.0
 10
18.7486087325
 20
24.7070485467
 30
0.0
 10
18.5659221483
 20
24.5678935565
 30
0.0
 10
18.4698238184
 20
24.5068204763
 30
0.0
 10
18.420709594
 20
24.4784659539
 30
0.0
  0
SPLINE
  5
358
100
AcDbEntity
  8
0
100
AcDbSpline
 62
7
  6
BYLAYER
 70
0
 71
3
 72
11
 73
7
 74
0
 42
0.0000001
 43
0.0000001
 44
0.0000000001
 40
0.0
 40
0.0
 40
0.0
 40
0.0
 40
0.2325810675
 40
0.4780121557
 40
0.7345771936
 40
1.0
 40
1.0
 40
1.0
 40
1.0
 10
9.6932634824
 20
29.8787532121
 30
0.0
 10
9.8237540297
 20
29.8034147677
 30
0.0
 10
10.0834787707
 20
29.6335873247
 30
0.0
 10
10.4555557212
 20
29.3358984348
 30
0.0
 10
10.8157738854
 20
28.9924095898
 30
0.0
 10
11.0412715768
 20
28.7398635518
 30
0.0
 10
11.1509133979
 20
28.6073992517
 30
0.0
  0
SPLINE
  5
359
100
AcDbEntity
  8
0
100
AcDbSpline
 62
7
  6
BYLAYER
 70
0
 71
3
 72
15
 73
11
 74
0
 42
0.0000001
 43
0.0000001
 44
0.0000000001
 40
0.0
 40
0.0
 40
0.0
 40
0.0
 40
0.1474074955
 40
0.2873708928
 40
0.4200108463
 40
0.5457546093
 40
0.6653532338
 40
0.7799196033
 40
0.890895691
 40
1.0
 40
1.0
 40
1.0
 40
1.0
 10
12.7317527788
 20
24.6109645438
 30
0.0
 10
12.72846128
 20
24.5098761176
 30
0.0
 10
12.7139632139
 20
24.3129345603
 30
0.0
 10
12.6662261975
 20
24.0282822006
 30
0.0
 10
12.5933489345
 20
23.7642931779
 30
0.0
 10
12.4958909767
 20
23.5232667395
 30
0.0
 10
12.3744899543
 20
23.3073725824
 30
0.0
 10
12.2300990414
 20
23.1185819049
 30
0.0
 10
12.0638972685
 20
22.9588591498
 30
0.0
 10
11.9390736311
 20
22.8724975023
 30
0.0
 10
11.8742399144
 20
22.8350713999
 30
0.0
  0
SPLINE
  5
35A
100
AcDbEntity
  8
0
100
AcDbSpline
 62
7
  6
BYLAYER
 70
0
 71
3
 72
24
 73
20
 74
0
 42
0.0000001
 43
0.0000001
 44
0.0000000001
 40
0.0
 40
0.0
 40
0.0
 40
0.0
 40
0.0217126677
 40
0.0438154029
 40
0.0895438226
 40
0.1378827873
 40
0.1892758864
 40
0.2439635039
 40
0.3020053828
 40
0.3633068157
 40
0.4276468754
 40
0.4947027206
 40
0.5640691091
 40
0.6352757088
 40
0.7078075322
 40
0.781115416
 40
0.8546253967
 40
0.9277879338
 40
1.0
 40
1.0
 40
1.0
 40
1.0
 10
6.8056292027
 20
30.6248049746
 30
0.0
 10
6.7648996959
 20
30.5877697715
 30
0.0
 10
6.686085363
 20
30.5092239684
 30
0.0
 10
6.5398766179
 20
30.3352348658
 30
0.0
 10
6.3801249415
 20
30.0860795498
 30
0.0
 10
6.2303566776
 20
29.7477155093
 30
0.0
 10
6.1214643873
 20
29.3705365633
 30
0.0
 10
6.0544580456
 20
28.9589709429
 30
0.0
 10
6.029897621
 20
28.5176873489
 30
0.0
 10
6.0479401311
 20
28.0517094279
 30
0.0
 10
6.1083082074
 20
27.5663512473
 30
0.0
 10
6.2102837507
 20
27.0671770667
 30
0.0
 10
6.3526831966
 20
26.5599385123
 30
0.0
 10
6.5338377469
 20
26.0504893617
 30
0.0
 10
6.7516537857
 20
25.5447267099
 30
0.0
 10
7.003608319
 20
25.0485321061
 30
0.0
 10
7.2867827874
 20
24.5676065095
 30
0.0
 10
7.5978803736
 20
24.1076287482
 30
0.0
 10
7.8235199516
 20
23.8158011576
 30
0.0
 10
7.9402595092
 20
23.6747616925
 30
0.0
  0
SPLINE
  5
35B
100
AcDbEntity
  8
0
100
AcDbSpline
 62
7
  6
BYLAYER
 70
0
 71
3
 72
13
 73
9
 74
0
 42
0.0000001
 43
0.0000001
 44
0.0000000001
 40
0.0
 40
0.0
 40
0.0
 40
0.0
 40
0.1181428928
 40
0.2370014017
 40
0.3572689461
 40
0.4795977713
 40
0.7325427082
 40
1.0
 40
1.0
 40
1.0
 40
1.0
 10
8.5316726968
 20
32.6254307371
 30
0.0
 10
8.4764223944
 20
32.5935337468
 30
0.0
 10
8.3685810352
 20
32.5241915715
 30
0.0
 10
8.2167784649
 20
32.4046899961
 30
0.0
 10
8.0751464822
 20
32.2699706377
 30
0.0
 10
7.8985670442
 20
32.0684883294
 30
0.0
 10
7.7054006378
 20
31.7780513507
 30
0.0
 10
7.5881384756
 20
31.5213935365
 30
0.0
 10
7.5371299396
 20
31.386275286
 30
0.0
  0
SPLINE
  5
35C
100
AcDbEntity
  8
0
100
AcDbSpline
 62
7
  6
BYLAYER
 70
0
 71
3
 72
15
 73
11
 74
0
 42
0.0000001
 43
0.0000001
 44
0.0000000001
 40
0.0
 40
0.0
 40
0.0
 40
0.0
 40
0.1080124997
 40
0.2180618382
 40
0.3319996243
 40
0.4513571054
 40
0.5772778255
 40
0.7105008922
 40
0.8513943405
 40
1.0
 40
1.0
 40
1.0
 40
1.0
 10
12.4207438015
 20
34.8707735834
 30
0.0
 10
12.519119626
 20
34.9275677109
 30
0.0
 10
12.7279808154
 20
35.025389852
 30
0.0
 10
13.0659442365
 20
35.1188290879
 30
0.0
 10
13.4262141523
 20
35.159006275
 30
0.0
 10
13.8049646265
 20
35.1458389249
 30
0.0
 10
14.1985425391
 20
35.079795343
 30
0.0
 10
14.603262429
 20
34.9617956514
 30
0.0
 10
15.0153543036
 20
34.7931563474
 30
0.0
 10
15.2854895841
 20
34.651708582
 30
0.0
 10
15.4208353412
 20
34.573567399
 30
0.0
  0
SPLINE
  5
35D
100
AcDbEntity
  8
0
100
AcDbSpline
 62
7
  6
BYLAYER
 70
0
 71
3
 72
20
 73
16
 74
0
 42
0.0000001
 43
0.0000001
 44
0.0000000001
 40
0.0
 40
0.0
 40
0.0
 40
0.0
 40
0.0473874747
 40
0.0959860231
 40
0.1461772639
 40
0.1982738623
 40
0.3089771346
 40
0.3679695052
 40
0.429430632
 40
0.4933524227
 40
0.5596757046
 40
0.6283016117
 40
0.6990854838
 40
0.8463978436
 40
1.0
 40
1.0
 40
1.0
 40
1.0
 10
8.3887788362
 20
31.8071729338
 30
0.0
 10
8.4623977953
 20
31.8317328897
 30
0.0
 10
8.6147609666
 20
31.8722343959
 30
0.0
 10
8.8522587036
 20
31.9060596922
 30
0.0
 10
9.0997567781
 20
31.9134680309
 30
0.0
 10
9.4481309673
 20
31.8876809152
 30
0.0
 10
9.80480647
 20
31.8077619642
 30
0.0
 10
10.1619811
 20
31.6816831268
 30
0.0
 10
10.4387194099
 20
31.5601413991
 30
0.0
 10
10.7169941175
 20
31.4142899089
 30
0.0
 10
10.9954343564
 20
31.2449270784
 30
0.0
 10
11.2725366871
 20
31.0529215926
 30
0.0
 10
11.6432105622
 20
30.7643179873
 30
0.0
 10
12.093089132
 20
30.3526234858
 30
0.0
 10
12.424076951
 20
29.9864626529
 30
0.0
 10
12.5844762607
 20
29.7926754458
 30
0.0
  0
SPLINE
  5
35E
100
AcDbEntity
  8
0
100
AcDbSpline
 62
7
  6
BYLAYER
 70
0
 71
3
 72
13
 73
9
 74
0
 42
0.0000001
 43
0.0000001
 44
0.0000000001
 40
0.0
 40
0.0
 40
0.0
 40
0.0
 40
0.2675664856
 40
0.5205344316
 40
0.6428472526
 40
0.7630849367
 40
0.8819024681
 40
1.0
 40
1.0
 40
1.0
 40
1.0
 10
12.9544449958
 20
21.992528965
 30
0.0
 10
13.0975754071
 20
21.9687231787
 30
0.0
 10
13.3796904306
 20
21.941264289
 30
0.0
 10
13.7293839012
 20
21.9628437439
 30
0.0
 10
13.9933264234
 20
22.0149331321
 30
0.0
 10
14.1816178285
 20
22.0702679943
 30
0.0
 10
14.3617473269
 20
22.1421794271
 30
0.0
 10
14.4761755189
 20
22.2011033402
 30
0.0
 10
14.5316384894
 20
22.2331231076
 30
0.0
  0
SPLINE
  5
35F
100
AcDbEntity
  8
0
100
AcDbSpline
 62
7
  6
BYLAYER
 70
0
 71
3
 72
14
 73
10
 74
0
 42
0.0000001
 43
0.0000001
 44
0.0000000001
 40
0.0
 40
0.0
 40
0.0
 40
0.0
 40
0.1440436499
 40
0.2841122197
 40
0.4192056572
 40
0.5485876543
 40
0.6716411137
 40
0.7879822935
 40
1.0
 40
1.0
 40
1.0
 40
1.0
 10
24.1419540224
 20
36.4055378308
 30
0.0
 10
24.0266904146
 20
36.5447941199
 30
0.0
 10
23.7903235613
 20
36.8121632637
 30
0.0
 10
23.4152806881
 20
37.1816996042
 30
0.0
 10
23.0280505183
 20
37.5108200999
 30
0.0
 10
22.6332340939
 20
37.795680591
 30
0.0
 10
22.2350220158
 20
38.0330842719
 30
0.0
 10
21.7223696157
 20
38.2748747158
 30
0.0
 10
21.3213138638
 20
38.3912949977
 30
0.0
 10
21.0576766872
 20
38.4272382967
 30
0.0
  0
SPLINE
  5
360
100
AcDbEntity
  8
0
100
AcDbSpline
 62
7
  6
BYLAYER
 70
0
 71
3
 72
19
 73
15
 74
0
 42
0.0000001
 43
0.0000001
 44
0.0000000001
 40
0.0
 40
0.0
 40
0.0
 40
0.0
 40
0.0976783893
 40
0.1504734061
 40
0.2058994142
 40
0.2638822865
 40
0.3242799464
 40
0.3868950649
 40
0.4514806802
 40
0.5177529778
 40
0.5853954973
 40
0.7233702686
 40
0.862557208
 40
1.0
 40
1.0
 40
1.0
 40
1.0
 10
25.8191921894
 20
30.1800007905
 30
0.0
 10
25.9019390213
 20
30.3823851452
 30
0.0
 10
25.9915726493
 20
30.7104343284
 30
0.0
 10
26.0507842476
 20
31.1677455791
 30
0.0
 10
26.0669035087
 20
31.5399301304
 30
0.0
 10
26.0533933085
 20
31.9290866658
 30
0.0
 10
26.0104418427
 20
32.3322777254
 30
0.0
 10
25.9383592545
 20
32.7462612528
 30
0.0
 10
25.8377663978
 20
33.1677596852
 30
0.0
 10
25.7094447898
 20
33.5934198408
 30
0.0
 10
25.501410006
 20
34.1656405099
 30
0.0
 10
25.179109304
 20
34.8686956225
 30
0.0
 10
24.7069173777
 20
35.6693870999
 30
0.0
 10
24.3381233856
 20
36.1685348594
 30
0.0
 10
24.1419540224
 20
36.4055378308
 30
0.0
  0
SPLINE
  5
361
100
AcDbEntity
  8
0
100
AcDbSpline
 62
7
  6
BYLAYER
 70
0
 71
3
 72
21
 73
17
 74
0
 42
0.0000001
 43
0.0000001
 44
0.0000000001
 40
0.0
 40
0.0
 40
0.0
 40
0.0
 40
0.1555179535
 40
0.3041914527
 40
0.3753980449
 40
0.4442487617
 40
0.5105947102
 40
0.5743409917
 40
0.6354430079
 40
0.6939186406
 40
0.7498525451
 40
0.8034081888
 40
0.8548303105
 40
0.9044496901
 40
0.9526786528
 40
1.0
 40
1.0
 40
1.0
 40
1.0
 10
12.4430554932
 20
29.7110266151
 30
0.0
 10
12.2738719788
 20
29.915426502
 30
0.0
 10
11.9243331671
 20
30.3002837816
 30
0.0
 10
11.447411584
 20
30.7297232758
 30
0.0
 10
11.054450982
 20
31.0272045081
 30
0.0
 10
10.7612951489
 20
31.2227353928
 30
0.0
 10
10.4671930488
 20
31.3926817477
 30
0.0
 10
10.1738812782
 20
31.5360750349
 30
0.0
 10
9.8830439471
 20
31.6520196216
 30
0.0
 10
9.596382111
 20
31.7398446772
 30
0.0
 10
9.3155434645
 20
31.7989521723
 30
0.0
 10
9.0421683508
 20
31.8289655344
 30
0.0
 10
8.7778639155
 20
31.8295941163
 30
0.0
 10
8.52420534
 20
31.800754167
 30
0.0
 10
8.2828217604
 20
31.742519775
 30
0.0
 10
8.1301031895
 20
31.683906095
 30
0.0
 10
8.056834266
 20
31.6499936127
 30
0.0
  0
SPLINE
  5
362
100
AcDbEntity
  8
0
100
AcDbSpline
 62
7
  6
BYLAYER
 70
0
 71
3
 72
22
 73
18
 74
0
 42
0.0000001
 43
0.0000001
 44
0.0000000001
 40
0.0
 40
0.0
 40
0.0
 40
0.0
 40
0.0474908422
 40
0.0955857632
 40
0.1448507595
 40
0.1957857369
 40
0.2488002694
 40
0.3042106708
 40
0.3622334131
 40
0.4229971256
 40
0.4865450606
 40
0.5528504358
 40
0.6218228361
 40
0.6933130131
 40
0.7671239191
 40
0.8430364123
 40
1.0
 40
1.0
 40
1.0
 40
1.0
 10
19.3451510429
 20
38.1180047937
 30
0.0
 10
19.4168825923
 20
38.1594167034
 30
0.0
 10
19.567291833
 20
38.2327742072
 30
0.0
 10
19.808157245
 20
38.3113842108
 30
0.0
 10
20.0632035992
 20
38.3585278214
 30
0.0
 10
20.3306258404
 20
38.3738953933
 30
0.0
 10
20.6086565243
 20
38.35759309
 30
0.0
 10
20.8954947651
 20
38.3097733238
 30
0.0
 10
21.1893344996
 20
38.2308827111
 30
0.0
 10
21.4883185379
 20
38.121448947
 30
0.0
 10
21.7905795245
 20
37.9822358199
 30
0.0
 10
22.0942119811
 20
37.8141419419
 30
0.0
 10
22.3972928688
 20
37.6182493842
 30
0.0
 10
22.6978984552
 20
37.3958430073
 30
0.0
 10
22.994133138
 20
37.1483183319
 30
0.0
 10
23.3850197769
 20
36.7829212942
 30
0.0
 10
23.6592675131
 20
36.482080242
 30
0.0
 10
23.8338203575
 20
36.271193373
 30
0.0
  0
SPLINE
  5
363
100
AcDbEntity
  8
0
100
AcDbSpline
 62
7
  6
BYLAYER
 70
0
 71
3
 72
11
 73
7
 74
0
 42
0.0000001
 43
0.0000001
 44
0.0000000001
 40
0.0
 40
0.0
 40
0.0
 40
0.0
 40
0.2325814167
 40
0.4780123227
 40
0.7345773375
 40
1.0
 40
1.0
 40
1.0
 40
1.0
 10
15.4208353412
 20
34.573567399
 30
0.0
 10
15.6029157777
 20
34.468444187
 30
0.0
 10
15.9653230314
 20
34.2314758334
 30
0.0
 10
16.4844994252
 20
33.8160942885
 30
0.0
 10
16.9871291845
 20
33.3368072679
 30
0.0
 10
17.3017768801
 20
32.9844171062
 30
0.0
 10
17.4547654628
 20
32.799583205
 30
0.0
  0
SPLINE
  5
364
100
AcDbEntity
  8
0
100
AcDbSpline
 62
7
  6
BYLAYER
 70
0
 71
3
 72
15
 73
11
 74
0
 42
0.0000001
 43
0.0000001
 44
0.0000000001
 40
0.0
 40
0.0
 40
0.0
 40
0.0
 40
0.1108500945
 40
0.2281962168
 40
0.3510463805
 40
0.4781664113
 40
0.6081544319
 40
0.739491771
 40
0.8706320709
 40
1.0
 40
1.0
 40
1.0
 40
1.0
 10
19.6633798273
 20
27.7559276117
 30
0.0
 10
19.6633828121
 20
27.957071665
 30
0.0
 10
19.6387117944
 20
28.371389519
 30
0.0
 10
19.5363688638
 20
29.0010302055
 30
0.0
 10
19.3693976341
 20
29.6472025709
 30
0.0
 10
19.1407662786
 20
30.2984647037
 30
0.0
 10
18.8545023837
 20
30.9433677788
 30
0.0
 10
18.5156648843
 20
31.5705591728
 30
0.0
 10
18.1302617577
 20
32.1688699484
 30
0.0
 10
17.8437081948
 20
32.5455682582
 30
0.0
 10
17.6940287574
 20
32.7264041994
 30
0.0
  0
SPLINE
  5
365
100
AcDbEntity
  8
0
100
AcDbSpline
 62
7
  6
BYLAYER
 70
0
 71
3
 72
25
 73
21
 74
0
 42
0.0000001
 43
0.0000001
 44
0.0000000001
 40
0.0
 40
0.0
 40
0.0
 40
0.0
 40
0.0217137578
 40
0.0435725838
 40
0.0657165398
 40
0.0882767627
 40
0.1350625397
 40
0.1847432461
 40
0.2378164165
 40
0.2945263656
 40
0.3548967858
 40
0.4187677868
 40
0.4858302176
 40
0.5556573906
 40
0.6277310665
 40
0.7014649944
 40
0.7762258215
 40
0.8513438992
 40
0.9261670015
 40
1.0
 40
1.0
 40
1.0
 40
1.0
 10
14.5316384894
 20
22.2331231076
 30
0.0
 10
14.5896867972
 20
22.2666354366
 30
0.0
 10
14.7028681451
 20
22.3398014973
 30
0.0
 10
14.8615975847
 20
22.4666249685
 30
0.0
 10
15.0090447319
 20
22.6102017621
 30
0.0
 10
15.1920309415
 20
22.8257933088
 30
0.0
 10
15.3899898759
 20
23.1377445707
 30
0.0
 10
15.5713033482
 20
23.5641325438
 30
0.0
 10
15.697796978
 20
24.0413763415
 30
0.0
 10
15.7681939069
 20
24.5630776095
 30
0.0
 10
15.7818892281
 20
25.1224720039
 30
0.0
 10
15.7388457522
 20
25.7122670983
 30
0.0
 10
15.6397225737
 20
26.3247405628
 30
0.0
 10
15.4858686262
 20
26.9518240878
 30
0.0
 10
15.2793397405
 20
27.5852216252
 30
0.0
 10
15.0228771336
 20
28.2165279677
 30
0.0
 10
14.7198926728
 20
28.837319519
 30
0.0
 10
14.3744326515
 20
29.4393985893
 30
0.0
 10
13.9910997165
 20
30.0146274306
 30
0.0
 10
13.7110168227
 20
30.3786683154
 30
0.0
 10
13.5656943581
 20
30.5542403587
 30
0.0
  0
SPLINE
  5
366
100
AcDbEntity
  8
0
100
AcDbSpline
 62
7
  6
BYLAYER
 70
0
 71
3
 72
21
 73
17
 74
0
 42
0.0000001
 43
0.0000001
 44
0.0000000001
 40
0.0
 40
0.0
 40
0.0
 40
0.0
 40
0.0474937594
 40
0.0955911404
 40
0.1448595599
 40
0.1957967317
 40
0.2488152288
 40
0.3042279469
 40
0.3622551225
 40
0.4230210505
 40
0.4865734884
 40
0.5528829295
 40
0.6218605143
 40
0.6933512284
 40
0.8430310187
 40
1.0
 40
1.0
 40
1.0
 40
1.0
 10
11.8742399144
 20
22.8350713999
 30
0.0
 10
11.818596207
 20
22.8029503494
 30
0.0
 10
11.7019207573
 20
22.7460556545
 30
0.0
 10
11.5150863876
 20
22.6850587359
 30
0.0
 10
11.3172435238
 20
22.6485117573
 30
0.0
 10
11.1098046141
 20
22.6365674425
 30
0.0
 10
10.8941381081
 20
22.6492360732
 30
0.0
 10
10.6716329854
 20
22.6863085816
 30
0.0
 10
10.4437078125
 20
22.7475236865
 30
0.0
 10
10.2117788126
 20
22.8323933174
 30
0.0
 10
9.9773209864
 20
22.9403950445
 30
0.0
 10
9.7417863325
 20
23.0707768966
 30
0.0
 10
9.5066912222
 20
23.222739815
 30
0.0
 10
9.1909731887
 20
23.4563226576
 30
0.0
 10
8.807782554
 20
23.7969272655
 30
0.0
 10
8.5277718915
 20
24.1040645383
 30
0.0
 10
8.3923743795
 20
24.2676457019
 30
0.0
  0
SPLINE
  5
367
100
AcDbEntity
  8
0
100
AcDbSpline
 62
7
  6
BYLAYER
 70
0
 71
3
 72
25
 73
21
 74
0
 42
0.0000001
 43
0.0000001
 44
0.0000000001
 40
0.0
 40
0.0
 40
0.0
 40
0.0
 40
0.0738329985
 40
0.1486561008
 40
0.2237741785
 40
0.2985350056
 40
0.3722689335
 40
0.4443426094
 40
0.5141697824
 40
0.5812322132
 40
0.6451032142
 40
0.7054736344
 40
0.7621835835
 40
0.8152567539
 40
0.8649374603
 40
0.9117232373
 40
0.9342834602
 40
0.9564274162
 40
0.9782862422
 40
1.0
 40
1.0
 40
1.0
 40
1.0
 10
12.8857226644
 20
29.9503439531
 30
0.0
 10
13.015301862
 20
29.7937922145
 30
0.0
 10
13.2650424423
 20
29.4691890922
 30
0.0
 10
13.6068476427
 20
28.9562767087
 30
0.0
 10
13.9148828283
 20
28.419422871
 30
0.0
 10
14.1850439725
 20
27.8658837378
 30
0.0
 10
14.4137231303
 20
27.3029689157
 30
0.0
 10
14.5978780534
 20
26.7381894449
 30
0.0
 10
14.73506449
 20
26.1790399684
 30
0.0
 10
14.8234493241
 20
25.6329177959
 30
0.0
 10
14.8618297568
 20
25.10701717
 30
0.0
 10
14.8496180954
 20
24.608223835
 30
0.0
 10
14.7868475005
 20
24.1430402044
 30
0.0
 10
14.6740573472
 20
23.7174978181
 30
0.0
 10
14.5123861678
 20
23.3373018754
 30
0.0
 10
14.3358727845
 20
23.0591453336
 30
0.0
 10
14.172710081
 20
22.8669095377
 30
0.0
 10
14.0412363748
 20
22.7388868968
 30
0.0
 10
13.8997026245
 20
22.625802635
 30
0.0
 10
13.7987825892
 20
22.5605628975
 30
0.0
 10
13.7470228481
 20
22.5306810709
 30
0.0
  0
SPLINE
  5
368
100
AcDbEntity
  8
0
100
AcDbSpline
 62
7
  6
BYLAYER
 70
0
 71
3
 72
18
 73
14
 74
0
 42
0.0000001
 43
0.0000001
 44
0.0000000001
 40
0.0
 40
0.0
 40
0.0
 40
0.0
 40
0.1508026169
 40
0.2924335656
 40
0.4250562901
 40
0.5493881592
 40
0.6667768956
 40
0.7235269786
 40
0.7793354865
 40
0.834533951
 40
0.8894724947
 40
0.9445093298
 40
1.0
 40
1.0
 40
1.0
 40
1.0
 10
12.7337534098
 20
24.6124384287
 30
0.0
 10
12.73375785
 20
24.4824542462
 30
0.0
 10
12.7216677824
 20
24.2301433226
 30
0.0
 10
12.6635099192
 20
23.8675786691
 30
0.0
 10
12.5663687298
 20
23.5369251837
 30
0.0
 10
12.4311991813
 20
23.2425789492
 30
0.0
 10
12.2861534406
 20
23.0283574766
 30
0.0
 10
12.1532863772
 20
22.88094325
 30
0.0
 10
12.0465880485
 20
22.7830115702
 30
0.0
 10
11.9321066993
 20
22.6968789309
 30
0.0
 10
11.8102434371
 20
22.622807416
 30
0.0
 10
11.6814127896
 20
22.5611006264
 30
0.0
 10
11.5917006488
 20
22.5285182082
 30
0.0
 10
11.5460172471
 20
22.5143496323
 30
0.0
  0
SPLINE
  5
369
100
AcDbEntity
  8
0
100
AcDbSpline
 62
7
  6
BYLAYER
 70
0
 71
3
 72
17
 73
13
 74
0
 42
0.0000001
 43
0.0000001
 44
0.0000000001
 40
0.0
 40
0.0
 40
0.0
 40
0.0
 40
0.0474415632
 40
0.0961445846
 40
0.1464692063
 40
0.1987137169
 40
0.3096949194
 40
0.4302429564
 40
0.5604576832
 40
0.6996936338
 40
0.8467574555
 40
1.0
 40
1.0
 40
1.0
 40
1.0
 10
11.5460172471
 20
22.5143496323
 30
0.0
 10
11.4874187451
 20
22.4961754751
 30
0.0
 10
11.366294938
 20
22.4665930613
 30
0.0
 10
11.1779439073
 20
22.4432411985
 30
0.0
 10
10.9819618561
 20
22.4404289723
 30
0.0
 10
10.7064497307
 20
22.4645814384
 30
0.0
 10
10.347189391
 20
22.5489806598
 30
0.0
 10
9.9129056561
 20
22.7270415621
 30
0.0
 10
9.4749286445
 20
22.9797950636
 30
0.0
 10
9.0419208713
 20
23.3019618739
 30
0.0
 10
8.6225294516
 20
23.6869400282
 30
0.0
 10
8.3618192345
 20
23.9756208524
 30
0.0
 10
8.2354578348
 20
24.1282849929
 30
0.0
  0
SPLINE
  5
36A
100
AcDbEntity
  8
0
100
AcDbSpline
 62
7
  6
BYLAYER
 70
0
 71
3
 72
23
 73
19
 74
0
 42
0.0000001
 43
0.0000001
 44
0.0000000001
 40
0.0
 40
0.0
 40
0.0
 40
0.0
 40
0.0792482013
 40
0.1570060765
 40
0.2329147437
 40
0.3067219297
 40
0.3782085036
 40
0.4471774277
 40
0.5134794611
 40
0.5770241934
 40
0.6377848434
 40
0.6958046613
 40
0.75121227
 40
0.8042241307
 40
0.8551565409
 40
0.9044190543
 40
0.9525115513
 40
1.0
 40
1.0
 40
1.0
 40
1.0
 10
13.5656943581
 20
30.5542403587
 30
0.0
 10
13.4668534369
 20
30.673655499
 30
0.0
 10
13.2652403539
 20
30.9055228166
 30
0.0
 10
12.9491966185
 20
31.2339440808
 30
0.0
 10
12.6239785547
 20
31.5379383694
 30
0.0
 10
12.2917659417
 20
31.8155280135
 30
0.0
 10
11.9546348084
 20
32.0649578016
 30
0.0
 10
11.6147318659
 20
32.2846498623
 30
0.0
 10
11.2742092682
 20
32.4731664942
 30
0.0
 10
10.9352250386
 20
32.6292933322
 30
0.0
 10
10.5999158231
 20
32.7520227956
 30
0.0
 10
10.2703759374
 20
32.8404982471
 30
0.0
 10
9.9486881898
 20
32.894127892
 30
0.0
 10
9.6368780773
 20
32.9124108488
 30
0.0
 10
9.3369652833
 20
32.8951761888
 30
0.0
 10
9.050931989
 20
32.8423048498
 30
0.0
 10
8.7808025549
 20
32.7541440981
 30
0.0
 10
8.6121192943
 20
32.6718740003
 30
0.0
 10
8.5316726968
 20
32.6254307371
 30
0.0
  0
SPLINE
  5
36B
100
AcDbEntity
  8
0
100
AcDbSpline
 62
7
  6
BYLAYER
 70
0
 71
3
 72
26
 73
22
 74
0
 42
0.0000001
 43
0.0000001
 44
0.0000000001
 40
0.0
 40
0.0
 40
0.0
 40
0.0
 40
0.0229897501
 40
0.0458059016
 40
0.0685823828
 40
0.0914540983
 40
0.1145534405
 40
0.138005745
 40
0.1863804031
 40
0.2374009197
 40
0.2916148174
 40
0.3493419247
 40
0.4106949803
 40
0.4756102615
 40
0.5438789606
 40
0.6151736748
 40
0.6890710602
 40
0.7650731612
 40
0.8426279987
 40
0.9211447074
 40
1.0
 40
1.0
 40
1.0
 40
1.0
 10
11.9360223937
 20
21.7386500096
 30
0.0
 10
11.9881860366
 20
21.7553157289
 30
0.0
 10
12.0906718568
 20
21.7932872086
 30
0.0
 10
12.2380728883
 20
21.8642494303
 30
0.0
 10
12.3778958904
 20
21.9486613966
 30
0.0
 10
12.5096706669
 20
22.0462804561
 30
0.0
 10
12.6329999319
 20
22.1568015179
 30
0.0
 10
12.7872451505
 20
22.322496498
 30
0.0
 10
12.957353178
 20
22.5624631515
 30
0.0
 10
13.1194444157
 20
22.8919754625
 30
0.0
 10
13.2403375037
 20
23.2620538051
 30
0.0
 10
13.318893151
 20
23.6682469955
 30
0.0
 10
13.3544586317
 20
24.1058599168
 30
0.0
 10
13.3467675085
 20
24.5698386247
 30
0.0
 10
13.2959848657
 20
25.0548190579
 30
0.0
 10
13.2027302275
 20
25.555161153
 30
0.0
 10
13.068121777
 20
26.0650203802
 30
0.0
 10
12.8937560506
 20
26.578421567
 30
0.0
 10
12.6816731806
 20
27.0893410476
 30
0.0
 10
12.4343766051
 20
27.5917211139
 30
0.0
 10
12.2478781007
 20
27.9172293625
 30
0.0
 10
12.1494149479
 20
28.0771852814
 30
0.0
  0
SPLINE
  5
36C
100
AcDbEntity
  8
0
100
AcDbSpline
 62
7
  6
BYLAYER
 70
0
 71
3
 72
24
 73
20
 74
0
 42
0.0000001
 43
0.0000001
 44
0.0000000001
 40
0.0
 40
0.0
 40
0.0
 40
0.0
 40
0.0808890151
 40
0.1600646207
 40
0.2371077519
 40
0.3117217614
 40
0.3836449539
 40
0.4526557901
 40
0.5186119262
 40
0.5814496511
 40
0.6411983404
 40
0.6699631574
 40
0.6980178906
 40
0.7521231022
 40
0.8039268624
 40
0.8539469236
 40
0.9028170809
 40
0.9512522028
 40
1.0
 40
1.0
 40
1.0
 40
1.0
 10
11.4461117235
 20
29.0609225521
 30
0.0
 10
11.3527278824
 20
29.1737446944
 30
0.0
 10
11.1619483896
 20
29.3921278261
 30
0.0
 10
10.8618200166
 20
29.6993973401
 30
0.0
 10
10.552598892
 20
29.9809479584
 30
0.0
 10
10.2367338664
 20
30.2345699173
 30
0.0
 10
9.9166310007
 20
30.4583662433
 30
0.0
 10
9.5947022522
 20
30.6505693357
 30
0.0
 10
9.2734130016
 20
30.8097221136
 30
0.0
 10
8.9551985989
 20
30.9345397996
 30
0.0
 10
8.691251253
 20
31.0100715665
 30
0.0
 10
8.4842479995
 20
31.0517337181
 30
0.0
 10
8.2853833339
 20
31.0804103197
 30
0.0
 10
8.0425765811
 20
31.0941920739
 30
0.0
 10
7.7601454917
 20
31.0740098644
 30
0.0
 10
7.4924023124
 20
31.0168171304
 30
0.0
 10
7.2416265905
 20
30.9229537012
 30
0.0
 10
7.0100924724
 20
30.7931497685
 30
0.0
 10
6.8709309608
 20
30.684183643
 30
0.0
 10
6.8056292027
 20
30.6248049746
 30
0.0
  0
SPLINE
  5
36D
100
AcDbEntity
  8
0
100
AcDbSpline
 62
7
  6
BYLAYER
 70
0
 71
3
 72
15
 73
11
 74
0
 42
0.0000001
 43
0.0000001
 44
0.0000000001
 40
0.0
 40
0.0
 40
0.0
 40
0.0
 40
0.1293679291
 40
0.260508229
 40
0.3918455681
 40
0.5218335887
 40
0.6489536195
 40
0.7718037832
 40
0.8891499055
 40
1.0
 40
1.0
 40
1.0
 40
1.0
 10
17.4547654628
 20
32.799583205
 30
0.0
 10
17.6226302524
 20
32.596776542
 30
0.0
 10
17.9439987341
 20
32.1743111477
 30
0.0
 10
18.3762265397
 20
31.5033084088
 30
0.0
 10
18.7562312118
 20
30.7999161912
 30
0.0
 10
19.0772748323
 20
30.076660406
 30
0.0
 10
19.3336838292
 20
29.3462729674
 30
0.0
 10
19.520941283
 20
28.6215936791
 30
0.0
 10
19.6357184014
 20
27.9154545915
 30
0.0
 10
19.6633868325
 20
27.4507990543
 30
0.0
 10
19.6633834851
 20
27.2252169384
 30
0.0
  0
SPLINE
  5
36E
100
AcDbEntity
  8
0
100
AcDbSpline
 62
7
  6
BYLAYER
 70
0
 71
3
 72
25
 73
21
 74
0
 42
0.0000001
 43
0.0000001
 44
0.0000000001
 40
0.0
 40
0.0
 40
0.0
 40
0.0
 40
0.021643647
 40
0.0435425398
 40
0.0658211238
 40
0.0885936763
 40
0.1359678084
 40
0.1863345325
 40
0.2400767515
 40
0.2973538503
 40
0.3581343998
 40
0.4222291675
 40
0.4893204608
 40
0.5589880951
 40
0.6307327157
 40
0.7039969751
 40
0.7781822145
 40
0.8526584023
 40
0.9268164787
 40
1.0
 40
1.0
 40
1.0
 40
1.0
 10
13.4463128504
 20
22.3074043035
 30
0.0
 10
13.494606981
 20
22.3412729883
 30
0.0
 10
13.5884874803
 20
22.4142171152
 30
0.0
 10
13.7191592529
 20
22.537481758
 30
0.0
 10
13.8398720142
 20
22.6746575453
 30
0.0
 10
13.9888978285
 20
22.8780872423
 30
0.0
 10
14.1479719433
 20
23.1672465582
 30
0.0
 10
14.2904248104
 20
23.5561550443
 30
0.0
 10
14.3858307439
 20
23.9866941373
 30
0.0
 10
14.4332728471
 20
24.4534344755
 30
0.0
 10
14.4323788879
 20
24.9506455588
 30
0.0
 10
14.3832537218
 20
25.4721801638
 30
0.0
 10
14.2865584592
 20
26.0115603709
 30
0.0
 10
14.1435375869
 20
26.5620504491
 30
0.0
 10
13.9560007074
 20
27.1167516888
 30
0.0
 10
13.726303371
 20
27.668693474
 30
0.0
 10
13.4573340844
 20
28.2109015939
 30
0.0
 10
13.1524921913
 20
28.7366052169
 30
0.0
 10
12.8156231442
 20
29.2390711283
 30
0.0
 10
12.5702300118
 20
29.5573801011
 30
0.0
 10
12.4430554932
 20
29.7110266151
 30
0.0
  0
SPLINE
  5
36F
100
AcDbEntity
  8
0
100
AcDbSpline
 62
7
  6
BYLAYER
 70
0
 71
3
 72
11
 73
7
 74
0
 42
0.0000001
 43
0.0000001
 44
0.0000000001
 40
0.0
 40
0.0
 40
0.0
 40
0.0
 40
0.2654226625
 40
0.5219876773
 40
0.7674185833
 40
1.0
 40
1.0
 40
1.0
 40
1.0
 10
17.6940287574
 20
32.7264041994
 30
0.0
 10
17.5576139379
 20
32.891214428
 30
0.0
 10
17.277053076
 20
33.2054289888
 30
0.0
 10
16.8288748739
 20
33.6327932489
 30
0.0
 10
16.3659425895
 20
34.0031751264
 30
0.0
 10
16.0427961216
 20
34.2144719084
 30
0.0
 10
15.8804410657
 20
34.3082067724
 30
0.0
  0
SPLINE
  5
370
100
AcDbEntity
  8
0
100
AcDbSpline
 62
7
  6
BYLAYER
 70
0
 71
3
 72
24
 73
20
 74
0
 42
0.0000001
 43
0.0000001
 44
0.0000000001
 40
0.0
 40
0.0
 40
0.0
 40
0.0
 40
0.0738332233
 40
0.1486655354
 40
0.2237864171
 40
0.2985508114
 40
0.3722890972
 40
0.4443664231
 40
0.5141977312
 40
0.5812634946
 40
0.6451373255
 40
0.7055112391
 40
0.7622245534
 40
0.815300072
 40
0.8649828906
 40
0.9117714915
 40
0.9564283643
 40
0.9782868583
 40
1.0
 40
1.0
 40
1.0
 40
1.0
 10
8.3923743795
 20
24.2676457019
 30
0.0
 10
8.2918644274
 20
24.3890772899
 30
0.0
 10
8.0981417715
 20
24.6408784216
 30
0.0
 10
7.8329963731
 20
25.0387428818
 30
0.0
 10
7.5940483349
 20
25.4551888586
 30
0.0
 10
7.384487828
 20
25.8845702808
 30
0.0
 10
7.2071036229
 20
26.3212258757
 30
0.0
 10
7.0642523981
 20
26.7593278468
 30
0.0
 10
6.9578305223
 20
27.1930605772
 30
0.0
 10
6.8892771229
 20
27.6166898454
 30
0.0
 10
6.8595137349
 20
28.0246320927
 30
0.0
 10
6.8689788343
 20
28.4115465089
 30
0.0
 10
6.9176700823
 20
28.7723960168
 30
0.0
 10
7.0051573741
 20
29.1024745143
 30
0.0
 10
7.1306235358
 20
29.3974302356
 30
0.0
 10
7.2927741244
 20
29.653112437
 30
0.0
 10
7.458460879
 20
29.8315782248
 30
0.0
 10
7.6058354162
 20
29.949298383
 30
0.0
 10
7.6841143028
 20
29.9999107139
 30
0.0
 10
7.7242604399
 20
30.0230896063
 30
0.0
  0
SPLINE
  5
371
100
AcDbEntity
  8
0
100
AcDbSpline
 62
7
  6
BYLAYER
 70
0
 71
3
 72
22
 73
18
 74
0
 42
0.0000001
 43
0.0000001
 44
0.0000000001
 40
0.0
 40
0.0
 40
0.0
 40
0.0
 40
0.0474908422
 40
0.0955857632
 40
0.1448507595
 40
0.1957857369
 40
0.2488002694
 40
0.3042106708
 40
0.3622334131
 40
0.4229971256
 40
0.4865450606
 40
0.5528504358
 40
0.6218228361
 40
0.6933130131
 40
0.7671239191
 40
0.8430364123
 40
1.0
 40
1.0
 40
1.0
 40
1.0
 10
8.3970533497
 20
31.7971553738
 30
0.0
 10
8.4687848992
 20
31.8385672835
 30
0.0
 10
8.6191941399
 20
31.9119247874
 30
0.0
 10
8.8600595519
 20
31.990534791
 30
0.0
 10
9.115105906
 20
32.0376784016
 30
0.0
 10
9.3825281473
 20
32.0530459734
 30
0.0
 10
9.6605588311
 20
32.0367436702
 30
0.0
 10
9.947397072
 20
31.988923904
 30
0.0
 10
10.2412368064
 20
31.9100332912
 30
0.0
 10
10.5402208447
 20
31.8005995271
 30
0.0
 10
10.8424818314
 20
31.6613864001
 30
0.0
 10
11.1461142879
 20
31.493292522
 30
0.0
 10
11.4491951757
 20
31.2973999644
 30
0.0
 10
11.749800762
 20
31.0749935874
 30
0.0
 10
12.0460354448
 20
30.8274689121
 30
0.0
 10
12.4369220837
 20
30.4620718743
 30
0.0
 10
12.71116982
 20
30.1612308221
 30
0.0
 10
12.8857226644
 20
29.9503439531
 30
0.0
  0
SPLINE
  5
372
100
AcDbEntity
  8
0
100
AcDbSpline
 62
7
  6
BYLAYER
 70
0
 71
3
 72
11
 73
7
 74
0
 42
0.0000001
 43
0.0000001
 44
0.0000000001
 40
0.0
 40
0.0
 40
0.0
 40
0.0
 40
0.2224605835
 40
0.4617902292
 40
0.7206799047
 40
1.0
 40
1.0
 40
1.0
 40
1.0
 10
8.1111881911
 20
30.2794990396
 30
0.0
 10
8.233215833
 20
30.2948956388
 30
0.0
 10
8.4905550608
 20
30.298868015
 30
0.0
 10
8.8849649166
 20
30.2304686765
 30
0.0
 10
9.2929910789
 20
30.0903258672
 30
0.0
 10
9.5595213997
 20
29.9559689236
 30
0.0
 10
9.6932634824
 20
29.8787532121
 30
0.0
  0
SPLINE
  5
373
100
AcDbEntity
  8
0
100
AcDbSpline
 62
7
  6
BYLAYER
 70
0
 71
3
 72
23
 73
19
 74
0
 42
0.0000001
 43
0.0000001
 44
0.0000000001
 40
0.0
 40
0.0
 40
0.0
 40
0.0
 40
0.0721239125
 40
0.1452051786
 40
0.2186306519
 40
0.2918602675
 40
0.3643287101
 40
0.4354880807
 40
0.5048266774
 40
0.5718781428
 40
0.636238765
 40
0.6975838519
 40
0.7556913086
 40
0.8104628406
 40
0.8619486547
 40
0.9103785474
 40
0.9561830873
 40
1.0
 40
1.0
 40
1.0
 40
1.0
 10
8.2354578348
 20
24.1282849929
 30
0.0
 10
8.1387513414
 20
24.2451214137
 30
0.0
 10
7.9517972169
 20
24.4868615935
 30
0.0
 10
7.6939289087
 20
24.8678300198
 30
0.0
 10
7.4590876471
 20
25.2661303961
 30
0.0
 10
7.2500027165
 20
25.67708463
 30
0.0
 10
7.0690447199
 20
26.0960027395
 30
0.0
 10
6.9183093232
 20
26.5180591457
 30
0.0
 10
6.799544947
 20
26.9384043344
 30
0.0
 10
6.7141024428
 20
27.3522158604
 30
0.0
 10
6.6629690078
 20
27.7547632764
 30
0.0
 10
6.6467784959
 20
28.1414663509
 30
0.0
 10
6.6657443004
 20
28.5079413512
 30
0.0
 10
6.719740683
 20
28.8500584751
 30
0.0
 10
6.8083379141
 20
29.1639375247
 30
0.0
 10
6.9307770934
 20
29.4459992382
 30
0.0
 10
7.0858751464
 20
29.6927838956
 30
0.0
 10
7.2123269301
 20
29.8340728039
 30
0.0
 10
7.2798154081
 20
29.8968047849
 30
0.0
  0
SPLINE
  5
374
100
AcDbEntity
  8
0
100
AcDbSpline
 62
7
  6
BYLAYER
 70
0
 71
3
 72
11
 73
7
 74
0
 42
0.0000001
 43
0.0000001
 44
0.0000000001
 40
0.0
 40
0.0
 40
0.0
 40
0.0
 40
0.2485078768
 40
0.495258455
 40
0.7445062038
 40
1.0
 40
1.0
 40
1.0
 40
1.0
 10
7.2798154081
 20
29.8968047849
 30
0.0
 10
7.3362202737
 20
29.9492343117
 30
0.0
 10
7.4569188905
 20
30.0452418183
 30
0.0
 10
7.658985053
 20
30.1585779215
 30
0.0
 10
7.8785703837
 20
30.2389086778
 30
0.0
 10
8.0326372842
 20
30.2695880324
 30
0.0
 10
8.1111881911
 20
30.2794990396
 30
0.0
  0
SPLINE
  5
375
100
AcDbEntity
  8
0
100
AcDbSpline
 62
7
  6
BYLAYER
 70
0
 71
3
 72
25
 73
21
 74
0
 42
0.0000001
 43
0.0000001
 44
0.0000000001
 40
0.0
 40
0.0
 40
0.0
 40
0.0
 40
0.0738329985
 40
0.1486561008
 40
0.2237741785
 40
0.2985350056
 40
0.3722689335
 40
0.4443426094
 40
0.5141697824
 40
0.5812322132
 40
0.6451032142
 40
0.7054736344
 40
0.7621835835
 40
0.8152567539
 40
0.8649374603
 40
0.9117232373
 40
0.9342834602
 40
0.9564274162
 40
0.9782862422
 40
1.0
 40
1.0
 40
1.0
 40
1.0
 10
23.8338203575
 20
36.271193373
 30
0.0
 10
23.9633995551
 20
36.1146416344
 30
0.0
 10
24.2131401354
 20
35.7900385121
 30
0.0
 10
24.5549453358
 20
35.2771261286
 30
0.0
 10
24.8629805214
 20
34.7402722909
 30
0.0
 10
25.1331416657
 20
34.1867331576
 30
0.0
 10
25.3618208234
 20
33.6238183356
 30
0.0
 10
25.5459757466
 20
33.0590388648
 30
0.0
 10
25.6831621831
 20
32.4998893882
 30
0.0
 10
25.7715470172
 20
31.9537672157
 30
0.0
 10
25.80992745
 20
31.4278665899
 30
0.0
 10
25.7977157885
 20
30.9290732549
 30
0.0
 10
25.7349451936
 20
30.4638896243
 30
0.0
 10
25.6221550403
 20
30.038347238
 30
0.0
 10
25.4604838609
 20
29.6581512953
 30
0.0
 10
25.2839704777
 20
29.3799947534
 30
0.0
 10
25.1208077741
 20
29.1877589576
 30
0.0
 10
24.9893340679
 20
29.0597363167
 30
0.0
 10
24.8478003176
 20
28.9466520549
 30
0.0
 10
24.7468802824
 20
28.8814123174
 30
0.0
 10
24.6951205412
 20
28.8515304907
 30
0.0
  0
SPLINE
  5
376
100
AcDbEntity
  8
0
100
AcDbSpline
 62
7
  6
BYLAYER
 70
0
 71
3
 72
15
 73
11
 74
0
 42
0.0000001
 43
0.0000001
 44
0.0000000001
 40
0.0
 40
0.0
 40
0.0
 40
0.0
 40
0.1299845125
 40
0.2613769893
 40
0.3927056053
 40
0.5225156209
 40
0.6493759399
 40
0.771977096
 40
0.8891610002
 40
1.0
 40
1.0
 40
1.0
 40
1.0
 10
44.7164115962
 20
48.2824294307
 30
0.0
 10
44.8713382799
 20
48.08822541
 30
0.0
 10
45.1675938596
 20
47.6852769795
 30
0.0
 10
45.5655786042
 20
47.0481467483
 30
0.0
 10
45.9147061259
 20
46.3833112347
 30
0.0
 10
46.2091614319
 20
45.701930757
 30
0.0
 10
46.4440050327
 20
45.0153330634
 30
0.0
 10
46.6153221219
 20
44.3349429346
 30
0.0
 10
46.720227228
 20
43.6721568758
 30
0.0
 10
46.7454490029
 20
43.2361080661
 30
0.0
 10
46.7454492087
 20
43.024269476
 30
0.0
  0
SPLINE
  5
377
100
AcDbEntity
  8
0
100
AcDbSpline
 62
7
  6
BYLAYER
 70
0
 71
3
 72
9
 73
5
 74
0
 42
0.0000001
 43
0.0000001
 44
0.0000000001
 40
0.0
 40
0.0
 40
0.0
 40
0.0
 40
0.2549065961
 40
1.0
 40
1.0
 40
1.0
 40
1.0
 10
46.7454536952
 20
42.8609719316
 30
0.0
 10
46.7454538293
 20
42.8205506993
 30
0.0
 10
46.7437566547
 20
42.6619850651
 30
0.0
 10
46.7351477936
 20
42.5034734359
 30
0.0
 10
46.7244237615
 20
42.3858096384
 30
0.0
  0
SPLINE
  5
378
100
AcDbEntity
  8
0
100
AcDbSpline
 62
7
  6
BYLAYER
 70
0
 71
3
 72
11
 73
7
 74
0
 42
0.0000001
 43
0.0000001
 44
0.0000000001
 40
0.0
 40
0.0
 40
0.0
 40
0.0
 40
0.2325810675
 40
0.4780121557
 40
0.7345771936
 40
1.0
 40
1.0
 40
1.0
 40
1.0
 10
42.6443294592
 20
50.1276672091
 30
0.0
 10
42.8203399648
 20
50.0260479121
 30
0.0
 10
43.1706663597
 20
49.7969783378
 30
0.0
 10
43.6725375952
 20
49.3954444863
 30
0.0
 10
44.1584132585
 20
48.9321339511
 30
0.0
 10
44.4625729354
 20
48.5914904581
 30
0.0
 10
44.6104619033
 20
48.4128176812
 30
0.0
  0
SPLINE
  5
379
100
AcDbEntity
  8
0
100
AcDbSpline
 62
7
  6
BYLAYER
 70
0
 71
3
 72
13
 73
9
 74
0
 42
0.0000001
 43
0.0000001
 44
0.0000000001
 40
0.0
 40
0.0
 40
0.0
 40
0.0
 40
0.1181464874
 40
0.2370087836
 40
0.3572784213
 40
0.4796085698
 40
0.7325520087
 40
1.0
 40
1.0
 40
1.0
 40
1.0
 10
20.2695955957
 20
39.4022850749
 30
0.0
 10
20.2143619282
 20
39.3704007252
 30
0.0
 10
20.1065577448
 20
39.3010770765
 30
0.0
 10
19.954803612
 20
39.1816179529
 30
0.0
 10
19.813202294
 20
39.0469616656
 30
0.0
 10
19.6366682799
 20
38.8455645
 30
0.0
 10
19.443534486
 20
38.5552628254
 30
0.0
 10
19.326270016
 20
38.2987226469
 30
0.0
 10
19.2752598244
 20
38.1636652386
 30
0.0
  0
SPLINE
  5
37A
100
AcDbEntity
  8
0
100
AcDbSpline
 62
7
  6
BYLAYER
 70
0
 71
3
 72
11
 73
7
 74
0
 42
0.0000001
 43
0.0000001
 44
0.0000000001
 40
0.0
 40
0.0
 40
0.0
 40
0.0
 40
0.2675484889
 40
0.5206126109
 40
0.7631067609
 40
1.0
 40
1.0
 40
1.0
 40
1.0
 10
24.7019655376
 20
28.7677964875
 30
0.0
 10
24.8442313625
 20
28.7445876079
 30
0.0
 10
25.1246723353
 20
28.7181099784
 30
0.0
 10
25.5368341933
 20
28.7444957891
 30
0.0
 10
25.9222890626
 20
28.8383602209
 30
0.0
 10
26.1590275941
 20
28.9461666923
 30
0.0
 10
26.269562986
 20
29.0099746783
 30
0.0
  0
SPLINE
  5
37B
100
AcDbEntity
  8
0
100
AcDbSpline
 62
7
  6
BYLAYER
 70
0
 71
3
 72
24
 73
20
 74
0
 42
0.0000001
 43
0.0000001
 44
0.0000000001
 40
0.0
 40
0.0
 40
0.0
 40
0.0
 40
0.083019047
 40
0.1638565874
 40
0.2419384055
 40
0.3168653477
 40
0.388302358
 40
0.4560155086
 40
0.5199194514
 40
0.5800930642
 40
0.6368035042
 40
0.6905402681
 40
0.7420164479
 40
0.7921442006
 40
0.8170530331
 40
0.8420226142
 40
0.8926285531
 40
0.945011594
 40
1.0
 40
1.0
 40
1.0
 40
1.0
 10
25.0943959962
 20
37.1452790344
 30
0.0
 10
24.9702268611
 20
37.2952945797
 30
0.0
 10
24.7157242941
 20
37.583746143
 30
0.0
 10
24.3124910961
 20
37.9836939921
 30
0.0
 10
23.8962594332
 20
38.3417254524
 30
0.0
 10
23.4716207915
 20
38.6538950691
 30
0.0
 10
23.0430993149
 20
38.9169152869
 30
0.0
 10
22.6152098035
 20
39.1278567877
 30
0.0
 10
22.1924724241
 20
39.2843708886
 30
0.0
 10
21.7793161169
 20
39.3846671738
 30
0.0
 10
21.3800643638
 20
39.4273139154
 30
0.0
 10
20.9990220844
 20
39.4114581171
 30
0.0
 10
20.6405959128
 20
39.3368330561
 30
0.0
 10
20.3636117067
 20
39.2255418327
 30
0.0
 10
20.1596469528
 20
39.1090914501
 30
0.0
 10
19.9661415536
 20
38.9740093061
 30
0.0
 10
19.7442804035
 20
38.7693071094
 30
0.0
 10
19.5179081547
 20
38.4739424033
 30
0.0
 10
19.3972702022
 20
38.2516088696
 30
0.0
 10
19.3436538088
 20
38.134294434
 30
0.0
  0
SPLINE
  5
37C
100
AcDbEntity
  8
0
100
AcDbSpline
 62
7
  6
BYLAYER
 70
0
 71
3
 72
25
 73
21
 74
0
 42
0.0000001
 43
0.0000001
 44
0.0000000001
 40
0.0
 40
0.0
 40
0.0
 40
0.0
 40
0.0217137206
 40
0.043572612
 40
0.0657164749
 40
0.0882767326
 40
0.1350625232
 40
0.1847433553
 40
0.2378162349
 40
0.2945261117
 40
0.3548971286
 40
0.4187678566
 40
0.485829875
 40
0.5556574069
 40
0.6277309674
 40
0.7014655428
 40
0.7762254525
 40
0.8513420377
 40
0.926172353
 40
1.0
 40
1.0
 40
1.0
 40
1.0
 10
26.269562986
 20
29.0099746783
 30
0.0
 10
26.3276125587
 20
29.0434845458
 30
0.0
 10
26.4407899778
 20
29.1166575596
 30
0.0
 10
26.5995164299
 20
29.243483137
 30
0.0
 10
26.7469708873
 20
29.3870526648
 30
0.0
 10
26.9299505367
 20
29.6026497393
 30
0.0
 10
27.1279152662
 20
29.9145973049
 30
0.0
 10
27.3092201623
 20
30.3409887818
 30
0.0
 10
27.4357211847
 20
30.8182287656
 30
0.0
 10
27.5061244754
 20
31.339930645
 30
0.0
 10
27.5198033183
 20
31.899326162
 30
0.0
 10
27.4767631479
 20
32.4891202247
 30
0.0
 10
27.3776533686
 20
33.1015949459
 30
0.0
 10
27.2237932185
 20
33.7286766172
 30
0.0
 10
27.017256496
 20
34.3620740908
 30
0.0
 10
26.7607957054
 20
34.9933793774
 30
0.0
 10
26.4578233406
 20
35.6141705528
 30
0.0
 10
26.112353581
 20
36.2162614426
 30
0.0
 10
25.7290083179
 20
36.7914828301
 30
0.0
 10
25.4489299434
 20
37.1555340484
 30
0.0
 10
25.3036180558
 20
37.331093313
 30
0.0
  0
SPLINE
  5
37D
100
AcDbEntity
  8
0
100
AcDbSpline
 62
7
  6
BYLAYER
 70
0
 71
3
 72
21
 73
17
 74
0
 42
0.0000001
 43
0.0000001
 44
0.0000000001
 40
0.0
 40
0.0
 40
0.0
 40
0.0
 40
0.1569689813
 40
0.3066487716
 40
0.3781394857
 40
0.4471170705
 40
0.5134265116
 40
0.5769789495
 40
0.6377448775
 40
0.6957720531
 40
0.7511847712
 40
0.8042032683
 40
0.8551404401
 40
0.9044088596
 40
0.9525062406
 40
1.0
 40
1.0
 40
1.0
 40
1.0
 10
25.3036180558
 20
37.331093313
 30
0.0
 10
25.1078626168
 20
37.5675962
 30
0.0
 10
24.703027924
 20
38.0116500885
 30
0.0
 10
24.1490173678
 20
38.5040904854
 30
0.0
 10
23.6925575604
 20
38.8418006193
 30
0.0
 10
23.3526610153
 20
39.0615060435
 30
0.0
 10
23.0121289856
 20
39.2500099261
 30
0.0
 10
22.6731538151
 20
39.4061570013
 30
0.0
 10
22.3378347791
 20
39.5288600822
 30
0.0
 10
22.0083044087
 20
39.6173638483
 30
0.0
 10
21.6866102554
 20
39.6709626556
 30
0.0
 10
21.3748032589
 20
39.6892787482
 30
0.0
 10
21.0748915821
 20
39.6720098593
 30
0.0
 10
20.7888537068
 20
39.6191708542
 30
0.0
 10
20.5187317265
 20
39.5309825381
 30
0.0
 10
20.3500443292
 20
39.4487251479
 30
0.0
 10
20.2695955957
 20
39.4022850749
 30
0.0
  0
SPLINE
  5
37E
100
AcDbEntity
  8
0
100
AcDbSpline
 62
7
  6
BYLAYER
 70
0
 71
3
 72
11
 73
7
 74
0
 42
0.0000001
 43
0.0000001
 44
0.0000000001
 40
0.0
 40
0.0
 40
0.0
 40
0.0
 40
0.2350778768
 40
0.4811407813
 40
0.7367574577
 40
1.0
 40
1.0
 40
1.0
 40
1.0
 10
42.7199373232
 20
50.0776059268
 30
0.0
 10
42.8824412184
 20
49.9741684458
 30
0.0
 10
43.2051741655
 20
49.7466507229
 30
0.0
 10
43.6684216835
 20
49.3585606543
 30
0.0
 10
44.11704446
 20
48.9200122707
 30
0.0
 10
44.3993003375
 20
48.6015064449
 30
0.0
 10
44.5368424281
 20
48.4353342983
 30
0.0
  0
SPLINE
  5
37F
100
AcDbEntity
  8
0
100
AcDbSpline
 62
7
  6
BYLAYER
 70
0
 71
3
 72
15
 73
11
 74
0
 42
0.0000001
 43
0.0000001
 44
0.0000000001
 40
0.0
 40
0.0
 40
0.0
 40
0.0
 40
0.1296052007
 40
0.2605020508
 40
0.3913448731
 40
0.5207978784
 40
0.6475373337
 40
0.7703431907
 40
0.8881292436
 40
1.0
 40
1.0
 40
1.0
 40
1.0
 10
44.6811775647
 20
48.256655503
 30
0.0
 10
44.8342175198
 20
48.0625454497
 30
0.0
 10
45.1272126119
 20
47.6606418811
 30
0.0
 10
45.5222778242
 20
47.0266734097
 30
0.0
 10
45.8706684958
 20
46.366184193
 30
0.0
 10
46.1670307501
 20
45.6894056503
 30
0.0
 10
46.4067657701
 20
45.0067412051
 30
0.0
 10
46.5861711163
 20
44.3286987034
 30
0.0
 10
46.7024681823
 20
43.6657838535
 30
0.0
 10
46.7377144012
 20
43.2283409409
 30
0.0
 10
46.7433886614
 20
43.0150556516
 30
0.0
  0
SPLINE
  5
380
100
AcDbEntity
  8
0
100
AcDbSpline
 62
7
  6
BYLAYER
 70
0
 71
3
 72
28
 73
24
 74
0
 42
0.0000001
 43
0.0000001
 44
0.0000000001
 40
0.0
 40
0.0
 40
0.0
 40
0.0
 40
0.0251711078
 40
0.0495034174
 40
0.0731508476
 40
0.0962931745
 40
0.1191328899
 40
0.1418863086
 40
0.1647740407
 40
0.1880098693
 40
0.2117922529
 40
0.2362957409
 40
0.2879647902
 40
0.3438932888
 40
0.4044266972
 40
0.4695198014
 40
0.5388174818
 40
0.6117266422
 40
0.6874741616
 40
0.7651678975
 40
0.8438253235
 40
0.9224491685
 40
1.0
 40
1.0
 40
1.0
 40
1.0
 10
24.7604820051
 20
28.8376343042
 30
0.0
 10
24.8463583628
 20
28.8310766159
 30
0.0
 10
25.0159892511
 20
28.826047676
 30
0.0
 10
25.266068093
 20
28.8443060371
 30
0.0
 10
25.5059145576
 20
28.8884055307
 30
0.0
 10
25.7342743284
 20
28.9582156731
 30
0.0
 10
25.9499398969
 20
29.0534459443
 30
0.0
 10
26.1517996354
 20
29.1735574426
 30
0.0
 10
26.3387341317
 20
29.3179994504
 30
0.0
 10
26.5098470815
 20
29.4858975336
 30
0.0
 10
26.6642414907
 20
29.6764270526
 30
0.0
 10
26.8501081402
 20
29.9641952117
 30
0.0
 10
27.0354905483
 20
30.3796821801
 30
0.0
 10
27.1766788417
 20
30.9397352262
 30
0.0
 10
27.2392986028
 20
31.5597155711
 30
0.0
 10
27.2226527977
 20
32.2279759715
 30
0.0
 10
27.1273720126
 20
32.9321252758
 30
0.0
 10
26.955361546
 20
33.6588895416
 30
0.0
 10
26.709957782
 20
34.3944924594
 30
0.0
 10
26.3958418235
 20
35.1248609154
 30
0.0
 10
26.0190521644
 20
35.8360979326
 30
0.0
 10
25.5868108061
 20
36.5144143604
 30
0.0
 10
25.2635898853
 20
36.9408666133
 30
0.0
 10
25.0943959962
 20
37.1452790344
 30
0.0
  0
ELLIPSE
  5
381
100
AcDbEntity
  8
0
100
AcDbEllipse
 62
7
  6
BYLAYER
 10
38.9337132926
 20
43.4235552271
 30
0.0
 11
-3.6066470397
 21
7.2086009469
 31
0.0
 40
0.2453828282
 41
-3.3910696436
 42
-3.3283357449
  0
ELLIPSE
  5
382
100
AcDbEntity
  8
0
100
AcDbEllipse
 62
7
  6
BYLAYER
 10
39.1387447309
 20
43.0788261804
 30
0.0
 11
-4.71510858
 21
6.5698679073
 31
0.0
 40
0.2404175762
 41
-3.6158708971
 42
-3.5531369984
  0
ELLIPSE
  5
383
100
AcDbEntity
  8
0
100
AcDbEllipse
 62
7
  6
BYLAYER
 10
39.3754837604
 20
42.7617022632
 30
0.0
 11
5.7735913517
 21
-5.9750700875
 31
0.0
 40
0.1991620239
 41
-0.6858284081
 42
-0.6230945094
  0
ELLIPSE
  5
384
100
AcDbEntity
  8
0
100
AcDbEllipse
 62
7
  6
BYLAYER
 10
39.6363213939
 20
42.4823760992
 30
0.0
 11
6.7370164904
 21
-5.4620904007
 31
0.0
 40
0.1341060615
 41
-0.871821364
 42
-0.8090874652
  0
ELLIPSE
  5
385
100
AcDbEntity
  8
0
100
AcDbEllipse
 62
7
  6
BYLAYER
 10
39.9128740951
 20
42.2498254611
 30
0.0
 11
7.6047994626
 21
-5.0265841444
 31
0.0
 40
0.0584246483
 41
-1.0319727013
 42
-0.9692388025
  0
ELLIPSE
  5
386
100
AcDbEntity
  8
0
100
AcDbEllipse
 62
7
  6
BYLAYER
 10
38.5493786993
 20
44.6837504933
 30
0.0
 11
-0.3625804779
 21
9.2253608163
 31
0.0
 40
0.0389576821
 41
1.0057702097
 42
1.0685041084
  0
ELLIPSE
  5
387
100
AcDbEntity
  8
0
100
AcDbEllipse
 62
7
  6
BYLAYER
 10
38.6000289997
 20
44.3322231955
 30
0.0
 11
-1.1492953848
 21
8.7030773551
 31
0.0
 40
0.1157674235
 41
0.8513759714
 42
0.9141098701
  0
ELLIPSE
  5
388
100
AcDbEntity
  8
0
100
AcDbEllipse
 62
7
  6
BYLAYER
 10
38.6997016581
 20
43.9680158159
 30
0.0
 11
-2.0445427629
 21
8.1361040132
 31
0.0
 40
0.1845627073
 41
0.6721415873
 42
0.734875486
  0
ELLIPSE
  5
389
100
AcDbEntity
  8
0
100
AcDbEllipse
 62
7
  6
BYLAYER
 10
38.8451931133
 20
43.6028342794
 30
0.0
 11
-3.0619007789
 21
7.5264544388
 31
0.0
 40
0.2331297805
 41
0.46637588
 42
0.5291097787
  0
ELLIPSE
  5
38A
100
AcDbEntity
  8
0
100
AcDbEllipse
 62
7
  6
BYLAYER
 10
39.0318271502
 20
43.248415821
 30
0.0
 11
-4.1619637824
 21
6.8874313125
 31
0.0
 40
0.247895524
 41
0.2430130202
 42
0.3057469189
  0
ELLIPSE
  5
38B
100
AcDbEntity
  8
0
100
AcDbEllipse
 62
7
  6
BYLAYER
 10
41.2187039712
 20
44.6269977634
 30
0.0
 11
9.9686030449
 21
6.0103936778
 31
0.0
 40
0.691060192
 41
1.8379037458
 42
1.8914765594
  0
ELLIPSE
  5
38C
100
AcDbEntity
  8
0
100
AcDbEllipse
 62
7
  6
BYLAYER
 10
41.4053380081
 20
44.272579305
 30
0.0
 11
10.769371867
 21
4.4600629322
 31
0.0
 40
0.6842910997
 41
1.8692829677
 42
1.9320168664
  0
ELLIPSE
  5
38D
100
AcDbEntity
  8
0
100
AcDbEllipse
 62
7
  6
BYLAYER
 10
41.5508294633
 20
43.9073977685
 30
0.0
 11
11.3258556974
 21
2.9590335292
 31
0.0
 40
0.660965281
 41
1.8875136536
 42
1.9502475523
  0
ELLIPSE
  5
38E
100
AcDbEntity
  8
0
100
AcDbEllipse
 62
7
  6
BYLAYER
 10
41.6505021217
 20
43.5431903889
 30
0.0
 11
11.6512877389
 21
1.6276594979
 31
0.0
 40
0.6250306916
 41
1.8847385249
 42
1.9474724236
  0
ELLIPSE
  5
38F
100
AcDbEntity
  8
0
100
AcDbEllipse
 62
7
  6
BYLAYER
 10
41.701152422
 20
43.1916630911
 30
0.0
 11
11.7938114461
 21
0.4962090353
 31
0.0
 40
0.580625743
 41
1.860876915
 42
1.9236108137
  0
ELLIPSE
  5
390
100
AcDbEntity
  8
0
100
AcDbEllipse
 62
7
  6
BYLAYER
 10
41.701152422
 20
42.8641142517
 30
0.0
 11
11.7948571827
 21
-0.4550705746
 31
0.0
 40
0.5307714873
 41
1.8192944692
 42
1.8820283679
  0
ELLIPSE
  5
391
100
AcDbEntity
  8
0
100
AcDbEllipse
 62
7
  6
BYLAYER
 10
41.6505021217
 20
42.57107156
 30
0.0
 11
11.6801882444
 21
-1.258389704
 31
0.0
 40
0.4772521871
 41
1.7636596284
 42
1.8263935271
  0
ELLIPSE
  5
392
100
AcDbEntity
  8
0
100
AcDbEllipse
 62
7
  6
BYLAYER
 10
41.5508294633
 20
42.3219536491
 30
0.0
 11
11.4643549843
 21
-1.9428829031
 31
0.0
 40
0.4209211904
 41
1.6968203838
 42
1.7595542825
  0
ELLIPSE
  5
393
100
AcDbEntity
  8
0
100
AcDbEllipse
 62
7
  6
BYLAYER
 10
41.4053380081
 20
42.1247673736
 30
0.0
 11
11.1558953492
 21
-2.5316571615
 31
0.0
 40
0.3620131256
 41
1.6206526796
 42
1.6833865783
  0
ELLIPSE
  5
394
100
AcDbEntity
  8
0
100
AcDbEllipse
 62
7
  6
BYLAYER
 10
41.2187039712
 20
41.9858504627
 30
0.0
 11
10.7605510813
 21
-3.0431127334
 31
0.0
 40
0.3003714379
 41
1.5361711941
 42
1.5989050928
  0
ELLIPSE
  5
395
100
AcDbEntity
  8
0
100
AcDbEllipse
 62
7
  6
BYLAYER
 10
40.9969259241
 20
41.9096678203
 30
0.0
 11
10.2828381498
 21
-3.4931435963
 31
0.0
 40
0.2356155066
 41
1.4436328327
 42
1.5063667315
  0
ELLIPSE
  5
396
100
AcDbEntity
  8
0
100
AcDbEllipse
 62
7
  6
BYLAYER
 10
40.7471319957
 20
41.8986680191
 30
0.0
 11
9.7265685199
 21
-3.8972910534
 31
0.0
 40
0.1672994674
 41
1.3425521994
 42
1.4052860981
  0
ELLIPSE
  5
397
100
AcDbEntity
  8
0
100
AcDbEllipse
 62
7
  6
BYLAYER
 10
40.4773507684
 20
41.9532046018
 30
0.0
 11
9.0946414578
 21
-4.2727747201
 31
0.0
 40
0.0951330741
 41
1.2316034705
 42
1.2943373693
  0
ELLIPSE
  5
398
100
AcDbEntity
  8
0
100
AcDbEllipse
 62
7
  6
BYLAYER
 10
40.1962532329
 20
42.0715247177
 30
0.0
 11
8.3881569032
 21
-4.6404777574
 31
0.0
 40
0.0193745784
 41
1.1084034071
 42
1.1711373058
  0
ELLIPSE
  5
399
100
AcDbEntity
  8
0
100
AcDbEllipse
 62
7
  6
BYLAYER
 10
39.773180353
 20
45.9222089826
 30
0.0
 11
4.9329537224
 21
10.6836207232
 31
0.0
 40
0.4909110334
 41
-1.8414411537
 42
-1.778707255
  0
ELLIPSE
  5
39A
100
AcDbEntity
  8
0
100
AcDbEllipse
 62
7
  6
BYLAYER
 10
39.5033991257
 20
45.9767455653
 30
0.0
 11
4.2207639767
 21
10.8736638169
 31
0.0
 40
0.4352410711
 41
-1.7771894694
 42
-1.7144555707
  0
ELLIPSE
  5
39B
100
AcDbEntity
  8
0
100
AcDbEllipse
 62
7
  6
BYLAYER
 10
39.2536051973
 20
45.9657457641
 30
0.0
 11
3.5488150597
 21
10.9314627358
 31
0.0
 40
0.3769795809
 41
-1.7032265171
 42
-1.6404926184
  0
ELLIPSE
  5
39C
100
AcDbEntity
  8
0
100
AcDbEllipse
 62
7
  6
BYLAYER
 10
39.0318271502
 20
45.8895631217
 30
0.0
 11
2.9034459426
 21
10.8721111763
 31
0.0
 40
0.3160505287
 41
-1.6207700752
 42
-1.5580361765
  0
ELLIPSE
  5
39D
100
AcDbEntity
  8
0
100
AcDbEllipse
 62
7
  6
BYLAYER
 10
38.8451931133
 20
45.7506462108
 30
0.0
 11
2.2729000816
 21
10.7078704523
 31
0.0
 40
0.2521150975
 41
-1.530260916
 42
-1.4675270173
  0
ELLIPSE
  5
39E
100
AcDbEntity
  8
0
100
AcDbEllipse
 62
7
  6
BYLAYER
 10
38.6997016581
 20
45.5534599353
 30
0.0
 11
1.6458003161
 21
10.4499067785
 31
0.0
 40
0.1847269141
 41
-1.4314036489
 42
-1.3686697502
  0
ELLIPSE
  5
39F
100
AcDbEntity
  8
0
100
AcDbEllipse
 62
7
  6
BYLAYER
 10
38.6000289997
 20
45.3043420244
 30
0.0
 11
1.0093513794
 21
10.1092829621
 31
0.0
 40
0.1135291806
 41
-1.3230983556
 42
-1.2603644569
  0
ELLIPSE
  5
3A0
100
AcDbEntity
  8
0
100
AcDbEllipse
 62
7
  6
BYLAYER
 10
38.5493786993
 20
45.0112993327
 30
0.0
 11
0.3472533399
 21
9.6973413751
 31
0.0
 40
0.0385908566
 41
-1.2032519168
 42
-1.1405180181
  0
ELLIPSE
  5
3A1
100
AcDbEntity
  8
0
100
AcDbEllipse
 62
7
  6
BYLAYER
 10
41.3168178287
 20
44.4518583573
 30
0.0
 11
10.3972985764
 21
5.2400577578
 31
0.0
 40
0.6899187507
 41
-1.8670530505
 42
-1.8297334279
  0
ELLIPSE
  5
3A2
100
AcDbEntity
  8
0
100
AcDbEllipse
 62
7
  6
BYLAYER
 10
41.1117863904
 20
44.796587404
 30
0.0
 11
9.4954169501
 21
6.7472347875
 31
0.0
 40
0.6876505957
 41
-1.924895593
 42
-1.8621616943
  0
ELLIPSE
  5
3A3
100
AcDbEntity
  8
0
100
AcDbEllipse
 62
7
  6
BYLAYER
 10
40.875047361
 20
45.1137113212
 30
0.0
 11
8.4813414634
 21
8.0475036784
 31
0.0
 40
0.6681503389
 41
-1.9475139678
 42
-1.8847800691
  0
ELLIPSE
  5
3A4
100
AcDbEntity
  8
0
100
AcDbEllipse
 62
7
  6
BYLAYER
 10
40.6142097275
 20
45.3930374852
 30
0.0
 11
7.4760303513
 21
9.0655838576
 31
0.0
 40
0.6349518649
 41
-1.9502324227
 42
-1.887498524
  0
ELLIPSE
  5
3A5
100
AcDbEntity
  8
0
100
AcDbEllipse
 62
7
  6
BYLAYER
 10
40.3376570262
 20
45.6255881233
 30
0.0
 11
6.5453965784
 21
9.8150588292
 31
0.0
 40
0.5923285981
 41
-1.9313869042
 42
-1.8686530055
  0
ELLIPSE
  5
3A6
100
AcDbEntity
  8
0
100
AcDbEllipse
 62
7
  6
BYLAYER
 10
33.1351325273
 20
42.453960873
 30
0.0
 11
11.1558953492
 21
-2.5316571615
 31
0.0
 40
0.3620131256
 41
1.0153912734
 42
1.0268260089
  0
ELLIPSE
  5
3A7
100
AcDbEntity
  8
0
100
AcDbEllipse
 62
7
  6
BYLAYER
 10
32.9896410721
 20
42.2567745975
 30
0.0
 11
11.4643549843
 21
-1.9428829031
 31
0.0
 40
0.4209211904
 41
1.0915589776
 42
1.1006809275
  0
ELLIPSE
  5
3A8
100
AcDbEntity
  8
0
100
AcDbEllipse
 62
7
  6
BYLAYER
 10
35.5086433852
 20
38.6891651249
 30
0.0
 11
2.9034459426
 21
10.8721111763
 31
0.0
 40
0.3160505287
 41
-0.960455783
 42
-0.9527747704
  0
ELLIPSE
  5
3A9
100
AcDbEntity
  8
0
100
AcDbEllipse
 62
7
  6
BYLAYER
 10
35.6952774221
 20
38.8280820357
 30
0.0
 11
2.2729000816
 21
10.7078704523
 31
0.0
 40
0.2521150975
 41
-0.8755690675
 42
-0.8622656111
  0
ELLIPSE
  5
3AA
100
AcDbEntity
  8
0
100
AcDbEllipse
 62
7
  6
BYLAYER
 10
35.8407688773
 20
39.0252683112
 30
0.0
 11
1.6458003161
 21
10.4499067785
 31
0.0
 40
0.1847269141
 41
-0.7714322068
 42
-0.763408344
  0
ENDSEC
  0
SECTION
  2
OBJECTS
  0
DICTIONARY
  5
C
100
AcDbDictionary
280
0
281
1
  3
ACAD_GROUP
350
D
  3
ACAD_MLINESTYLE
350
17
  3
ACAD_LAYOUT
350
1A
  3
ACAD_PLOTSETTINGS
350
19
  3
ACAD_PLOTSTYLENAME
350
E
  0
DICTIONARY
  5
D
102
{ACAD_REACTORS
330
C
102
}
100
AcDbDictionary
280
0
281
1
  0
ACDBDICTIONARYWDFLT
  5
E
102
{ACAD_REACTORS
330
C
102
}
100
AcDbDictionary
281
1
  3
Normal
350
F
100
AcDbDictionaryWithDefault
340
F
  0
DICTIONARY
  5
17
102
{ACAD_REACTORS
330
C
102
}
100
AcDbDictionary
280
0
281
1
  3
Standard
350
18
  0
DICTIONARY
  5
19
102
{ACAD_REACTORS
330
C
102
}
100
AcDbDictionary
281
1
  0
DICTIONARY
  5
1A
102
{ACAD_REACTORS
330
C
102
}
100
AcDbDictionary
281
1
  3
Model
350
3AB
  3
Layout1
350
3AC
  0
ACDBPLACEHOLDER
  5
F
102
{ACAD_REACTORS
330
E
102
}
  0
MLINESTYLE
  5
18
102
{ACAD_REACTORS
330
17
102
}
100
AcDbMlineStyle
  2
STANDARD
 70
0
  3

 62
256
 51
90.0
 52
90.0
 71
2
 49
0.5
 62
256
  6
BYLAYER
 49
-0.5
 62
256
  6
BYLAYER
  0
LAYOUT
  5
3AB
102
{ACAD_REACTORS
330
1A
102
}
100
AcDbPlotSettings
  1

  2
none_device
  4

  6

 40
0.0
 41
0.0
 42
0.0
 43
0.0
 44
210.0
 45
297.0
 46
0.0
 47
0.0
 48
0.0
 49
0.0
140
0.0
141
0.0
142
1.0
143
1.0
 70
1024
 72
1
 73
0
 74
0
  7

 75
0
147
1.0
148
0.0
149
0.0
100
AcDbLayout
  1
Model
 70
0
 71
0
 10
0.0
 20
0.0
 11
210.0
 21
297.0
 12
0.0
 22
0.0
 32
0.0
 14
0.0
 24
0.0
 34
0.0
 15
0.0
 25
0.0
 35
0.0
146
0.0
 13
0.0
 23
0.0
 33
0.0
 16
1.0
 26
0.0
 36
0.0
 17
0.0
 27
1.0
 37
0.0
 76
0
330
210
345
0
346
0
  0
LAYOUT
  5
3AC
102
{ACAD_REACTORS
330
1A
102
}
100
AcDbPlotSettings
  1

  2
none_device
  4

  6

 40
0.0
 41
0.0
 42
0.0
 43
0.0
 44
210.0
 45
297.0
 46
0.0
 47
0.0
 48
0.0
 49
0.0
140
0.0
141
0.0
142
1.0
143
1.0
 70
0
 72
1
 73
0
 74
0
  7

 75
0
147
1.0
148
0.0
149
0.0
100
AcDbLayout
  1
Layout1
 70
0
 71
1
 10
0.0
 20
0.0
 11
210.0
 21
297.0
 12
0.0
 22
0.0
 32
0.0
 14
0.0
 24
0.0
 34
0.0
 15
0.0
 25
0.0
 35
0.0
146
0.0
 13
0.0
 23
0.0
 33
0.0
 16
1.0
 26
0.0
 36
0.0
 17
0.0
 27
1.0
 37
0.0
 76
0
330
211
345
0
346
0
  0
ENDSEC
  0
EOF
