999
DXF file: C:\Users\sesa63760\Dev\_Creo\CAD\MCADID0000319_3D-CAD\drw0001_1.dxf
999
Pro/ENGINEER 2019471 by Parametric Technology Corporation
  0
SECTION
  2
HEADER
  9
$ACADVER
  1
AC1024
  9
$DWGCODEPAGE
  3
ANSI_1252
  9
$EXTMAX
 10
222.7006046368
 20
314.9622837006
 30
0.0
  9
$EXTMIN
 10
0.0
 20
0.0
 30
0.0
  9
$LIMMIN
 10
0.0
 20
0.0
  9
$LIMMAX
 10
222.7006046368
 20
314.9622837006
  9
$VIEWCTR
 10
111.3503023184
 20
157.4811418503
  9
$VIEWSIZE
 40
314.9622837006
  9
$CLAYER
  8
0
  9
$LTSCALE
 40
20.5308747894
  9
$CELTYPE
  6
BYLAYER
  9
$DIMSCALE
 40
1.0
  9
$DIMASZ
 40
2.6511976742
  9
$DIMEXO
 40
1.0
  9
$DIMDLI
 40
14.1849680363
  9
$DIMEXE
 40
1.0
  9
$DIMCEN
 40
3.3595976928
  9
$DIMLFAC
 40
1.0
  9
$DIMBLK
  1
_FILLED
  9
$DIMALT
 70
0
  9
$DIMALTF
 40
0.0393700787
  9
$DIMTXT
 40
3.7116767439
  9
$DIMTOL
 70
1
  9
$DIMLIM
 70
0
  9
$DIMTFAC
 40
1.0
  9
$DIMTP
 40
0.01
  9
$DIMTM
 40
0.01
  9
$DIMGAP
 40
0.625
  9
$DIMDSEP
 70
46
  9
$AUNITS
 70
0
  9
$PDMODE
 70
3
  9
$PDSIZE
 40
0.3125
  9
$HANDSEED
  5
331
  9
$TILEMODE
 70
1
  9
$MEASUREMENT
 70
1
  9
$INSUNITS
 70
4
  0
ENDSEC
  0
SECTION
  2
CLASSES
  0
CLASS
  1
ACDBDICTIONARYWDFLT
  2
AcDbDictionaryWithDefault
  3
AutoCAD 2000
 90
0
 91
1
280
0
281
0
  0
CLASS
  1
ACDBPLACEHOLDER
  2
AcDbPlaceHolder
  3
AutoCAD 2000
 90
0
 91
1
280
0
281
0
  0
CLASS
  1
LAYOUT
  2
AcDbLayout
  3
AutoCAD 2000
 90
0
 91
0
280
0
281
0
  0
ENDSEC
  0
SECTION
  2
TABLES
  0
TABLE
  2
VPORT
  5
8
100
AcDbSymbolTable
 70
2
  0
VPORT
  5
1F4
100
AcDbSymbolTableRecord
100
AcDbViewportTableRecord
  2
*ACTIVE
 70
0
 10
0.0
 20
0.0
 11
1.0
 21
1.0
 12
111.3503023184
 22
157.4811418503
 13
0.0
 23
0.0
 14
1.0
 24
1.0
 15
0.0
 25
0.0
 16
0.0
 26
0.0
 36
1.0
 17
0.0
 27
0.0
 37
0.0
 40
314.9622837006
 41
0.7070707071
 42
50.0
 43
0.0
 44
0.0
 50
0.0
 51
0.0
 71
0
 72
100
 73
1
 74
1
 75
0
 76
0
 77
0
 78
0
  0
ENDTAB
  0
TABLE
  2
LTYPE
  5
5
100
AcDbSymbolTable
 70
6
  0
LTYPE
  5
14
100
AcDbSymbolTableRecord
100
AcDbLinetypeTableRecord
  2
BYBLOCK
 70
0
  3

 72
65
 73
0
 40
0.0
  0
LTYPE
  5
15
100
AcDbSymbolTableRecord
100
AcDbLinetypeTableRecord
  2
BYLAYER
 70
0
  3

 72
65
 73
0
 40
0.0
  0
LTYPE
  5
16
100
AcDbSymbolTableRecord
100
AcDbLinetypeTableRecord
  2
CONTINUOUS
 70
64
  3
Solid line
 72
65
 73
0
 40
0.0
  0
LTYPE
  5
1F5
100
AcDbSymbolTableRecord
100
AcDbLinetypeTableRecord
  2
CENTER
 70
64
  3
____ _ ____ _ ____ _ ____ _ ____ _ ____ _ ____
 72
65
 73
4
 40
0.6
 49
0.375
 74
0
 49
-0.075
 74
0
 49
0.075
 74
0
 49
-0.075
 74
0
  0
LTYPE
  5
1F6
100
AcDbSymbolTableRecord
100
AcDbLinetypeTableRecord
  2
HIDDEN
 70
64
  3
- - - - - - - - - - - - - - - - - - - -
 72
65
 73
2
 40
0.2
 49
0.1
 74
0
 49
-0.1
 74
0
  0
LTYPE
  5
1F7
100
AcDbSymbolTableRecord
100
AcDbLinetypeTableRecord
  2
PHANTOM
 70
64
  3
_____ _ _ _____ _ _ _____ _ _ _____
 72
65
 73
6
 40
0.8
 49
0.45
 74
0
 49
-0.05
 74
0
 49
0.1
 74
0
 49
-0.05
 74
0
 49
0.1
 74
0
 49
-0.05
 74
0
  0
LTYPE
  5
1F8
100
AcDbSymbolTableRecord
100
AcDbLinetypeTableRecord
  2
DOT
 70
64
  3
. . . . . . . . . . . . . . . . . . . .
 72
65
 73
2
 40
0.2
 49
0.1
 74
0
 49
-0.1
 74
0
  0
LTYPE
  5
1F9
100
AcDbSymbolTableRecord
100
AcDbLinetypeTableRecord
  2
DASHED
 70
64
  3
- - - - - - - - - - - - - - - - - - - -
 72
65
 73
2
 40
0.2
 49
0.1
 74
0
 49
-0.1
 74
0
  0
ENDTAB
  0
TABLE
  2
LAYER
  5
2
100
AcDbSymbolTable
 70
36
  0
LAYER
  5
10
100
AcDbSymbolTableRecord
100
AcDbLayerTableRecord
  2
0
 70
0
 62
7
  6
CONTINUOUS
370
-3
390
F
  0
LAYER
  5
1FA
100
AcDbSymbolTableRecord
100
AcDbLayerTableRecord
  2
DEFAULT_1
 70
0
 62
7
  6
CENTER
370
-3
390
F
  0
LAYER
  5
1FB
100
AcDbSymbolTableRecord
100
AcDbLayerTableRecord
  2
DEFAULT_2
 70
0
 62
8
  6
HIDDEN
370
-3
390
F
  0
LAYER
  5
1FC
100
AcDbSymbolTableRecord
100
AcDbLayerTableRecord
  2
DEFAULT_3
 70
0
 62
7
  6
PHANTOM
370
-3
390
F
  0
LAYER
  5
1FD
100
AcDbSymbolTableRecord
100
AcDbLayerTableRecord
  2
00_COMPONENTS
 70
0
 62
7
  6
CONTINUOUS
370
-3
390
F
  0
LAYER
  5
1FE
100
AcDbSymbolTableRecord
100
AcDbLayerTableRecord
  2
01_1_DEFAULT_DATUMS
 70
0
 62
7
  6
CONTINUOUS
370
-3
390
F
  0
LAYER
  5
1FF
100
AcDbSymbolTableRecord
100
AcDbLayerTableRecord
  2
01_PLANES
 70
0
 62
7
  6
CONTINUOUS
370
-3
390
F
  0
LAYER
  5
200
100
AcDbSymbolTableRecord
100
AcDbLayerTableRecord
  2
02_COORD_SYS
 70
0
 62
7
  6
CONTINUOUS
370
-3
390
F
  0
LAYER
  5
201
100
AcDbSymbolTableRecord
100
AcDbLayerTableRecord
  2
03_AXES
 70
0
 62
7
  6
CONTINUOUS
370
-3
390
F
  0
LAYER
  5
202
100
AcDbSymbolTableRecord
100
AcDbLayerTableRecord
  2
04_POINTS
 70
0
 62
7
  6
CONTINUOUS
370
-3
390
F
  0
LAYER
  5
203
100
AcDbSymbolTableRecord
100
AcDbLayerTableRecord
  2
05_CURVES
 70
0
 62
7
  6
CONTINUOUS
370
-3
390
F
  0
LAYER
  5
204
100
AcDbSymbolTableRecord
100
AcDbLayerTableRecord
  2
06_SURFS
 70
0
 62
7
  6
CONTINUOUS
370
-3
390
F
  0
LAYER
  5
205
100
AcDbSymbolTableRecord
100
AcDbLayerTableRecord
  2
07_COSMETICS
 70
0
 62
7
  6
CONTINUOUS
370
-3
390
F
  0
LAYER
  5
206
100
AcDbSymbolTableRecord
100
AcDbLayerTableRecord
  2
10_NOTES
 70
0
 62
7
  6
CONTINUOUS
370
-3
390
F
  0
LAYER
  5
207
100
AcDbSymbolTableRecord
100
AcDbLayerTableRecord
  2
11_NOTES_PUB
 70
0
 62
7
  6
CONTINUOUS
370
-3
390
F
  0
LAYER
  5
208
100
AcDbSymbolTableRecord
100
AcDbLayerTableRecord
  2
13_REF_GTOL
 70
0
 62
7
  6
CONTINUOUS
370
-3
390
F
  0
LAYER
  5
209
100
AcDbSymbolTableRecord
100
AcDbLayerTableRecord
  2
16_MISC
 70
0
 62
7
  6
CONTINUOUS
370
-3
390
F
  0
LAYER
  5
20A
100
AcDbSymbolTableRecord
100
AcDbLayerTableRecord
  2
17_NO_PRINT
 70
0
 62
7
  6
CONTINUOUS
370
-3
390
F
  0
LAYER
  5
20B
100
AcDbSymbolTableRecord
100
AcDbLayerTableRecord
  2
18_DATUM_CAMS_JOINTS
 70
0
 62
7
  6
CONTINUOUS
370
-3
390
F
  0
LAYER
  5
20C
100
AcDbSymbolTableRecord
100
AcDbLayerTableRecord
  2
19_DATUM_FUNCTIONAL
 70
0
 62
7
  6
CONTINUOUS
370
-3
390
F
  0
LAYER
  5
20D
100
AcDbSymbolTableRecord
100
AcDbLayerTableRecord
  2
20_DATUM_KINEMATIC_SCHEME
 70
0
 62
7
  6
CONTINUOUS
370
-3
390
F
  0
ENDTAB
  0
TABLE
  2
STYLE
  5
3
100
AcDbSymbolTable
 70
1
  0
STYLE
  5
11
100
AcDbSymbolTableRecord
100
AcDbTextStyleTableRecord
  2
STANDARD
 70
0
 40
0.0
 41
0.8
 50
0.0
 71
0
 42
0.2
  3
txt
  4

  0
STYLE
  5
20E
100
AcDbSymbolTableRecord
100
AcDbTextStyleTableRecord
  2
TEXTSTYLE_1
 70
0
 40
0.0
 41
0.8
 50
0.0
 71
0
 42
0.2
  3
gdt
  4

  0
ENDTAB
  0
TABLE
  2
VIEW
  5
6
100
AcDbSymbolTable
 70
0
  0
ENDTAB
  0
TABLE
  2
UCS
  5
7
100
AcDbSymbolTable
 70
0
  0
ENDTAB
  0
TABLE
  2
APPID
  5
9
100
AcDbSymbolTable
 70
1
  0
APPID
  5
20F
100
AcDbSymbolTableRecord
100
AcDbRegAppTableRecord
  2
ACAD
 70
0
  0
ENDTAB
  0
TABLE
  2
BLOCK_RECORD
  5
1
100
AcDbSymbolTable
 70
0
  0
BLOCK_RECORD
  5
210
100
AcDbSymbolTableRecord
100
AcDbBlockTableRecord
  2
*Model_Space
  0
BLOCK_RECORD
  5
211
100
AcDbSymbolTableRecord
100
AcDbBlockTableRecord
  2
*Paper_Space
  0
BLOCK_RECORD
  5
212
100
AcDbSymbolTableRecord
100
AcDbBlockTableRecord
  2
_FILLED
  0
ENDTAB
  0
TABLE
  2
DIMSTYLE
  5
A
100
AcDbSymbolTable
 70
1
100
AcDbDimStyleTable
 71
0
  0
DIMSTYLE
105
213
100
AcDbSymbolTableRecord
100
AcDbDimStyleTableRecord
  2
STANDARD
 70
0
  3

  4

 40
1.0
 41
2.6511976742
 42
1.0
 43
0.38
 44
1.0
 45
0.0
 46
0.0
 47
0.01
 48
0.01
140
3.7116767439
141
0.09
142
0.0
143
25.4
144
1.0
145
0.0
146
1.0
147
0.625
 71
1
 72
0
 73
0
 74
0
 75
0
 76
0
 77
1
 78
8
 79
2
170
0
171
1
172
0
173
0
174
0
175
0
176
0
177
0
178
0
270
2
179
2
271
2
272
2
273
2
274
2
275
0
280
0
281
0
282
0
283
1
284
8
285
0
286
0
287
3
288
0
340
11
278
46
341
212
342
212
343
212
344
212
  0
ENDTAB
  0
ENDSEC
  0
SECTION
  2
BLOCKS
  0
BLOCK
  5
20
100
AcDbEntity
  8
0
100
AcDbBlockBegin
  2
*Model_Space
 70
0
 10
0.0
 20
0.0
 30
0.0
  3
*Model_Space
  1

  0
ENDBLK
  5
21
100
AcDbEntity
  8
0
100
AcDbBlockEnd
  0
BLOCK
  5
1C
100
AcDbEntity
  8
0
100
AcDbBlockBegin
  2
*Paper_Space
 70
0
 10
0.0
 20
0.0
 30
0.0
  3
*Paper_Space
  1

  0
ENDBLK
  5
1D
100
AcDbEntity
  8
0
100
AcDbBlockEnd
  0
BLOCK
  5
214
100
AcDbEntity
  8
0
100
AcDbBlockBegin
  2
_FILLED
 70
64
 10
0.0
 20
0.0
  3
_FILLED
  1

  0
SOLID
  5
215
100
AcDbEntity
  8
0
  6
BYBLOCK
 62
0
100
AcDbTrace
 10
0.0
 20
0.0
 11
-1.0
 21
0.25
 12
-1.0
 22
-0.25
 13
-1.0
 23
-0.25
  0
ENDBLK
  5
216
100
AcDbEntity
  8
0
  6
BYBLOCK
 62
0
100
AcDbBlockEnd
  0
ENDSEC
  0
SECTION
  2
ENTITIES
  0
LINE
  5
217
100
AcDbEntity
  8
0
100
AcDbLine
 62
7
  6
CONTINUOUS
 10
35.9480397916
 20
211.2792477649
 11
35.9480397916
 21
199.0425538335
  0
LINE
  5
218
100
AcDbEntity
  8
0
100
AcDbLine
 62
7
  6
CONTINUOUS
 10
38.7495361755
 20
164.5706314157
 11
38.7495361755
 21
187.0244478867
  0
LINE
  5
219
100
AcDbEntity
  8
0
100
AcDbLine
 62
7
  6
CONTINUOUS
 10
43.6993042515
 20
184.1667626051
 11
43.6993042515
 21
161.712946134
  0
LINE
  5
21A
100
AcDbEntity
  8
0
100
AcDbLine
 62
7
  6
CONTINUOUS
 10
45.08336865
 20
183.8401791797
 11
45.08336865
 21
187.5960902985
  0
LINE
  5
21B
100
AcDbEntity
  8
0
100
AcDbLine
 62
7
  6
CONTINUOUS
 10
45.9620571383
 20
182.6154467181
 11
45.9620571383
 21
186.3713578369
  0
LINE
  5
21C
100
AcDbEntity
  8
0
100
AcDbLine
 62
7
  6
CONTINUOUS
 10
46.18336865
 20
187.5960902985
 11
46.18336865
 21
188.6231618898
  0
LINE
  5
21D
100
AcDbEntity
  8
0
100
AcDbLine
 62
7
  6
CONTINUOUS
 10
40.9168037468
 20
151.8357015275
 11
39.1876171486
 21
160.0842527929
  0
LINE
  5
21E
100
AcDbEntity
  8
0
100
AcDbLine
 62
7
  6
CONTINUOUS
 10
44.1373852246
 20
157.2265675112
 11
45.8665718228
 21
148.9780162458
  0
LINE
  5
21F
100
AcDbEntity
  8
0
100
AcDbLine
 62
7
  6
CONTINUOUS
 10
52.3260505526
 20
198.9431766414
 11
52.3260505526
 21
184.8201148395
  0
LINE
  5
220
100
AcDbEntity
  8
0
100
AcDbLine
 62
7
  6
CONTINUOUS
 10
38.7495361755
 20
187.0244478867
 11
43.9324167364
 21
190.016767512
  0
LINE
  5
221
100
AcDbEntity
  8
0
100
AcDbLine
 62
7
  6
CONTINUOUS
 10
45.08336865
 20
184.9658477883
 11
43.6993042515
 21
184.1667626051
  0
LINE
  5
222
100
AcDbEntity
  8
0
100
AcDbLine
 62
7
  6
CONTINUOUS
 10
41.0124347242
 20
151.6884480125
 11
40.9168037468
 21
151.8357015275
  0
LINE
  5
223
100
AcDbEntity
  8
0
100
AcDbLine
 62
7
  6
CONTINUOUS
 10
45.8665718228
 20
148.9780162458
 11
45.9622028002
 21
148.8307627309
  0
LINE
  5
224
100
AcDbEntity
  8
0
100
AcDbLine
 62
7
  6
CONTINUOUS
 10
58.2431476032
 20
222.4994761538
 11
58.2431476032
 21
222.0624587368
  0
LINE
  5
225
100
AcDbEntity
  8
0
100
AcDbLine
 62
7
  6
CONTINUOUS
 10
60.1042516413
 20
178.2065427465
 11
60.1042516413
 21
174.4506316277
  0
LINE
  5
226
100
AcDbEntity
  8
0
100
AcDbLine
 62
7
  6
CONTINUOUS
 10
60.3255631529
 20
179.4312752081
 11
60.3255631529
 21
180.6560288338
  0
LINE
  5
227
100
AcDbEntity
  8
0
100
AcDbLine
 62
7
  6
CONTINUOUS
 10
62.7912668305
 20
173.1442622331
 11
62.7912668305
 21
150.690445762
  0
LINE
  5
228
100
AcDbEntity
  8
0
100
AcDbLine
 62
7
  6
CONTINUOUS
 10
64.1255631529
 20
179.4312752081
 11
64.1255631529
 21
180.6560288338
  0
LINE
  5
229
100
AcDbEntity
  8
0
100
AcDbLine
 62
7
  6
CONTINUOUS
 10
64.3468923284
 20
174.4506418258
 11
64.3468923284
 21
178.2065529446
  0
LINE
  5
22A
100
AcDbEntity
  8
0
100
AcDbLine
 62
7
  6
CONTINUOUS
 10
63.2293478036
 20
155.6826737008
 11
64.9585344018
 21
165.9279057435
  0
LINE
  5
22B
100
AcDbEntity
  8
0
100
AcDbLine
 62
7
  6
CONTINUOUS
 10
162.4686350921
 20
73.0806253819
 11
156.1046475658
 21
76.7547921726
  0
LINE
  5
22C
100
AcDbEntity
  8
0
100
AcDbLine
 62
7
  6
CONTINUOUS
 10
64.9585344018
 20
137.9555158738
 11
65.0541653792
 21
137.8082623588
  0
LINE
  5
22D
100
AcDbEntity
  8
0
100
AcDbLine
 62
7
  6
CONTINUOUS
 10
63.2293478036
 20
146.2040671392
 11
64.9585344018
 21
137.9555158738
  0
LINE
  5
22E
100
AcDbEntity
  8
0
100
AcDbLine
 62
7
  6
CONTINUOUS
 10
69.8454311543
 20
172.9498085967
 11
69.8454311543
 21
174.4345518793
  0
LINE
  5
22F
100
AcDbEntity
  8
0
100
AcDbLine
 62
7
  6
CONTINUOUS
 10
64.3468923284
 20
178.2065529446
 11
78.4889690726
 21
186.371436022
  0
LINE
  5
230
100
AcDbEntity
  8
0
100
AcDbLine
 62
7
  6
CONTINUOUS
 10
85.2771659099
 20
190.2905798992
 11
99.4192426542
 21
198.4554629766
  0
LINE
  5
231
100
AcDbEntity
  8
0
100
AcDbLine
 62
7
  6
CONTINUOUS
 10
161.4330734885
 20
75.369556121
 11
155.0690859621
 21
79.0437229117
  0
LINE
  5
232
100
AcDbEntity
  8
0
100
AcDbLine
 62
7
  6
CONTINUOUS
 10
45.9072566596
 20
148.7430309455
 11
155.0690859621
 21
85.7198451874
  0
LINE
  5
233
100
AcDbEntity
  8
0
100
AcDbLine
 62
7
  6
CONTINUOUS
 10
41.0123947985
 20
151.688378974
 11
155.0690859621
 21
85.8392073351
  0
LINE
  5
234
100
AcDbEntity
  8
0
100
AcDbLine
 62
7
  6
CONTINUOUS
 10
155.0690859621
 20
85.9313416177
 11
40.9168037468
 21
151.8357015275
  0
LINE
  5
235
100
AcDbEntity
  8
0
100
AcDbLine
 62
7
  6
CONTINUOUS
 10
76.2255042736
 20
190.5355329937
 11
76.2255042736
 21
213.4796361678
  0
LINE
  5
236
100
AcDbEntity
  8
0
100
AcDbLine
 62
7
  6
CONTINUOUS
 10
78.2676398972
 20
187.5961582856
 11
78.2676398972
 21
188.8209119112
  0
LINE
  5
237
100
AcDbEntity
  8
0
100
AcDbLine
 62
7
  6
CONTINUOUS
 10
78.4889690726
 20
186.371436022
 11
78.4889690726
 21
182.6155249032
  0
LINE
  5
238
100
AcDbEntity
  8
0
100
AcDbLine
 62
7
  6
CONTINUOUS
 10
79.3676398972
 20
183.8402471668
 11
79.3676398972
 21
187.5961582856
  0
LINE
  5
239
100
AcDbEntity
  8
0
100
AcDbLine
 62
7
  6
CONTINUOUS
 10
81.0345252228
 20
190.2905697011
 11
81.0345252228
 21
186.5346585823
  0
LINE
  5
23A
100
AcDbEntity
  8
0
100
AcDbLine
 62
7
  6
CONTINUOUS
 10
81.2558367345
 20
191.5153021627
 11
81.2558367345
 21
192.7400557884
  0
LINE
  5
23B
100
AcDbEntity
  8
0
100
AcDbLine
 62
7
  6
CONTINUOUS
 10
99.4192426542
 20
194.6995518578
 11
85.2771659099
 21
186.5346687804
  0
LINE
  5
23C
100
AcDbEntity
  8
0
100
AcDbLine
 62
7
  6
CONTINUOUS
 10
78.4889690726
 20
182.6155249032
 11
64.3468923284
 21
174.4506418258
  0
LINE
  5
23D
100
AcDbEntity
  8
0
100
AcDbLine
 62
7
  6
CONTINUOUS
 10
101.6819778772
 20
195.597690696
 11
62.7912668305
 21
173.1442622331
  0
LINE
  5
23E
100
AcDbEntity
  8
0
100
AcDbLine
 62
7
  6
CONTINUOUS
 10
39.3544343519
 20
156.9633655897
 11
39.9089819259
 21
156.6432046415
  0
LINE
  5
23F
100
AcDbEntity
  8
0
100
AcDbLine
 62
7
  6
CONTINUOUS
 10
39.1876171486
 20
160.0842527929
 11
155.0690859621
 21
93.1815691202
  0
LINE
  5
240
100
AcDbEntity
  8
0
100
AcDbLine
 62
7
  6
CONTINUOUS
 10
170.8785986821
 20
87.6469687041
 11
172.2928181324
 21
86.8304871951
  0
LINE
  5
241
100
AcDbEntity
  8
0
100
AcDbLine
 62
7
  6
CONTINUOUS
 10
85.0558367345
 20
191.5153021627
 11
85.0558367345
 21
192.7400557884
  0
LINE
  5
242
100
AcDbEntity
  8
0
100
AcDbLine
 62
7
  6
CONTINUOUS
 10
85.2771659099
 20
186.5346687804
 11
85.2771659099
 21
190.2905798992
  0
LINE
  5
243
100
AcDbEntity
  8
0
100
AcDbLine
 62
7
  6
CONTINUOUS
 10
65.3041212118
 20
166.4495112483
 11
66.4866879275
 21
167.1322623845
  0
LINE
  5
244
100
AcDbEntity
  8
0
100
AcDbLine
 62
7
  6
CONTINUOUS
 10
62.7912668305
 20
150.690445762
 11
38.7495361755
 21
164.5706314157
  0
LINE
  5
245
100
AcDbEntity
  8
0
100
AcDbLine
 62
7
  6
CONTINUOUS
 10
155.0690859621
 20
102.6601756818
 11
63.2293478036
 21
155.6826737008
  0
LINE
  5
246
100
AcDbEntity
  8
0
100
AcDbLine
 62
7
  6
CONTINUOUS
 10
97.1557778551
 20
202.6195599483
 11
97.1557778551
 21
225.5636631224
  0
LINE
  5
247
100
AcDbEntity
  8
0
100
AcDbLine
 62
7
  6
CONTINUOUS
 10
64.9585344018
 20
165.9279057435
 11
155.0690859621
 21
113.9037314874
  0
LINE
  5
248
100
AcDbEntity
  8
0
100
AcDbLine
 62
7
  6
CONTINUOUS
 10
155.0690859621
 20
114.6248571162
 11
65.3041212118
 21
166.4495112483
  0
LINE
  5
249
100
AcDbEntity
  8
0
100
AcDbLine
 62
7
  6
CONTINUOUS
 10
192.417106828
 20
93.1097436671
 11
178.6284671877
 21
101.0704383803
  0
LINE
  5
24A
100
AcDbEntity
  8
0
100
AcDbLine
 62
7
  6
CONTINUOUS
 10
155.0690859621
 20
115.7863316825
 11
161.4330734885
 21
112.1121648918
  0
LINE
  5
24B
100
AcDbEntity
  8
0
100
AcDbLine
 62
7
  6
CONTINUOUS
 10
66.4866879275
 20
167.1322623845
 11
155.0984273512
 21
115.9734081428
  0
LINE
  5
24C
100
AcDbEntity
  8
0
100
AcDbLine
 62
7
  6
CONTINUOUS
 10
99.1979134787
 20
199.6801852402
 11
99.1979134787
 21
200.9049388658
  0
LINE
  5
24D
100
AcDbEntity
  8
0
100
AcDbLine
 62
7
  6
CONTINUOUS
 10
99.4192426542
 20
198.4554629766
 11
99.4192426542
 21
194.6995518578
  0
LINE
  5
24E
100
AcDbEntity
  8
0
100
AcDbLine
 62
7
  6
CONTINUOUS
 10
100.2979134787
 20
195.9242741214
 11
100.2979134787
 21
199.6801852402
  0
LINE
  5
24F
100
AcDbEntity
  8
0
100
AcDbLine
 62
7
  6
CONTINUOUS
 10
101.6819778772
 20
184.8390563346
 11
101.6819778772
 21
195.597690696
  0
LINE
  5
250
100
AcDbEntity
  8
0
100
AcDbLine
 62
7
  6
CONTINUOUS
 10
60.1042516413
 20
174.4506316277
 11
45.9620571383
 21
182.6154467181
  0
LINE
  5
251
100
AcDbEntity
  8
0
100
AcDbLine
 62
7
  6
CONTINUOUS
 10
62.7912668305
 20
173.1442622331
 11
61.1190204779
 21
174.1097122735
  0
LINE
  5
252
100
AcDbEntity
  8
0
100
AcDbLine
 62
7
  6
CONTINUOUS
 10
38.7495361755
 20
187.0244478867
 11
45.371550604
 21
183.2013125647
  0
LINE
  5
253
100
AcDbEntity
  8
0
100
AcDbLine
 62
7
  6
CONTINUOUS
 10
190.0708642707
 20
101.8998439426
 11
183.7068767443
 21
105.5740107333
  0
LINE
  5
254
100
AcDbEntity
  8
0
100
AcDbLine
 62
7
  6
CONTINUOUS
 10
183.7068767443
 20
106.6006476514
 11
190.0708642707
 21
102.9264808607
  0
LINE
  5
255
100
AcDbEntity
  8
0
100
AcDbLine
 62
7
  6
CONTINUOUS
 10
45.9620571383
 20
186.3713578369
 11
60.1042516413
 21
178.2065427465
  0
LINE
  5
256
100
AcDbEntity
  8
0
100
AcDbLine
 62
7
  6
CONTINUOUS
 10
158.4571070988
 20
121.7909910039
 11
69.8454311543
 21
172.9498085967
  0
LINE
  5
257
100
AcDbEntity
  8
0
100
AcDbLine
 62
7
  6
CONTINUOUS
 10
164.9685926745
 20
118.2358977468
 11
158.6046051482
 21
121.9100645375
  0
LINE
  5
258
100
AcDbEntity
  8
0
100
AcDbLine
 62
7
  6
CONTINUOUS
 10
196.9170304764
 20
100.9040163823
 11
192.6315200265
 21
103.3782010207
  0
LINE
  5
259
100
AcDbEntity
  8
0
100
AcDbLine
 62
7
  6
CONTINUOUS
 10
184.5322201874
 20
108.0542281772
 11
183.128390836
 21
108.8647110955
  0
LINE
  5
25A
100
AcDbEntity
  8
0
100
AcDbLine
 62
7
  6
CONTINUOUS
 10
69.8454311543
 20
174.4345518793
 11
159.7135783413
 21
122.5503266872
  0
LINE
  5
25B
100
AcDbEntity
  8
0
100
AcDbLine
 62
7
  6
CONTINUOUS
 10
52.3260505526
 20
184.8201148395
 11
39.3601253668
 21
192.8475569753
  0
LINE
  5
25C
100
AcDbEntity
  8
0
100
AcDbLine
 62
7
  6
CONTINUOUS
 10
192.1921757823
 20
104.1512133224
 11
185.828188256
 21
107.825380113
  0
LINE
  5
25D
100
AcDbEntity
  8
0
100
AcDbLine
 62
7
  6
CONTINUOUS
 10
160.151851315
 20
122.8033621961
 11
69.9949552884
 21
174.8542928369
  0
LINE
  5
25E
100
AcDbEntity
  8
0
100
AcDbLine
 62
7
  6
CONTINUOUS
 10
166.0365643036
 20
126.2008825438
 11
73.7587451719
 21
179.4763010087
  0
LINE
  5
25F
100
AcDbEntity
  8
0
100
AcDbLine
 62
7
  6
CONTINUOUS
 10
76.2077990571
 20
213.5056490817
 11
76.2245972623
 21
213.4801009026
  0
LINE
  5
260
100
AcDbEntity
  8
0
100
AcDbLine
 62
7
  6
CONTINUOUS
 10
28.1912128281
 20
210.9496562797
 11
35.9480397916
 21
206.4713514571
  0
LINE
  5
261
100
AcDbEntity
  8
0
100
AcDbLine
 62
7
  6
CONTINUOUS
 10
190.8782593416
 20
122.2881807716
 11
192.2924787919
 21
121.4716992626
  0
LINE
  5
262
100
AcDbEntity
  8
0
100
AcDbLine
 62
7
  6
CONTINUOUS
 10
81.0345252228
 20
186.5346585823
 11
79.3676398972
 21
187.4970135024
  0
LINE
  5
263
100
AcDbEntity
  8
0
100
AcDbLine
 62
7
  6
CONTINUOUS
 10
78.4889514088
 20
188.8208907472
 11
78.2223355554
 21
188.9748179996
  0
LINE
  5
264
100
AcDbEntity
  8
0
100
AcDbLine
 62
7
  6
CONTINUOUS
 10
76.292606228
 20
190.0889225418
 11
76.1735951011
 21
190.1576320936
  0
LINE
  5
265
100
AcDbEntity
  8
0
100
AcDbLine
 62
7
  6
CONTINUOUS
 10
76.2255042736
 20
193.0669964295
 11
81.0345252228
 21
190.2905697011
  0
LINE
  5
266
100
AcDbEntity
  8
0
100
AcDbLine
 62
7
  6
CONTINUOUS
 10
90.7144995358
 20
189.2656519204
 11
182.9923186674
 21
135.9902334555
  0
LINE
  5
267
100
AcDbEntity
  8
0
100
AcDbLine
 62
7
  6
CONTINUOUS
 10
94.4782894192
 20
188.9896680112
 11
94.5242030691
 21
188.9713803424
  0
LINE
  5
268
100
AcDbEntity
  8
0
100
AcDbLine
 62
7
  6
CONTINUOUS
 10
184.6351854458
 20
136.9387373704
 11
94.4782894192
 21
188.9896680112
  0
LINE
  5
269
100
AcDbEntity
  8
0
100
AcDbLine
 62
7
  6
CONTINUOUS
 10
94.5242573931
 20
188.9714746951
 11
184.6424131421
 21
136.9429102579
  0
LINE
  5
26A
100
AcDbEntity
  8
0
100
AcDbLine
 62
7
  6
CONTINUOUS
 10
190.4242778228
 20
140.2810514617
 11
196.7882653492
 21
136.606884671
  0
LINE
  5
26B
100
AcDbEntity
  8
0
100
AcDbLine
 62
7
  6
CONTINUOUS
 10
199.2882229316
 20
136.8545240938
 11
192.9242354053
 21
140.5286908845
  0
LINE
  5
26C
100
AcDbEntity
  8
0
100
AcDbLine
 62
7
  6
CONTINUOUS
 10
97.1380726387
 20
225.5896760363
 11
97.1548708438
 21
225.5641278572
  0
LINE
  5
26D
100
AcDbEntity
  8
0
100
AcDbLine
 62
7
  6
CONTINUOUS
 10
39.6910177073
 20
230.8683532186
 11
49.1467228514
 21
225.4092228103
  0
LINE
  5
26E
100
AcDbEntity
  8
0
100
AcDbLine
 62
7
  6
CONTINUOUS
 10
101.6819778772
 20
195.597690696
 11
100.2979134787
 21
196.3967625716
  0
LINE
  5
26F
100
AcDbEntity
  8
0
100
AcDbLine
 62
7
  6
CONTINUOUS
 10
99.4192249904
 20
200.9049177018
 11
99.152609137
 21
201.0588449542
  0
LINE
  5
270
100
AcDbEntity
  8
0
100
AcDbLine
 62
7
  6
CONTINUOUS
 10
97.2228798095
 20
202.1729494964
 11
97.1038542932
 21
202.2416673558
  0
LINE
  5
271
100
AcDbEntity
  8
0
100
AcDbLine
 62
7
  6
CONTINUOUS
 10
51.9136562888
 20
225.077282162
 11
76.2096329851
 21
213.504775614
  0
LINE
  5
272
100
AcDbEntity
  8
0
100
AcDbLine
 62
7
  6
CONTINUOUS
 10
155.0690859621
 20
79.0437229117
 11
155.0690859621
 21
115.7863316825
  0
LINE
  5
273
100
AcDbEntity
  8
0
100
AcDbLine
 62
7
  6
CONTINUOUS
 10
161.4330734885
 20
112.1121648918
 11
161.4330734885
 21
75.369556121
  0
LINE
  5
274
100
AcDbEntity
  8
0
100
AcDbLine
 62
7
  6
CONTINUOUS
 10
61.6819558766
 20
242.3400190414
 11
71.2426962475
 21
236.8202478884
  0
LINE
  5
275
100
AcDbEntity
  8
0
100
AcDbLine
 62
7
  6
CONTINUOUS
 10
158.6046051482
 20
121.9100645375
 11
190.4242778228
 21
140.2810514617
  0
LINE
  5
276
100
AcDbEntity
  8
0
100
AcDbLine
 62
7
  6
CONTINUOUS
 10
74.2581493206
 20
236.4876970181
 11
97.1399065666
 21
225.5888025686
  0
LINE
  5
277
100
AcDbEntity
  8
0
100
AcDbLine
 62
7
  6
CONTINUOUS
 10
196.7882653492
 20
136.606884671
 11
164.9685926745
 21
118.2358977468
  0
LINE
  5
278
100
AcDbEntity
  8
0
100
AcDbLine
 62
7
  6
CONTINUOUS
 10
183.2675325002
 20
106.2929911997
 11
183.2675325002
 21
107.2130138822
  0
LINE
  5
279
100
AcDbEntity
  8
0
100
AcDbLine
 62
7
  6
CONTINUOUS
 10
183.7068767443
 20
105.5740107333
 11
183.7068767443
 21
106.6006476514
  0
LINE
  5
27A
100
AcDbEntity
  8
0
100
AcDbLine
 62
7
  6
CONTINUOUS
 10
190.0708642707
 20
102.9264808607
 11
190.0708642707
 21
101.8998439426
  0
LINE
  5
27B
100
AcDbEntity
  8
0
100
AcDbLine
 62
7
  6
CONTINUOUS
 10
192.6315200265
 20
102.6188244091
 11
192.6315200265
 21
103.5388470915
  0
LINE
  5
27C
100
AcDbEntity
  8
0
100
AcDbLine
 62
7
  6
CONTINUOUS
 10
197.8490388635
 20
98.4357634588
 11
197.8490359196
 21
98.8440093124
  0
LINE
  5
27D
100
AcDbEntity
  8
0
100
AcDbLine
 62
7
  6
CONTINUOUS
 10
200.3237845352
 20
97.8229845839
 11
200.3237845352
 21
134.5655933548
  0
LINE
  5
27E
100
AcDbEntity
  8
0
100
AcDbLine
 62
7
  6
CONTINUOUS
 10
195.0206235148
 20
98.9664910529
 11
195.6892185346
 21
99.2100765001
  0
LINE
  5
27F
100
AcDbEntity
  8
0
100
AcDbLine
 62
7
  6
CONTINUOUS
 10
195.0206235148
 20
93.536749979
 11
194.6670686522
 21
93.3326191476
  0
LINE
  5
280
100
AcDbEntity
  8
0
100
AcDbLine
 62
7
  6
CONTINUOUS
 10
164.9685926745
 20
73.3282648047
 11
196.7882653492
 21
91.6992517289
  0
ARC
  5
281
100
AcDbEntity
  8
0
100
AcDbCircle
 62
7
  6
CONTINUOUS
 10
304.2084370114
 20
-133.3253570033
 40
414.64374743
100
AcDbArc
 50
121.3847202128
 51
123.3686561761
  0
ARC
  5
282
100
AcDbEntity
  8
0
100
AcDbCircle
 62
7
  6
CONTINUOUS
 10
62.1955011634
 20
200.9580664473
 40
20.2889994791
100
AcDbArc
 50
264.7080697437
 51
264.8226151374
  0
ARC
  5
283
100
AcDbEntity
  8
0
100
AcDbCircle
 62
7
  6
CONTINUOUS
 10
83.1257749334
 20
213.0420903506
 40
20.288996467
100
AcDbArc
 50
264.7080756382
 51
264.822612074
  0
ARC
  5
284
100
AcDbEntity
  8
0
100
AcDbCircle
 62
7
  6
CONTINUOUS
 10
186.5570117368
 20
114.868058504
 40
6.0886879195
100
AcDbArc
 50
44.5022397945
 51
53.8756448313
  0
ARC
  5
285
100
AcDbEntity
  8
0
100
AcDbCircle
 62
7
  6
CONTINUOUS
 10
43.1502507013
 20
157.9463269069
 40
4.5103209752
100
AcDbArc
 50
151.6781798641
 51
152.2462201555
  0
ARC
  5
286
100
AcDbEntity
  8
0
100
AcDbCircle
 62
7
  6
CONTINUOUS
 10
41.2062936269
 20
175.4908110494
 40
2.5092870538
100
AcDbArc
 50
179.9888012538
 51
183.3194814761
  0
ARC
  5
287
100
AcDbEntity
  8
0
100
AcDbCircle
 62
7
  6
CONTINUOUS
 10
41.2062936269
 20
158.3442602897
 40
2.5092870538
100
AcDbArc
 50
179.9888012538
 51
183.3194814761
  0
ARC
  5
288
100
AcDbEntity
  8
0
100
AcDbCircle
 62
7
  6
CONTINUOUS
 10
40.9964873437
 20
175.4792391314
 40
2.2991628095
100
AcDbArc
 50
183.3343342258
 51
186.4555323917
  0
ARC
  5
289
100
AcDbEntity
  8
0
100
AcDbCircle
 62
7
  6
CONTINUOUS
 10
197.5299748122
 20
97.4252455711
 40
0.956214388
100
AcDbArc
 50
70.4412548138
 51
72.7846383015
  0
ARC
  5
28A
100
AcDbEntity
  8
0
100
AcDbCircle
 62
7
  6
CONTINUOUS
 10
197.5388829388
 20
97.4495238342
 40
0.9303548475
100
AcDbArc
 50
60.0517912602
 51
70.4576613559
  0
ARC
  5
28B
100
AcDbEntity
  8
0
100
AcDbCircle
 62
7
  6
CONTINUOUS
 10
195.71696364
 20
94.2945380429
 40
0.9263551908
100
AcDbArc
 50
229.6330027146
 51
239.9720686197
  0
ARC
  5
28C
100
AcDbEntity
  8
0
100
AcDbCircle
 62
7
  6
CONTINUOUS
 10
45.9914953004
 20
148.8889055669
 40
0.1684143391
100
AcDbArc
 50
236.8696912709
 51
239.9946846167
  0
SPLINE
  5
28D
100
AcDbEntity
  8
0
100
AcDbSpline
 62
7
  6
CONTINUOUS
 70
0
 71
3
 72
11
 73
7
 74
0
 42
0.0000001
 43
0.0000001
 44
0.0000000001
 40
0.0
 40
0.0
 40
0.0
 40
0.0
 40
0.2177680369
 40
0.4509388494
 40
0.7102093292
 40
1.0
 40
1.0
 40
1.0
 40
1.0
 10
192.6315140436
 20
103.5388470913
 30
0.0
 10
192.6315083467
 20
103.5959769137
 30
0.0
 10
192.6104273277
 20
103.7150754402
 30
0.0
 10
192.5201226383
 20
103.8809610404
 30
0.0
 10
192.3774472851
 20
104.0309864609
 30
0.0
 10
192.2580152373
 20
104.1132017552
 30
0.0
 10
192.1921757823
 20
104.1512133224
 30
0.0
  0
SPLINE
  5
28E
100
AcDbEntity
  8
0
100
AcDbSpline
 62
7
  6
CONTINUOUS
 70
0
 71
3
 72
15
 73
11
 74
0
 42
0.0000001
 43
0.0000001
 44
0.0000000001
 40
0.0
 40
0.0
 40
0.0
 40
0.0
 40
0.1141570368
 40
0.2373234952
 40
0.3669733295
 40
0.4999978662
 40
0.6330240431
 40
0.7626747843
 40
0.885846198
 40
1.0
 40
1.0
 40
1.0
 40
1.0
 10
195.0206235148
 20
93.536749979
 30
0.0
 10
195.2142565725
 20
93.6485434096
 30
0.0
 10
195.596707515
 20
93.916632564
 30
0.0
 10
196.1229262995
 20
94.4089743787
 30
0.0
 10
196.6078813171
 20
94.9909357112
 30
0.0
 10
197.033286956
 20
95.6407274883
 30
0.0
 10
197.3833163489
 20
96.3340388736
 30
0.0
 10
197.644839392
 20
97.0450167927
 30
0.0
 10
197.8080856933
 20
97.7469177219
 30
0.0
 10
197.8490326366
 20
98.2121771601
 30
0.0
 10
197.8490306049
 20
98.4357586867
 30
0.0
  0
SPLINE
  5
28F
100
AcDbEntity
  8
0
100
AcDbSpline
 62
7
  6
CONTINUOUS
 70
0
 71
3
 72
14
 73
10
 74
0
 42
0.0000001
 43
0.0000001
 44
0.0000000001
 40
0.0
 40
0.0
 40
0.0
 40
0.0
 40
0.2892788841
 40
0.4225377981
 40
0.5484923298
 40
0.6678922165
 40
0.7818655952
 40
0.8919499534
 40
1.0
 40
1.0
 40
1.0
 40
1.0
 10
180.8784290118
 20
108.641835615
 30
0.0
 10
181.0759551486
 20
108.7558767025
 30
0.0
 10
181.3792059146
 20
108.9002084432
 30
0.0
 10
181.7950864455
 20
109.0214771147
 30
0.0
 10
182.0902781374
 20
109.0709790555
 30
0.0
 10
182.3743146245
 20
109.0808797797
 30
0.0
 10
182.6445082193
 20
109.0507402186
 30
0.0
 10
182.8979609242
 20
108.9806470534
 30
0.0
 10
183.0546104266
 20
108.9073047374
 30
0.0
 10
183.1283898124
 20
108.8647093225
 30
0.0
  0
SPLINE
  5
290
100
AcDbEntity
  8
0
100
AcDbSpline
 62
7
  6
CONTINUOUS
 70
0
 71
3
 72
18
 73
14
 74
0
 42
0.0000001
 43
0.0000001
 44
0.0000000001
 40
0.0
 40
0.0
 40
0.0
 40
0.0
 40
0.1286549003
 40
0.270204773
 40
0.4173207203
 40
0.561631173
 40
0.6952673622
 40
0.7562729898
 40
0.8127636087
 40
0.8647144908
 40
0.9125353996
 40
0.9571522649
 40
1.0
 40
1.0
 40
1.0
 40
1.0
 10
185.828188256
 20
107.825380113
 30
0.0
 10
185.7171520935
 20
107.8894854211
 30
0.0
 10
185.4657464998
 20
107.99320795
 30
0.0
 10
185.0560327532
 20
108.0751951952
 30
0.0
 10
184.6225919129
 20
108.0871667467
 30
0.0
 10
184.2011932226
 20
108.0279967593
 30
0.0
 10
183.8782415352
 20
107.9201372604
 30
0.0
 10
183.6578448655
 20
107.8003182457
 30
0.0
 10
183.5210334207
 20
107.7003319151
 30
0.0
 10
183.4106188456
 20
107.5894652835
 30
0.0
 10
183.329153309
 20
107.4696450637
 30
0.0
 10
183.2789656826
 20
107.3432480728
 30
0.0
 10
183.2675342249
 20
107.2557143757
 30
0.0
 10
183.267538483
 20
107.2130138824
 30
0.0
  0
SPLINE
  5
291
100
AcDbEntity
  8
0
100
AcDbSpline
 62
7
  6
CONTINUOUS
 70
0
 71
3
 72
16
 73
12
 74
0
 42
0.0000001
 43
0.0000001
 44
0.0000000001
 40
0.0
 40
0.0
 40
0.0
 40
0.0
 40
0.0992136089
 40
0.1542132164
 40
0.2126435746
 40
0.3384381379
 40
0.4731073158
 40
0.6117980565
 40
0.7491621967
 40
0.8800098989
 40
1.0
 40
1.0
 40
1.0
 40
1.0
 10
193.2701611209
 20
95.0200494215
 30
0.0
 10
193.2125079836
 20
95.1610467386
 30
0.0
 10
193.1592722955
 20
95.3957201468
 30
0.0
 10
193.1422673205
 20
95.7219404325
 30
0.0
 10
193.161423996
 20
96.0894231892
 30
0.0
 10
193.2563697572
 20
96.5723738615
 30
0.0
 10
193.4662478396
 20
97.1503625996
 30
0.0
 10
193.7632777329
 20
97.7089290555
 30
0.0
 10
194.1308625475
 20
98.21670528
 30
0.0
 10
194.5481792287
 20
98.645230368
 30
0.0
 10
194.8610767234
 20
98.8743772198
 30
0.0
 10
195.0206235148
 20
98.9664910529
 30
0.0
  0
SPLINE
  5
292
100
AcDbEntity
  8
0
100
AcDbSpline
 62
7
  6
CONTINUOUS
 70
0
 71
3
 72
14
 73
10
 74
0
 42
0.0000001
 43
0.0000001
 44
0.0000000001
 40
0.0
 40
0.0
 40
0.0
 40
0.0
 40
0.1080482432
 40
0.2181322873
 40
0.3321068339
 40
0.4515071146
 40
0.5774612857
 40
0.7107200697
 40
1.0
 40
1.0
 40
1.0
 40
1.0
 10
192.4171068281
 20
93.1097436672
 30
0.0
 10
192.4908850132
 20
93.0671489508
 30
0.0
 10
192.647532702
 20
92.9938064403
 30
0.0
 10
192.9009852611
 20
92.9237151264
 30
0.0
 10
193.1711796881
 20
92.8935741083
 30
0.0
 10
193.4552173408
 20
92.9034745864
 30
0.0
 10
193.7504089747
 20
92.9529769685
 30
0.0
 10
194.1662901945
 20
93.0742453854
 30
0.0
 10
194.4695417249
 20
93.2185776037
 30
0.0
 10
194.6670686522
 20
93.3326191476
 30
0.0
  0
SPLINE
  5
293
100
AcDbEntity
  8
0
100
AcDbSpline
 62
7
  6
CONTINUOUS
 70
0
 71
3
 72
23
 73
19
 74
0
 42
0.0000001
 43
0.0000001
 44
0.0000000001
 40
0.0
 40
0.0
 40
0.0
 40
0.0
 40
0.0428149526
 40
0.087397444
 40
0.1351808541
 40
0.1870905569
 40
0.2435375179
 40
0.3044952207
 40
0.3695932848
 40
0.4382013342
 40
0.5094989886
 40
0.5825347654
 40
0.6562782406
 40
0.7296665977
 40
0.801653715
 40
0.8712563057
 40
0.9376075745
 40
1.0
 40
1.0
 40
1.0
 40
1.0
 10
178.6284682113
 20
101.0704401533
 30
0.0
 10
178.5175225752
 20
101.134492942
 30
0.0
 10
178.3072127048
 20
101.2954636244
 30
0.0
 10
178.0541248423
 20
101.6154964672
 30
0.0
 10
177.8650086057
 20
102.0068826534
 30
0.0
 10
177.7425571918
 20
102.4600648352
 30
0.0
 10
177.6880389391
 20
102.9654879756
 30
0.0
 10
177.7019699738
 20
103.5127629356
 30
0.0
 10
177.7837634858
 20
104.090598336
 30
0.0
 10
177.9315880041
 20
104.6869200561
 30
0.0
 10
178.1422769065
 20
105.2891465586
 30
0.0
 10
178.4113419514
 20
105.8844926431
 30
0.0
 10
178.7330490072
 20
106.4602703364
 30
0.0
 10
179.1005315271
 20
107.0042010875
 30
0.0
 10
179.505954689
 20
107.5046727953
 30
0.0
 10
179.9407293503
 20
107.9510784286
 30
0.0
 10
180.3955691246
 20
108.3338493268
 30
0.0
 10
180.7167534474
 20
108.5484927415
 30
0.0
 10
180.8784290118
 20
108.641835615
 30
0.0
  0
SPLINE
  5
294
100
AcDbEntity
  8
0
100
AcDbSpline
 62
7
  6
CONTINUOUS
 70
0
 71
3
 72
14
 73
10
 74
0
 42
0.0000001
 43
0.0000001
 44
0.0000000001
 40
0.0
 40
0.0
 40
0.0
 40
0.0
 40
0.2892707544
 40
0.4225372455
 40
0.5484966612
 40
0.6678939361
 40
0.7818682813
 40
0.8919523447
 40
1.0
 40
1.0
 40
1.0
 40
1.0
 10
197.8490359196
 20
98.8440093124
 30
0.0
 10
197.8490342714
 20
99.0720922407
 30
0.0
 10
197.8223960802
 20
99.4068887856
 30
0.0
 10
197.7194768869
 20
99.8277010108
 30
0.0
 10
197.6147515342
 20
100.1081131174
 30
0.0
 10
197.4812933672
 20
100.3590506165
 30
0.0
 10
197.3200893385
 20
100.577977825
 30
0.0
 10
197.1326561381
 20
100.7624317528
 30
0.0
 10
196.9908102184
 20
100.861420767
 30
0.0
 10
196.9170304764
 20
100.9040163823
 30
0.0
  0
SPLINE
  5
295
100
AcDbEntity
  8
0
100
AcDbSpline
 62
7
  6
CONTINUOUS
 70
0
 71
3
 72
12
 73
8
 74
0
 42
0.0000001
 43
0.0000001
 44
0.0000000001
 40
0.0
 40
0.0
 40
0.0
 40
0.0
 40
0.2409481024
 40
0.5005955199
 40
0.7598221417
 40
0.8833818464
 40
1.0
 40
1.0
 40
1.0
 40
1.0
 10
193.3112137157
 20
96.6408480977
 30
0.0
 10
193.4462013426
 20
96.7366813368
 30
0.0
 10
193.6998231599
 20
96.9744661497
 30
0.0
 10
194.002281376
 20
97.4033337701
 30
0.0
 10
194.185631243
 20
97.8084836696
 30
0.0
 10
194.276290209
 20
98.139978451
 30
0.0
 10
194.3012194139
 20
98.3036315216
 30
0.0
 10
194.3078349666
 20
98.3834819864
 30
0.0
  0
SPLINE
  5
296
100
AcDbEntity
  8
0
100
AcDbSpline
 62
7
  6
CONTINUOUS
 70
0
 71
3
 72
23
 73
19
 74
0
 42
0.0000001
 43
0.0000001
 44
0.0000000001
 40
0.0
 40
0.0
 40
0.0
 40
0.0
 40
0.062391945
 40
0.1287426496
 40
0.1983452607
 40
0.2703335823
 40
0.3437222874
 40
0.4174657119
 40
0.4905017884
 40
0.5617998499
 40
0.6304082945
 40
0.6955066298
 40
0.7564644329
 40
0.8129113015
 40
0.864820722
 40
0.9126036954
 40
0.9571856569
 40
1.0
 40
1.0
 40
1.0
 40
1.0
 10
194.6670686522
 20
100.6811409018
 30
0.0
 10
194.5053942554
 20
100.5877987025
 30
0.0
 10
194.1842120551
 20
100.3731574273
 30
0.0
 10
193.7293742082
 20
99.9903886045
 30
0.0
 10
193.2945965842
 20
99.5439826479
 30
0.0
 10
192.8891708703
 20
99.0435065019
 30
0.0
 10
192.5216848858
 20
98.4995723047
 30
0.0
 10
192.199977492
 20
97.9237923578
 30
0.0
 10
191.9309116071
 20
97.3284441623
 30
0.0
 10
191.7202222619
 20
96.7262139685
 30
0.0
 10
191.5723978863
 20
96.1298885837
 30
0.0
 10
191.4906055254
 20
95.552050393
 30
0.0
 10
191.4766764311
 20
95.0047742595
 30
0.0
 10
191.5311970186
 20
94.4993519257
 30
0.0
 10
191.6536505329
 20
94.0461725705
 30
0.0
 10
191.8427678097
 20
93.6547908442
 30
0.0
 10
192.0958548037
 20
93.3347631127
 30
0.0
 10
192.3061627146
 20
93.1737955687
 30
0.0
 10
192.4171068281
 20
93.1097436672
 30
0.0
  0
SPLINE
  5
297
100
AcDbEntity
  8
0
100
AcDbSpline
 62
7
  6
CONTINUOUS
 70
0
 71
3
 72
17
 73
13
 74
0
 42
0.0000001
 43
0.0000001
 44
0.0000000001
 40
0.0
 40
0.0
 40
0.0
 40
0.0
 40
0.0942585596
 40
0.147016115
 40
0.2036196379
 40
0.263896635
 40
0.3274873198
 40
0.4623298733
 40
0.6030096479
 40
0.7434153065
 40
0.8774586225
 40
1.0
 40
1.0
 40
1.0
 40
1.0
 10
194.7311931408
 20
98.7390240562
 30
0.0
 10
194.780322732
 20
98.6618155608
 30
0.0
 10
194.8324169728
 20
98.5252098838
 30
0.0
 10
194.8632487362
 20
98.3298014461
 30
0.0
 10
194.8687152602
 20
98.1647274362
 30
0.0
 10
194.8554723545
 20
97.98972875
 30
0.0
 10
194.8123949348
 20
97.7419402928
 30
0.0
 10
194.7130212801
 20
97.4263482713
 30
0.0
 10
194.5342304426
 20
97.0627208771
 30
0.0
 10
194.3046784834
 20
96.7295533264
 30
0.0
 10
194.0391547757
 20
96.4481047983
 30
0.0
 10
193.8376704437
 20
96.2982907773
 30
0.0
 10
193.7346360458
 20
96.238804195
 30
0.0
  0
SPLINE
  5
298
100
AcDbEntity
  8
0
100
AcDbSpline
 62
7
  6
CONTINUOUS
 70
0
 71
3
 72
13
 73
9
 74
0
 42
0.0000001
 43
0.0000001
 44
0.0000000001
 40
0.0
 40
0.0
 40
0.0
 40
0.0
 40
0.3214825721
 40
0.5908703212
 40
0.7065682756
 40
0.811390089
 40
0.9079725389
 40
1.0
 40
1.0
 40
1.0
 40
1.0
 10
192.1921846142
 20
102.1099835426
 30
0.0
 10
192.257145575
 20
102.1474885469
 30
0.0
 10
192.3731424241
 20
102.2225968804
 30
0.0
 10
192.4973956509
 20
102.3327486752
 30
0.0
 10
192.5678499853
 20
102.4231814152
 30
0.0
 10
192.6042685146
 20
102.4879849674
 30
0.0
 10
192.6264739447
 20
102.5532057643
 30
0.0
 10
192.6315197991
 20
102.597351265
 30
0.0
 10
192.6315200253
 20
102.6188236936
 30
0.0
  0
SPLINE
  5
299
100
AcDbEntity
  8
0
100
AcDbSpline
 62
7
  6
CONTINUOUS
 70
0
 71
3
 72
15
 73
11
 74
0
 42
0.0000001
 43
0.0000001
 44
0.0000000001
 40
0.0
 40
0.0
 40
0.0
 40
0.0
 40
0.1128277296
 40
0.2330879244
 40
0.3600096801
 40
0.4917324318
 40
0.6254850649
 40
0.7576849138
 40
0.8840350404
 40
1.0
 40
1.0
 40
1.0
 40
1.0
 10
190.0708642707
 20
101.8998439426
 30
0.0
 10
190.1429774005
 20
101.8582103495
 30
0.0
 10
190.3026424325
 20
101.7899829113
 30
0.0
 10
190.5640069726
 20
101.7353997792
 30
0.0
 10
190.8443723607
 20
101.7229437244
 30
0.0
 10
191.1335552547
 20
101.7477858806
 30
0.0
 10
191.4220782007
 20
101.8041270306
 30
0.0
 10
191.7001869687
 20
101.8860250682
 30
0.0
 10
191.9578710036
 20
101.9868721726
 30
0.0
 10
192.1180666522
 20
102.0671917728
 30
0.0
 10
192.1921846142
 20
102.1099835426
 30
0.0
  0
SPLINE
  5
29A
100
AcDbEntity
  8
0
100
AcDbSpline
 62
7
  6
CONTINUOUS
 70
0
 71
3
 72
26
 73
22
 74
0
 42
0.0000001
 43
0.0000001
 44
0.0000000001
 40
0.0
 40
0.0
 40
0.0
 40
0.0
 40
0.0663907164
 40
0.1378643223
 40
0.2130918457
 40
0.2904311898
 40
0.3680889811
 40
0.44424509
 40
0.5171909666
 40
0.5854679468
 40
0.6480302044
 40
0.7044453197
 40
0.7551406602
 40
0.7788367379
 40
0.8017706881
 40
0.8242991673
 40
0.8468121708
 40
0.8697004337
 40
0.8933243837
 40
0.9438182464
 40
1.0
 40
1.0
 40
1.0
 40
1.0
 10
195.0206235148
 20
100.068769316
 30
0.0
 10
194.8353423484
 20
99.9617978233
 30
0.0
 10
194.4689882275
 20
99.7070096345
 30
0.0
 10
193.962329274
 20
99.2410188464
 30
0.0
 10
193.4921689381
 20
98.6909724541
 30
0.0
 10
193.0748195707
 20
98.0758366402
 30
0.0
 10
192.7245742634
 20
97.4167803564
 30
0.0
 10
192.453532376
 20
96.7365250923
 30
0.0
 10
192.2710236274
 20
96.0584129463
 30
0.0
 10
192.1833364323
 20
95.4054841141
 30
0.0
 10
192.1939016633
 20
94.7993643211
 30
0.0
 10
192.3032145224
 20
94.260011132
 30
0.0
 10
192.4807434005
 20
93.8719820375
 30
0.0
 10
192.6699589358
 20
93.6205268169
 30
0.0
 10
192.8301380962
 20
93.4642365292
 30
0.0
 10
193.0102090248
 20
93.3378077311
 30
0.0
 10
193.2083951687
 20
93.242576122
 30
0.0
 10
193.4226638179
 20
93.1794703044
 30
0.0
 10
193.7335726525
 20
93.1378239671
 30
0.0
 10
194.1570890923
 20
93.1736364139
 30
0.0
 10
194.4863653737
 20
93.2812247436
 30
0.0
 10
194.6529249174
 20
93.3521854452
 30
0.0
  0
SPLINE
  5
29B
100
AcDbEntity
  8
0
100
AcDbSpline
 62
7
  6
CONTINUOUS
 70
0
 71
3
 72
9
 73
5
 74
0
 42
0.0000001
 43
0.0000001
 44
0.0000000001
 40
0.0
 40
0.0
 40
0.0
 40
0.0
 40
0.2436931893
 40
1.0
 40
1.0
 40
1.0
 40
1.0
 10
194.6529249174
 20
93.3521854452
 30
0.0
 10
194.6836816164
 20
93.3652889689
 30
0.0
 10
194.8090092579
 20
93.421120436
 30
0.0
 10
194.9307681463
 20
93.4848722674
 30
0.0
 10
195.0206235148
 20
93.536749979
 30
0.0
  0
SPLINE
  5
29C
100
AcDbEntity
  8
0
100
AcDbSpline
 62
7
  6
CONTINUOUS
 70
0
 71
3
 72
18
 73
14
 74
0
 42
0.0000001
 43
0.0000001
 44
0.0000000001
 40
0.0
 40
0.0
 40
0.0
 40
0.0
 40
0.1286549003
 40
0.270204773
 40
0.4173207203
 40
0.561631173
 40
0.6952673622
 40
0.7562729898
 40
0.8127636087
 40
0.8647144908
 40
0.9125353996
 40
0.9571522649
 40
1.0
 40
1.0
 40
1.0
 40
1.0
 10
190.0708642707
 20
102.9264808607
 30
0.0
 10
190.1819004332
 20
102.8623755527
 30
0.0
 10
190.4333060268
 20
102.7586530238
 30
0.0
 10
190.8430197734
 20
102.6766657785
 30
0.0
 10
191.2764606137
 20
102.6646942271
 30
0.0
 10
191.697859304
 20
102.7238642144
 30
0.0
 10
192.0208109915
 20
102.8317237134
 30
0.0
 10
192.2412076612
 20
102.951542728
 30
0.0
 10
192.378019106
 20
103.0515290587
 30
0.0
 10
192.488433681
 20
103.1623956902
 30
0.0
 10
192.5698992176
 20
103.28221591
 30
0.0
 10
192.6200868441
 20
103.408612901
 30
0.0
 10
192.6315183017
 20
103.4961465981
 30
0.0
 10
192.6315140436
 20
103.5388470913
 30
0.0
  0
SPLINE
  5
29D
100
AcDbEntity
  8
0
100
AcDbSpline
 62
7
  6
CONTINUOUS
 70
0
 71
3
 72
15
 73
11
 74
0
 42
0.0000001
 43
0.0000001
 44
0.0000000001
 40
0.0
 40
0.0
 40
0.0
 40
0.0
 40
0.1514585534
 40
0.2907218291
 40
0.418456638
 40
0.5368505509
 40
0.6494866208
 40
0.7610740042
 40
0.8765317024
 40
1.0
 40
1.0
 40
1.0
 40
1.0
 10
195.0206235148
 20
94.6390282421
 30
0.0
 10
194.9301700315
 20
94.5868052109
 30
0.0
 10
194.7499700989
 20
94.4972130287
 30
0.0
 10
194.4738965962
 20
94.4089294932
 30
0.0
 10
194.2085852061
 20
94.374743401
 30
0.0
 10
193.9599012484
 20
94.3964938498
 30
0.0
 10
193.7342867019
 20
94.4751174875
 30
0.0
 10
193.5388090849
 20
94.6091329477
 30
0.0
 10
193.379375654
 20
94.7939397476
 30
0.0
 10
193.3023863485
 20
94.9412389552
 30
0.0
 10
193.2701611209
 20
95.0200494215
 30
0.0
  0
SPLINE
  5
29E
100
AcDbEntity
  8
0
100
AcDbSpline
 62
7
  6
CONTINUOUS
 70
0
 71
3
 72
14
 73
10
 74
0
 42
0.0000001
 43
0.0000001
 44
0.0000000001
 40
0.0
 40
0.0
 40
0.0
 40
0.0
 40
0.1080482432
 40
0.2181322873
 40
0.3321068339
 40
0.4515071146
 40
0.5774612857
 40
0.7107200697
 40
1.0
 40
1.0
 40
1.0
 40
1.0
 10
196.9170304764
 20
100.9040163823
 30
0.0
 10
196.8432522912
 20
100.9466110987
 30
0.0
 10
196.6866046025
 20
101.0199536091
 30
0.0
 10
196.4331520433
 20
101.0900449231
 30
0.0
 10
196.1629576163
 20
101.1201859411
 30
0.0
 10
195.8789199636
 20
101.110285463
 30
0.0
 10
195.5837283297
 20
101.060783081
 30
0.0
 10
195.16784711
 20
100.939514664
 30
0.0
 10
194.8645955795
 20
100.7951824457
 30
0.0
 10
194.6670686522
 20
100.6811409018
 30
0.0
  0
SPLINE
  5
29F
100
AcDbEntity
  8
0
100
AcDbSpline
 62
7
  6
CONTINUOUS
 70
0
 71
3
 72
11
 73
7
 74
0
 42
0.0000001
 43
0.0000001
 44
0.0000000001
 40
0.0
 40
0.0
 40
0.0
 40
0.0
 40
0.2177680369
 40
0.4509388494
 40
0.7102093292
 40
1.0
 40
1.0
 40
1.0
 40
1.0
 10
183.267538483
 20
107.2130138824
 30
0.0
 10
183.26754418
 20
107.1558840601
 30
0.0
 10
183.288625199
 20
107.0367855335
 30
0.0
 10
183.3789298884
 20
106.8708999334
 30
0.0
 10
183.5216052415
 20
106.7208745129
 30
0.0
 10
183.6410372893
 20
106.6386592186
 30
0.0
 10
183.7068767443
 20
106.6006476514
 30
0.0
  0
SPLINE
  5
2A0
100
AcDbEntity
  8
0
100
AcDbSpline
 62
7
  6
CONTINUOUS
 70
0
 71
3
 72
10
 73
6
 74
0
 42
0.0000001
 43
0.0000001
 44
0.0000000001
 40
0.0
 40
0.0
 40
0.0
 40
0.0
 40
0.2775329651
 40
0.536553247
 40
1.0
 40
1.0
 40
1.0
 40
1.0
 10
193.7346360458
 20
96.238804195
 30
0.0
 10
193.6884012408
 20
96.2121106773
 30
0.0
 10
193.5960810823
 20
96.1651809454
 30
0.0
 10
193.4150656328
 20
96.0997482264
 30
0.0
 10
193.2740336884
 20
96.0802769745
 30
0.0
 10
193.1850676806
 20
96.0860069943
 30
0.0
  0
SPLINE
  5
2A1
100
AcDbEntity
  8
0
100
AcDbSpline
 62
7
  6
CONTINUOUS
 70
0
 71
3
 72
9
 73
5
 74
0
 42
0.0000001
 43
0.0000001
 44
0.0000000001
 40
0.0
 40
0.0
 40
0.0
 40
0.0
 40
0.2565187323
 40
1.0
 40
1.0
 40
1.0
 40
1.0
 10
197.8490306049
 20
98.4357586867
 30
0.0
 10
197.849030285
 20
98.4709666481
 30
0.0
 10
197.8471103423
 20
98.6082078126
 30
0.0
 10
197.8373235769
 20
98.7453786107
 30
0.0
 10
197.8250037753
 20
98.8466772239
 30
0.0
  0
SPLINE
  5
2A2
100
AcDbEntity
  8
0
100
AcDbSpline
 62
7
  6
CONTINUOUS
 70
0
 71
3
 72
18
 73
14
 74
0
 42
0.0000001
 43
0.0000001
 44
0.0000000001
 40
0.0
 40
0.0
 40
0.0
 40
0.0
 40
0.1373627751
 40
0.2613587997
 40
0.319427223
 40
0.3756113986
 40
0.4306909518
 40
0.4855270036
 40
0.5409986271
 40
0.5979379992
 40
0.7187296133
 40
0.852214491
 40
1.0
 40
1.0
 40
1.0
 40
1.0
 10
197.8250037753
 20
98.8466772239
 30
0.0
 10
197.8040444326
 20
99.0190137935
 30
0.0
 10
197.7365207017
 20
99.3447170647
 30
0.0
 10
197.5687102441
 20
99.7167227588
 30
0.0
 10
197.3911863539
 20
99.9610789987
 30
0.0
 10
197.241197402
 20
100.1148575615
 30
0.0
 10
197.0727960297
 20
100.2416045942
 30
0.0
 10
196.8874404625
 20
100.3400594383
 30
0.0
 10
196.686865973
 20
100.40937268
 30
0.0
 10
196.3961234823
 20
100.463272582
 30
0.0
 10
195.9981023276
 20
100.4509224551
 30
0.0
 10
195.5042494397
 20
100.3177158791
 30
0.0
 10
195.182379308
 20
100.1621585093
 30
0.0
 10
195.0206235148
 20
100.068769316
 30
0.0
  0
SPLINE
  5
2A3
100
AcDbEntity
  8
0
100
AcDbSpline
 62
7
  6
CONTINUOUS
 70
0
 71
3
 72
23
 73
19
 74
0
 42
0.0000001
 43
0.0000001
 44
0.0000000001
 40
0.0
 40
0.0
 40
0.0
 40
0.0
 40
0.0490304918
 40
0.0946364288
 40
0.1391329513
 40
0.1851318338
 40
0.2348468601
 40
0.2896610111
 40
0.3500872538
 40
0.4159255796
 40
0.4864463143
 40
0.560545183
 40
0.6368697974
 40
0.7139243571
 40
0.7901696423
 40
0.8641160516
 40
0.9344255801
 40
1.0
 40
1.0
 40
1.0
 40
1.0
 10
195.6892192411
 20
99.2100790436
 30
0.0
 10
195.7857489818
 20
99.2232327934
 30
0.0
 10
195.9759462029
 20
99.2286888348
 30
0.0
 10
196.2479717656
 20
99.161289045
 30
0.0
 10
196.4825651322
 20
99.0183099182
 30
0.0
 10
196.6691563591
 20
98.806361143
 30
0.0
 10
196.8025241268
 20
98.5354357693
 30
0.0
 10
196.8808890662
 20
98.2150341519
 30
0.0
 10
196.9035166117
 20
97.8544033477
 30
0.0
 10
196.8704459065
 20
97.4636016089
 30
0.0
 10
196.7828767264
 20
97.0537042992
 30
0.0
 10
196.6434281199
 20
96.6365428037
 30
0.0
 10
196.4561954812
 20
96.2243060027
 30
0.0
 10
196.2266902687
 20
95.829102882
 30
0.0
 10
195.9616683371
 20
95.4625808611
 30
0.0
 10
195.6688893111
 20
95.1354701894
 30
0.0
 10
195.3569913767
 20
94.8574444858
 30
0.0
 10
195.1334616106
 20
94.7041749582
 30
0.0
 10
195.0206235148
 20
94.6390282421
 30
0.0
  0
SPLINE
  5
2A4
100
AcDbEntity
  8
0
100
AcDbSpline
 62
7
  6
CONTINUOUS
 70
0
 71
3
 72
11
 73
7
 74
0
 42
0.0000001
 43
0.0000001
 44
0.0000000001
 40
0.0
 40
0.0
 40
0.0
 40
0.0
 40
0.2383445708
 40
0.4814795031
 40
0.7338092008
 40
1.0
 40
1.0
 40
1.0
 40
1.0
 10
183.2675325014
 20
106.2929906309
 30
0.0
 10
183.2675320516
 20
106.2230153566
 30
0.0
 10
183.2870264443
 20
106.0809355461
 30
0.0
 10
183.3736148752
 20
105.8808882605
 30
0.0
 10
183.5152984108
 20
105.7045926156
 30
0.0
 10
183.6391959458
 20
105.6130853765
 30
0.0
 10
183.7068767443
 20
105.5740107333
 30
0.0
  0
SPLINE
  5
2A5
100
AcDbEntity
  8
0
100
AcDbSpline
 62
7
  6
CONTINUOUS
 70
0
 71
3
 72
9
 73
5
 74
0
 42
0.0000001
 43
0.0000001
 44
0.0000000001
 40
0.0
 40
0.0
 40
0.0
 40
0.0
 40
0.2542741163
 40
1.0
 40
1.0
 40
1.0
 40
1.0
 10
38.7098059097
 20
175.7555958637
 30
0.0
 10
38.7076935358
 20
175.733263622
 30
0.0
 10
38.7003625165
 20
175.6453481095
 30
0.0
 10
38.6970066211
 20
175.5570890284
 30
0.0
 10
38.6970066211
 20
175.4913015021
 30
0.0
  0
SPLINE
  5
2A6
100
AcDbEntity
  8
0
100
AcDbSpline
 62
7
  6
CONTINUOUS
 70
0
 71
3
 72
11
 73
7
 74
0
 42
0.0000001
 43
0.0000001
 44
0.0000000001
 40
0.0
 40
0.0
 40
0.0
 40
0.0
 40
0.2702900782
 40
0.5233696159
 40
0.764557207
 40
1.0
 40
1.0
 40
1.0
 40
1.0
 10
38.7012166895
 20
158.1989638477
 30
0.0
 10
38.7088803388
 20
158.0682121472
 30
0.0
 10
38.7443752004
 20
157.8153905286
 30
0.0
 10
38.8713088771
 20
157.4639597482
 30
0.0
 10
39.0725763907
 20
157.168097437
 30
0.0
 10
39.2556290069
 20
157.0204095917
 30
0.0
 10
39.3544343519
 20
156.9633655897
 30
0.0
  0
SPLINE
  5
2A7
100
AcDbEntity
  8
0
100
AcDbSpline
 62
7
  6
CONTINUOUS
 70
0
 71
3
 72
9
 73
5
 74
0
 42
0.0000001
 43
0.0000001
 44
0.0000000001
 40
0.0
 40
0.0
 40
0.0
 40
0.0
 40
0.5210727192
 40
1.0
 40
1.0
 40
1.0
 40
1.0
 10
39.1588109492
 20
160.046661167
 30
0.0
 10
39.0151749758
 20
159.7736966867
 30
0.0
 10
38.7912893732
 20
159.2208181515
 30
0.0
 10
38.6970066211
 20
158.6282519209
 30
0.0
 10
38.6970066211
 20
158.3447507423
 30
0.0
  0
SPLINE
  5
2A8
100
AcDbEntity
  8
0
100
AcDbSpline
 62
7
  6
CONTINUOUS
 70
0
 71
3
 72
9
 73
5
 74
0
 42
0.0000001
 43
0.0000001
 44
0.0000000001
 40
0.0
 40
0.0
 40
0.0
 40
0.0
 40
0.4775300783
 40
1.0
 40
1.0
 40
1.0
 40
1.0
 10
45.8994492809
 20
148.7478703943
 30
0.0
 10
45.8816081684
 20
148.7595141721
 30
0.0
 10
45.848857094
 20
148.791479987
 30
0.0
 10
45.8290144223
 20
148.8322854169
 30
0.0
 10
45.821486083
 20
148.8543456895
 30
0.0
  0
SPLINE
  5
2A9
100
AcDbEntity
  8
0
100
AcDbSpline
 62
7
  6
CONTINUOUS
 70
0
 71
3
 72
9
 73
5
 74
0
 42
0.0000001
 43
0.0000001
 44
0.0000000001
 40
0.0
 40
0.0
 40
0.0
 40
0.0
 40
0.2409871976
 40
1.0
 40
1.0
 40
1.0
 40
1.0
 10
45.821486083
 20
148.8543456895
 30
0.0
 10
45.8198919271
 20
148.8590170402
 30
0.0
 10
45.8137982514
 20
148.8785780136
 30
0.0
 10
45.809711519
 20
148.898741816
 30
0.0
 10
45.807566381
 20
148.9141391233
 30
0.0
  0
SPLINE
  5
2AA
100
AcDbEntity
  8
0
100
AcDbSpline
 62
7
  6
CONTINUOUS
 70
0
 71
3
 72
9
 73
5
 74
0
 42
0.0000001
 43
0.0000001
 44
0.0000000001
 40
0.0
 40
0.0
 40
0.0
 40
0.0
 40
0.2392749145
 40
1.0
 40
1.0
 40
1.0
 40
1.0
 10
39.1876171486
 20
160.0842527929
 30
0.0
 10
39.1137753122
 20
160.4364924953
 30
0.0
 10
38.8485551665
 20
161.9176176826
 30
0.0
 10
38.7495361755
 20
163.4264152466
 30
0.0
 10
38.7495361755
 20
164.5706314157
 30
0.0
  0
SPLINE
  5
2AB
100
AcDbEntity
  8
0
100
AcDbSpline
 62
7
  6
CONTINUOUS
 70
0
 71
3
 72
9
 73
5
 74
0
 42
0.0000001
 43
0.0000001
 44
0.0000000001
 40
0.0
 40
0.0
 40
0.0
 40
0.0
 40
0.2592908879
 40
1.0
 40
1.0
 40
1.0
 40
1.0
 10
50.7573344571
 20
146.0564538417
 30
0.0
 10
50.7580672364
 20
146.0511941201
 30
0.0
 10
50.7613228057
 20
146.0309741463
 30
0.0
 10
50.7663545154
 20
146.0110178218
 30
0.0
 10
50.7712541567
 20
145.9966604147
 30
0.0
  0
SPLINE
  5
2AC
100
AcDbEntity
  8
0
100
AcDbSpline
 62
7
  6
CONTINUOUS
 70
0
 71
3
 72
8
 73
4
 74
0
 42
0.0000001
 43
0.0000001
 44
0.0000000001
 40
0.0
 40
0.0
 40
0.0
 40
0.0
 40
1.0
 40
1.0
 40
1.0
 40
1.0
 10
50.7712541567
 20
145.9966604147
 30
0.0
 10
50.775032826
 20
145.9855877891
 30
0.0
 10
50.77952918
 20
145.9747254359
 30
0.0
 10
50.7848046614
 20
145.9642827028
 30
0.0
  0
SPLINE
  5
2AD
100
AcDbEntity
  8
0
100
AcDbSpline
 62
7
  6
CONTINUOUS
 70
0
 71
3
 72
9
 73
5
 74
0
 42
0.0000001
 43
0.0000001
 44
0.0000000001
 40
0.0
 40
0.0
 40
0.0
 40
0.0
 40
0.2473343758
 40
1.0
 40
1.0
 40
1.0
 40
1.0
 10
39.3544407754
 20
156.9633767157
 30
0.0
 10
39.3311876003
 20
156.9768016401
 30
0.0
 10
39.2395553957
 20
157.035154757
 30
0.0
 10
39.1585930497
 20
157.1098871035
 30
0.0
 10
39.1056489637
 20
157.1721220517
 30
0.0
  0
SPLINE
  5
2AE
100
AcDbEntity
  8
0
100
AcDbSpline
 62
7
  6
CONTINUOUS
 70
0
 71
3
 72
10
 73
6
 74
0
 42
0.0000001
 43
0.0000001
 44
0.0000000001
 40
0.0
 40
0.0
 40
0.0
 40
0.0
 40
0.4583102901
 40
0.7182990759
 40
1.0
 40
1.0
 40
1.0
 40
1.0
 10
39.1056489637
 20
157.1721220517
 30
0.0
 10
38.9951228402
 20
157.302043788
 30
0.0
 10
38.8729257533
 20
157.5506132501
 30
0.0
 10
38.797231844
 20
157.9152723408
 30
0.0
 10
38.7848754699
 20
158.1174336534
 30
0.0
 10
38.7848754699
 20
158.2222774962
 30
0.0
  0
SPLINE
  5
2AF
100
AcDbEntity
  8
0
100
AcDbSpline
 62
7
  6
CONTINUOUS
 70
0
 71
3
 72
9
 73
5
 74
0
 42
0.0000001
 43
0.0000001
 44
0.0000000001
 40
0.0
 40
0.0
 40
0.0
 40
0.0
 40
0.4749086667
 40
1.0
 40
1.0
 40
1.0
 40
1.0
 10
38.7848754699
 20
158.2222774962
 30
0.0
 10
38.7848754699
 20
158.4983799142
 30
0.0
 10
38.8751198062
 20
159.0801761123
 30
0.0
 10
39.087507983
 20
159.6257224492
 30
0.0
 10
39.2246905351
 20
159.8984409337
 30
0.0
  0
SPLINE
  5
2B0
100
AcDbEntity
  8
0
100
AcDbSpline
 62
7
  6
CONTINUOUS
 70
0
 71
3
 72
13
 73
9
 74
0
 42
0.0000001
 43
0.0000001
 44
0.0000000001
 40
0.0
 40
0.0
 40
0.0
 40
0.0
 40
0.1142483233
 40
0.2375469957
 40
0.4999994774
 40
0.7624522452
 40
0.8857512516
 40
1.0
 40
1.0
 40
1.0
 40
1.0
 10
85.2771659099
 20
186.5346687804
 30
0.0
 10
85.131955485
 20
186.4508320029
 30
0.0
 10
84.8143710548
 20
186.3029373044
 30
0.0
 10
84.1105422714
 20
186.0891752019
 30
0.0
 10
83.1558488896
 20
185.9853342605
 30
0.0
 10
82.2011545897
 20
186.0891707878
 30
0.0
 10
81.4973231688
 20
186.302929428
 30
0.0
 10
81.1797367925
 20
186.4508225401
 30
0.0
 10
81.0345252228
 20
186.5346585823
 30
0.0
  0
SPLINE
  5
2B1
100
AcDbEntity
  8
0
100
AcDbSpline
 62
7
  6
CONTINUOUS
 70
0
 71
3
 72
14
 73
10
 74
0
 42
0.0000001
 43
0.0000001
 44
0.0000000001
 40
0.0
 40
0.0
 40
0.0
 40
0.0
 40
0.2892793864
 40
0.4225409198
 40
0.5484922101
 40
0.6678928946
 40
0.7818662912
 40
0.8919502518
 40
1.0
 40
1.0
 40
1.0
 40
1.0
 10
55.932053437
 20
241.770448369
 30
0.0
 10
56.4368431988
 20
242.0618871342
 30
0.0
 10
57.2118217492
 20
242.4307393696
 30
0.0
 10
58.2746288476
 20
242.7406455524
 30
0.0
 10
59.0290078496
 20
242.8671409706
 30
0.0
 10
59.7548756508
 20
242.8924582475
 30
0.0
 10
60.4453636228
 20
242.8154009737
 30
0.0
 10
61.0930946613
 20
242.6363323186
 30
0.0
 10
61.4933918587
 20
242.4488435161
 30
0.0
 10
61.6819455473
 20
242.3400009157
 30
0.0
  0
SPLINE
  5
2B2
100
AcDbEntity
  8
0
100
AcDbSpline
 62
7
  6
CONTINUOUS
 70
0
 71
3
 72
15
 73
11
 74
0
 42
0.0000001
 43
0.0000001
 44
0.0000000001
 40
0.0
 40
0.0
 40
0.0
 40
0.0
 40
0.1063003449
 40
0.2245949217
 40
0.3525352842
 40
0.4865869361
 40
0.622566836
 40
0.7560967105
 40
0.8830443446
 40
1.0
 40
1.0
 40
1.0
 40
1.0
 10
47.9531561922
 20
225.9624932273
 30
0.0
 10
47.8307512948
 20
226.6107779865
 30
0.0
 10
47.7411526613
 20
228.0140123936
 30
0.0
 10
48.0019540097
 20
230.1952300606
 30
0.0
 10
48.6346891459
 20
232.4775348841
 30
0.0
 10
49.6099154861
 20
234.7542432647
 30
0.0
 10
50.881778327
 20
236.9195799426
 30
0.0
 10
52.3910529545
 20
238.8719787358
 30
0.0
 10
54.0662352978
 20
240.5197559259
 30
0.0
 10
55.3034304466
 20
241.4075148826
 30
0.0
 10
55.932053437
 20
241.770448369
 30
0.0
  0
SPLINE
  5
2B3
100
AcDbEntity
  8
0
100
AcDbSpline
 62
7
  6
CONTINUOUS
 70
0
 71
3
 72
20
 73
16
 74
0
 42
0.0000001
 43
0.0000001
 44
0.0000000001
 40
0.0
 40
0.0
 40
0.0
 40
0.0
 40
0.0429095693
 40
0.0872307442
 40
0.1341589702
 40
0.1845446586
 40
0.2388665466
 40
0.2972675978
 40
0.3596123585
 40
0.4255440864
 40
0.4945351659
 40
0.5659294993
 40
0.7127675252
 40
0.8596397664
 40
1.0
 40
1.0
 40
1.0
 40
1.0
 10
97.1557714118
 20
202.6195599482
 30
0.0
 10
97.1557723318
 20
202.2659328842
 30
0.0
 10
97.0726103071
 20
201.5445700422
 30
0.0
 10
96.7046970505
 20
200.493578602
 30
0.0
 10
96.1036092024
 20
199.4848706525
 30
0.0
 10
95.2830422444
 20
198.5351573335
 30
0.0
 10
94.2585080048
 20
197.6582778394
 30
0.0
 10
93.047659287
 20
196.8674168799
 30
0.0
 10
91.6707287255
 20
196.1748120088
 30
0.0
 10
90.1506660668
 20
195.5915527009
 30
0.0
 10
88.5127446918
 20
195.127115877
 30
0.0
 10
86.1874849964
 20
194.6727118509
 30
0.0
 10
83.1740142535
 20
194.446930325
 30
0.0
 10
79.5944740386
 20
194.709665756
 30
0.0
 10
77.2757298777
 20
195.2478990889
 30
0.0
 10
76.1778896185
 20
195.6123056648
 30
0.0
  0
SPLINE
  5
2B4
100
AcDbEntity
  8
0
100
AcDbSpline
 62
7
  6
CONTINUOUS
 70
0
 71
3
 72
9
 73
5
 74
0
 42
0.0000001
 43
0.0000001
 44
0.0000000001
 40
0.0
 40
0.0
 40
0.0
 40
0.0
 40
0.2463546754
 40
1.0
 40
1.0
 40
1.0
 40
1.0
 10
84.3957778648
 20
193.7446127547
 30
0.0
 10
84.3802559057
 20
193.7535741592
 30
0.0
 10
84.3167086264
 20
193.789008873
 30
0.0
 10
84.2511191953
 20
193.8207531318
 30
0.0
 10
84.2008742205
 20
193.8427028652
 30
0.0
  0
SPLINE
  5
2B5
100
AcDbEntity
  8
0
100
AcDbSpline
 62
7
  6
CONTINUOUS
 70
0
 71
3
 72
16
 73
12
 74
0
 42
0.0000001
 43
0.0000001
 44
0.0000000001
 40
0.0
 40
0.0
 40
0.0
 40
0.0
 40
0.1291261154
 40
0.2638148986
 40
0.3997777773
 40
0.5319202135
 40
0.6568227668
 40
0.774307285
 40
0.8874546761
 40
0.9435937787
 40
1.0
 40
1.0
 40
1.0
 40
1.0
 10
84.2008742205
 20
193.8427028652
 30
0.0
 10
84.0582574577
 20
193.9050056117
 30
0.0
 10
83.752385459
 20
194.000476236
 30
0.0
 10
83.2720224342
 20
194.0595615835
 30
0.0
 10
82.7847188071
 20
194.0384952379
 30
0.0
 10
82.3193634312
 20
193.9373525514
 30
0.0
 10
81.9018954569
 20
193.7568570847
 30
0.0
 10
81.5559723763
 20
193.4953309605
 30
0.0
 10
81.3546716544
 20
193.2044399453
 30
0.0
 10
81.2702746048
 20
192.9441410077
 30
0.0
 10
81.2558367345
 20
192.8080403825
 30
0.0
 10
81.2558367345
 20
192.7400557884
 30
0.0
  0
SPLINE
  5
2B6
100
AcDbEntity
  8
0
100
AcDbSpline
 62
7
  6
CONTINUOUS
 70
0
 71
3
 72
11
 73
7
 74
0
 42
0.0000001
 43
0.0000001
 44
0.0000000001
 40
0.0
 40
0.0
 40
0.0
 40
0.0
 40
0.2451117305
 40
0.4911314743
 40
0.741116646
 40
1.0
 40
1.0
 40
1.0
 40
1.0
 10
85.0558367345
 20
192.7400557884
 30
0.0
 10
85.0558367345
 20
192.8427242759
 30
0.0
 10
85.0221610355
 20
193.0498334752
 30
0.0
 10
84.8800045574
 20
193.330480719
 30
0.0
 10
84.6654416891
 20
193.566947781
 30
0.0
 10
84.4896875278
 20
193.690395212
 30
0.0
 10
84.3957778648
 20
193.7446127547
 30
0.0
  0
SPLINE
  5
2B7
100
AcDbEntity
  8
0
100
AcDbSpline
 62
7
  6
CONTINUOUS
 70
0
 71
3
 72
9
 73
5
 74
0
 42
0.0000001
 43
0.0000001
 44
0.0000000001
 40
0.0
 40
0.0
 40
0.0
 40
0.0
 40
0.2463546754
 40
1.0
 40
1.0
 40
1.0
 40
1.0
 10
98.5378546091
 20
201.9094958321
 30
0.0
 10
98.52233265
 20
201.9184572366
 30
0.0
 10
98.4587853707
 20
201.9538919504
 30
0.0
 10
98.3931959396
 20
201.9856362092
 30
0.0
 10
98.3429509648
 20
202.0075859426
 30
0.0
  0
SPLINE
  5
2B8
100
AcDbEntity
  8
0
100
AcDbSpline
 62
7
  6
CONTINUOUS
 70
0
 71
3
 72
9
 73
5
 74
0
 42
0.0000001
 43
0.0000001
 44
0.0000000001
 40
0.0
 40
0.0
 40
0.0
 40
0.0
 40
0.4893323737
 40
1.0
 40
1.0
 40
1.0
 40
1.0
 10
98.3429509648
 20
202.0075859426
 30
0.0
 10
98.1515786389
 20
202.0911877667
 30
0.0
 10
97.7347245589
 20
202.2049871801
 30
0.0
 10
97.3044903423
 20
202.2213775512
 30
0.0
 10
97.0871206692
 20
202.2055961738
 30
0.0
  0
SPLINE
  5
2B9
100
AcDbEntity
  8
0
100
AcDbSpline
 62
7
  6
CONTINUOUS
 70
0
 71
3
 72
11
 73
7
 74
0
 42
0.0000001
 43
0.0000001
 44
0.0000000001
 40
0.0
 40
0.0
 40
0.0
 40
0.0
 40
0.2451117305
 40
0.4911314743
 40
0.741116646
 40
1.0
 40
1.0
 40
1.0
 40
1.0
 10
99.1979134787
 20
200.9049388658
 30
0.0
 10
99.1979134787
 20
201.0076073533
 30
0.0
 10
99.1642377798
 20
201.2147165526
 30
0.0
 10
99.0220813017
 20
201.4953637965
 30
0.0
 10
98.8075184333
 20
201.7318308584
 30
0.0
 10
98.6317642721
 20
201.8552782894
 30
0.0
 10
98.5378546091
 20
201.9094958321
 30
0.0
  0
SPLINE
  5
2BA
100
AcDbEntity
  8
0
100
AcDbSpline
 62
7
  6
CONTINUOUS
 70
0
 71
3
 72
11
 73
7
 74
0
 42
0.0000001
 43
0.0000001
 44
0.0000000001
 40
0.0
 40
0.0
 40
0.0
 40
0.0
 40
0.2177727701
 40
0.4509280213
 40
0.7102223029
 40
1.0
 40
1.0
 40
1.0
 40
1.0
 10
100.2978914264
 20
195.9242741213
 30
0.0
 10
100.2978914278
 20
195.8100142212
 30
0.0
 10
100.2556947066
 20
195.5718328627
 30
0.0
 10
100.0751290989
 20
195.2400448823
 30
0.0
 10
99.7897635366
 20
194.9400155275
 30
0.0
 10
99.5509125528
 20
194.7755710554
 30
0.0
 10
99.4192426542
 20
194.6995518578
 30
0.0
  0
SPLINE
  5
2BB
100
AcDbEntity
  8
0
100
AcDbSpline
 62
7
  6
CONTINUOUS
 70
0
 71
3
 72
11
 73
7
 74
0
 42
0.0000001
 43
0.0000001
 44
0.0000000001
 40
0.0
 40
0.0
 40
0.0
 40
0.0
 40
0.2177723091
 40
0.4509273687
 40
0.7102218233
 40
1.0
 40
1.0
 40
1.0
 40
1.0
 10
100.2978914264
 20
199.6801852401
 30
0.0
 10
100.2978914249
 20
199.7944463703
 30
0.0
 10
100.2556937401
 20
200.032630477
 30
0.0
 10
100.0751242262
 20
200.3644216699
 30
0.0
 10
99.7897528681
 20
200.6644532486
 30
0.0
 10
99.5508973513
 20
200.8288983485
 30
0.0
 10
99.4192249904
 20
200.9049177018
 30
0.0
  0
SPLINE
  5
2BC
100
AcDbEntity
  8
0
100
AcDbSpline
 62
7
  6
CONTINUOUS
 70
0
 71
3
 72
19
 73
15
 74
0
 42
0.0000001
 43
0.0000001
 44
0.0000000001
 40
0.0
 40
0.0
 40
0.0
 40
0.0
 40
0.1485941008
 40
0.3045047848
 40
0.4557154086
 40
0.5913796618
 40
0.6513301392
 40
0.7056852917
 40
0.755159505
 40
0.8013332785
 40
0.8465567119
 40
0.8934209384
 40
0.9441025552
 40
1.0
 40
1.0
 40
1.0
 40
1.0
 10
96.5614926949
 20
200.625777363
 30
0.0
 10
96.7046648252
 20
200.5746161269
 30
0.0
 10
97.0116906173
 20
200.506405934
 30
0.0
 10
97.4805891292
 20
200.4964858079
 30
0.0
 10
97.9297091426
 20
200.5748559729
 30
0.0
 10
98.2616432787
 20
200.7128578066
 30
0.0
 10
98.4696592738
 20
200.8636232105
 30
0.0
 10
98.585725946
 20
200.9861066878
 30
0.0
 10
98.6644860238
 20
201.1196749027
 30
0.0
 10
98.7021719725
 20
201.2609069467
 30
0.0
 10
98.6961304978
 20
201.404429432
 30
0.0
 10
98.646960994
 20
201.5440293344
 30
0.0
 10
98.5576792009
 20
201.6749013925
 30
0.0
 10
98.4778824873
 20
201.7503770684
 30
0.0
 10
98.4332222163
 20
201.7861054802
 30
0.0
  0
SPLINE
  5
2BD
100
AcDbEntity
  8
0
100
AcDbSpline
 62
7
  6
CONTINUOUS
 70
0
 71
3
 72
9
 73
5
 74
0
 42
0.0000001
 43
0.0000001
 44
0.0000000001
 40
0.0
 40
0.0
 40
0.0
 40
0.0
 40
0.2423406373
 40
1.0
 40
1.0
 40
1.0
 40
1.0
 10
98.4332222163
 20
201.7861054802
 30
0.0
 10
98.4221355772
 20
201.7949748399
 30
0.0
 10
98.3756298942
 20
201.8306222144
 30
0.0
 10
98.3263006404
 20
201.8625380144
 30
0.0
 10
98.2878588508
 20
201.8847318898
 30
0.0
  0
SPLINE
  5
2BE
100
AcDbEntity
  8
0
100
AcDbSpline
 62
7
  6
CONTINUOUS
 70
0
 71
3
 72
10
 73
6
 74
0
 42
0.0000001
 43
0.0000001
 44
0.0000000001
 40
0.0
 40
0.0
 40
0.0
 40
0.0
 40
0.2279665322
 40
0.4763133019
 40
1.0
 40
1.0
 40
1.0
 40
1.0
 10
98.2878588508
 20
201.8847318898
 30
0.0
 10
98.2058882839
 20
201.9320565481
 30
0.0
 10
98.0238760031
 20
202.0128789991
 30
0.0
 10
97.6211168554
 20
202.1177861123
 30
0.0
 10
97.295384382
 20
202.131300002
 30
0.0
 10
97.0788546489
 20
202.1115022758
 30
0.0
  0
SPLINE
  5
2BF
100
AcDbEntity
  8
0
100
AcDbSpline
 62
7
  6
CONTINUOUS
 70
0
 71
3
 72
17
 73
13
 74
0
 42
0.0000001
 43
0.0000001
 44
0.0000000001
 40
0.0
 40
0.0
 40
0.0
 40
0.0
 40
0.1286888688
 40
0.2702719422
 40
0.4174318501
 40
0.5617773054
 40
0.6954483126
 40
0.8127138313
 40
0.8646770028
 40
0.9125122438
 40
0.9571395731
 40
1.0
 40
1.0
 40
1.0
 40
1.0
 10
81.8123394437
 20
191.9643918961
 30
0.0
 10
81.9529848883
 20
191.8831920478
 30
0.0
 10
82.2714184607
 20
191.7518008703
 30
0.0
 10
82.7904160031
 20
191.6479806964
 30
0.0
 10
83.3393502105
 20
191.6327753747
 30
0.0
 10
83.8734292769
 20
191.7078262346
 30
0.0
 10
84.3493406467
 20
191.8667888186
 30
0.0
 10
84.6803418882
 20
192.0682611163
 30
0.0
 10
84.8745832792
 20
192.2632143011
 30
0.0
 10
84.9777893605
 20
192.4149851443
 30
0.0
 10
85.0413400574
 20
192.5750943971
 30
0.0
 10
85.0558403338
 20
192.6859668957
 30
0.0
 10
85.0558367348
 20
192.7400557884
 30
0.0
  0
SPLINE
  5
2C0
100
AcDbEntity
  8
0
100
AcDbSpline
 62
7
  6
CONTINUOUS
 70
0
 71
3
 72
19
 73
15
 74
0
 42
0.0000001
 43
0.0000001
 44
0.0000000001
 40
0.0
 40
0.0
 40
0.0
 40
0.0
 40
0.1375836963
 40
0.2899167886
 40
0.4437805641
 40
0.5854786553
 40
0.6486058176
 40
0.7056520357
 40
0.7569416396
 40
0.8038449932
 40
0.8488099759
 40
0.8948553567
 40
0.9446657068
 40
1.0
 40
1.0
 40
1.0
 40
1.0
 10
82.1658913624
 20
192.5767651816
 30
0.0
 10
82.2988220486
 20
192.5000193503
 30
0.0
 10
82.6064756359
 20
192.3854820414
 30
0.0
 10
83.1009863832
 20
192.3229066281
 30
0.0
 10
83.6025096511
 20
192.3635480793
 30
0.0
 10
83.9892761787
 20
192.4841283205
 30
0.0
 10
84.2428577746
 20
192.6316091584
 30
0.0
 10
84.389504301
 20
192.756373535
 30
0.0
 10
84.4946845534
 20
192.8961593574
 30
0.0
 10
84.5533750144
 20
193.0472894617
 30
0.0
 10
84.5610312601
 20
193.2037762966
 30
0.0
 10
84.5168858234
 20
193.3572491615
 30
0.0
 10
84.4247836376
 20
193.500809999
 30
0.0
 10
84.3393509844
 20
193.5826577823
 30
0.0
 10
84.291145472
 20
193.6212224028
 30
0.0
  0
SPLINE
  5
2C1
100
AcDbEntity
  8
0
100
AcDbSpline
 62
7
  6
CONTINUOUS
 70
0
 71
3
 72
9
 73
5
 74
0
 42
0.0000001
 43
0.0000001
 44
0.0000000001
 40
0.0
 40
0.0
 40
0.0
 40
0.0
 40
0.2423406373
 40
1.0
 40
1.0
 40
1.0
 40
1.0
 10
84.291145472
 20
193.6212224028
 30
0.0
 10
84.2800588329
 20
193.6300917625
 30
0.0
 10
84.23355315
 20
193.665739137
 30
0.0
 10
84.1842238961
 20
193.6976549369
 30
0.0
 10
84.1457821066
 20
193.7198488124
 30
0.0
  0
SPLINE
  5
2C2
100
AcDbEntity
  8
0
100
AcDbSpline
 62
7
  6
CONTINUOUS
 70
0
 71
3
 72
19
 73
15
 74
0
 42
0.0000001
 43
0.0000001
 44
0.0000000001
 40
0.0
 40
0.0
 40
0.0
 40
0.0
 40
0.1382631925
 40
0.2913998958
 40
0.4445402274
 40
0.5827877966
 40
0.6432393188
 40
0.6973178778
 40
0.7459598308
 40
0.7913887291
 40
0.8368205906
 40
0.8854544311
 40
0.9395663131
 40
1.0
 40
1.0
 40
1.0
 40
1.0
 10
84.1457821066
 20
193.7198488124
 30
0.0
 10
84.0052362769
 20
193.8009911493
 30
0.0
 10
83.6783945147
 20
193.919389227
 30
0.0
 10
83.1558441238
 20
193.9761656678
 30
0.0
 10
82.6331927288
 20
193.9192528465
 30
0.0
 10
82.2388341331
 20
193.7767315921
 30
0.0
 10
81.9930238588
 20
193.6076810851
 30
0.0
 10
81.8598453776
 20
193.4676432926
 30
0.0
 10
81.7755476256
 20
193.3127164318
 30
0.0
 10
81.7463288182
 20
193.148329209
 30
0.0
 10
81.7755395884
 20
192.9839611469
 30
0.0
 10
81.859798988
 20
192.8289555381
 30
0.0
 10
81.9930053931
 20
192.6890082458
 30
0.0
 10
82.1044599538
 20
192.6122318195
 30
0.0
 10
82.1658913624
 20
192.5767651816
 30
0.0
  0
SPLINE
  5
2C3
100
AcDbEntity
  8
0
100
AcDbSpline
 62
7
  6
CONTINUOUS
 70
0
 71
3
 72
9
 73
5
 74
0
 42
0.0000001
 43
0.0000001
 44
0.0000000001
 40
0.0
 40
0.0
 40
0.0
 40
0.0
 40
0.2621744969
 40
1.0
 40
1.0
 40
1.0
 40
1.0
 10
95.954416188
 20
198.9045213478
 30
0.0
 10
95.9278318277
 20
198.9198694882
 30
0.0
 10
95.8280006856
 20
198.9810227466
 30
0.0
 10
95.7345032317
 20
199.0529920735
 30
0.0
 10
95.6720046069
 20
199.1126319012
 30
0.0
  0
SPLINE
  5
2C4
100
AcDbEntity
  8
0
100
AcDbSpline
 62
7
  6
CONTINUOUS
 70
0
 71
3
 72
11
 73
7
 74
0
 42
0.0000001
 43
0.0000001
 44
0.0000000001
 40
0.0
 40
0.0
 40
0.0
 40
0.0
 40
0.2897036169
 40
0.5490920547
 40
0.7822205729
 40
1.0
 40
1.0
 40
1.0
 40
1.0
 10
81.8123394437
 20
190.7396382704
 30
0.0
 10
81.7289688143
 20
190.7877712368
 30
0.0
 10
81.5777125696
 20
190.8919500762
 30
0.0
 10
81.396936603
 20
191.0819287709
 30
0.0
 10
81.2825858878
 20
191.2920972892
 30
0.0
 10
81.2558486828
 20
191.4429347738
 30
0.0
 10
81.255843211
 20
191.5153021664
 30
0.0
  0
SPLINE
  5
2C5
100
AcDbEntity
  8
0
100
AcDbSpline
 62
7
  6
CONTINUOUS
 70
0
 71
3
 72
17
 73
13
 74
0
 42
0.0000001
 43
0.0000001
 44
0.0000000001
 40
0.0
 40
0.0
 40
0.0
 40
0.0
 40
0.0428584554
 40
0.0874839031
 40
0.1353177481
 40
0.1872794187
 40
0.3045395902
 40
0.4382053041
 40
0.582547581
 40
0.729712444
 40
0.8713059798
 40
1.0
 40
1.0
 40
1.0
 40
1.0
 10
85.0558302579
 20
191.5153021591
 30
0.0
 10
85.0558343475
 20
191.4612159246
 30
0.0
 10
85.0413365155
 20
191.3503481675
 30
0.0
 10
84.977785785
 20
191.1902468453
 30
0.0
 10
84.8745883085
 20
191.0384785544
 30
0.0
 10
84.6803565786
 20
190.8435313267
 30
0.0
 10
84.3493751599
 20
190.6420598331
 30
0.0
 10
83.8734850574
 20
190.4830933521
 30
0.0
 10
83.3394143385
 20
190.4080285825
 30
0.0
 10
82.7904657433
 20
190.423222872
 30
0.0
 10
82.2714424272
 20
190.5270396419
 30
0.0
 10
81.9529900759
 20
190.6584354271
 30
0.0
 10
81.8123394437
 20
190.7396382704
 30
0.0
  0
SPLINE
  5
2C6
100
AcDbEntity
  8
0
100
AcDbSpline
 62
7
  6
CONTINUOUS
 70
0
 71
3
 72
13
 73
9
 74
0
 42
0.0000001
 43
0.0000001
 44
0.0000000001
 40
0.0
 40
0.0
 40
0.0
 40
0.0
 40
0.1142487484
 40
0.2375477548
 40
0.5000005226
 40
0.7624530043
 40
0.8857516767
 40
1.0
 40
1.0
 40
1.0
 40
1.0
 10
81.0345252228
 20
190.2905697011
 30
0.0
 10
81.1797367925
 20
190.2067336589
 30
0.0
 10
81.4973231688
 20
190.0588405468
 30
0.0
 10
82.2011545897
 20
189.8450819065
 30
0.0
 10
83.1558488896
 20
189.7412453793
 30
0.0
 10
84.1105422714
 20
189.8450863207
 30
0.0
 10
84.8143710548
 20
190.0588484232
 30
0.0
 10
85.131955485
 20
190.2067431217
 30
0.0
 10
85.2771659099
 20
190.2905798992
 30
0.0
  0
SPLINE
  5
2C7
100
AcDbEntity
  8
0
100
AcDbSpline
 62
7
  6
CONTINUOUS
 70
0
 71
3
 72
11
 73
7
 74
0
 42
0.0000001
 43
0.0000001
 44
0.0000000001
 40
0.0
 40
0.0
 40
0.0
 40
0.0
 40
0.2177836649
 40
0.4509127634
 40
0.7102976676
 40
1.0
 40
1.0
 40
1.0
 40
1.0
 10
81.2558367342
 20
192.7400557884
 30
0.0
 10
81.2558415496
 20
192.6676867635
 30
0.0
 10
81.2825834293
 20
192.5168474635
 30
0.0
 10
81.396936594
 20
192.3066796811
 30
0.0
 10
81.5777128595
 20
192.1167019658
 30
0.0
 10
81.7289689258
 20
192.0125247981
 30
0.0
 10
81.8123394437
 20
191.9643918961
 30
0.0
  0
SPLINE
  5
2C8
100
AcDbEntity
  8
0
100
AcDbSpline
 62
7
  6
CONTINUOUS
 70
0
 71
3
 72
11
 73
7
 74
0
 42
0.0000001
 43
0.0000001
 44
0.0000000001
 40
0.0
 40
0.0
 40
0.0
 40
0.0
 40
0.230132502
 40
0.4756531159
 40
0.7335209377
 40
1.0
 40
1.0
 40
1.0
 40
1.0
 10
91.6410945569
 20
194.7812621924
 30
0.0
 10
91.1797586628
 20
194.5149113797
 30
0.0
 10
90.1869020783
 20
194.0309464167
 30
0.0
 10
88.5813234798
 20
193.4689169172
 30
0.0
 10
86.8443512655
 20
193.0577261234
 30
0.0
 10
85.6397946724
 20
192.892619267
 30
0.0
 10
85.0254996765
 20
192.8366662697
 30
0.0
  0
SPLINE
  5
2C9
100
AcDbEntity
  8
0
100
AcDbSpline
 62
7
  6
CONTINUOUS
 70
0
 71
3
 72
9
 73
5
 74
0
 42
0.0000001
 43
0.0000001
 44
0.0000000001
 40
0.0
 40
0.0
 40
0.0
 40
0.0
 40
0.5150703427
 40
1.0
 40
1.0
 40
1.0
 40
1.0
 10
81.2545158662
 20
192.839571519
 30
0.0
 10
80.3557098949
 20
192.9228236347
 30
0.0
 10
78.6191703532
 20
193.2003410441
 30
0.0
 10
76.9390780009
 20
193.7280367546
 30
0.0
 10
76.1540956286
 20
194.0536400664
 30
0.0
  0
SPLINE
  5
2CA
100
AcDbEntity
  8
0
100
AcDbSpline
 62
7
  6
CONTINUOUS
 70
0
 71
3
 72
11
 73
7
 74
0
 42
0.0000001
 43
0.0000001
 44
0.0000000001
 40
0.0
 40
0.0
 40
0.0
 40
0.0
 40
0.2897776971
 40
0.5490719787
 40
0.7822272299
 40
1.0
 40
1.0
 40
1.0
 40
1.0
 10
99.4192426542
 20
198.4554629766
 30
0.0
 10
99.5509125528
 20
198.5314821742
 30
0.0
 10
99.7897635366
 20
198.6959266463
 30
0.0
 10
100.0751290989
 20
198.9959560011
 30
0.0
 10
100.2556947066
 20
199.3277439815
 30
0.0
 10
100.2978914278
 20
199.56592534
 30
0.0
 10
100.2978914264
 20
199.6801852401
 30
0.0
  0
SPLINE
  5
2CB
100
AcDbEntity
  8
0
100
AcDbSpline
 62
7
  6
CONTINUOUS
 70
0
 71
3
 72
17
 73
13
 74
0
 42
0.0000001
 43
0.0000001
 44
0.0000000001
 40
0.0
 40
0.0
 40
0.0
 40
0.0
 40
0.0428584554
 40
0.0874839031
 40
0.1353177481
 40
0.1872794187
 40
0.3045395902
 40
0.4382053041
 40
0.582547581
 40
0.729712444
 40
0.8713059798
 40
1.0
 40
1.0
 40
1.0
 40
1.0
 10
99.1979070022
 20
199.6801852365
 30
0.0
 10
99.1979110918
 20
199.626099002
 30
0.0
 10
99.1834132598
 20
199.5152312449
 30
0.0
 10
99.1198625293
 20
199.3551299228
 30
0.0
 10
99.0166650528
 20
199.2033616319
 30
0.0
 10
98.8224333229
 20
199.0084144041
 30
0.0
 10
98.4914519042
 20
198.8069429105
 30
0.0
 10
98.0155618017
 20
198.6479764295
 30
0.0
 10
97.4814910828
 20
198.5729116599
 30
0.0
 10
96.9325424875
 20
198.5881059494
 30
0.0
 10
96.4135191715
 20
198.6919227193
 30
0.0
 10
96.0950668201
 20
198.8233185045
 30
0.0
 10
95.954416188
 20
198.9045213478
 30
0.0
  0
SPLINE
  5
2CC
100
AcDbEntity
  8
0
100
AcDbSpline
 62
7
  6
CONTINUOUS
 70
0
 71
3
 72
14
 73
10
 74
0
 42
0.0000001
 43
0.0000001
 44
0.0000000001
 40
0.0
 40
0.0
 40
0.0
 40
0.0
 40
0.4198448
 40
0.5840360543
 40
0.7191594594
 40
0.8265418279
 40
0.9076863151
 40
0.9644659903
 40
1.0
 40
1.0
 40
1.0
 40
1.0
 10
96.1884956585
 20
225.2238255076
 30
0.0
 10
96.3173348873
 20
225.2876898728
 30
0.0
 10
96.4975477746
 20
225.3746658844
 30
0.0
 10
96.7229794355
 20
225.4739411561
 30
0.0
 10
96.8521667957
 20
225.5262128389
 30
0.0
 10
96.9565522095
 20
225.5633675234
 30
0.0
 10
97.0377469046
 20
225.5862704167
 30
0.0
 10
97.0959958233
 20
225.5959426946
 30
0.0
 10
97.1289557724
 20
225.5940385828
 30
0.0
 10
97.1399428801
 20
225.5888034256
 30
0.0
  0
SPLINE
  5
2CD
100
AcDbEntity
  8
0
100
AcDbSpline
 62
7
  6
CONTINUOUS
 70
0
 71
3
 72
12
 73
8
 74
0
 42
0.0000001
 43
0.0000001
 44
0.0000000001
 40
0.0
 40
0.0
 40
0.0
 40
0.0
 40
0.2855240763
 40
0.5494915843
 40
0.6721061525
 40
0.7880352494
 40
1.0
 40
1.0
 40
1.0
 40
1.0
 10
88.2694239631
 20
220.651774624
 30
0.0
 10
89.1361010026
 20
220.8481050241
 30
0.0
 10
90.7827593752
 20
221.3311357922
 30
0.0
 10
92.6917287701
 20
222.209863917
 30
0.0
 10
94.0133363287
 20
223.050990086
 30
0.0
 10
95.117004765
 20
223.9172001819
 30
0.0
 10
95.8176902799
 20
224.6782024337
 30
0.0
 10
96.1884956585
 20
225.2238255076
 30
0.0
  0
SPLINE
  5
2CE
100
AcDbEntity
  8
0
100
AcDbSpline
 62
7
  6
CONTINUOUS
 70
0
 71
3
 72
11
 73
7
 74
0
 42
0.0000001
 43
0.0000001
 44
0.0000000001
 40
0.0
 40
0.0
 40
0.0
 40
0.0
 40
0.2211971357
 40
0.4596522008
 40
0.7188871808
 40
1.0
 40
1.0
 40
1.0
 40
1.0
 10
94.9091005912
 20
198.2826884468
 30
0.0
 10
94.7881680329
 20
197.9436660788
 30
0.0
 10
94.4507761115
 20
197.2680296589
 30
0.0
 10
93.7219622805
 20
196.344751171
 30
0.0
 10
92.7735032339
 20
195.4962865738
 30
0.0
 10
92.0372533729
 20
195.0099832262
 30
0.0
 10
91.6410945569
 20
194.7812621924
 30
0.0
  0
SPLINE
  5
2CF
100
AcDbEntity
  8
0
100
AcDbSpline
 62
7
  6
CONTINUOUS
 70
0
 71
3
 72
16
 73
12
 74
0
 42
0.0000001
 43
0.0000001
 44
0.0000000001
 40
0.0
 40
0.0
 40
0.0
 40
0.0
 40
0.1367485098
 40
0.2821369949
 40
0.4293129016
 40
0.5710691651
 40
0.7010693443
 40
0.8151037172
 40
0.9127696571
 40
0.9571482174
 40
1.0
 40
1.0
 40
1.0
 40
1.0
 10
96.2054377858
 20
200.0074889575
 30
0.0
 10
96.3535447663
 20
199.9473695837
 30
0.0
 10
96.6724575207
 20
199.8550736633
 30
0.0
 10
97.1728486013
 20
199.7971110224
 30
0.0
 10
97.6822195174
 20
199.8171408468
 30
0.0
 10
98.164544703
 20
199.9138366535
 30
0.0
 10
98.5865780236
 20
200.0809730656
 30
0.0
 10
98.9200726758
 20
200.3077634322
 30
0.0
 10
99.110754162
 20
200.5479971035
 30
0.0
 10
99.1855431421
 20
200.7525130143
 30
0.0
 10
99.1979168119
 20
200.8548499208
 30
0.0
 10
99.197913479
 20
200.9049388658
 30
0.0
  0
SPLINE
  5
2D0
100
AcDbEntity
  8
0
100
AcDbSpline
 62
7
  6
CONTINUOUS
 70
0
 71
3
 72
11
 73
7
 74
0
 42
0.0000001
 43
0.0000001
 44
0.0000000001
 40
0.0
 40
0.0
 40
0.0
 40
0.0
 40
0.2884463769
 40
0.5471938033
 40
0.7809049901
 40
1.0
 40
1.0
 40
1.0
 40
1.0
 10
45.9116638118
 20
188.7910155884
 30
0.0
 10
45.787017621
 20
188.7154828689
 30
0.0
 10
45.5610895695
 20
188.5530047923
 30
0.0
 10
45.2922930161
 20
188.2594795009
 30
0.0
 10
45.1228337586
 20
187.9370597039
 30
0.0
 10
45.0833907009
 20
187.7067944012
 30
0.0
 10
45.0833907023
 20
187.5960902985
 30
0.0
  0
SPLINE
  5
2D1
100
AcDbEntity
  8
0
100
AcDbSpline
 62
7
  6
CONTINUOUS
 70
0
 71
3
 72
11
 73
7
 74
0
 42
0.0000001
 43
0.0000001
 44
0.0000000001
 40
0.0
 40
0.0
 40
0.0
 40
0.0
 40
0.2897781767
 40
0.5490726313
 40
0.7822276909
 40
1.0
 40
1.0
 40
1.0
 40
1.0
 10
45.9620571383
 20
182.6154467181
 30
0.0
 10
45.8303847774
 20
182.6914660714
 30
0.0
 10
45.5915292607
 20
182.8559111712
 30
0.0
 10
45.3061579025
 20
183.15594275
 30
0.0
 10
45.1255883886
 20
183.4877339429
 30
0.0
 10
45.0833907038
 20
183.7259180496
 30
0.0
 10
45.0833907023
 20
183.8401791797
 30
0.0
  0
SPLINE
  5
2D2
100
AcDbEntity
  8
0
100
AcDbSpline
 62
7
  6
CONTINUOUS
 70
0
 71
3
 72
13
 73
9
 74
0
 42
0.0000001
 43
0.0000001
 44
0.0000000001
 40
0.0
 40
0.0
 40
0.0
 40
0.0
 40
0.1142483233
 40
0.2375469957
 40
0.4999994774
 40
0.7624522452
 40
0.8857512516
 40
1.0
 40
1.0
 40
1.0
 40
1.0
 10
64.3468923284
 20
174.4506418258
 30
0.0
 10
64.2016819035
 20
174.3668050483
 30
0.0
 10
63.8840974732
 20
174.2189103498
 30
0.0
 10
63.1802686899
 20
174.0051482473
 30
0.0
 10
62.225575308
 20
173.9013073059
 30
0.0
 10
61.2708810082
 20
174.0051438332
 30
0.0
 10
60.5670495872
 20
174.2189024734
 30
0.0
 10
60.249463211
 20
174.3667955855
 30
0.0
 10
60.1042516413
 20
174.4506316277
 30
0.0
  0
SPLINE
  5
2D3
100
AcDbEntity
  8
0
100
AcDbSpline
 62
7
  6
CONTINUOUS
 70
0
 71
3
 72
14
 73
10
 74
0
 42
0.0000001
 43
0.0000001
 44
0.0000000001
 40
0.0
 40
0.0
 40
0.0
 40
0.0
 40
0.2892793711
 40
0.4225409047
 40
0.5484922149
 40
0.667892931
 40
0.7818663525
 40
0.8919503027
 40
1.0
 40
1.0
 40
1.0
 40
1.0
 10
33.9411152677
 20
230.2987825461
 30
0.0
 10
34.4459050026
 20
230.5902212958
 30
0.0
 10
35.2208835234
 20
230.9590735138
 30
0.0
 10
36.283690623
 20
231.2689797318
 30
0.0
 10
37.0380697303
 20
231.3954751419
 30
0.0
 10
37.7639376891
 20
231.4207924422
 30
0.0
 10
38.45442574
 20
231.343735037
 30
0.0
 10
39.102156708
 20
231.1646664347
 30
0.0
 10
39.502453808
 20
230.9771777063
 30
0.0
 10
39.6910073974
 20
230.8683351392
 30
0.0
  0
SPLINE
  5
2D4
100
AcDbEntity
  8
0
100
AcDbSpline
 62
7
  6
CONTINUOUS
 70
0
 71
3
 72
23
 73
19
 74
0
 42
0.0000001
 43
0.0000001
 44
0.0000000001
 40
0.0
 40
0.0
 40
0.0
 40
0.0
 40
0.0428149937
 40
0.0873974003
 40
0.1351806385
 40
0.1870900834
 40
0.2435367673
 40
0.3044942695
 40
0.3695922782
 40
0.4382003929
 40
0.5094981378
 40
0.5825339472
 40
0.6562775657
 40
0.729665436
 40
0.8016531585
 40
0.8712549523
 40
0.9376087922
 40
1.0
 40
1.0
 40
1.0
 40
1.0
 10
28.191223138
 20
210.9496743591
 30
0.0
 10
27.9076848798
 20
211.1133468301
 30
0.0
 10
27.3702454612
 20
211.5247471145
 30
0.0
 10
26.7234615338
 20
212.3425956717
 30
0.0
 10
26.2401633578
 20
213.3428013168
 30
0.0
 10
25.9272255997
 20
214.5009245786
 30
0.0
 10
25.787893451
 20
215.7925545204
 30
0.0
 10
25.8234877982
 20
217.1911413899
 30
0.0
 10
26.0325122226
 20
218.667830178
 30
0.0
 10
26.4102877469
 20
220.1917629867
 30
0.0
 10
26.9487186284
 20
221.7307854182
 30
0.0
 10
27.6363318704
 20
223.2522255248
 30
0.0
 10
28.45847534
 20
224.723651386
 30
0.0
 10
29.397592238
 20
226.1137016498
 30
0.0
 10
30.4336775968
 20
227.3926731001
 30
0.0
 10
31.5447642376
 20
228.5335159616
 30
0.0
 10
32.7071461512
 20
229.5116977853
 30
0.0
 10
33.5279526923
 20
230.0602444459
 30
0.0
 10
33.9411152677
 20
230.2987825461
 30
0.0
  0
SPLINE
  5
2D5
100
AcDbEntity
  8
0
100
AcDbSpline
 62
7
  6
CONTINUOUS
 70
0
 71
3
 72
23
 73
19
 74
0
 42
0.0000001
 43
0.0000001
 44
0.0000000001
 40
0.0
 40
0.0
 40
0.0
 40
0.0
 40
0.0428143767
 40
0.0873963266
 40
0.1351792644
 40
0.1870885817
 40
0.2435352511
 40
0.3044927548
 40
0.3695907094
 40
0.4381987331
 40
0.5094964487
 40
0.5825323633
 40
0.6562760996
 40
0.729664833
 40
0.8016523087
 40
0.8712553197
 40
0.9376070773
 40
1.0
 40
1.0
 40
1.0
 40
1.0
 10
76.2254978532
 20
190.5355329936
 30
0.0
 10
76.2254987733
 20
190.1369839864
 30
0.0
 10
76.1189369273
 20
189.3199671849
 30
0.0
 10
75.6503590079
 20
188.1402760594
 30
0.0
 10
74.8900269168
 20
187.0219507194
 30
0.0
 10
73.8595014482
 20
185.9871131318
 30
0.0
 10
72.5825532165
 20
185.0540428159
 30
0.0
 10
71.0863701942
 20
184.2402903468
 30
0.0
 10
69.4022869232
 20
183.5618382466
 30
0.0
 10
67.5656829173
 20
183.0325331331
 30
0.0
 10
65.6153816637
 20
182.6634139617
 30
0.0
 10
63.5928107335
 20
182.462275258
 30
0.0
 10
61.5410737447
 20
182.4334046791
 30
0.0
 10
59.5039338639
 20
182.577400756
 30
0.0
 10
57.5248645372
 20
182.8912181378
 30
0.0
 10
55.6458042989
 20
183.368214347
 30
0.0
 10
53.9069779517
 20
183.9982544285
 30
0.0
 10
52.8290419099
 20
184.5297192136
 30
0.0
 10
52.3260505526
 20
184.8201148395
 30
0.0
  0
SPLINE
  5
2D6
100
AcDbEntity
  8
0
100
AcDbSpline
 62
7
  6
CONTINUOUS
 70
0
 71
3
 72
9
 73
5
 74
0
 42
0.0000001
 43
0.0000001
 44
0.0000000001
 40
0.0
 40
0.0
 40
0.0
 40
0.0
 40
0.2463546754
 40
1.0
 40
1.0
 40
1.0
 40
1.0
 10
63.4655042833
 20
181.6605858001
 30
0.0
 10
63.4499823242
 20
181.6695472046
 30
0.0
 10
63.3864350449
 20
181.7049819184
 30
0.0
 10
63.3208456138
 20
181.7367261772
 30
0.0
 10
63.270600639
 20
181.7586759106
 30
0.0
  0
SPLINE
  5
2D7
100
AcDbEntity
  8
0
100
AcDbSpline
 62
7
  6
CONTINUOUS
 70
0
 71
3
 72
16
 73
12
 74
0
 42
0.0000001
 43
0.0000001
 44
0.0000000001
 40
0.0
 40
0.0
 40
0.0
 40
0.0
 40
0.1291261154
 40
0.2638148986
 40
0.3997777773
 40
0.5319202135
 40
0.6568227668
 40
0.774307285
 40
0.8874546761
 40
0.9435937787
 40
1.0
 40
1.0
 40
1.0
 40
1.0
 10
63.270600639
 20
181.7586759106
 30
0.0
 10
63.1279838762
 20
181.8209786571
 30
0.0
 10
62.8221118775
 20
181.9164492814
 30
0.0
 10
62.3417488527
 20
181.9755346289
 30
0.0
 10
61.8544452255
 20
181.9544682833
 30
0.0
 10
61.3890898497
 20
181.8533255968
 30
0.0
 10
60.9716218754
 20
181.6728301301
 30
0.0
 10
60.6256987948
 20
181.4113040059
 30
0.0
 10
60.4243980729
 20
181.1204129907
 30
0.0
 10
60.3400010232
 20
180.8601140531
 30
0.0
 10
60.3255631529
 20
180.7240134279
 30
0.0
 10
60.3255631529
 20
180.6560288338
 30
0.0
  0
SPLINE
  5
2D8
100
AcDbEntity
  8
0
100
AcDbSpline
 62
7
  6
CONTINUOUS
 70
0
 71
3
 72
11
 73
7
 74
0
 42
0.0000001
 43
0.0000001
 44
0.0000000001
 40
0.0
 40
0.0
 40
0.0
 40
0.0
 40
0.2451117305
 40
0.4911314743
 40
0.741116646
 40
1.0
 40
1.0
 40
1.0
 40
1.0
 10
64.1255631529
 20
180.6560288338
 30
0.0
 10
64.1255631529
 20
180.7586973213
 30
0.0
 10
64.091887454
 20
180.9658065206
 30
0.0
 10
63.9497309759
 20
181.2464537644
 30
0.0
 10
63.7351681075
 20
181.4829208264
 30
0.0
 10
63.5594139463
 20
181.6063682574
 30
0.0
 10
63.4655042833
 20
181.6605858001
 30
0.0
  0
SPLINE
  5
2D9
100
AcDbEntity
  8
0
100
AcDbSpline
 62
7
  6
CONTINUOUS
 70
0
 71
3
 72
9
 73
5
 74
0
 42
0.0000001
 43
0.0000001
 44
0.0000000001
 40
0.0
 40
0.0
 40
0.0
 40
0.0
 40
0.2463546754
 40
1.0
 40
1.0
 40
1.0
 40
1.0
 10
77.6075810275
 20
189.8254688775
 30
0.0
 10
77.5920590685
 20
189.834430282
 30
0.0
 10
77.5285117892
 20
189.8698649958
 30
0.0
 10
77.4629223581
 20
189.9016092546
 30
0.0
 10
77.4126773833
 20
189.923558988
 30
0.0
  0
SPLINE
  5
2DA
100
AcDbEntity
  8
0
100
AcDbSpline
 62
7
  6
CONTINUOUS
 70
0
 71
3
 72
9
 73
5
 74
0
 42
0.0000001
 43
0.0000001
 44
0.0000000001
 40
0.0
 40
0.0
 40
0.0
 40
0.0
 40
0.489332314
 40
1.0
 40
1.0
 40
1.0
 40
1.0
 10
77.4126773833
 20
189.923558988
 30
0.0
 10
77.2213079341
 20
190.0071595553
 30
0.0
 10
76.8044604407
 20
190.1209581107
 30
0.0
 10
76.3742328217
 20
190.1373503055
 30
0.0
 10
76.156866259
 20
190.121570611
 30
0.0
  0
SPLINE
  5
2DB
100
AcDbEntity
  8
0
100
AcDbSpline
 62
7
  6
CONTINUOUS
 70
0
 71
3
 72
11
 73
7
 74
0
 42
0.0000001
 43
0.0000001
 44
0.0000000001
 40
0.0
 40
0.0
 40
0.0
 40
0.0
 40
0.2451117305
 40
0.4911314743
 40
0.741116646
 40
1.0
 40
1.0
 40
1.0
 40
1.0
 10
78.2676398972
 20
188.8209119112
 30
0.0
 10
78.2676398972
 20
188.9235803987
 30
0.0
 10
78.2339641982
 20
189.130689598
 30
0.0
 10
78.0918077202
 20
189.4113368419
 30
0.0
 10
77.8772448518
 20
189.6478039038
 30
0.0
 10
77.7014906906
 20
189.7712513348
 30
0.0
 10
77.6075810275
 20
189.8254688775
 30
0.0
  0
SPLINE
  5
2DC
100
AcDbEntity
  8
0
100
AcDbSpline
 62
7
  6
CONTINUOUS
 70
0
 71
3
 72
11
 73
7
 74
0
 42
0.0000001
 43
0.0000001
 44
0.0000000001
 40
0.0
 40
0.0
 40
0.0
 40
0.0
 40
0.2177727701
 40
0.4509280213
 40
0.7102223029
 40
1.0
 40
1.0
 40
1.0
 40
1.0
 10
79.3676178448
 20
183.8402471668
 30
0.0
 10
79.3676178463
 20
183.7259872666
 30
0.0
 10
79.3254211251
 20
183.4878059081
 30
0.0
 10
79.1448555174
 20
183.1560179277
 30
0.0
 10
78.8594899551
 20
182.8559885729
 30
0.0
 10
78.6206389713
 20
182.6915441008
 30
0.0
 10
78.4889690726
 20
182.6155249032
 30
0.0
  0
SPLINE
  5
2DD
100
AcDbEntity
  8
0
100
AcDbSpline
 62
7
  6
CONTINUOUS
 70
0
 71
3
 72
11
 73
7
 74
0
 42
0.0000001
 43
0.0000001
 44
0.0000000001
 40
0.0
 40
0.0
 40
0.0
 40
0.0
 40
0.2177723091
 40
0.4509273687
 40
0.7102218233
 40
1.0
 40
1.0
 40
1.0
 40
1.0
 10
79.3676178448
 20
187.5961582855
 30
0.0
 10
79.3676178434
 20
187.7104194157
 30
0.0
 10
79.3254201586
 20
187.9486035224
 30
0.0
 10
79.1448506446
 20
188.2803947153
 30
0.0
 10
78.8594792865
 20
188.580426294
 30
0.0
 10
78.6206237698
 20
188.7448713939
 30
0.0
 10
78.4889514088
 20
188.8208907472
 30
0.0
  0
SPLINE
  5
2DE
100
AcDbEntity
  8
0
100
AcDbSpline
 62
7
  6
CONTINUOUS
 70
0
 71
3
 72
19
 73
15
 74
0
 42
0.0000001
 43
0.0000001
 44
0.0000000001
 40
0.0
 40
0.0
 40
0.0
 40
0.0
 40
0.1488209978
 40
0.3047464555
 40
0.4559393371
 40
0.5917126449
 40
0.6517829177
 40
0.7062947806
 40
0.7559171753
 40
0.8021895
 40
0.8473984566
 40
0.8940974602
 40
0.9444851007
 40
1.0
 40
1.0
 40
1.0
 40
1.0
 10
75.6393453786
 20
188.538881905
 30
0.0
 10
75.7819502315
 20
188.4886851847
 30
0.0
 10
76.0871840561
 20
188.4219137874
 30
0.0
 10
76.5529397112
 20
188.412855834
 30
0.0
 10
76.9988787579
 20
188.4909177413
 30
0.0
 10
77.3287102059
 20
188.6276371827
 30
0.0
 10
77.5360450598
 20
188.7768267665
 30
0.0
 10
77.6522813092
 20
188.8980484602
 30
0.0
 10
77.73177124
 20
189.0303182411
 30
0.0
 10
77.7710238882
 20
189.1702346307
 30
0.0
 10
77.7671796282
 20
189.3126960868
 30
0.0
 10
77.7208041201
 20
189.451614624
 30
0.0
 10
77.634659857
 20
189.5822116874
 30
0.0
 10
77.5569678833
 20
189.6577639971
 30
0.0
 10
77.5134046209
 20
189.6935786467
 30
0.0
  0
SPLINE
  5
2DF
100
AcDbEntity
  8
0
100
AcDbSpline
 62
7
  6
CONTINUOUS
 70
0
 71
3
 72
9
 73
5
 74
0
 42
0.0000001
 43
0.0000001
 44
0.0000000001
 40
0.0
 40
0.0
 40
0.0
 40
0.0
 40
0.2417316218
 40
1.0
 40
1.0
 40
1.0
 40
1.0
 10
77.5134046209
 20
189.6935786467
 30
0.0
 10
77.5016274447
 20
189.7032610124
 30
0.0
 10
77.4519984164
 20
189.7422042857
 30
0.0
 10
77.3990031068
 20
189.7767928766
 30
0.0
 10
77.3575852693
 20
189.8007049352
 30
0.0
  0
SPLINE
  5
2E0
100
AcDbEntity
  8
0
100
AcDbSpline
 62
7
  6
CONTINUOUS
 70
0
 71
3
 72
10
 73
6
 74
0
 42
0.0000001
 43
0.0000001
 44
0.0000000001
 40
0.0
 40
0.0
 40
0.0
 40
0.0
 40
0.2279407193
 40
0.4763313067
 40
1.0
 40
1.0
 40
1.0
 40
1.0
 10
77.3575852693
 20
189.8007049352
 30
0.0
 10
77.275643934
 20
189.848012717
 30
0.0
 10
77.0936641944
 20
189.9288061528
 30
0.0
 10
76.6910174431
 20
190.0337274745
 30
0.0
 10
76.365351766
 20
190.0472943216
 30
0.0
 10
76.1488819234
 20
190.0275049077
 30
0.0
  0
SPLINE
  5
2E1
100
AcDbEntity
  8
0
100
AcDbSpline
 62
7
  6
CONTINUOUS
 70
0
 71
3
 72
17
 73
13
 74
0
 42
0.0000001
 43
0.0000001
 44
0.0000000001
 40
0.0
 40
0.0
 40
0.0
 40
0.0
 40
0.1286888688
 40
0.2702719422
 40
0.4174318501
 40
0.5617773054
 40
0.6954483126
 40
0.8127138313
 40
0.8646770028
 40
0.9125122438
 40
0.9571395731
 40
1.0
 40
1.0
 40
1.0
 40
1.0
 10
60.8820658622
 20
179.8803649415
 30
0.0
 10
61.0227113068
 20
179.7991650932
 30
0.0
 10
61.3411448792
 20
179.6677739157
 30
0.0
 10
61.8601424215
 20
179.5639537418
 30
0.0
 10
62.4090766289
 20
179.5487484201
 30
0.0
 10
62.9431556953
 20
179.62379928
 30
0.0
 10
63.4190670652
 20
179.782761864
 30
0.0
 10
63.7500683066
 20
179.9842341617
 30
0.0
 10
63.9443096976
 20
180.1791873465
 30
0.0
 10
64.047515779
 20
180.3309581897
 30
0.0
 10
64.1110664759
 20
180.4910674425
 30
0.0
 10
64.1255667523
 20
180.6019399411
 30
0.0
 10
64.1255631532
 20
180.6560288338
 30
0.0
  0
SPLINE
  5
2E2
100
AcDbEntity
  8
0
100
AcDbSpline
 62
7
  6
CONTINUOUS
 70
0
 71
3
 72
19
 73
15
 74
0
 42
0.0000001
 43
0.0000001
 44
0.0000000001
 40
0.0
 40
0.0
 40
0.0
 40
0.0
 40
0.1375031753
 40
0.2897301121
 40
0.4436111787
 40
0.5855383886
 40
0.6488660308
 40
0.7061397013
 40
0.7576539185
 40
0.804712273
 40
0.8496919727
 40
0.8955724926
 40
0.9450692869
 40
1.0
 40
1.0
 40
1.0
 40
1.0
 10
61.2356177808
 20
180.492738227
 30
0.0
 10
61.3679401124
 20
180.4163436215
 30
0.0
 10
61.6740541505
 20
180.3021264513
 30
0.0
 10
62.1662897236
 20
180.2391568307
 30
0.0
 10
62.6660371457
 20
180.2784799428
 30
0.0
 10
63.0520651784
 20
180.3973786913
 30
0.0
 10
63.306117653
 20
180.5431189696
 30
0.0
 10
63.4536699583
 20
180.666699285
 30
0.0
 10
63.5603735132
 20
180.8052333578
 30
0.0
 10
63.6212329617
 20
180.9552291439
 30
0.0
 10
63.6316131073
 20
181.1109012514
 30
0.0
 10
63.5906732216
 20
181.264066227
 30
0.0
 10
63.5018448987
 20
181.4077614015
 30
0.0
 10
63.4184775713
 20
181.4899324074
 30
0.0
 10
63.3713278766
 20
181.5286955693
 30
0.0
  0
SPLINE
  5
2E3
100
AcDbEntity
  8
0
100
AcDbSpline
 62
7
  6
CONTINUOUS
 70
0
 71
3
 72
9
 73
5
 74
0
 42
0.0000001
 43
0.0000001
 44
0.0000000001
 40
0.0
 40
0.0
 40
0.0
 40
0.0
 40
0.2417316218
 40
1.0
 40
1.0
 40
1.0
 40
1.0
 10
63.3713278766
 20
181.5286955693
 30
0.0
 10
63.3595507004
 20
181.5383779349
 30
0.0
 10
63.3099216721
 20
181.5773212082
 30
0.0
 10
63.2569263625
 20
181.6119097991
 30
0.0
 10
63.215508525
 20
181.6358218578
 30
0.0
  0
SPLINE
  5
2E4
100
AcDbEntity
  8
0
100
AcDbSpline
 62
7
  6
CONTINUOUS
 70
0
 71
3
 72
19
 73
15
 74
0
 42
0.0000001
 43
0.0000001
 44
0.0000000001
 40
0.0
 40
0.0
 40
0.0
 40
0.0
 40
0.138268433
 40
0.291399633
 40
0.4445411314
 40
0.5827846438
 40
0.6432373716
 40
0.6973194311
 40
0.7459596107
 40
0.7913884449
 40
0.8368174529
 40
0.8854518571
 40
0.9395803522
 40
1.0
 40
1.0
 40
1.0
 40
1.0
 10
63.215508525
 20
181.6358218578
 30
0.0
 10
63.0749577338
 20
181.7169670592
 30
0.0
 10
62.7481145892
 20
181.8353661462
 30
0.0
 10
62.2255668322
 20
181.892111897
 30
0.0
 10
61.7029152802
 20
181.835259467
 30
0.0
 10
61.3085803834
 20
181.6926817454
 30
0.0
 10
61.0627592802
 20
181.5236556194
 30
0.0
 10
60.9295522334
 20
181.3836370079
 30
0.0
 10
60.8452776323
 20
181.22868984
 30
0.0
 10
60.8160887538
 20
181.0643116401
 30
0.0
 10
60.8452409806
 20
180.899937488
 30
0.0
 10
60.9295328573
 20
180.7449216243
 30
0.0
 10
61.0627595304
 20
180.6049956403
 30
0.0
 10
61.1742008029
 20
180.5281965335
 30
0.0
 10
61.2356177808
 20
180.492738227
 30
0.0
  0
SPLINE
  5
2E5
100
AcDbEntity
  8
0
100
AcDbSpline
 62
7
  6
CONTINUOUS
 70
0
 71
3
 72
11
 73
7
 74
0
 42
0.0000001
 43
0.0000001
 44
0.0000000001
 40
0.0
 40
0.0
 40
0.0
 40
0.0
 40
0.2448197203
 40
0.5075829757
 40
0.7662618223
 40
1.0
 40
1.0
 40
1.0
 40
1.0
 10
49.2408715676
 20
186.7262255043
 30
0.0
 10
49.0485233587
 20
186.6409082543
 30
0.0
 10
48.6238534691
 20
186.5208158677
 30
0.0
 10
47.962389869
 20
186.4788127956
 30
0.0
 10
47.3152413672
 20
186.5679931043
 30
0.0
 10
46.9138535456
 20
186.7199800165
 30
0.0
 10
46.7398713593
 20
186.8204264062
 30
0.0
  0
SPLINE
  5
2E6
100
AcDbEntity
  8
0
100
AcDbSpline
 62
7
  6
CONTINUOUS
 70
0
 71
3
 72
9
 73
5
 74
0
 42
0.0000001
 43
0.0000001
 44
0.0000000001
 40
0.0
 40
0.0
 40
0.0
 40
0.0
 40
0.4595942789
 40
1.0
 40
1.0
 40
1.0
 40
1.0
 10
46.2261363074
 20
188.5894549628
 30
0.0
 10
46.2668351836
 20
188.4804644471
 30
0.0
 10
46.4143462654
 20
188.2650133651
 30
0.0
 10
46.6214001413
 20
188.1135778741
 30
0.0
 10
46.7398713593
 20
188.0451800319
 30
0.0
  0
SPLINE
  5
2E7
100
AcDbEntity
  8
0
100
AcDbSpline
 62
7
  6
CONTINUOUS
 70
0
 71
3
 72
9
 73
5
 74
0
 42
0.0000001
 43
0.0000001
 44
0.0000000001
 40
0.0
 40
0.0
 40
0.0
 40
0.0
 40
0.4778425454
 40
1.0
 40
1.0
 40
1.0
 40
1.0
 10
46.7398713593
 20
188.0451800319
 30
0.0
 10
46.8589807417
 20
187.9764137536
 30
0.0
 10
47.1247897638
 20
187.8606280284
 30
0.0
 10
47.4056669783
 20
187.7921761987
 30
0.0
 10
47.5538915957
 20
187.7673469511
 30
0.0
  0
SPLINE
  5
2E8
100
AcDbEntity
  8
0
100
AcDbSpline
 62
7
  6
CONTINUOUS
 70
0
 71
3
 72
9
 73
5
 74
0
 42
0.0000001
 43
0.0000001
 44
0.0000000001
 40
0.0
 40
0.0
 40
0.0
 40
0.0
 40
0.262171749
 40
1.0
 40
1.0
 40
1.0
 40
1.0
 10
75.0241426065
 20
186.8204943932
 30
0.0
 10
74.9975634662
 20
186.8358395198
 30
0.0
 10
74.897750555
 20
186.8969809088
 30
0.0
 10
74.8042689306
 20
186.9689341469
 30
0.0
 10
74.7417784394
 20
187.0285597039
 30
0.0
  0
SPLINE
  5
2E9
100
AcDbEntity
  8
0
100
AcDbSpline
 62
7
  6
CONTINUOUS
 70
0
 71
3
 72
11
 73
7
 74
0
 42
0.0000001
 43
0.0000001
 44
0.0000000001
 40
0.0
 40
0.0
 40
0.0
 40
0.0
 40
0.2897036169
 40
0.5490920547
 40
0.7822205729
 40
1.0
 40
1.0
 40
1.0
 40
1.0
 10
60.8820658622
 20
178.6556113158
 30
0.0
 10
60.7986952327
 20
178.7037442822
 30
0.0
 10
60.6474389881
 20
178.8079231216
 30
0.0
 10
60.4666630214
 20
178.9979018163
 30
0.0
 10
60.3523123063
 20
179.2080703346
 30
0.0
 10
60.3255751013
 20
179.3589078192
 30
0.0
 10
60.3255696294
 20
179.4312752118
 30
0.0
  0
SPLINE
  5
2EA
100
AcDbEntity
  8
0
100
AcDbSpline
 62
7
  6
CONTINUOUS
 70
0
 71
3
 72
13
 73
9
 74
0
 42
0.0000001
 43
0.0000001
 44
0.0000000001
 40
0.0
 40
0.0
 40
0.0
 40
0.0
 40
0.1142487484
 40
0.2375477548
 40
0.5000005226
 40
0.7624530043
 40
0.8857516767
 40
1.0
 40
1.0
 40
1.0
 40
1.0
 10
60.1042516413
 20
178.2065427465
 30
0.0
 10
60.249463211
 20
178.1227067043
 30
0.0
 10
60.5670495872
 20
177.9748135922
 30
0.0
 10
61.2708810082
 20
177.761054952
 30
0.0
 10
62.225575308
 20
177.6572184247
 30
0.0
 10
63.1802686899
 20
177.7610593661
 30
0.0
 10
63.8840974732
 20
177.9748214686
 30
0.0
 10
64.2016819035
 20
178.1227161671
 30
0.0
 10
64.3468923284
 20
178.2065529446
 30
0.0
  0
SPLINE
  5
2EB
100
AcDbEntity
  8
0
100
AcDbSpline
 62
7
  6
CONTINUOUS
 70
0
 71
3
 72
11
 73
7
 74
0
 42
0.0000001
 43
0.0000001
 44
0.0000000001
 40
0.0
 40
0.0
 40
0.0
 40
0.0
 40
0.2897036169
 40
0.5490920547
 40
0.7822205729
 40
1.0
 40
1.0
 40
1.0
 40
1.0
 10
46.7398713593
 20
186.8204264062
 30
0.0
 10
46.6565007298
 20
186.8685593726
 30
0.0
 10
46.5052444852
 20
186.972738212
 30
0.0
 10
46.3244685185
 20
187.1627169067
 30
0.0
 10
46.2101178033
 20
187.372885425
 30
0.0
 10
46.1833805983
 20
187.5237229096
 30
0.0
 10
46.1833751265
 20
187.5960903022
 30
0.0
  0
SPLINE
  5
2EC
100
AcDbEntity
  8
0
100
AcDbSpline
 62
7
  6
CONTINUOUS
 70
0
 71
3
 72
11
 73
7
 74
0
 42
0.0000001
 43
0.0000001
 44
0.0000000001
 40
0.0
 40
0.0
 40
0.0
 40
0.0
 40
0.2301324488
 40
0.4756530228
 40
0.7335208867
 40
1.0
 40
1.0
 40
1.0
 40
1.0
 10
70.7108209754
 20
182.6972352378
 30
0.0
 10
70.2494851989
 20
182.430884493
 30
0.0
 10
69.2566288498
 20
181.9469196018
 30
0.0
 10
67.6510504146
 20
181.3848901172
 30
0.0
 10
65.914078137
 20
180.9736992237
 30
0.0
 10
64.7095213533
 20
180.808592378
 30
0.0
 10
64.0952262561
 20
180.7526393495
 30
0.0
  0
SPLINE
  5
2ED
100
AcDbEntity
  8
0
100
AcDbSpline
 62
7
  6
CONTINUOUS
 70
0
 71
3
 72
14
 73
10
 74
0
 42
0.0000001
 43
0.0000001
 44
0.0000000001
 40
0.0
 40
0.0
 40
0.0
 40
0.0
 40
0.2929107665
 40
0.4314464155
 40
0.5625524806
 40
0.6851510281
 40
0.798691698
 40
0.9033107111
 40
1.0
 40
1.0
 40
1.0
 40
1.0
 10
60.32423974
 20
180.7555448089
 30
0.0
 10
59.2253334541
 20
180.8573313776
 30
0.0
 10
57.612874328
 20
181.1385691139
 30
0.0
 10
55.5944464278
 20
181.7938801823
 30
0.0
 10
54.2402868105
 20
182.3933640716
 30
0.0
 10
53.0454065051
 20
183.098007232
 30
0.0
 10
52.0331112264
 20
183.895195141
 30
0.0
 10
51.2241747796
 20
184.7701831151
 30
0.0
 10
50.8185169405
 20
185.4183815683
 30
0.0
 10
50.660931169
 20
185.746833932
 30
0.0
  0
SPLINE
  5
2EE
100
AcDbEntity
  8
0
100
AcDbSpline
 62
7
  6
CONTINUOUS
 70
0
 71
3
 72
17
 73
13
 74
0
 42
0.0000001
 43
0.0000001
 44
0.0000000001
 40
0.0
 40
0.0
 40
0.0
 40
0.0
 40
0.0428584554
 40
0.0874839031
 40
0.1353177481
 40
0.1872794187
 40
0.3045395902
 40
0.4382053041
 40
0.582547581
 40
0.729712444
 40
0.8713059798
 40
1.0
 40
1.0
 40
1.0
 40
1.0
 10
64.1255566764
 20
179.4312752045
 30
0.0
 10
64.125560766
 20
179.37718897
 30
0.0
 10
64.111062934
 20
179.2663212129
 30
0.0
 10
64.0475122035
 20
179.1062198908
 30
0.0
 10
63.944314727
 20
178.9544515998
 30
0.0
 10
63.7500829971
 20
178.7595043721
 30
0.0
 10
63.4191015784
 20
178.5580328785
 30
0.0
 10
62.9432114759
 20
178.3990663975
 30
0.0
 10
62.409140757
 20
178.3240016279
 30
0.0
 10
61.8601921617
 20
178.3391959174
 30
0.0
 10
61.3411688456
 20
178.4430126873
 30
0.0
 10
61.0227164943
 20
178.5744084725
 30
0.0
 10
60.8820658622
 20
178.6556113158
 30
0.0
  0
SPLINE
  5
2EF
100
AcDbEntity
  8
0
100
AcDbSpline
 62
7
  6
CONTINUOUS
 70
0
 71
3
 72
11
 73
7
 74
0
 42
0.0000001
 43
0.0000001
 44
0.0000000001
 40
0.0
 40
0.0
 40
0.0
 40
0.0
 40
0.2897776971
 40
0.5490719787
 40
0.7822272299
 40
1.0
 40
1.0
 40
1.0
 40
1.0
 10
78.4889690726
 20
186.371436022
 30
0.0
 10
78.6206389713
 20
186.4474552196
 30
0.0
 10
78.8594899551
 20
186.6118996917
 30
0.0
 10
79.1448555174
 20
186.9119290465
 30
0.0
 10
79.3254211251
 20
187.2437170269
 30
0.0
 10
79.3676178463
 20
187.4818983854
 30
0.0
 10
79.3676178448
 20
187.5961582855
 30
0.0
  0
SPLINE
  5
2F0
100
AcDbEntity
  8
0
100
AcDbSpline
 62
7
  6
CONTINUOUS
 70
0
 71
3
 72
11
 73
7
 74
0
 42
0.0000001
 43
0.0000001
 44
0.0000000001
 40
0.0
 40
0.0
 40
0.0
 40
0.0
 40
0.2177836649
 40
0.4509127634
 40
0.7102976676
 40
1.0
 40
1.0
 40
1.0
 40
1.0
 10
60.3255631526
 20
180.6560288338
 30
0.0
 10
60.325567968
 20
180.5836598089
 30
0.0
 10
60.3523098478
 20
180.4328205089
 30
0.0
 10
60.4666630125
 20
180.2226527266
 30
0.0
 10
60.647439278
 20
180.0326750112
 30
0.0
 10
60.7986953442
 20
179.9284978435
 30
0.0
 10
60.8820658622
 20
179.8803649415
 30
0.0
  0
SPLINE
  5
2F1
100
AcDbEntity
  8
0
100
AcDbSpline
 62
7
  6
CONTINUOUS
 70
0
 71
3
 72
11
 73
7
 74
0
 42
0.0000001
 43
0.0000001
 44
0.0000000001
 40
0.0
 40
0.0
 40
0.0
 40
0.0
 40
0.2975552641
 40
0.5687949365
 40
0.804100065
 40
1.0
 40
1.0
 40
1.0
 40
1.0
 10
67.3391503816
 20
208.5677476694
 30
0.0
 10
65.8285796576
 20
207.6472273491
 30
0.0
 10
62.9540674593
 20
205.8661599419
 30
0.0
 10
58.9192373044
 20
203.302464322
 30
0.0
 10
55.4190989414
 20
201.0246212923
 30
0.0
 10
53.2878463317
 20
199.5998918252
 30
0.0
 10
52.3260505526
 20
198.9431766415
 30
0.0
  0
SPLINE
  5
2F2
100
AcDbEntity
  8
0
100
AcDbSpline
 62
7
  6
CONTINUOUS
 70
0
 71
3
 72
14
 73
10
 74
0
 42
0.0000001
 43
0.0000001
 44
0.0000000001
 40
0.0
 40
0.0
 40
0.0
 40
0.0
 40
0.4198448
 40
0.5840360543
 40
0.7191594594
 40
0.8265418279
 40
0.9076863151
 40
0.9644659903
 40
1.0
 40
1.0
 40
1.0
 40
1.0
 10
75.258222077
 20
213.139798553
 30
0.0
 10
75.3870613058
 20
213.2036629182
 30
0.0
 10
75.567274193
 20
213.2906389298
 30
0.0
 10
75.792705854
 20
213.3899142015
 30
0.0
 10
75.9218932142
 20
213.4421858843
 30
0.0
 10
76.026278628
 20
213.4793405688
 30
0.0
 10
76.107473323
 20
213.5022434621
 30
0.0
 10
76.1657222418
 20
213.51191574
 30
0.0
 10
76.1986821909
 20
213.5100116282
 30
0.0
 10
76.2096692986
 20
213.504776471
 30
0.0
  0
SPLINE
  5
2F3
100
AcDbEntity
  8
0
100
AcDbSpline
 62
7
  6
CONTINUOUS
 70
0
 71
3
 72
17
 73
13
 74
0
 42
0.0000001
 43
0.0000001
 44
0.0000000001
 40
0.0
 40
0.0
 40
0.0
 40
0.0
 40
0.0428584554
 40
0.0874839031
 40
0.1353177481
 40
0.1872794187
 40
0.3045395902
 40
0.4382053041
 40
0.582547581
 40
0.729712444
 40
0.8713059798
 40
1.0
 40
1.0
 40
1.0
 40
1.0
 10
78.2676334207
 20
187.5961582819
 30
0.0
 10
78.2676375102
 20
187.5420720474
 30
0.0
 10
78.2531396783
 20
187.4312042903
 30
0.0
 10
78.1895889478
 20
187.2711029682
 30
0.0
 10
78.0863914713
 20
187.1193346773
 30
0.0
 10
77.8921597413
 20
186.9243874495
 30
0.0
 10
77.5611783227
 20
186.7229159559
 30
0.0
 10
77.0852882202
 20
186.5639494749
 30
0.0
 10
76.5512175013
 20
186.4888847053
 30
0.0
 10
76.002268906
 20
186.5040789948
 30
0.0
 10
75.4832455899
 20
186.6078957647
 30
0.0
 10
75.1647932386
 20
186.7392915499
 30
0.0
 10
75.0241426065
 20
186.8204943932
 30
0.0
  0
SPLINE
  5
2F4
100
AcDbEntity
  8
0
100
AcDbSpline
 62
7
  6
CONTINUOUS
 70
0
 71
3
 72
12
 73
8
 74
0
 42
0.0000001
 43
0.0000001
 44
0.0000000001
 40
0.0
 40
0.0
 40
0.0
 40
0.0
 40
0.2855240763
 40
0.5494915843
 40
0.6721061525
 40
0.7880352494
 40
1.0
 40
1.0
 40
1.0
 40
1.0
 10
67.3391503816
 20
208.5677476694
 30
0.0
 10
68.205827421
 20
208.7640780695
 30
0.0
 10
69.8524857937
 20
209.2471088376
 30
0.0
 10
71.7614551886
 20
210.1258369624
 30
0.0
 10
73.0830627472
 20
210.9669631315
 30
0.0
 10
74.1867311835
 20
211.8331732273
 30
0.0
 10
74.8874166984
 20
212.5941754791
 30
0.0
 10
75.258222077
 20
213.139798553
 30
0.0
  0
SPLINE
  5
2F5
100
AcDbEntity
  8
0
100
AcDbSpline
 62
7
  6
CONTINUOUS
 70
0
 71
3
 72
11
 73
7
 74
0
 42
0.0000001
 43
0.0000001
 44
0.0000000001
 40
0.0
 40
0.0
 40
0.0
 40
0.0
 40
0.2211968568
 40
0.4596517185
 40
0.7188867346
 40
1.0
 40
1.0
 40
1.0
 40
1.0
 10
73.9788527828
 20
186.1987339298
 30
0.0
 10
73.8579243039
 20
185.8597046021
 30
0.0
 10
73.5205366611
 20
185.1840532633
 30
0.0
 10
72.7917192648
 20
184.2607546146
 30
0.0
 10
71.8432483041
 20
183.4122723959
 30
0.0
 10
71.1069866261
 20
182.9259602176
 30
0.0
 10
70.7108209754
 20
182.6972352378
 30
0.0
  0
SPLINE
  5
2F6
100
AcDbEntity
  8
0
100
AcDbSpline
 62
7
  6
CONTINUOUS
 70
0
 71
3
 72
11
 73
7
 74
0
 42
0.0000001
 43
0.0000001
 44
0.0000000001
 40
0.0
 40
0.0
 40
0.0
 40
0.0
 40
0.2177723091
 40
0.4509273687
 40
0.7102218233
 40
1.0
 40
1.0
 40
1.0
 40
1.0
 10
45.0833907023
 20
187.5960902985
 30
0.0
 10
45.0833907038
 20
187.4818291684
 30
0.0
 10
45.1255883886
 20
187.2436450617
 30
0.0
 10
45.3061579025
 20
186.9118538688
 30
0.0
 10
45.5915292607
 20
186.61182229
 30
0.0
 10
45.8303847774
 20
186.4473771902
 30
0.0
 10
45.9620571383
 20
186.3713578369
 30
0.0
  0
SPLINE
  5
2F7
100
AcDbEntity
  8
0
100
AcDbSpline
 62
7
  6
CONTINUOUS
 70
0
 71
3
 72
16
 73
12
 74
0
 42
0.0000001
 43
0.0000001
 44
0.0000000001
 40
0.0
 40
0.0
 40
0.0
 40
0.0
 40
0.1367484362
 40
0.2821368884
 40
0.4293127978
 40
0.5710690874
 40
0.7010693012
 40
0.8151037033
 40
0.9127696571
 40
0.9571482185
 40
1.0
 40
1.0
 40
1.0
 40
1.0
 10
75.2751615367
 20
187.9234630857
 30
0.0
 10
75.4232684825
 20
187.8633435078
 30
0.0
 10
75.7421812887
 20
187.7710472128
 30
0.0
 10
76.2425726147
 20
187.7130841386
 30
0.0
 10
76.7519439582
 20
187.7331136387
 30
0.0
 10
77.2342696696
 20
187.8298092532
 30
0.0
 10
77.6563035269
 20
187.9969456073
 30
0.0
 10
77.9897986477
 20
188.2237360343
 30
0.0
 10
78.1804804373
 20
188.4639698606
 30
0.0
 10
78.2552695404
 20
188.6684859358
 30
0.0
 10
78.2676432304
 20
188.7708229266
 30
0.0
 10
78.2676398975
 20
188.8209119112
 30
0.0
  0
SPLINE
  5
2F8
100
AcDbEntity
  8
0
100
AcDbSpline
 62
7
  6
CONTINUOUS
 70
0
 71
3
 72
9
 73
5
 74
0
 42
0.0000001
 43
0.0000001
 44
0.0000000001
 40
0.0
 40
0.0
 40
0.0
 40
0.0
 40
0.2392749145
 40
1.0
 40
1.0
 40
1.0
 40
1.0
 10
44.1373852246
 20
157.2265675112
 30
0.0
 10
44.0635433883
 20
157.5788072136
 30
0.0
 10
43.7983232425
 20
159.059932401
 30
0.0
 10
43.6993042515
 20
160.568729965
 30
0.0
 10
43.6993042515
 20
161.712946134
 30
0.0
  0
SPLINE
  5
2F9
100
AcDbEntity
  8
0
100
AcDbSpline
 62
7
  6
CONTINUOUS
 70
0
 71
3
 72
9
 73
5
 74
0
 42
0.0000001
 43
0.0000001
 44
0.0000000001
 40
0.0
 40
0.0
 40
0.0
 40
0.0
 40
0.4619733872
 40
1.0
 40
1.0
 40
1.0
 40
1.0
 10
50.8570426765
 20
145.8853770018
 30
0.0
 10
50.8299241087
 20
145.9010366885
 30
0.0
 10
50.7811115443
 20
145.9532023202
 30
0.0
 10
50.7623668921
 20
146.0203321786
 30
0.0
 10
50.7573344568
 20
146.0564538433
 30
0.0
  0
SPLINE
  5
2FA
100
AcDbEntity
  8
0
100
AcDbSpline
 62
7
  6
CONTINUOUS
 70
0
 71
3
 72
9
 73
5
 74
0
 42
0.0000001
 43
0.0000001
 44
0.0000000001
 40
0.0
 40
0.0
 40
0.0
 40
0.0
 40
0.2610046213
 40
1.0
 40
1.0
 40
1.0
 40
1.0
 10
62.7912668305
 20
150.690445762
 30
0.0
 10
62.7912668305
 20
150.2978881253
 30
0.0
 10
62.8254075451
 20
148.7943312666
 30
0.0
 10
63.0013020803
 20
147.2918889168
 30
0.0
 10
63.2293478036
 20
146.2040671392
 30
0.0
  0
SPLINE
  5
2FB
100
AcDbEntity
  8
0
100
AcDbSpline
 62
7
  6
CONTINUOUS
 70
0
 71
3
 72
11
 73
7
 74
0
 42
0.0000001
 43
0.0000001
 44
0.0000000001
 40
0.0
 40
0.0
 40
0.0
 40
0.0
 40
0.2898012489
 40
0.5490510236
 40
0.7822290598
 40
1.0
 40
1.0
 40
1.0
 40
1.0
 10
200.3237845352
 20
134.5655933548
 30
0.0
 10
200.3237845352
 20
134.8190241457
 30
0.0
 10
200.2855107917
 20
135.3008271889
 30
0.0
 10
200.0901747467
 20
135.9627406694
 30
0.0
 10
199.7618315672
 20
136.4999178969
 30
0.0
 10
199.4531458104
 20
136.7592981277
 30
0.0
 10
199.2882186636
 20
136.8545167014
 30
0.0
  0
SPLINE
  5
2FC
100
AcDbEntity
  8
0
100
AcDbSpline
 62
7
  6
CONTINUOUS
 70
0
 71
3
 72
15
 73
11
 74
0
 42
0.0000001
 43
0.0000001
 44
0.0000000001
 40
0.0
 40
0.0
 40
0.0
 40
0.0
 40
0.1141543519
 40
0.237325601
 40
0.366974755
 40
0.4999984147
 40
0.6330222943
 40
0.7626720931
 40
0.8858443543
 40
1.0
 40
1.0
 40
1.0
 40
1.0
 10
196.7882653492
 20
91.6992517289
 30
0.0
 10
197.0303001261
 20
91.8389897384
 30
0.0
 10
197.508362145
 20
92.1741078338
 30
0.0
 10
198.1661493796
 20
92.78952117
 30
0.0
 10
198.7723358637
 20
93.5169856537
 30
0.0
 10
199.3040892609
 20
94.3292117633
 30
0.0
 10
199.7416174423
 20
95.1958403271
 30
0.0
 10
200.0685247825
 20
96.0845511087
 30
0.0
 10
200.2725941454
 20
96.9619257355
 30
0.0
 10
200.3237845352
 20
97.5435041462
 30
0.0
 10
200.3237845352
 20
97.8229845839
 30
0.0
  0
SPLINE
  5
2FD
100
AcDbEntity
  8
0
100
AcDbSpline
 62
7
  6
CONTINUOUS
 70
0
 71
3
 72
14
 73
10
 74
0
 42
0.0000001
 43
0.0000001
 44
0.0000000001
 40
0.0
 40
0.0
 40
0.0
 40
0.0
 40
0.1080468381
 40
0.2181300444
 40
0.332103614
 40
0.4515023497
 40
0.5774599686
 40
0.7107185822
 40
1.0
 40
1.0
 40
1.0
 40
1.0
 10
173.5428064019
 20
88.9955793919
 30
0.0
 10
173.2558762823
 20
89.161217118
 30
0.0
 10
172.7042549053
 20
89.546183603
 30
0.0
 10
171.9753211114
 20
90.2634858169
 30
0.0
 10
171.3484413548
 20
91.1149056501
 30
0.0
 10
170.8294239595
 20
92.0907765598
 30
0.0
 10
170.4221628133
 20
93.1812591984
 30
0.0
 10
170.0218949827
 20
94.8177702506
 30
0.0
 10
169.9183313109
 20
96.1197872413
 30
0.0
 10
169.9183313109
 20
97.0068205361
 30
0.0
  0
SPLINE
  5
2FE
100
AcDbEntity
  8
0
100
AcDbSpline
 62
7
  6
CONTINUOUS
 70
0
 71
3
 72
17
 73
13
 74
0
 42
0.0000001
 43
0.0000001
 44
0.0000000001
 40
0.0
 40
0.0
 40
0.0
 40
0.0
 40
0.1286927192
 40
0.2702772184
 40
0.4174336658
 40
0.5617787524
 40
0.695449257
 40
0.8127115591
 40
0.8646775202
 40
0.9125099615
 40
0.9571398666
 40
1.0
 40
1.0
 40
1.0
 40
1.0
 10
194.6838278859
 20
131.1247413908
 30
0.0
 10
194.6838278859
 20
131.3598046237
 30
0.0
 10
194.7495807778
 20
131.8540437265
 30
0.0
 10
194.9950386926
 20
132.5797205919
 30
0.0
 10
195.373225423
 20
133.2787908825
 30
0.0
 10
195.8537853017
 20
133.8939219612
 30
0.0
 10
196.3974420548
 20
134.3754334017
 30
0.0
 10
196.8895368441
 20
134.6444536845
 30
0.0
 10
197.2744548132
 20
134.7469238131
 30
0.0
 10
197.5393856993
 20
134.7663515217
 30
0.0
 10
197.7860882215
 20
134.7302577345
 30
0.0
 10
197.9355268576
 20
134.6681121985
 30
0.0
 10
198.0033318679
 20
134.6289818728
 30
0.0
  0
SPLINE
  5
2FF
100
AcDbEntity
  8
0
100
AcDbSpline
 62
7
  6
CONTINUOUS
 70
0
 71
3
 72
17
 73
13
 74
0
 42
0.0000001
 43
0.0000001
 44
0.0000000001
 40
0.0
 40
0.0
 40
0.0
 40
0.0
 40
0.1286927192
 40
0.2702772184
 40
0.4174336658
 40
0.5617787524
 40
0.695449257
 40
0.8127115591
 40
0.8646775202
 40
0.9125099615
 40
0.9571398666
 40
1.0
 40
1.0
 40
1.0
 40
1.0
 10
163.1839590332
 20
112.9383921871
 30
0.0
 10
163.1839590332
 20
113.17345542
 30
0.0
 10
163.249711925
 20
113.6676945228
 30
0.0
 10
163.4951698399
 20
114.3933713882
 30
0.0
 10
163.8733565703
 20
115.0924416788
 30
0.0
 10
164.353916449
 20
115.7075727575
 30
0.0
 10
164.8975732021
 20
116.189084198
 30
0.0
 10
165.3896679914
 20
116.4581044808
 30
0.0
 10
165.7745859605
 20
116.5605746095
 30
0.0
 10
166.0395168466
 20
116.580002318
 30
0.0
 10
166.2862193688
 20
116.5439085308
 30
0.0
 10
166.4356580049
 20
116.4817629948
 30
0.0
 10
166.5034630152
 20
116.4426326691
 30
0.0
  0
SPLINE
  5
300
100
AcDbEntity
  8
0
100
AcDbSpline
 62
7
  6
CONTINUOUS
 70
0
 71
3
 72
17
 73
13
 74
0
 42
0.0000001
 43
0.0000001
 44
0.0000000001
 40
0.0
 40
0.0
 40
0.0
 40
0.0
 40
0.1286927192
 40
0.2702772184
 40
0.4174336658
 40
0.5617787524
 40
0.695449257
 40
0.8127115591
 40
0.8646775202
 40
0.9125099615
 40
0.9571398666
 40
1.0
 40
1.0
 40
1.0
 40
1.0
 10
163.1839590332
 20
76.5650652386
 30
0.0
 10
163.1839590332
 20
76.8001284715
 30
0.0
 10
163.249711925
 20
77.2943675743
 30
0.0
 10
163.4951698399
 20
78.0200444397
 30
0.0
 10
163.8733565703
 20
78.7191147303
 30
0.0
 10
164.353916449
 20
79.334245809
 30
0.0
 10
164.8975732021
 20
79.8157572495
 30
0.0
 10
165.3896679914
 20
80.0847775323
 30
0.0
 10
165.7745859605
 20
80.187247661
 30
0.0
 10
166.0395168466
 20
80.2066753696
 30
0.0
 10
166.2862193688
 20
80.1705815824
 30
0.0
 10
166.4356580049
 20
80.1084360463
 30
0.0
 10
166.5034630152
 20
80.0693057207
 30
0.0
  0
SPLINE
  5
301
100
AcDbEntity
  8
0
100
AcDbSpline
 62
7
  6
CONTINUOUS
 70
0
 71
3
 72
17
 73
13
 74
0
 42
0.0000001
 43
0.0000001
 44
0.0000000001
 40
0.0
 40
0.0
 40
0.0
 40
0.0
 40
0.0469625764
 40
0.0945745545
 40
0.1434417645
 40
0.1940923725
 40
0.3021802278
 40
0.4211641867
 40
0.5515845754
 40
0.6927302937
 40
0.8429654548
 40
1.0
 40
1.0
 40
1.0
 40
1.0
 10
172.2928290109
 20
86.8305060865
 30
0.0
 10
172.572702422
 20
86.6689420536
 30
0.0
 10
173.1609547269
 20
86.3843126898
 30
0.0
 10
174.1049813876
 20
86.0855556709
 30
0.0
 10
175.1061483294
 20
85.9152321716
 30
0.0
 10
176.5370664625
 20
85.8594883007
 30
0.0
 10
178.4453345274
 20
86.135800548
 30
0.0
 10
180.775121093
 20
86.9627754643
 30
0.0
 10
183.1386448489
 20
88.2626868171
 30
0.0
 10
185.4742710234
 20
89.9988624832
 30
0.0
 10
187.7204893983
 20
92.1234516336
 30
0.0
 10
189.0961975506
 20
93.7348411831
 30
0.0
 10
189.7566672585
 20
94.5900900316
 30
0.0
  0
SPLINE
  5
302
100
AcDbEntity
  8
0
100
AcDbSpline
 62
7
  6
CONTINUOUS
 70
0
 71
3
 72
11
 73
7
 74
0
 42
0.0000001
 43
0.0000001
 44
0.0000000001
 40
0.0
 40
0.0
 40
0.0
 40
0.0
 40
0.2660555568
 40
0.5231985671
 40
0.7686140004
 40
1.0
 40
1.0
 40
1.0
 40
1.0
 10
194.2957763862
 20
102.4459286433
 30
0.0
 10
194.6384946021
 20
103.2790258404
 30
0.0
 10
195.245722157
 20
104.9458479988
 30
0.0
 10
195.9204313879
 20
107.4629494779
 30
0.0
 10
196.3345785572
 20
109.9171353466
 30
0.0
 10
196.4347252064
 20
111.532527176
 30
0.0
 10
196.4347252064
 20
112.3159763063
 30
0.0
  0
SPLINE
  5
303
100
AcDbEntity
  8
0
100
AcDbSpline
 62
7
  6
CONTINUOUS
 70
0
 71
3
 72
11
 73
7
 74
0
 42
0.0000001
 43
0.0000001
 44
0.0000000001
 40
0.0
 40
0.0
 40
0.0
 40
0.0
 40
0.289799778
 40
0.5490490151
 40
0.7822276429
 40
1.0
 40
1.0
 40
1.0
 40
1.0
 10
190.4242778228
 20
140.2810514617
 30
0.0
 10
190.6437458452
 20
140.4077606272
 30
0.0
 10
191.0801179181
 20
140.6155061586
 30
0.0
 10
191.7509919314
 20
140.7772900274
 30
0.0
 10
192.3803486989
 20
140.7615283616
 30
0.0
 10
192.7593094422
 20
140.6238988983
 30
0.0
 10
192.9242311373
 20
140.5286834921
 30
0.0
  0
SPLINE
  5
304
100
AcDbEntity
  8
0
100
AcDbSpline
 62
7
  6
CONTINUOUS
 70
0
 71
3
 72
15
 73
11
 74
0
 42
0.0000001
 43
0.0000001
 44
0.0000000001
 40
0.0
 40
0.0
 40
0.0
 40
0.0
 40
0.114155658
 40
0.2373279333
 40
0.3669777387
 40
0.5000016213
 40
0.633025278
 40
0.7626744253
 40
0.8858456604
 40
1.0
 40
1.0
 40
1.0
 40
1.0
 10
155.0690859621
 20
115.7863316825
 30
0.0
 10
155.0690859621
 20
116.0658121503
 30
0.0
 10
155.1202763687
 20
116.6473906251
 30
0.0
 10
155.3243457614
 20
117.5247653283
 30
0.0
 10
155.6512531514
 20
118.413476154
 30
0.0
 10
156.0887813621
 20
119.2801047208
 30
0.0
 10
156.6205347714
 20
120.0923308035
 30
0.0
 10
157.2267212422
 20
120.8197952219
 30
0.0
 10
157.8845084255
 20
121.4352084943
 30
0.0
 10
158.3625703973
 20
121.7703265431
 30
0.0
 10
158.6046051482
 20
121.9100645375
 30
0.0
  0
SPLINE
  5
305
100
AcDbEntity
  8
0
100
AcDbSpline
 62
7
  6
CONTINUOUS
 70
0
 71
3
 72
11
 73
7
 74
0
 42
0.0000001
 43
0.0000001
 44
0.0000000001
 40
0.0
 40
0.0
 40
0.0
 40
0.0
 40
0.2177798624
 40
0.4509243774
 40
0.7102597636
 40
1.0
 40
1.0
 40
1.0
 40
1.0
 10
163.7535261558
 20
75.3061676029
 30
0.0
 10
163.6628043937
 20
75.3585232043
 30
0.0
 10
163.4930891073
 20
75.5012335892
 30
0.0
 10
163.3124070177
 20
75.796641829
 30
0.0
 10
163.2050526732
 20
76.1607206523
 30
0.0
 10
163.1839590332
 20
76.4257094456
 30
0.0
 10
163.1839590332
 20
76.5650652386
 30
0.0
  0
SPLINE
  5
306
100
AcDbEntity
  8
0
100
AcDbSpline
 62
7
  6
CONTINUOUS
 70
0
 71
3
 72
14
 73
10
 74
0
 42
0.0000001
 43
0.0000001
 44
0.0000000001
 40
0.0
 40
0.0
 40
0.0
 40
0.0
 40
0.2892812548
 40
0.4225394212
 40
0.5484967217
 40
0.6678951303
 40
0.7818688101
 40
0.8919525182
 40
1.0
 40
1.0
 40
1.0
 40
1.0
 10
196.4347252064
 20
112.3159763063
 30
0.0
 10
196.4347252064
 20
113.329728117
 30
0.0
 10
196.3163674569
 20
114.8177456147
 30
0.0
 10
195.8589188432
 20
116.6880405915
 30
0.0
 10
195.3934821601
 20
117.9343042461
 30
0.0
 10
194.8003192946
 20
119.0495831069
 30
0.0
 10
194.0838879486
 20
120.0226374688
 30
0.0
 10
193.2508181438
 20
120.8424154714
 30
0.0
 10
192.6203900326
 20
121.2823790015
 30
0.0
 10
192.2924679134
 20
121.4716803712
 30
0.0
  0
SPLINE
  5
307
100
AcDbEntity
  8
0
100
AcDbSpline
 62
7
  6
CONTINUOUS
 70
0
 71
3
 72
24
 73
20
 74
0
 42
0.0000001
 43
0.0000001
 44
0.0000000001
 40
0.0
 40
0.0
 40
0.0
 40
0.0
 40
0.0623883696
 40
0.1287326464
 40
0.1983306168
 40
0.2703124702
 40
0.3436952532
 40
0.4174325667
 40
0.490462367
 40
0.5617540732
 40
0.6303563599
 40
0.6954488669
 40
0.7564011923
 40
0.8128429503
 40
0.8647476459
 40
0.9125262826
 40
0.9571042564
 40
0.9786662968
 40
1.0
 40
1.0
 40
1.0
 40
1.0
 10
169.9183313109
 20
97.0068205361
 30
0.0
 10
169.9183313109
 20
97.7328311798
 30
0.0
 10
170.0166869933
 20
99.2318873121
 30
0.0
 10
170.4214105883
 20
101.5079966868
 30
0.0
 10
171.0794109021
 20
103.8402714865
 30
0.0
 10
171.9766130016
 20
106.1788356947
 30
0.0
 10
173.0939218945
 20
108.4741230013
 30
0.0
 10
174.4075046999
 20
110.6771587701
 30
0.0
 10
175.8893411396
 20
112.7409531959
 30
0.0
 10
177.5078622104
 20
114.6215234516
 30
0.0
 10
179.2287342408
 20
116.2788919773
 30
0.0
 10
181.0157346257
 20
117.6779333716
 30
0.0
 10
182.8317864056
 20
118.7889832511
 30
0.0
 10
184.6399062907
 20
119.5881709326
 30
0.0
 10
186.4044139407
 20
120.0568356388
 30
0.0
 10
188.0896276204
 20
120.1813393459
 30
0.0
 10
189.4144868704
 20
119.9863221711
 30
0.0
 10
190.3786194161
 20
119.6528399284
 30
0.0
 10
190.8274846637
 20
119.4307246787
 30
0.0
 10
191.0424905224
 20
119.3066070658
 30
0.0
  0
SPLINE
  5
308
100
AcDbEntity
  8
0
100
AcDbSpline
 62
7
  6
CONTINUOUS
 70
0
 71
3
 72
11
 73
7
 74
0
 42
0.0000001
 43
0.0000001
 44
0.0000000001
 40
0.0
 40
0.0
 40
0.0
 40
0.0
 40
0.2177798624
 40
0.4509243774
 40
0.7102597636
 40
1.0
 40
1.0
 40
1.0
 40
1.0
 10
163.7535261558
 20
111.6794945514
 30
0.0
 10
163.6628043937
 20
111.7318501528
 30
0.0
 10
163.4930891073
 20
111.8745605377
 30
0.0
 10
163.3124070177
 20
112.1699687775
 30
0.0
 10
163.2050526732
 20
112.5340476007
 30
0.0
 10
163.1839590332
 20
112.799036394
 30
0.0
 10
163.1839590332
 20
112.9383921871
 30
0.0
  0
SPLINE
  5
309
100
AcDbEntity
  8
0
100
AcDbSpline
 62
7
  6
CONTINUOUS
 70
0
 71
3
 72
11
 73
7
 74
0
 42
0.0000001
 43
0.0000001
 44
0.0000000001
 40
0.0
 40
0.0
 40
0.0
 40
0.0
 40
0.2177798624
 40
0.4509243774
 40
0.7102597636
 40
1.0
 40
1.0
 40
1.0
 40
1.0
 10
195.2533950085
 20
129.8658437551
 30
0.0
 10
195.1626732464
 20
129.9181993565
 30
0.0
 10
194.99295796
 20
130.0609097414
 30
0.0
 10
194.8122758704
 20
130.3563179811
 30
0.0
 10
194.7049215259
 20
130.7203968044
 30
0.0
 10
194.6838278859
 20
130.9853855977
 30
0.0
 10
194.6838278859
 20
131.1247413908
 30
0.0
  0
SPLINE
  5
30A
100
AcDbEntity
  8
0
100
AcDbSpline
 62
7
  6
CONTINUOUS
 70
0
 71
3
 72
11
 73
7
 74
0
 42
0.0000001
 43
0.0000001
 44
0.0000000001
 40
0.0
 40
0.0
 40
0.0
 40
0.0
 40
0.2177723674
 40
0.4509510027
 40
0.7102002307
 40
1.0
 40
1.0
 40
1.0
 40
1.0
 10
162.4686393601
 20
73.0806327744
 30
0.0
 10
162.6335610544
 20
72.9854173486
 30
0.0
 10
163.0125218261
 20
72.8477878988
 30
0.0
 10
163.6418785972
 20
72.8320262438
 30
0.0
 10
164.312752603
 20
72.9938101113
 30
0.0
 10
164.7491246586
 20
73.201555643
 30
0.0
 10
164.9685926745
 20
73.3282648047
 30
0.0
  0
SPLINE
  5
30B
100
AcDbEntity
  8
0
100
AcDbSpline
 62
7
  6
CONTINUOUS
 70
0
 71
3
 72
11
 73
7
 74
0
 42
0.0000001
 43
0.0000001
 44
0.0000000001
 40
0.0
 40
0.0
 40
0.0
 40
0.0
 40
0.2177709505
 40
0.4509489942
 40
0.7101987597
 40
1.0
 40
1.0
 40
1.0
 40
1.0
 10
156.1046518337
 20
76.7547995651
 30
0.0
 10
155.9397246704
 20
76.8500181283
 30
0.0
 10
155.6310389111
 20
77.1093983905
 30
0.0
 10
155.3026957392
 20
77.6465756264
 30
0.0
 10
155.1073596967
 20
78.3084890999
 30
0.0
 10
155.0690859621
 20
78.7902921281
 30
0.0
 10
155.0690859621
 20
79.0437229117
 30
0.0
  0
SPLINE
  5
30C
100
AcDbEntity
  8
0
100
AcDbSpline
 62
7
  6
CONTINUOUS
 70
0
 71
3
 72
17
 73
13
 74
0
 42
0.0000001
 43
0.0000001
 44
0.0000000001
 40
0.0
 40
0.0
 40
0.0
 40
0.0
 40
0.1286927192
 40
0.2702772184
 40
0.4174336658
 40
0.5617787524
 40
0.695449257
 40
0.8127115591
 40
0.8646775202
 40
0.9125099615
 40
0.9571398666
 40
1.0
 40
1.0
 40
1.0
 40
1.0
 10
167.0730301378
 20
78.8104080849
 30
0.0
 10
167.0730301378
 20
78.5753448521
 30
0.0
 10
167.0072772459
 20
78.0811057493
 30
0.0
 10
166.7618193311
 20
77.3554288839
 30
0.0
 10
166.3836326007
 20
76.6563585932
 30
0.0
 10
165.903072722
 20
76.0412275145
 30
0.0
 10
165.3594159689
 20
75.5597160741
 30
0.0
 10
164.8673211796
 20
75.2906957912
 30
0.0
 10
164.4824032105
 20
75.1882256626
 30
0.0
 10
164.2174723244
 20
75.168797954
 30
0.0
 10
163.9707698022
 20
75.2048917412
 30
0.0
 10
163.8213311661
 20
75.2670372773
 30
0.0
 10
163.7535261558
 20
75.3061676029
 30
0.0
  0
SPLINE
  5
30D
100
AcDbEntity
  8
0
100
AcDbSpline
 62
7
  6
CONTINUOUS
 70
0
 71
3
 72
11
 73
7
 74
0
 42
0.0000001
 43
0.0000001
 44
0.0000000001
 40
0.0
 40
0.0
 40
0.0
 40
0.0
 40
0.2177798624
 40
0.4509243774
 40
0.7102597636
 40
1.0
 40
1.0
 40
1.0
 40
1.0
 10
166.5034630152
 20
80.0693057207
 30
0.0
 10
166.5941847773
 20
80.0169501192
 30
0.0
 10
166.7639000637
 20
79.8742397344
 30
0.0
 10
166.9445821533
 20
79.5788314946
 30
0.0
 10
167.0519364978
 20
79.2147526713
 30
0.0
 10
167.0730301378
 20
78.949763878
 30
0.0
 10
167.0730301378
 20
78.8104080849
 30
0.0
  0
SPLINE
  5
30E
100
AcDbEntity
  8
0
100
AcDbSpline
 62
7
  6
CONTINUOUS
 70
0
 71
3
 72
11
 73
7
 74
0
 42
0.0000001
 43
0.0000001
 44
0.0000000001
 40
0.0
 40
0.0
 40
0.0
 40
0.0
 40
0.2898012489
 40
0.5490510236
 40
0.7822290598
 40
1.0
 40
1.0
 40
1.0
 40
1.0
 10
161.4330734885
 20
75.369556121
 30
0.0
 10
161.4330734885
 20
75.11612533
 30
0.0
 10
161.471347232
 20
74.6343222869
 30
0.0
 10
161.666683277
 20
73.9724088064
 30
0.0
 10
161.9950264564
 20
73.4352315789
 30
0.0
 10
162.3037122133
 20
73.1758513481
 30
0.0
 10
162.4686393601
 20
73.0806327744
 30
0.0
  0
SPLINE
  5
30F
100
AcDbEntity
  8
0
100
AcDbSpline
 62
7
  6
CONTINUOUS
 70
0
 71
3
 72
11
 73
7
 74
0
 42
0.0000001
 43
0.0000001
 44
0.0000000001
 40
0.0
 40
0.0
 40
0.0
 40
0.0
 40
0.2177798624
 40
0.4509243774
 40
0.7102597636
 40
1.0
 40
1.0
 40
1.0
 40
1.0
 10
166.5034630152
 20
116.4426326691
 30
0.0
 10
166.5941847773
 20
116.3902770677
 30
0.0
 10
166.7639000637
 20
116.2475666829
 30
0.0
 10
166.9445821533
 20
115.9521584431
 30
0.0
 10
167.0519364978
 20
115.5880796198
 30
0.0
 10
167.0730301378
 20
115.3230908265
 30
0.0
 10
167.0730301378
 20
115.1837350334
 30
0.0
  0
SPLINE
  5
310
100
AcDbEntity
  8
0
100
AcDbSpline
 62
7
  6
CONTINUOUS
 70
0
 71
3
 72
14
 73
10
 74
0
 42
0.0000001
 43
0.0000001
 44
0.0000000001
 40
0.0
 40
0.0
 40
0.0
 40
0.0
 40
0.2892812548
 40
0.4225394212
 40
0.5484967217
 40
0.6678951303
 40
0.7818688101
 40
0.8919525182
 40
1.0
 40
1.0
 40
1.0
 40
1.0
 10
168.1505717179
 20
95.9862101514
 30
0.0
 10
168.1505717179
 20
94.9724583407
 30
0.0
 10
168.2689294674
 20
93.4844408429
 30
0.0
 10
168.7263780811
 20
91.6141458662
 30
0.0
 10
169.1918147642
 20
90.3678822116
 30
0.0
 10
169.7849776297
 20
89.2526033507
 30
0.0
 10
170.5014089757
 20
88.2795489889
 30
0.0
 10
171.3344787805
 20
87.4597709862
 30
0.0
 10
171.9649068916
 20
87.0198074562
 30
0.0
 10
172.2928290109
 20
86.8305060865
 30
0.0
  0
SPLINE
  5
311
100
AcDbEntity
  8
0
100
AcDbSpline
 62
7
  6
CONTINUOUS
 70
0
 71
3
 72
15
 73
11
 74
0
 42
0.0000001
 43
0.0000001
 44
0.0000000001
 40
0.0
 40
0.0
 40
0.0
 40
0.0
 40
0.0953001223
 40
0.1969030554
 40
0.3072532249
 40
0.4275722163
 40
0.5580096936
 40
0.6978661258
 40
0.8457998378
 40
1.0
 40
1.0
 40
1.0
 40
1.0
 10
173.0559339881
 20
89.3797442939
 30
0.0
 10
173.5471944857
 20
89.2005525512
 30
0.0
 10
174.6148550238
 20
88.9640077647
 30
0.0
 10
176.3129679223
 20
88.9923679181
 30
0.0
 10
178.1039001883
 20
89.3851163794
 30
0.0
 10
179.9488606396
 20
90.1284305626
 30
0.0
 10
181.8101432694
 20
91.2033144639
 30
0.0
 10
183.6483064252
 20
92.5854045641
 30
0.0
 10
185.4234176799
 20
94.2437524848
 30
0.0
 10
186.5215625183
 20
95.4895196696
 30
0.0
 10
187.0521679224
 20
96.1485815709
 30
0.0
  0
SPLINE
  5
312
100
AcDbEntity
  8
0
100
AcDbSpline
 62
7
  6
CONTINUOUS
 70
0
 71
3
 72
10
 73
6
 74
0
 42
0.0000001
 43
0.0000001
 44
0.0000000001
 40
0.0
 40
0.0
 40
0.0
 40
0.0
 40
0.5216653981
 40
0.7672420279
 40
1.0
 40
1.0
 40
1.0
 40
1.0
 10
191.7639115196
 20
104.4571286242
 30
0.0
 10
192.2348921233
 20
105.73500109
 30
0.0
 10
192.7934591415
 20
107.6707683701
 30
0.0
 10
193.1839922373
 20
110.2546399257
 30
0.0
 10
193.2527461631
 20
111.5041899823
 30
0.0
 10
193.2527461631
 20
112.1118474306
 30
0.0
  0
SPLINE
  5
313
100
AcDbEntity
  8
0
100
AcDbSpline
 62
7
  6
CONTINUOUS
 70
0
 71
3
 72
14
 73
10
 74
0
 42
0.0000001
 43
0.0000001
 44
0.0000000001
 40
0.0
 40
0.0
 40
0.0
 40
0.0
 40
0.1080468381
 40
0.2181300444
 40
0.332103614
 40
0.4515023497
 40
0.5774599686
 40
0.7107185822
 40
1.0
 40
1.0
 40
1.0
 40
1.0
 10
191.0424905224
 20
119.3066070658
 30
0.0
 10
191.329420642
 20
119.1409693397
 30
0.0
 10
191.881042019
 20
118.7560028547
 30
0.0
 10
192.6099758129
 20
118.0387006408
 30
0.0
 10
193.2368555695
 20
117.1872808075
 30
0.0
 10
193.7558729648
 20
116.2114098978
 30
0.0
 10
194.1631341109
 20
115.1209272592
 30
0.0
 10
194.5634019416
 20
113.4844162071
 30
0.0
 10
194.6669656134
 20
112.1823992163
 30
0.0
 10
194.6669656134
 20
111.2953659216
 30
0.0
  0
SPLINE
  5
314
100
AcDbEntity
  8
0
100
AcDbSpline
 62
7
  6
CONTINUOUS
 70
0
 71
3
 72
11
 73
7
 74
0
 42
0.0000001
 43
0.0000001
 44
0.0000000001
 40
0.0
 40
0.0
 40
0.0
 40
0.0
 40
0.232068565
 40
0.4774996705
 40
0.7342809358
 40
1.0
 40
1.0
 40
1.0
 40
1.0
 10
194.6669656134
 20
111.2953659216
 30
0.0
 10
194.6669656134
 20
110.6530409785
 30
0.0
 10
194.5900903088
 20
109.3306643745
 30
0.0
 10
194.2705323691
 20
107.3207261043
 30
0.0
 10
193.7487290903
 20
105.2575960246
 30
0.0
 10
193.2782411245
 20
103.888137117
 30
0.0
 10
193.0124307554
 20
103.2023882139
 30
0.0
  0
SPLINE
  5
315
100
AcDbEntity
  8
0
100
AcDbSpline
 62
7
  6
CONTINUOUS
 70
0
 71
3
 72
17
 73
13
 74
0
 42
0.0000001
 43
0.0000001
 44
0.0000000001
 40
0.0
 40
0.0
 40
0.0
 40
0.0
 40
0.1570593979
 40
0.3070108481
 40
0.4477481061
 40
0.5778095265
 40
0.6966317374
 40
0.804851663
 40
0.8556829602
 40
0.9047989324
 40
0.9527104784
 40
1.0
 40
1.0
 40
1.0
 40
1.0
 10
188.4663755939
 20
95.3320851207
 30
0.0
 10
187.8922553309
 20
94.6189761872
 30
0.0
 10
186.7016309026
 20
93.2781168084
 30
0.0
 10
184.7688245239
 20
91.5166114985
 30
0.0
 10
182.7694993792
 20
90.0850195281
 30
0.0
 10
180.753668113
 20
89.0209854381
 30
0.0
 10
178.7713329437
 20
88.3532861357
 30
0.0
 10
177.1512120699
 20
88.1421698838
 30
0.0
 10
175.936534137
 20
88.2030218839
 30
0.0
 10
175.0856302077
 20
88.3552564894
 30
0.0
 10
174.2825864122
 20
88.6141899108
 30
0.0
 10
173.7815345131
 20
88.8577675039
 30
0.0
 10
173.5428064019
 20
88.9955793919
 30
0.0
  0
SPLINE
  5
316
100
AcDbEntity
  8
0
100
AcDbSpline
 62
7
  6
CONTINUOUS
 70
0
 71
3
 72
24
 73
20
 74
0
 42
0.0000001
 43
0.0000001
 44
0.0000000001
 40
0.0
 40
0.0
 40
0.0
 40
0.0
 40
0.0623884511
 40
0.1287327745
 40
0.198330671
 40
0.2703125323
 40
0.3436954137
 40
0.4174327711
 40
0.4904625891
 40
0.5617542959
 40
0.630356554
 40
0.6954489992
 40
0.7564012504
 40
0.8128429476
 40
0.8647476136
 40
0.9125262499
 40
0.9571042411
 40
0.9786662894
 40
1.0
 40
1.0
 40
1.0
 40
1.0
 10
166.7363522676
 20
96.8026916604
 30
0.0
 10
166.7363522676
 20
97.6324191933
 30
0.0
 10
166.8487591772
 20
99.3456278918
 30
0.0
 10
167.3113008042
 20
101.9468964087
 30
0.0
 10
168.0633014893
 20
104.6123529483
 30
0.0
 10
169.0886756067
 20
107.2849981051
 30
0.0
 10
170.3656014112
 20
109.90818517
 30
0.0
 10
171.8668404817
 20
112.4259418686
 30
0.0
 10
173.560368953
 20
114.7845642902
 30
0.0
 10
175.4101078221
 20
116.9337868198
 30
0.0
 10
177.3768184081
 20
118.8279208655
 30
0.0
 10
179.4191032348
 20
120.4268234359
 30
0.0
 10
181.4945889638
 20
121.696592969
 30
0.0
 10
183.5610097212
 20
122.6099493006
 30
0.0
 10
185.5775886758
 20
123.1455658712
 30
0.0
 10
187.5035469798
 20
123.2878561077
 30
0.0
 10
189.0176721724
 20
123.0649793597
 30
0.0
 10
190.1195384203
 20
122.6838568566
 30
0.0
 10
190.6325274552
 20
122.4300107516
 30
0.0
 10
190.8782485185
 20
122.2881619978
 30
0.0
  0
SPLINE
  5
317
100
AcDbEntity
  8
0
100
AcDbSpline
 62
7
  6
CONTINUOUS
 70
0
 71
3
 72
11
 73
7
 74
0
 42
0.0000001
 43
0.0000001
 44
0.0000000001
 40
0.0
 40
0.0
 40
0.0
 40
0.0
 40
0.2833208077
 40
0.5428189299
 40
0.7801724789
 40
1.0
 40
1.0
 40
1.0
 40
1.0
 10
193.2527461631
 20
112.1118474306
 30
0.0
 10
193.2527461631
 20
112.8278972611
 30
0.0
 10
193.1640927267
 20
114.2025406229
 30
0.0
 10
192.7247153709
 20
116.1348210759
 30
0.0
 10
191.9907229491
 20
117.804269383
 30
0.0
 10
191.289219526
 20
118.7397785637
 30
0.0
 10
190.899604298
 20
119.1358460372
 30
0.0
  0
SPLINE
  5
318
100
AcDbEntity
  8
0
100
AcDbSpline
 62
7
  6
CONTINUOUS
 70
0
 71
3
 72
11
 73
7
 74
0
 42
0.0000001
 43
0.0000001
 44
0.0000000001
 40
0.0
 40
0.0
 40
0.0
 40
0.0
 40
0.2177798624
 40
0.4509243774
 40
0.7102597636
 40
1.0
 40
1.0
 40
1.0
 40
1.0
 10
198.0033318679
 20
98.2556549243
 30
0.0
 10
198.09405363
 20
98.2032993229
 30
0.0
 10
198.2637689164
 20
98.0605889381
 30
0.0
 10
198.444451006
 20
97.7651806983
 30
0.0
 10
198.5518053505
 20
97.401101875
 30
0.0
 10
198.5728989905
 20
97.1361130817
 30
0.0
 10
198.5728989905
 20
96.9967572886
 30
0.0
  0
SPLINE
  5
319
100
AcDbEntity
  8
0
100
AcDbSpline
 62
7
  6
CONTINUOUS
 70
0
 71
3
 72
11
 73
7
 74
0
 42
0.0000001
 43
0.0000001
 44
0.0000000001
 40
0.0
 40
0.0
 40
0.0
 40
0.0
 40
0.2177798624
 40
0.4509243774
 40
0.7102597636
 40
1.0
 40
1.0
 40
1.0
 40
1.0
 10
198.0033318679
 20
134.6289818728
 30
0.0
 10
198.09405363
 20
134.5766262714
 30
0.0
 10
198.2637689164
 20
134.4339158865
 30
0.0
 10
198.444451006
 20
134.1385076468
 30
0.0
 10
198.5518053505
 20
133.7744288235
 30
0.0
 10
198.5728989905
 20
133.5094400302
 30
0.0
 10
198.5728989905
 20
133.3700842371
 30
0.0
  0
SPLINE
  5
31A
100
AcDbEntity
  8
0
100
AcDbSpline
 62
7
  6
CONTINUOUS
 70
0
 71
3
 72
14
 73
10
 74
0
 42
0.0000001
 43
0.0000001
 44
0.0000000001
 40
0.0
 40
0.0
 40
0.0
 40
0.0
 40
0.108046919
 40
0.218130189
 40
0.3321037033
 40
0.4515022462
 40
0.5774596389
 40
0.7107181929
 40
1.0
 40
1.0
 40
1.0
 40
1.0
 10
170.8786095052
 20
87.646987478
 30
0.0
 10
170.5506891259
 20
87.8362878845
 30
0.0
 10
169.9202643906
 20
88.2762500276
 30
0.0
 10
169.087196895
 20
89.0960241416
 30
0.0
 10
168.3707636162
 20
90.0690751077
 30
0.0
 10
167.7776013896
 20
91.1843545142
 30
0.0
 10
167.3121607057
 20
92.4306188272
 30
0.0
 10
166.8547108801
 20
94.3009173165
 30
0.0
 10
166.7363522676
 20
95.7889379579
 30
0.0
 10
166.7363522676
 20
96.8026916604
 30
0.0
  0
SPLINE
  5
31B
100
AcDbEntity
  8
0
100
AcDbSpline
 62
7
  6
CONTINUOUS
 70
0
 71
3
 72
17
 73
13
 74
0
 42
0.0000001
 43
0.0000001
 44
0.0000000001
 40
0.0
 40
0.0
 40
0.0
 40
0.0
 40
0.1286927192
 40
0.2702772184
 40
0.4174336658
 40
0.5617787524
 40
0.695449257
 40
0.8127115591
 40
0.8646775202
 40
0.9125099615
 40
0.9571398666
 40
1.0
 40
1.0
 40
1.0
 40
1.0
 10
198.5728989905
 20
133.3700842371
 30
0.0
 10
198.5728989905
 20
133.1350210043
 30
0.0
 10
198.5071460986
 20
132.6407819014
 30
0.0
 10
198.2616881838
 20
131.915105036
 30
0.0
 10
197.8835014534
 20
131.2160347454
 30
0.0
 10
197.4029415747
 20
130.6009036667
 30
0.0
 10
196.8592848216
 20
130.1193922262
 30
0.0
 10
196.3671900323
 20
129.8503719434
 30
0.0
 10
195.9822720632
 20
129.7479018148
 30
0.0
 10
195.7173411771
 20
129.7284741062
 30
0.0
 10
195.4706386549
 20
129.7645678934
 30
0.0
 10
195.3212000188
 20
129.8267134294
 30
0.0
 10
195.2533950085
 20
129.8658437551
 30
0.0
  0
SPLINE
  5
31C
100
AcDbEntity
  8
0
100
AcDbSpline
 62
7
  6
CONTINUOUS
 70
0
 71
3
 72
17
 73
13
 74
0
 42
0.0000001
 43
0.0000001
 44
0.0000000001
 40
0.0
 40
0.0
 40
0.0
 40
0.0
 40
0.1286927192
 40
0.2702772184
 40
0.4174336658
 40
0.5617787524
 40
0.695449257
 40
0.8127115591
 40
0.8646775202
 40
0.9125099615
 40
0.9571398666
 40
1.0
 40
1.0
 40
1.0
 40
1.0
 10
198.5728989905
 20
96.9967572886
 30
0.0
 10
198.5728989905
 20
96.7616940558
 30
0.0
 10
198.5071460986
 20
96.267454953
 30
0.0
 10
198.2616881838
 20
95.5417780875
 30
0.0
 10
197.8835014534
 20
94.8427077969
 30
0.0
 10
197.4029415747
 20
94.2275767182
 30
0.0
 10
196.8592848216
 20
93.7460652777
 30
0.0
 10
196.3671900323
 20
93.4770449949
 30
0.0
 10
195.9822720632
 20
93.3745748663
 30
0.0
 10
195.7173411771
 20
93.3551471577
 30
0.0
 10
195.4706386549
 20
93.3912409449
 30
0.0
 10
195.3212000188
 20
93.453386481
 30
0.0
 10
195.2533950085
 20
93.4925168066
 30
0.0
  0
SPLINE
  5
31D
100
AcDbEntity
  8
0
100
AcDbSpline
 62
7
  6
CONTINUOUS
 70
0
 71
3
 72
15
 73
11
 74
0
 42
0.0000001
 43
0.0000001
 44
0.0000000001
 40
0.0
 40
0.0
 40
0.0
 40
0.0
 40
0.1141543519
 40
0.237325601
 40
0.366974755
 40
0.4999984147
 40
0.6330222943
 40
0.7626720931
 40
0.8858443543
 40
1.0
 40
1.0
 40
1.0
 40
1.0
 10
164.9685926745
 20
118.2358977468
 30
0.0
 10
164.7265578976
 20
118.0961597373
 30
0.0
 10
164.2484958787
 20
117.761041642
 30
0.0
 10
163.5907086441
 20
117.1456283057
 30
0.0
 10
162.98452216
 20
116.4181638221
 30
0.0
 10
162.4527687628
 20
115.6059377125
 30
0.0
 10
162.0152405814
 20
114.7393091487
 30
0.0
 10
161.6883332412
 20
113.8505983671
 30
0.0
 10
161.4842638783
 20
112.9732237403
 30
0.0
 10
161.4330734885
 20
112.3916453295
 30
0.0
 10
161.4330734885
 20
112.1121648918
 30
0.0
  0
SPLINE
  5
31E
100
AcDbEntity
  8
0
100
AcDbSpline
 62
7
  6
CONTINUOUS
 70
0
 71
3
 72
24
 73
20
 74
0
 42
0.0000001
 43
0.0000001
 44
0.0000000001
 40
0.0
 40
0.0
 40
0.0
 40
0.0
 40
0.02133376
 40
0.0428958447
 40
0.0874738331
 40
0.1352524119
 40
0.1871570273
 40
0.2435986836
 40
0.304550875
 40
0.3696432491
 40
0.438245463
 40
0.5095371246
 40
0.5825667767
 40
0.6563038456
 40
0.729686547
 40
0.8016685256
 40
0.8712666752
 40
0.9376113728
 40
1.0
 40
1.0
 40
1.0
 40
1.0
 10
192.2924679134
 20
121.4716803712
 30
0.0
 10
192.0467462699
 20
121.613529429
 30
0.0
 10
191.5337568434
 20
121.867377403
 30
0.0
 10
190.431888552
 20
122.2484976316
 30
0.0
 10
188.9177640426
 20
122.4713748216
 30
0.0
 10
186.9918071612
 20
122.3290837806
 30
0.0
 10
184.9752302241
 20
121.7934678336
 30
0.0
 10
182.9088112204
 20
120.8801125352
 30
0.0
 10
180.8333272369
 20
119.6103446166
 30
0.0
 10
178.791043867
 20
118.0114440186
 30
0.0
 10
176.8243342568
 20
116.1173120855
 30
0.0
 10
174.9745968882
 20
113.9680927918
 30
0.0
 10
173.2810712729
 20
111.6094765511
 30
0.0
 10
171.7798350975
 20
109.0917280383
 30
0.0
 10
170.5029086452
 20
106.4685465325
 30
0.0
 10
169.4775311946
 20
103.7958999949
 30
0.0
 10
168.7255242505
 20
101.1304349085
 30
0.0
 10
168.2629798985
 20
98.5291559768
 30
0.0
 10
168.1505717179
 20
96.8159400176
 30
0.0
 10
168.1505717179
 20
95.9862101514
 30
0.0
  0
SPLINE
  5
31F
100
AcDbEntity
  8
0
100
AcDbSpline
 62
7
  6
CONTINUOUS
 70
0
 71
3
 72
17
 73
13
 74
0
 42
0.0000001
 43
0.0000001
 44
0.0000000001
 40
0.0
 40
0.0
 40
0.0
 40
0.0
 40
0.1286927192
 40
0.2702772184
 40
0.4174336658
 40
0.5617787524
 40
0.695449257
 40
0.8127115591
 40
0.8646775202
 40
0.9125099615
 40
0.9571398666
 40
1.0
 40
1.0
 40
1.0
 40
1.0
 10
167.0730301378
 20
115.1837350334
 30
0.0
 10
167.0730301378
 20
114.9486718006
 30
0.0
 10
167.0072772459
 20
114.4544326977
 30
0.0
 10
166.7618193311
 20
113.7287558323
 30
0.0
 10
166.3836326007
 20
113.0296855417
 30
0.0
 10
165.903072722
 20
112.414554463
 30
0.0
 10
165.3594159689
 20
111.9330430225
 30
0.0
 10
164.8673211796
 20
111.6640227397
 30
0.0
 10
164.4824032105
 20
111.5615526111
 30
0.0
 10
164.2174723244
 20
111.5421249025
 30
0.0
 10
163.9707698022
 20
111.5782186897
 30
0.0
 10
163.8213311661
 20
111.6403642257
 30
0.0
 10
163.7535261558
 20
111.6794945514
 30
0.0
  0
SPLINE
  5
320
100
AcDbEntity
  8
0
100
AcDbSpline
 62
7
  6
CONTINUOUS
 70
0
 71
3
 72
11
 73
7
 74
0
 42
0.0000001
 43
0.0000001
 44
0.0000000001
 40
0.0
 40
0.0
 40
0.0
 40
0.0
 40
0.2177723674
 40
0.4509510027
 40
0.7102002307
 40
1.0
 40
1.0
 40
1.0
 40
1.0
 10
199.2882186636
 20
136.8545167014
 30
0.0
 10
199.1232969693
 20
136.9497321272
 30
0.0
 10
198.7443361976
 20
137.0873615769
 30
0.0
 10
198.1149794265
 20
137.1031232319
 30
0.0
 10
197.4441054207
 20
136.9413393644
 30
0.0
 10
197.0077333651
 20
136.7335938328
 30
0.0
 10
196.7882653492
 20
136.606884671
 30
0.0
  0
SPLINE
  5
321
100
AcDbEntity
  8
0
100
AcDbSpline
 62
7
  6
CONTINUOUS
 70
0
 71
3
 72
9
 73
5
 74
0
 42
0.0000001
 43
0.0000001
 44
0.0000000001
 40
0.0
 40
0.0
 40
0.0
 40
0.0
 40
0.4735421412
 40
1.0
 40
1.0
 40
1.0
 40
1.0
 10
63.2293478036
 20
146.2040671392
 30
0.0
 10
62.9210576305
 20
147.6746703116
 30
0.0
 10
62.6471011571
 20
150.8624004414
 30
0.0
 10
62.9513377926
 20
154.0354963081
 30
0.0
 10
63.2293478036
 20
155.6826737008
 30
0.0
  0
SPLINE
  5
322
100
AcDbEntity
  8
0
100
AcDbSpline
 62
7
  6
CONTINUOUS
 70
0
 71
3
 72
9
 73
5
 74
0
 42
0.0000001
 43
0.0000001
 44
0.0000000001
 40
0.0
 40
0.0
 40
0.0
 40
0.0
 40
0.4619733872
 40
1.0
 40
1.0
 40
1.0
 40
1.0
 10
69.9490052554
 20
134.8628766298
 30
0.0
 10
69.9218866876
 20
134.8785363165
 30
0.0
 10
69.8730741233
 20
134.9307019481
 30
0.0
 10
69.854329471
 20
134.9978318065
 30
0.0
 10
69.8492970358
 20
135.0339534712
 30
0.0
  0
SPLINE
  5
323
100
AcDbEntity
  8
0
100
AcDbSpline
 62
7
  6
CONTINUOUS
 70
0
 71
3
 72
9
 73
5
 74
0
 42
0.0000001
 43
0.0000001
 44
0.0000000001
 40
0.0
 40
0.0
 40
0.0
 40
0.0
 40
0.5114817926
 40
1.0
 40
1.0
 40
1.0
 40
1.0
 10
90.7144995358
 20
189.2656519204
 30
0.0
 10
91.3580880645
 20
189.313219149
 30
0.0
 10
92.6247563726
 20
189.3209153153
 30
0.0
 10
93.8787467642
 20
189.1327105671
 30
0.0
 10
94.4782894192
 20
188.9896680112
 30
0.0
  0
SPLINE
  5
324
100
AcDbEntity
  8
0
100
AcDbSpline
 62
7
  6
CONTINUOUS
 70
0
 71
3
 72
9
 73
5
 74
0
 42
0.0000001
 43
0.0000001
 44
0.0000000001
 40
0.0
 40
0.0
 40
0.0
 40
0.0
 40
0.2533174454
 40
1.0
 40
1.0
 40
1.0
 40
1.0
 10
69.9949552884
 20
174.8542928369
 30
0.0
 10
70.2885350408
 20
175.2633315655
 30
0.0
 10
71.4715549072
 20
176.8605870694
 30
0.0
 10
72.7508339724
 20
178.386966442
 30
0.0
 10
73.7587451719
 20
179.4763010087
 30
0.0
  0
SPLINE
  5
325
100
AcDbEntity
  8
0
100
AcDbSpline
 62
7
  6
CONTINUOUS
 70
0
 71
3
 72
9
 73
5
 74
0
 42
0.0000001
 43
0.0000001
 44
0.0000000001
 40
0.0
 40
0.0
 40
0.0
 40
0.0
 40
0.4755960726
 40
1.0
 40
1.0
 40
1.0
 40
1.0
 10
69.8454311543
 20
174.4345518793
 30
0.0
 10
69.8454311543
 20
174.5059803069
 30
0.0
 10
69.8778286917
 20
174.656046801
 30
0.0
 10
69.9490318516
 20
174.7903086416
 30
0.0
 10
69.9949552884
 20
174.8542928369
 30
0.0
  0
SPLINE
  5
326
100
AcDbEntity
  8
0
100
AcDbSpline
 62
7
  6
CONTINUOUS
 70
0
 71
3
 72
13
 73
9
 74
0
 42
0.0000001
 43
0.0000001
 44
0.0000000001
 40
0.0
 40
0.0
 40
0.0
 40
0.0
 40
0.1142481057
 40
0.2375464672
 40
0.499998393
 40
0.7624511984
 40
0.8857505872
 40
1.0
 40
1.0
 40
1.0
 40
1.0
 10
66.4866879275
 20
167.1322623845
 30
0.0
 10
66.7166042744
 20
167.2650038569
 30
0.0
 10
67.1708203005
 20
167.5833925829
 30
0.0
 10
68.0211301056
 20
168.379257721
 30
0.0
 10
68.9193131023
 20
169.6061354978
 30
0.0
 10
69.5327225173
 20
170.997428821
 30
0.0
 10
69.7968058404
 20
172.1317591492
 30
0.0
 10
69.8454311543
 20
172.6843214259
 30
0.0
 10
69.8454311543
 20
172.9498085967
 30
0.0
  0
SPLINE
  5
327
100
AcDbEntity
  8
0
100
AcDbSpline
 62
7
  6
CONTINUOUS
 70
0
 71
3
 72
9
 73
5
 74
0
 42
0.0000001
 43
0.0000001
 44
0.0000000001
 40
0.0
 40
0.0
 40
0.0
 40
0.0
 40
0.5120126894
 40
1.0
 40
1.0
 40
1.0
 40
1.0
 10
64.9585344018
 20
165.9279057435
 30
0.0
 10
64.9766783218
 20
166.0354063862
 30
0.0
 10
65.0630096489
 20
166.2363099719
 30
0.0
 10
65.2141363493
 20
166.3975587739
 30
0.0
 10
65.3041212118
 20
166.4495112483
 30
0.0
  0
ELLIPSE
  5
328
100
AcDbEntity
  8
0
100
AcDbEllipse
 62
7
  6
CONTINUOUS
 10
67.5993639019
 20
224.1523548344
 30
0.0
 11
6.9731426067
 21
12.1707374227
 31
0.0
 40
0.5773435439
 41
0.0437998013
 42
2.0195483275
  0
ELLIPSE
  5
329
100
AcDbEntity
  8
0
100
AcDbEllipse
 62
7
  6
CONTINUOUS
 10
196.332047796
 20
162.8352138962
 30
0.0
 11
113.9089605082
 21
-65.2633770834
 31
0.0
 40
0.0753343482
 41
8.9694883847
 42
9.7924679295
  0
ELLIPSE
  5
32A
100
AcDbEntity
  8
0
100
AcDbEllipse
 62
7
  6
CONTINUOUS
 10
-200.3298467786
 20
351.7707084318
 30
0.0
 11
273.5462731791
 21
-140.9189398968
 31
0.0
 40
0.0331551487
 41
0.3190614289
 42
0.3498992522
  0
ELLIPSE
  5
32B
100
AcDbEntity
  8
0
100
AcDbEllipse
 62
7
  6
CONTINUOUS
 10
39.3601253668
 20
196.9300690609
 30
0.0
 11
-2.3730994875
 21
4.4026278786
 31
0.0
 40
0.5568670418
 41
0.8016832507
 42
2.3724795775
  0
ELLIPSE
  5
32C
100
AcDbEntity
  8
0
100
AcDbEllipse
 62
7
  6
CONTINUOUS
 10
45.2548708701
 20
212.7419399784
 30
0.0
 11
6.9731426067
 21
12.1707374227
 31
0.0
 40
0.5773435439
 41
0.0437998023
 42
2.0046014781
  0
ELLIPSE
  5
32D
100
AcDbEntity
  8
0
100
AcDbEllipse
 62
7
  6
CONTINUOUS
 10
175.4017742145
 20
150.7511869416
 30
0.0
 11
113.9089605082
 21
-65.2633770834
 31
0.0
 40
0.0753343482
 41
8.9694883847
 42
9.7924679295
  0
ELLIPSE
  5
32E
100
AcDbEntity
  8
0
100
AcDbEllipse
 62
7
  6
CONTINUOUS
 10
-221.2601203601
 20
339.6866814772
 30
0.0
 11
273.5462731791
 21
-140.9189398968
 31
0.0
 40
0.0331551487
 41
0.0170784054
 42
0.3648461017
  0
ENDSEC
  0
SECTION
  2
OBJECTS
  0
DICTIONARY
  5
C
100
AcDbDictionary
280
0
281
1
  3
ACAD_GROUP
350
D
  3
ACAD_MLINESTYLE
350
17
  3
ACAD_LAYOUT
350
1A
  3
ACAD_PLOTSETTINGS
350
19
  3
ACAD_PLOTSTYLENAME
350
E
  0
DICTIONARY
  5
D
102
{ACAD_REACTORS
330
C
102
}
100
AcDbDictionary
280
0
281
1
  0
ACDBDICTIONARYWDFLT
  5
E
102
{ACAD_REACTORS
330
C
102
}
100
AcDbDictionary
281
1
  3
Normal
350
F
100
AcDbDictionaryWithDefault
340
F
  0
DICTIONARY
  5
17
102
{ACAD_REACTORS
330
C
102
}
100
AcDbDictionary
280
0
281
1
  3
Standard
350
18
  0
DICTIONARY
  5
19
102
{ACAD_REACTORS
330
C
102
}
100
AcDbDictionary
281
1
  0
DICTIONARY
  5
1A
102
{ACAD_REACTORS
330
C
102
}
100
AcDbDictionary
281
1
  3
Model
350
32F
  3
Layout1
350
330
  0
ACDBPLACEHOLDER
  5
F
102
{ACAD_REACTORS
330
E
102
}
  0
MLINESTYLE
  5
18
102
{ACAD_REACTORS
330
17
102
}
100
AcDbMlineStyle
  2
STANDARD
 70
0
  3

 62
256
 51
90.0
 52
90.0
 71
2
 49
0.5
 62
256
  6
BYLAYER
 49
-0.5
 62
256
  6
BYLAYER
  0
LAYOUT
  5
32F
102
{ACAD_REACTORS
330
1A
102
}
100
AcDbPlotSettings
  1

  2
none_device
  4

  6

 40
0.0
 41
0.0
 42
0.0
 43
0.0
 44
210.0
 45
297.0
 46
0.0
 47
0.0
 48
0.0
 49
0.0
140
0.0
141
0.0
142
1.0
143
1.0
 70
1024
 72
1
 73
0
 74
0
  7

 75
0
147
1.0
148
0.0
149
0.0
100
AcDbLayout
  1
Model
 70
0
 71
0
 10
0.0
 20
0.0
 11
210.0
 21
297.0
 12
0.0
 22
0.0
 32
0.0
 14
0.0
 24
0.0
 34
0.0
 15
0.0
 25
0.0
 35
0.0
146
0.0
 13
0.0
 23
0.0
 33
0.0
 16
1.0
 26
0.0
 36
0.0
 17
0.0
 27
1.0
 37
0.0
 76
0
330
210
345
0
346
0
  0
LAYOUT
  5
330
102
{ACAD_REACTORS
330
1A
102
}
100
AcDbPlotSettings
  1

  2
none_device
  4

  6

 40
0.0
 41
0.0
 42
0.0
 43
0.0
 44
210.0
 45
297.0
 46
0.0
 47
0.0
 48
0.0
 49
0.0
140
0.0
141
0.0
142
1.0
143
1.0
 70
0
 72
1
 73
0
 74
0
  7

 75
0
147
1.0
148
0.0
149
0.0
100
AcDbLayout
  1
Layout1
 70
0
 71
1
 10
0.0
 20
0.0
 11
210.0
 21
297.0
 12
0.0
 22
0.0
 32
0.0
 14
0.0
 24
0.0
 34
0.0
 15
0.0
 25
0.0
 35
0.0
146
0.0
 13
0.0
 23
0.0
 33
0.0
 16
1.0
 26
0.0
 36
0.0
 17
0.0
 27
1.0
 37
0.0
 76
0
330
211
345
0
346
0
  0
ENDSEC
  0
EOF
