999
DXF file: C:\Users\sesa63760\Dev\_Creo\CAD\MCADID0003889_3D-CAD\drw0001_3.dxf
999
Pro/ENGINEER 2019471 by Parametric Technology Corporation
  0
SECTION
  2
HEADER
  9
$ACADVER
  1
AC1024
  9
$DWGCODEPAGE
  3
ANSI_1252
  9
$EXTMAX
 10
39.3489972186
 20
55.6507246377
 30
0.0
  9
$EXTMIN
 10
0.0
 20
0.0
 30
0.0
  9
$LIMMIN
 10
0.0
 20
0.0
  9
$LIMMAX
 10
39.3489972186
 20
55.6507246377
  9
$VIEWCTR
 10
19.6744986093
 20
27.8253623188
  9
$VIEWSIZE
 40
55.6507246377
  9
$CLAYER
  8
0
  9
$LTSCALE
 40
3.6276027912
  9
$CELTYPE
  6
BYLAYER
  9
$DIMSCALE
 40
1.0
  9
$DIMASZ
 40
0.4684404431
  9
$DIMEXO
 40
1.0
  9
$DIMDLI
 40
2.5063437466
  9
$DIMEXE
 40
1.0
  9
$DIMCEN
 40
0.5936077295
  9
$DIMLFAC
 40
1.0
  9
$DIMBLK
  1
_FILLED
  9
$DIMALT
 70
0
  9
$DIMALTF
 40
0.0393700787
  9
$DIMTXT
 40
0.6558166203
  9
$DIMTOL
 70
1
  9
$DIMLIM
 70
0
  9
$DIMTFAC
 40
1.0
  9
$DIMTP
 40
0.01
  9
$DIMTM
 40
0.01
  9
$DIMGAP
 40
0.625
  9
$DIMDSEP
 70
46
  9
$AUNITS
 70
0
  9
$PDMODE
 70
3
  9
$PDSIZE
 40
0.3125
  9
$HANDSEED
  5
32E
  9
$TILEMODE
 70
1
  9
$MEASUREMENT
 70
1
  9
$INSUNITS
 70
4
  0
ENDSEC
  0
SECTION
  2
CLASSES
  0
CLASS
  1
ACDBDICTIONARYWDFLT
  2
AcDbDictionaryWithDefault
  3
AutoCAD 2000
 90
0
 91
1
280
0
281
0
  0
CLASS
  1
ACDBPLACEHOLDER
  2
AcDbPlaceHolder
  3
AutoCAD 2000
 90
0
 91
1
280
0
281
0
  0
CLASS
  1
LAYOUT
  2
AcDbLayout
  3
AutoCAD 2000
 90
0
 91
0
280
0
281
0
  0
ENDSEC
  0
SECTION
  2
TABLES
  0
TABLE
  2
VPORT
  5
8
100
AcDbSymbolTable
 70
2
  0
VPORT
  5
1F4
100
AcDbSymbolTableRecord
100
AcDbViewportTableRecord
  2
*ACTIVE
 70
0
 10
0.0
 20
0.0
 11
1.0
 21
1.0
 12
19.6744986093
 22
27.8253623188
 13
0.0
 23
0.0
 14
1.0
 24
1.0
 15
0.0
 25
0.0
 16
0.0
 26
0.0
 36
1.0
 17
0.0
 27
0.0
 37
0.0
 40
55.6507246377
 41
0.7070707071
 42
50.0
 43
0.0
 44
0.0
 50
0.0
 51
0.0
 71
0
 72
100
 73
1
 74
1
 75
0
 76
0
 77
0
 78
0
  0
ENDTAB
  0
TABLE
  2
LTYPE
  5
5
100
AcDbSymbolTable
 70
6
  0
LTYPE
  5
14
100
AcDbSymbolTableRecord
100
AcDbLinetypeTableRecord
  2
BYBLOCK
 70
0
  3

 72
65
 73
0
 40
0.0
  0
LTYPE
  5
15
100
AcDbSymbolTableRecord
100
AcDbLinetypeTableRecord
  2
BYLAYER
 70
0
  3

 72
65
 73
0
 40
0.0
  0
LTYPE
  5
16
100
AcDbSymbolTableRecord
100
AcDbLinetypeTableRecord
  2
CONTINUOUS
 70
64
  3
Solid line
 72
65
 73
0
 40
0.0
  0
LTYPE
  5
1F5
100
AcDbSymbolTableRecord
100
AcDbLinetypeTableRecord
  2
CENTER
 70
64
  3
____ _ ____ _ ____ _ ____ _ ____ _ ____ _ ____
 72
65
 73
4
 40
0.6
 49
0.375
 74
0
 49
-0.075
 74
0
 49
0.075
 74
0
 49
-0.075
 74
0
  0
LTYPE
  5
1F6
100
AcDbSymbolTableRecord
100
AcDbLinetypeTableRecord
  2
HIDDEN
 70
64
  3
- - - - - - - - - - - - - - - - - - - -
 72
65
 73
2
 40
0.2
 49
0.1
 74
0
 49
-0.1
 74
0
  0
LTYPE
  5
1F7
100
AcDbSymbolTableRecord
100
AcDbLinetypeTableRecord
  2
PHANTOM
 70
64
  3
_____ _ _ _____ _ _ _____ _ _ _____
 72
65
 73
6
 40
0.8
 49
0.45
 74
0
 49
-0.05
 74
0
 49
0.1
 74
0
 49
-0.05
 74
0
 49
0.1
 74
0
 49
-0.05
 74
0
  0
LTYPE
  5
1F8
100
AcDbSymbolTableRecord
100
AcDbLinetypeTableRecord
  2
DOT
 70
64
  3
. . . . . . . . . . . . . . . . . . . .
 72
65
 73
2
 40
0.2
 49
0.1
 74
0
 49
-0.1
 74
0
  0
LTYPE
  5
1F9
100
AcDbSymbolTableRecord
100
AcDbLinetypeTableRecord
  2
DASHED
 70
64
  3
- - - - - - - - - - - - - - - - - - - -
 72
65
 73
2
 40
0.2
 49
0.1
 74
0
 49
-0.1
 74
0
  0
ENDTAB
  0
TABLE
  2
LAYER
  5
2
100
AcDbSymbolTable
 70
36
  0
LAYER
  5
10
100
AcDbSymbolTableRecord
100
AcDbLayerTableRecord
  2
0
 70
0
 62
7
  6
CONTINUOUS
370
-3
390
F
  0
LAYER
  5
1FA
100
AcDbSymbolTableRecord
100
AcDbLayerTableRecord
  2
DEFAULT_1
 70
0
 62
7
  6
CENTER
370
-3
390
F
  0
LAYER
  5
1FB
100
AcDbSymbolTableRecord
100
AcDbLayerTableRecord
  2
DEFAULT_2
 70
0
 62
7
  6
HIDDEN
370
-3
390
F
  0
LAYER
  5
1FC
100
AcDbSymbolTableRecord
100
AcDbLayerTableRecord
  2
DEFAULT_3
 70
0
 62
7
  6
PHANTOM
370
-3
390
F
  0
LAYER
  5
1FD
100
AcDbSymbolTableRecord
100
AcDbLayerTableRecord
  2
00_COMPONENTS
 70
0
 62
7
  6
CONTINUOUS
370
-3
390
F
  0
LAYER
  5
1FE
100
AcDbSymbolTableRecord
100
AcDbLayerTableRecord
  2
01_1_DEFAULT_DATUMS
 70
0
 62
7
  6
CONTINUOUS
370
-3
390
F
  0
LAYER
  5
1FF
100
AcDbSymbolTableRecord
100
AcDbLayerTableRecord
  2
01_PLANES
 70
0
 62
7
  6
CONTINUOUS
370
-3
390
F
  0
LAYER
  5
200
100
AcDbSymbolTableRecord
100
AcDbLayerTableRecord
  2
02_COORD_SYS
 70
0
 62
7
  6
CONTINUOUS
370
-3
390
F
  0
LAYER
  5
201
100
AcDbSymbolTableRecord
100
AcDbLayerTableRecord
  2
03_AXES
 70
0
 62
7
  6
CONTINUOUS
370
-3
390
F
  0
LAYER
  5
202
100
AcDbSymbolTableRecord
100
AcDbLayerTableRecord
  2
04_POINTS
 70
0
 62
7
  6
CONTINUOUS
370
-3
390
F
  0
LAYER
  5
203
100
AcDbSymbolTableRecord
100
AcDbLayerTableRecord
  2
05_CURVES
 70
0
 62
7
  6
CONTINUOUS
370
-3
390
F
  0
LAYER
  5
204
100
AcDbSymbolTableRecord
100
AcDbLayerTableRecord
  2
06_SURFS
 70
0
 62
7
  6
CONTINUOUS
370
-3
390
F
  0
LAYER
  5
205
100
AcDbSymbolTableRecord
100
AcDbLayerTableRecord
  2
07_COSMETICS
 70
0
 62
7
  6
CONTINUOUS
370
-3
390
F
  0
LAYER
  5
206
100
AcDbSymbolTableRecord
100
AcDbLayerTableRecord
  2
10_NOTES
 70
0
 62
7
  6
CONTINUOUS
370
-3
390
F
  0
LAYER
  5
207
100
AcDbSymbolTableRecord
100
AcDbLayerTableRecord
  2
11_NOTES_PUB
 70
0
 62
7
  6
CONTINUOUS
370
-3
390
F
  0
LAYER
  5
208
100
AcDbSymbolTableRecord
100
AcDbLayerTableRecord
  2
13_REF_GTOL
 70
0
 62
7
  6
CONTINUOUS
370
-3
390
F
  0
LAYER
  5
209
100
AcDbSymbolTableRecord
100
AcDbLayerTableRecord
  2
16_MISC
 70
0
 62
7
  6
CONTINUOUS
370
-3
390
F
  0
LAYER
  5
20A
100
AcDbSymbolTableRecord
100
AcDbLayerTableRecord
  2
17_NO_PRINT
 70
0
 62
7
  6
CONTINUOUS
370
-3
390
F
  0
LAYER
  5
20B
100
AcDbSymbolTableRecord
100
AcDbLayerTableRecord
  2
18_DATUM_CAMS_JOINTS
 70
0
 62
7
  6
CONTINUOUS
370
-3
390
F
  0
LAYER
  5
20C
100
AcDbSymbolTableRecord
100
AcDbLayerTableRecord
  2
19_DATUM_FUNCTIONAL
 70
0
 62
7
  6
CONTINUOUS
370
-3
390
F
  0
LAYER
  5
20D
100
AcDbSymbolTableRecord
100
AcDbLayerTableRecord
  2
20_DATUM_KINEMATIC_SCHEME
 70
0
 62
7
  6
CONTINUOUS
370
-3
390
F
  0
ENDTAB
  0
TABLE
  2
STYLE
  5
3
100
AcDbSymbolTable
 70
1
  0
STYLE
  5
11
100
AcDbSymbolTableRecord
100
AcDbTextStyleTableRecord
  2
STANDARD
 70
0
 40
0.0
 41
1.0
 50
0.0
 71
0
 42
0.2
  3
ARIAL.TTF
  4

  0
STYLE
  5
20E
100
AcDbSymbolTableRecord
100
AcDbTextStyleTableRecord
  2
TEXTSTYLE_1
 70
0
 40
0.0
 41
0.8
 50
0.0
 71
0
 42
0.2
  3
gdt
  4

  0
ENDTAB
  0
TABLE
  2
VIEW
  5
6
100
AcDbSymbolTable
 70
0
  0
ENDTAB
  0
TABLE
  2
UCS
  5
7
100
AcDbSymbolTable
 70
0
  0
ENDTAB
  0
TABLE
  2
APPID
  5
9
100
AcDbSymbolTable
 70
1
  0
APPID
  5
20F
100
AcDbSymbolTableRecord
100
AcDbRegAppTableRecord
  2
ACAD
 70
0
  0
ENDTAB
  0
TABLE
  2
BLOCK_RECORD
  5
1
100
AcDbSymbolTable
 70
0
  0
BLOCK_RECORD
  5
210
100
AcDbSymbolTableRecord
100
AcDbBlockTableRecord
  2
*Model_Space
  0
BLOCK_RECORD
  5
211
100
AcDbSymbolTableRecord
100
AcDbBlockTableRecord
  2
*Paper_Space
  0
BLOCK_RECORD
  5
212
100
AcDbSymbolTableRecord
100
AcDbBlockTableRecord
  2
_FILLED
  0
ENDTAB
  0
TABLE
  2
DIMSTYLE
  5
A
100
AcDbSymbolTable
 70
1
100
AcDbDimStyleTable
 71
0
  0
DIMSTYLE
105
213
100
AcDbSymbolTableRecord
100
AcDbDimStyleTableRecord
  2
STANDARD
 70
0
  3

  4

 40
1.0
 41
0.4684404431
 42
1.0
 43
0.38
 44
1.0
 45
0.0
 46
0.0
 47
0.01
 48
0.01
140
0.6558166203
141
0.09
142
0.0
143
25.4
144
1.0
145
0.0
146
1.0
147
0.625
 71
1
 72
0
 73
0
 74
0
 75
0
 76
0
 77
1
 78
8
 79
2
170
0
171
1
172
0
173
0
174
0
175
0
176
0
177
0
178
0
270
2
179
2
271
2
272
2
273
2
274
2
275
0
280
0
281
0
282
0
283
1
284
8
285
0
286
0
287
3
288
0
340
11
278
46
341
212
342
212
343
212
344
212
  0
ENDTAB
  0
ENDSEC
  0
SECTION
  2
BLOCKS
  0
BLOCK
  5
20
100
AcDbEntity
  8
0
100
AcDbBlockBegin
  2
*Model_Space
 70
0
 10
0.0
 20
0.0
 30
0.0
  3
*Model_Space
  1

  0
ENDBLK
  5
21
100
AcDbEntity
  8
0
100
AcDbBlockEnd
  0
BLOCK
  5
1C
100
AcDbEntity
  8
0
100
AcDbBlockBegin
  2
*Paper_Space
 70
0
 10
0.0
 20
0.0
 30
0.0
  3
*Paper_Space
  1

  0
ENDBLK
  5
1D
100
AcDbEntity
  8
0
100
AcDbBlockEnd
  0
BLOCK
  5
214
100
AcDbEntity
  8
0
100
AcDbBlockBegin
  2
_FILLED
 70
64
 10
0.0
 20
0.0
  3
_FILLED
  1

  0
SOLID
  5
215
100
AcDbEntity
  8
0
  6
BYBLOCK
 62
0
100
AcDbTrace
 10
0.0
 20
0.0
 11
-1.0
 21
0.25
 12
-1.0
 22
-0.25
 13
-1.0
 23
-0.25
  0
ENDBLK
  5
216
100
AcDbEntity
  8
0
  6
BYBLOCK
 62
0
100
AcDbBlockEnd
  0
ENDSEC
  0
SECTION
  2
ENTITIES
  0
LINE
  5
217
100
AcDbEntity
  8
0
100
AcDbLine
 62
7
  6
BYLAYER
 10
25.2693843625
 20
4.4615942029
 11
15.1694167226
 21
4.4615942029
  0
LINE
  5
218
100
AcDbEntity
  8
0
100
AcDbLine
 62
7
  6
BYLAYER
 10
25.4694167226
 20
4.6615942029
 11
20.9422583373
 21
4.6615942029
  0
LINE
  5
219
100
AcDbEntity
  8
0
100
AcDbLine
 62
7
  6
BYLAYER
 10
19.4965751079
 20
4.6615942029
 11
14.9694167226
 21
4.6615942029
  0
LINE
  5
21A
100
AcDbEntity
  8
0
100
AcDbLine
 62
7
  6
BYLAYER
 10
26.0193095766
 20
4.8615942029
 11
14.4194994889
 21
4.8615942029
  0
LINE
  5
21B
100
AcDbEntity
  8
0
100
AcDbLine
 62
7
  6
BYLAYER
 10
26.2194167226
 20
5.0615942029
 11
14.2194167226
 21
5.0615942029
  0
LINE
  5
21C
100
AcDbEntity
  8
0
100
AcDbLine
 62
7
  6
BYLAYER
 10
28.7194167226
 20
7.4615942029
 11
11.7194167226
 21
7.4615942029
  0
LINE
  5
21D
100
AcDbEntity
  8
0
100
AcDbLine
 62
7
  6
BYLAYER
 10
14.4194167226
 20
4.8615942029
 11
14.2194167226
 21
5.0615942029
  0
LINE
  5
21E
100
AcDbEntity
  8
0
100
AcDbLine
 62
7
  6
BYLAYER
 10
14.8694167226
 20
49.5115942029
 11
14.2194167226
 21
48.8615942029
  0
LINE
  5
21F
100
AcDbEntity
  8
0
100
AcDbLine
 62
7
  6
BYLAYER
 10
11.7194167226
 20
10.4615942029
 11
28.7194167226
 21
10.4615942029
  0
LINE
  5
220
100
AcDbEntity
  8
0
100
AcDbLine
 62
7
  6
BYLAYER
 10
12.6036298869
 20
11.1615942029
 11
13.7406009229
 21
11.1615942029
  0
LINE
  5
221
100
AcDbEntity
  8
0
100
AcDbLine
 62
7
  6
BYLAYER
 10
13.762937257
 20
11.1615942029
 11
14.0963331071
 21
11.1615942029
  0
LINE
  5
222
100
AcDbEntity
  8
0
100
AcDbLine
 62
7
  6
BYLAYER
 10
14.1512671268
 20
11.1615942029
 11
14.2194167226
 21
11.1615942029
  0
LINE
  5
223
100
AcDbEntity
  8
0
100
AcDbLine
 62
7
  6
BYLAYER
 10
14.588454169
 20
11.1615942029
 11
14.9524348057
 21
11.1615942029
  0
LINE
  5
224
100
AcDbEntity
  8
0
100
AcDbLine
 62
7
  6
BYLAYER
 10
15.5949548507
 20
11.1615942029
 11
15.9778216368
 21
11.1615942029
  0
LINE
  5
225
100
AcDbEntity
  8
0
100
AcDbLine
 62
7
  6
BYLAYER
 10
16.750089542
 20
11.1615942029
 11
17.139536824
 21
11.1615942029
  0
LINE
  5
226
100
AcDbEntity
  8
0
100
AcDbLine
 62
7
  6
BYLAYER
 10
18.0167312634
 20
11.1615942029
 11
18.4002418853
 21
11.1615942029
  0
LINE
  5
227
100
AcDbEntity
  8
0
100
AcDbLine
 62
7
  6
BYLAYER
 10
19.3541691079
 20
11.1615942029
 11
19.7194167226
 21
11.1615942029
  0
LINE
  5
228
100
AcDbEntity
  8
0
100
AcDbLine
 62
7
  6
BYLAYER
 10
20.7194167226
 20
11.1615942029
 11
21.0846643373
 21
11.1615942029
  0
LINE
  5
229
100
AcDbEntity
  8
0
100
AcDbLine
 62
7
  6
BYLAYER
 10
22.0385915599
 20
11.1615942029
 11
22.4221021818
 21
11.1615942029
  0
LINE
  5
22A
100
AcDbEntity
  8
0
100
AcDbLine
 62
7
  6
BYLAYER
 10
23.2992966212
 20
11.1615942029
 11
23.6887439032
 21
11.1615942029
  0
LINE
  5
22B
100
AcDbEntity
  8
0
100
AcDbLine
 62
7
  6
BYLAYER
 10
24.4610118084
 20
11.1615942029
 11
24.8438785945
 21
11.1615942029
  0
LINE
  5
22C
100
AcDbEntity
  8
0
100
AcDbLine
 62
7
  6
BYLAYER
 10
25.4863986395
 20
11.1615942029
 11
25.8503792762
 21
11.1615942029
  0
LINE
  5
22D
100
AcDbEntity
  8
0
100
AcDbLine
 62
7
  6
BYLAYER
 10
26.2194167226
 20
11.1615942029
 11
26.2875663184
 21
11.1615942029
  0
LINE
  5
22E
100
AcDbEntity
  8
0
100
AcDbLine
 62
7
  6
BYLAYER
 10
26.3425003381
 20
11.1615942029
 11
26.6758961882
 21
11.1615942029
  0
LINE
  5
22F
100
AcDbEntity
  8
0
100
AcDbLine
 62
7
  6
BYLAYER
 10
26.6982325223
 20
11.1615942029
 11
27.8352035583
 21
11.1615942029
  0
LINE
  5
230
100
AcDbEntity
  8
0
100
AcDbLine
 62
7
  6
BYLAYER
 10
14.3530772578
 20
10.8908320291
 11
14.2944446851
 21
10.9332743409
  0
LINE
  5
231
100
AcDbEntity
  8
0
100
AcDbLine
 62
7
  6
BYLAYER
 10
13.7406008221
 20
11.1615942029
 11
13.7520909369
 21
11.1472906506
  0
LINE
  5
232
100
AcDbEntity
  8
0
100
AcDbLine
 62
7
  6
BYLAYER
 10
27.8352035583
 20
13.7615942029
 11
26.6982325223
 21
13.7615942029
  0
LINE
  5
233
100
AcDbEntity
  8
0
100
AcDbLine
 62
7
  6
BYLAYER
 10
26.6758961882
 20
13.7615942029
 11
26.3425003381
 21
13.7615942029
  0
LINE
  5
234
100
AcDbEntity
  8
0
100
AcDbLine
 62
7
  6
BYLAYER
 10
26.2875663184
 20
13.7615942029
 11
26.2194167226
 21
13.7615942029
  0
LINE
  5
235
100
AcDbEntity
  8
0
100
AcDbLine
 62
7
  6
BYLAYER
 10
25.8503792762
 20
13.7615942029
 11
25.4863986395
 21
13.7615942029
  0
LINE
  5
236
100
AcDbEntity
  8
0
100
AcDbLine
 62
7
  6
BYLAYER
 10
24.8438785945
 20
13.7615942029
 11
24.4610118084
 21
13.7615942029
  0
LINE
  5
237
100
AcDbEntity
  8
0
100
AcDbLine
 62
7
  6
BYLAYER
 10
23.6887439032
 20
13.7615942029
 11
23.2992966212
 21
13.7615942029
  0
LINE
  5
238
100
AcDbEntity
  8
0
100
AcDbLine
 62
7
  6
BYLAYER
 10
22.4221021818
 20
13.7615942029
 11
22.0385915599
 21
13.7615942029
  0
LINE
  5
239
100
AcDbEntity
  8
0
100
AcDbLine
 62
7
  6
BYLAYER
 10
21.0846643373
 20
13.7615942029
 11
20.7194167226
 21
13.7615942029
  0
LINE
  5
23A
100
AcDbEntity
  8
0
100
AcDbLine
 62
7
  6
BYLAYER
 10
19.7194167226
 20
13.7615942029
 11
19.3541691079
 21
13.7615942029
  0
LINE
  5
23B
100
AcDbEntity
  8
0
100
AcDbLine
 62
7
  6
BYLAYER
 10
18.4002418853
 20
13.7615942029
 11
18.0167312634
 21
13.7615942029
  0
LINE
  5
23C
100
AcDbEntity
  8
0
100
AcDbLine
 62
7
  6
BYLAYER
 10
17.139536824
 20
13.7615942029
 11
16.750089542
 21
13.7615942029
  0
LINE
  5
23D
100
AcDbEntity
  8
0
100
AcDbLine
 62
7
  6
BYLAYER
 10
15.9778216368
 20
13.7615942029
 11
15.5949548507
 21
13.7615942029
  0
LINE
  5
23E
100
AcDbEntity
  8
0
100
AcDbLine
 62
7
  6
BYLAYER
 10
14.9524348057
 20
13.7615942029
 11
14.588454169
 21
13.7615942029
  0
LINE
  5
23F
100
AcDbEntity
  8
0
100
AcDbLine
 62
7
  6
BYLAYER
 10
14.2194167226
 20
13.7615942029
 11
14.1512671258
 21
13.7615942029
  0
LINE
  5
240
100
AcDbEntity
  8
0
100
AcDbLine
 62
7
  6
BYLAYER
 10
14.0963331071
 20
13.7615942029
 11
13.762937257
 21
13.7615942029
  0
LINE
  5
241
100
AcDbEntity
  8
0
100
AcDbLine
 62
7
  6
BYLAYER
 10
13.7406009229
 20
13.7615942029
 11
12.6036298869
 21
13.7615942029
  0
LINE
  5
242
100
AcDbEntity
  8
0
100
AcDbLine
 62
7
  6
BYLAYER
 10
28.7194167226
 20
14.4615942029
 11
11.7194167226
 21
14.4615942029
  0
LINE
  5
243
100
AcDbEntity
  8
0
100
AcDbLine
 62
7
  6
BYLAYER
 10
18.8905441297
 20
10.7149897363
 11
18.8852504633
 21
10.7195478887
  0
LINE
  5
244
100
AcDbEntity
  8
0
100
AcDbLine
 62
7
  6
BYLAYER
 10
20.2194167226
 20
10.6615942029
 11
19.7194167226
 21
11.1615942029
  0
LINE
  5
245
100
AcDbEntity
  8
0
100
AcDbLine
 62
7
  6
BYLAYER
 10
11.7194167226
 20
17.4615942029
 11
28.7194167226
 21
17.4615942029
  0
LINE
  5
246
100
AcDbEntity
  8
0
100
AcDbLine
 62
7
  6
BYLAYER
 10
12.4144167226
 20
14.4615942029
 11
12.5600831911
 21
13.9179595416
  0
LINE
  5
247
100
AcDbEntity
  8
0
100
AcDbLine
 62
7
  6
BYLAYER
 10
11.7194167226
 20
17.4615942029
 11
11.7194167226
 21
14.4615942029
  0
LINE
  5
248
100
AcDbEntity
  8
0
100
AcDbLine
 62
7
  6
BYLAYER
 10
11.7194167226
 20
7.4615942029
 11
11.7194167226
 21
10.4615942029
  0
LINE
  5
249
100
AcDbEntity
  8
0
100
AcDbLine
 62
7
  6
BYLAYER
 10
15.0486417975
 20
51.4615942029
 11
14.8194167226
 21
50.1615942029
  0
LINE
  5
24A
100
AcDbEntity
  8
0
100
AcDbLine
 62
7
  6
BYLAYER
 10
21.5535834833
 20
14.2036406445
 11
21.5482896017
 21
14.2081989464
  0
LINE
  5
24B
100
AcDbEntity
  8
0
100
AcDbLine
 62
7
  6
BYLAYER
 10
20.2194167226
 20
14.2615942029
 11
20.7194167226
 21
13.7615942029
  0
LINE
  5
24C
100
AcDbEntity
  8
0
100
AcDbLine
 62
7
  6
BYLAYER
 10
12.1524297122
 20
8.0820974605
 11
12.1524294286
 21
9.841085762
  0
LINE
  5
24D
100
AcDbEntity
  8
0
100
AcDbLine
 62
7
  6
BYLAYER
 10
12.1524298715
 20
16.8410867618
 11
12.1524294515
 21
15.0821016093
  0
LINE
  5
24E
100
AcDbEntity
  8
0
100
AcDbLine
 62
7
  6
BYLAYER
 10
14.4194167226
 20
32.4615942029
 11
14.2194167226
 21
32.2615942029
  0
LINE
  5
24F
100
AcDbEntity
  8
0
100
AcDbLine
 62
7
  6
BYLAYER
 10
25.5694167226
 20
42.7115942029
 11
26.2194167226
 21
43.3615942029
  0
LINE
  5
250
100
AcDbEntity
  8
0
100
AcDbLine
 62
7
  6
BYLAYER
 10
26.1443851735
 20
13.9899181614
 11
26.0857554187
 21
14.0323554815
  0
LINE
  5
251
100
AcDbEntity
  8
0
100
AcDbLine
 62
7
  6
BYLAYER
 10
14.2194167226
 20
5.0615942029
 11
14.2194167226
 21
7.4615942029
  0
LINE
  5
252
100
AcDbEntity
  8
0
100
AcDbLine
 62
7
  6
BYLAYER
 10
14.2194167226
 20
11.0190620711
 11
14.2194167226
 21
13.9041264204
  0
LINE
  5
253
100
AcDbEntity
  8
0
100
AcDbLine
 62
7
  6
BYLAYER
 10
14.2194167226
 20
17.4615942029
 11
14.2194167226
 21
32.2615942029
  0
LINE
  5
254
100
AcDbEntity
  8
0
100
AcDbLine
 62
7
  6
BYLAYER
 10
14.2194167226
 20
43.3615942029
 11
14.2194167226
 21
48.8615942029
  0
LINE
  5
255
100
AcDbEntity
  8
0
100
AcDbLine
 62
7
  6
BYLAYER
 10
14.7194167226
 20
39.4615970682
 11
14.7194167226
 21
40.4615913376
  0
LINE
  5
256
100
AcDbEntity
  8
0
100
AcDbLine
 62
7
  6
BYLAYER
 10
14.8194167226
 20
49.9615942029
 11
14.8194167226
 21
50.1615942029
  0
LINE
  5
257
100
AcDbEntity
  8
0
100
AcDbLine
 62
7
  6
BYLAYER
 10
14.8694167226
 20
34.028581501
 11
14.8694167226
 21
39.4615942029
  0
LINE
  5
258
100
AcDbEntity
  8
0
100
AcDbLine
 62
7
  6
BYLAYER
 10
14.8694167226
 20
40.4615942029
 11
14.8694167226
 21
42.7115942029
  0
LINE
  5
259
100
AcDbEntity
  8
0
100
AcDbLine
 62
7
  6
BYLAYER
 10
14.8694167226
 20
49.5115942029
 11
14.8694167226
 21
49.9615942029
  0
LINE
  5
25A
100
AcDbEntity
  8
0
100
AcDbLine
 62
7
  6
BYLAYER
 10
14.9694167226
 20
4.6615942029
 11
14.9694167226
 21
4.8615942029
  0
LINE
  5
25B
100
AcDbEntity
  8
0
100
AcDbLine
 62
7
  6
BYLAYER
 10
26.6982326233
 20
13.7615942029
 11
26.6867425083
 21
13.7758977553
  0
LINE
  5
25C
100
AcDbEntity
  8
0
100
AcDbLine
 62
7
  6
BYLAYER
 10
12.4144167226
 20
10.4615942029
 11
12.5600831488
 21
11.0052287063
  0
LINE
  5
25D
100
AcDbEntity
  8
0
100
AcDbLine
 62
7
  6
BYLAYER
 10
15.6194167226
 20
32.4615942029
 11
15.0033913188
 21
33.528581501
  0
LINE
  5
25E
100
AcDbEntity
  8
0
100
AcDbLine
 62
7
  6
BYLAYER
 10
19.4965751079
 20
4.6615942029
 11
19.4965751079
 21
4.8615942029
  0
LINE
  5
25F
100
AcDbEntity
  8
0
100
AcDbLine
 62
7
  6
BYLAYER
 10
19.786403559
 20
16.8410867625
 11
19.7864040141
 21
15.0821016061
  0
LINE
  5
260
100
AcDbEntity
  8
0
100
AcDbLine
 62
7
  6
BYLAYER
 10
19.7864035719
 20
8.0821016402
 11
19.7864039934
 21
9.8410867997
  0
LINE
  5
261
100
AcDbEntity
  8
0
100
AcDbLine
 62
7
  6
BYLAYER
 10
20.4792244446
 20
8.1362008393
 11
20.4792243407
 21
9.7869927627
  0
LINE
  5
262
100
AcDbEntity
  8
0
100
AcDbLine
 62
7
  6
BYLAYER
 10
20.4792244624
 20
16.786991759
 11
20.4792243512
 21
15.1361966882
  0
LINE
  5
263
100
AcDbEntity
  8
0
100
AcDbLine
 62
7
  6
BYLAYER
 10
20.9422583373
 20
4.8615942029
 11
20.9422583373
 21
4.6615942029
  0
LINE
  5
264
100
AcDbEntity
  8
0
100
AcDbLine
 62
7
  6
BYLAYER
 10
24.8194167226
 20
32.4615942029
 11
25.4354421264
 21
33.528581501
  0
LINE
  5
265
100
AcDbEntity
  8
0
100
AcDbLine
 62
7
  6
BYLAYER
 10
28.0244167226
 20
10.4615942029
 11
27.8787502558
 21
11.0052288578
  0
LINE
  5
266
100
AcDbEntity
  8
0
100
AcDbLine
 62
7
  6
BYLAYER
 10
13.7406009257
 20
13.7615942029
 11
13.7520491985
 21
13.7759050517
  0
LINE
  5
267
100
AcDbEntity
  8
0
100
AcDbLine
 62
7
  6
BYLAYER
 10
14.2194167226
 20
32.2615942029
 11
26.2194167226
 21
32.2615942029
  0
LINE
  5
268
100
AcDbEntity
  8
0
100
AcDbLine
 62
7
  6
BYLAYER
 10
14.4195032067
 20
32.4615942029
 11
26.0193302385
 21
32.4615942029
  0
LINE
  5
269
100
AcDbEntity
  8
0
100
AcDbLine
 62
7
  6
BYLAYER
 10
25.4694167226
 20
4.6615942029
 11
25.4694167226
 21
4.8615942029
  0
LINE
  5
26A
100
AcDbEntity
  8
0
100
AcDbLine
 62
7
  6
BYLAYER
 10
25.5694167226
 20
34.028581501
 11
25.5694167226
 21
42.7115942029
  0
LINE
  5
26B
100
AcDbEntity
  8
0
100
AcDbLine
 62
7
  6
BYLAYER
 10
25.5694167226
 20
49.5115942029
 11
25.5694167226
 21
49.9615942029
  0
LINE
  5
26C
100
AcDbEntity
  8
0
100
AcDbLine
 62
7
  6
BYLAYER
 10
25.6194167226
 20
49.9615942029
 11
25.6194167226
 21
50.1615942029
  0
LINE
  5
26D
100
AcDbEntity
  8
0
100
AcDbLine
 62
7
  6
BYLAYER
 10
26.2194167226
 20
5.0615942029
 11
26.2194167226
 21
7.4615942029
  0
LINE
  5
26E
100
AcDbEntity
  8
0
100
AcDbLine
 62
7
  6
BYLAYER
 10
26.2194167226
 20
11.0190619854
 11
26.2194167226
 21
13.9041263347
  0
LINE
  5
26F
100
AcDbEntity
  8
0
100
AcDbLine
 62
7
  6
BYLAYER
 10
26.2194167226
 20
17.4615942029
 11
26.2194167226
 21
32.2615942029
  0
LINE
  5
270
100
AcDbEntity
  8
0
100
AcDbLine
 62
7
  6
BYLAYER
 10
26.2194167226
 20
43.3615942029
 11
26.2194167226
 21
48.8615942029
  0
LINE
  5
271
100
AcDbEntity
  8
0
100
AcDbLine
 62
7
  6
BYLAYER
 10
15.0033913188
 20
33.528581501
 11
25.4354421264
 21
33.528581501
  0
LINE
  5
272
100
AcDbEntity
  8
0
100
AcDbLine
 62
7
  6
BYLAYER
 10
25.5694167226
 20
34.028581501
 11
14.8694167226
 21
34.028581501
  0
LINE
  5
273
100
AcDbEntity
  8
0
100
AcDbLine
 62
7
  6
BYLAYER
 10
14.8694167226
 20
42.7115942029
 11
14.2194167226
 21
43.3615942029
  0
LINE
  5
274
100
AcDbEntity
  8
0
100
AcDbLine
 62
7
  6
BYLAYER
 10
28.4596090633
 20
16.7869917601
 11
28.4596091026
 21
15.1361966873
  0
LINE
  5
275
100
AcDbEntity
  8
0
100
AcDbLine
 62
7
  6
BYLAYER
 10
28.4596089819
 20
8.1361966457
 11
28.4596090939
 21
9.7869917184
  0
LINE
  5
276
100
AcDbEntity
  8
0
100
AcDbLine
 62
7
  6
BYLAYER
 10
28.7194167226
 20
7.4615942029
 11
28.7194167226
 21
10.4615942029
  0
LINE
  5
277
100
AcDbEntity
  8
0
100
AcDbLine
 62
7
  6
BYLAYER
 10
28.7194167226
 20
14.4615942029
 11
28.7194167226
 21
17.4615942029
  0
LINE
  5
278
100
AcDbEntity
  8
0
100
AcDbLine
 62
7
  6
BYLAYER
 10
14.3530342481
 20
14.0323996075
 11
14.2944471964
 21
13.9899173831
  0
LINE
  5
279
100
AcDbEntity
  8
0
100
AcDbLine
 62
7
  6
BYLAYER
 10
26.0194167226
 20
32.4615942029
 11
26.2194167226
 21
32.2615942029
  0
LINE
  5
27A
100
AcDbEntity
  8
0
100
AcDbLine
 62
7
  6
BYLAYER
 10
20.2194167226
 20
14.2615942029
 11
19.7194167226
 21
13.7615942029
  0
LINE
  5
27B
100
AcDbEntity
  8
0
100
AcDbLine
 62
7
  6
BYLAYER
 10
18.8905719842
 20
14.208243662
 11
18.8852761364
 21
14.2036825987
  0
LINE
  5
27C
100
AcDbEntity
  8
0
100
AcDbLine
 62
7
  6
BYLAYER
 10
25.3901916477
 20
51.4615942029
 11
25.6194167226
 21
50.1615942029
  0
LINE
  5
27D
100
AcDbEntity
  8
0
100
AcDbLine
 62
7
  6
BYLAYER
 10
28.0244167226
 20
14.4615942029
 11
27.8787503373
 21
13.9179598518
  0
LINE
  5
27E
100
AcDbEntity
  8
0
100
AcDbLine
 62
7
  6
BYLAYER
 10
14.8694167226
 20
39.4615942029
 11
14.7194167226
 21
39.4615942029
  0
LINE
  5
27F
100
AcDbEntity
  8
0
100
AcDbLine
 62
7
  6
BYLAYER
 10
20.2194167226
 20
10.6615942029
 11
20.7194167226
 21
11.1615942029
  0
LINE
  5
280
100
AcDbEntity
  8
0
100
AcDbLine
 62
7
  6
BYLAYER
 10
14.8694167226
 20
40.4615942029
 11
14.7194167226
 21
40.4615942029
  0
LINE
  5
281
100
AcDbEntity
  8
0
100
AcDbLine
 62
7
  6
BYLAYER
 10
21.5535559113
 20
10.7195049388
 11
21.5482606386
 21
10.7149442923
  0
LINE
  5
282
100
AcDbEntity
  8
0
100
AcDbLine
 62
7
  6
BYLAYER
 10
14.8694167226
 20
42.7115942029
 11
25.5694167226
 21
42.7115942029
  0
LINE
  5
283
100
AcDbEntity
  8
0
100
AcDbLine
 62
7
  6
BYLAYER
 10
26.6982325197
 20
11.1615942029
 11
26.6867842467
 21
11.147283354
  0
LINE
  5
284
100
AcDbEntity
  8
0
100
AcDbLine
 62
7
  6
BYLAYER
 10
26.2194167226
 20
43.3615942029
 11
14.2194167226
 21
43.3615942029
  0
LINE
  5
285
100
AcDbEntity
  8
0
100
AcDbLine
 62
7
  6
BYLAYER
 10
26.1443853695
 20
10.9332700185
 11
26.0857996105
 21
10.8907882544
  0
LINE
  5
286
100
AcDbEntity
  8
0
100
AcDbLine
 62
7
  6
BYLAYER
 10
25.5694167226
 20
49.5115942029
 11
26.2194167226
 21
48.8615942029
  0
LINE
  5
287
100
AcDbEntity
  8
0
100
AcDbLine
 62
7
  6
BYLAYER
 10
26.0194167226
 20
4.8615942029
 11
26.2194167226
 21
5.0615942029
  0
LINE
  5
288
100
AcDbEntity
  8
0
100
AcDbLine
 62
7
  6
BYLAYER
 10
14.2194167226
 20
48.8615942029
 11
26.2194167226
 21
48.8615942029
  0
LINE
  5
289
100
AcDbEntity
  8
0
100
AcDbLine
 62
7
  6
BYLAYER
 10
25.5694167226
 20
49.5115942029
 11
14.8694167226
 21
49.5115942029
  0
LINE
  5
28A
100
AcDbEntity
  8
0
100
AcDbLine
 62
7
  6
BYLAYER
 10
25.6194035946
 20
49.9615942029
 11
14.8194298505
 21
49.9615942029
  0
LINE
  5
28B
100
AcDbEntity
  8
0
100
AcDbLine
 62
7
  6
BYLAYER
 10
14.8194167226
 20
50.1615942029
 11
25.6194167226
 21
50.1615942029
  0
LINE
  5
28C
100
AcDbEntity
  8
0
100
AcDbLine
 62
7
  6
BYLAYER
 10
15.0486612028
 20
51.4615942029
 11
25.3901722424
 21
51.4615942029
  0
ARC
  5
28D
100
AcDbEntity
  8
0
100
AcDbCircle
 62
7
  6
BYLAYER
 10
-78.3689715716
 20
-101.8066150471
 40
153.1107472961
100
AcDbArc
 50
49.1384474386
 51
49.2608686486
  0
ARC
  5
28E
100
AcDbEntity
  8
0
100
AcDbCircle
 62
7
  6
BYLAYER
 10
-67.5605796055
 20
-79.157227092
 40
129.0810552493
100
AcDbArc
 50
46.0419847939
 51
46.1881841947
  0
ARC
  5
28F
100
AcDbEntity
  8
0
100
AcDbCircle
 62
7
  6
BYLAYER
 10
-34.6099295993
 20
-59.5314899008
 40
93.4412798085
100
AcDbArc
 50
51.889261406
 51
52.0607116498
  0
ARC
  5
290
100
AcDbEntity
  8
0
100
AcDbCircle
 62
7
  6
BYLAYER
 10
-18.7206661375
 20
-44.1093281333
 40
72.2505862206
100
AcDbArc
 50
53.526828209
 51
53.699939409
  0
ARC
  5
291
100
AcDbEntity
  8
0
100
AcDbCircle
 62
7
  6
BYLAYER
 10
-22.5481126805
 20
-33.9550926162
 40
66.1730091545
100
AcDbArc
 50
46.144535893
 51
46.4306182219
  0
ARC
  5
292
100
AcDbEntity
  8
0
100
AcDbCircle
 62
7
  6
BYLAYER
 10
-9.5288313816
 20
-34.2779295938
 40
59.5027063647
100
AcDbArc
 50
54.2121097945
 51
54.3558690771
  0
ARC
  5
293
100
AcDbEntity
  8
0
100
AcDbCircle
 62
7
  6
BYLAYER
 10
-6.1197537756
 20
-17.1569364703
 40
43.4872252805
100
AcDbArc
 50
45.3146754642
 51
45.744091637
  0
ARC
  5
294
100
AcDbEntity
  8
0
100
AcDbCircle
 62
7
  6
BYLAYER
 10
3.024728323
 20
-7.5505906811
 40
30.9634600432
100
AcDbArc
 50
43.4957794726
 51
44.0810401469
  0
ARC
  5
295
100
AcDbEntity
  8
0
100
AcDbCircle
 62
7
  6
BYLAYER
 10
9.067836966
 20
-1.0274013629
 40
22.7404569958
100
AcDbArc
 50
40.5671310843
 51
41.3287814563
  0
ARC
  5
296
100
AcDbEntity
  8
0
100
AcDbCircle
 62
7
  6
BYLAYER
 10
13.3436993797
 20
3.7109290017
 40
16.9575827663
100
AcDbArc
 50
36.3484486416
 51
37.2640280484
  0
ARC
  5
297
100
AcDbEntity
  8
0
100
AcDbCircle
 62
7
  6
BYLAYER
 10
18.8269185908
 20
0.0888048397
 40
16.7797366197
100
AcDbArc
 50
84.3489091163
 51
86.7219722936
  0
ARC
  5
298
100
AcDbEntity
  8
0
100
AcDbCircle
 62
7
  6
BYLAYER
 10
18.8268522153
 20
-6.9110472052
 40
16.7795969085
100
AcDbArc
 50
84.348634514
 51
86.7217163958
  0
ARC
  5
299
100
AcDbEntity
  8
0
100
AcDbCircle
 62
7
  6
BYLAYER
 10
16.3822286603
 20
7.2137481344
 40
12.8536918276
100
AcDbArc
 50
30.6247811463
 51
31.2623800002
  0
ARC
  5
29A
100
AcDbEntity
  8
0
100
AcDbCircle
 62
7
  6
BYLAYER
 10
18.3901573306
 20
10.1499433596
 40
8.5277982135
100
AcDbArc
 50
5.6739423429
 51
6.8130300089
  0
ARC
  5
29B
100
AcDbEntity
  8
0
100
AcDbCircle
 62
7
  6
BYLAYER
 10
19.3901714199
 20
11.6994265226
 40
7.9827444643
100
AcDbArc
 50
355.501718565
 51
356.136806909
  0
ARC
  5
29C
100
AcDbEntity
  8
0
100
AcDbCircle
 62
7
  6
BYLAYER
 10
12.7627038229
 20
10.19593946
 40
6.6731115046
100
AcDbArc
 50
95.2471857639
 51
98.9946319676
  0
ARC
  5
29D
100
AcDbEntity
  8
0
100
AcDbCircle
 62
7
  6
BYLAYER
 10
12.7566570717
 20
3.2447267459
 40
6.6239748878
100
AcDbArc
 50
95.2336981216
 51
99.0089536879
  0
ARC
  5
29E
100
AcDbEntity
  8
0
100
AcDbCircle
 62
7
  6
BYLAYER
 10
15.1694167226
 20
4.6615942029
 40
0.2
100
AcDbArc
 50
180.0
 51
270.0
  0
ARC
  5
29F
100
AcDbEntity
  8
0
100
AcDbCircle
 62
7
  6
BYLAYER
 10
-78.0490032955
 20
126.3593562249
 40
152.6212469023
100
AcDbArc
 50
310.738876747
 51
310.8616911103
  0
ARC
  5
2A0
100
AcDbEntity
  8
0
100
AcDbCircle
 62
7
  6
BYLAYER
 10
-67.5429288071
 20
104.062037369
 40
129.0555738261
100
AcDbArc
 50
313.8118094325
 51
313.9580378228
  0
ARC
  5
2A1
100
AcDbEntity
  8
0
100
AcDbCircle
 62
7
  6
BYLAYER
 10
-34.2645080237
 20
84.0135738325
 40
92.881021963
100
AcDbArc
 50
307.938535745
 51
308.1110209793
  0
ARC
  5
2A2
100
AcDbEntity
  8
0
100
AcDbCircle
 62
7
  6
BYLAYER
 10
-18.4714463128
 20
68.6947307383
 40
71.8308131271
100
AcDbArc
 50
306.2993550648
 51
306.4734820431
  0
ARC
  5
2A3
100
AcDbEntity
  8
0
100
AcDbCircle
 62
7
  6
BYLAYER
 10
-22.5390735926
 20
58.8687996005
 40
66.1599095722
100
AcDbArc
 50
313.5693692389
 51
313.855508412
  0
ARC
  5
2A4
100
AcDbEntity
  8
0
100
AcDbCircle
 62
7
  6
BYLAYER
 10
-9.4069318897
 20
59.0313449107
 40
59.2937036736
100
AcDbArc
 50
305.6440098189
 51
305.7882743982
  0
ARC
  5
2A5
100
AcDbEntity
  8
0
100
AcDbCircle
 62
7
  6
BYLAYER
 10
-6.1137200062
 20
42.07395269
 40
43.478594004
100
AcDbArc
 50
314.2558894444
 51
314.6853911073
  0
ARC
  5
2A6
100
AcDbEntity
  8
0
100
AcDbCircle
 62
7
  6
BYLAYER
 10
3.0291632023
 20
32.4695036015
 40
30.9573001083
100
AcDbArc
 50
315.9189339498
 51
316.5043113426
  0
ARC
  5
2A7
100
AcDbEntity
  8
0
100
AcDbCircle
 62
7
  6
BYLAYER
 10
9.071249643
 20
25.9476064456
 40
22.7359244783
100
AcDbArc
 50
318.6711847092
 51
319.4329871889
  0
ARC
  5
2A8
100
AcDbEntity
  8
0
100
AcDbCircle
 62
7
  6
BYLAYER
 10
13.3471044897
 20
21.2096948
 40
16.9533202589
100
AcDbArc
 50
322.7358961946
 51
323.6517118141
  0
ARC
  5
2A9
100
AcDbEntity
  8
0
100
AcDbCircle
 62
7
  6
BYLAYER
 10
18.8268345944
 20
24.834487781
 40
16.7798444273
100
AcDbArc
 50
273.2782939035
 51
275.6513426697
  0
ARC
  5
2AA
100
AcDbEntity
  8
0
100
AcDbCircle
 62
7
  6
BYLAYER
 10
18.8269158807
 20
31.8343827321
 40
16.7797360052
100
AcDbArc
 50
273.2780386519
 51
275.6511000336
  0
ARC
  5
2AB
100
AcDbEntity
  8
0
100
AcDbCircle
 62
7
  6
BYLAYER
 10
16.4008647246
 20
17.6983307717
 40
12.83199586
100
AcDbArc
 50
328.7368839738
 51
329.3755160555
  0
ARC
  5
2AC
100
AcDbEntity
  8
0
100
AcDbCircle
 62
7
  6
BYLAYER
 10
18.3809159365
 20
14.7742916412
 40
8.5370983934
100
AcDbArc
 50
353.1873531204
 51
354.3251991166
  0
ARC
  5
2AD
100
AcDbEntity
  8
0
100
AcDbCircle
 62
7
  6
BYLAYER
 10
19.3778799088
 20
13.2228680721
 40
7.9950681448
100
AcDbArc
 50
3.8636492726
 51
4.4978432705
  0
ARC
  5
2AE
100
AcDbEntity
  8
0
100
AcDbCircle
 62
7
  6
BYLAYER
 10
12.7623914521
 20
14.7243632449
 40
6.6702134954
100
AcDbArc
 50
261.0041443159
 51
264.7532225884
  0
ARC
  5
2AF
100
AcDbEntity
  8
0
100
AcDbCircle
 62
7
  6
BYLAYER
 10
12.7562765666
 20
21.6757918091
 40
6.6212824903
100
AcDbArc
 50
260.9906862703
 51
264.7674741706
  0
ARC
  5
2B0
100
AcDbEntity
  8
0
100
AcDbCircle
 62
7
  6
BYLAYER
 10
15.8694167226
 20
34.028581501
 40
1.0
100
AcDbArc
 50
180.0
 51
210.0
  0
ARC
  5
2B1
100
AcDbEntity
  8
0
100
AcDbCircle
 62
7
  6
BYLAYER
 10
117.7010321542
 20
-100.5244217801
 40
151.4169461181
100
AcDbArc
 50
130.7384466378
 51
130.8622377434
  0
ARC
  5
2B2
100
AcDbEntity
  8
0
100
AcDbCircle
 62
7
  6
BYLAYER
 10
107.9815959418
 20
-79.1386763695
 40
129.0553341436
100
AcDbArc
 50
133.8118098421
 51
133.9580378603
  0
ARC
  5
2B3
100
AcDbEntity
  8
0
100
AcDbCircle
 62
7
  6
BYLAYER
 10
74.4680603218
 20
-58.7888921638
 40
92.4985894889
100
AcDbArc
 50
127.9384134077
 51
128.1116132691
  0
ARC
  5
2B4
100
AcDbEntity
  8
0
100
AcDbCircle
 62
7
  6
BYLAYER
 10
58.749633065
 20
-43.5531256349
 40
71.5596805264
100
AcDbArc
 50
126.2992212583
 51
126.4740090603
  0
ARC
  5
2B5
100
AcDbEntity
  8
0
100
AcDbCircle
 62
7
  6
BYLAYER
 10
62.9778215375
 20
-33.9455220854
 40
66.1597860782
100
AcDbArc
 50
133.5693700394
 51
133.8555084858
  0
ARC
  5
2B6
100
AcDbEntity
  8
0
100
AcDbCircle
 62
7
  6
BYLAYER
 10
49.968270854
 20
-34.2787713051
 40
59.5037435484
100
AcDbArc
 50
125.64413386
 51
125.7878908929
  0
ARC
  5
2B7
100
AcDbEntity
  8
0
100
AcDbCircle
 62
7
  6
BYLAYER
 10
46.5524961474
 20
-17.1507062268
 40
43.4785124294
100
AcDbArc
 50
134.2558906442
 51
134.685391219
  0
ARC
  5
2B8
100
AcDbEntity
  8
0
100
AcDbCircle
 62
7
  6
BYLAYER
 10
37.4096279758
 20
-7.5462749775
 40
30.9572417644
100
AcDbArc
 50
135.9189355832
 51
136.5043114959
  0
ARC
  5
2B9
100
AcDbEntity
  8
0
100
AcDbCircle
 62
7
  6
BYLAYER
 10
31.3675511826
 20
-1.0243900091
 40
22.7358814694
100
AcDbArc
 50
138.6711868328
 51
139.4329873895
  0
ARC
  5
2BA
100
AcDbEntity
  8
0
100
AcDbCircle
 62
7
  6
BYLAYER
 10
27.0917088994
 20
3.7135084341
 40
16.9532953163
100
AcDbArc
 50
142.7358950323
 51
143.6517120031
  0
ARC
  5
2BB
100
AcDbEntity
  8
0
100
AcDbCircle
 62
7
  6
BYLAYER
 10
24.0379739832
 20
7.224854498
 40
12.8320019862
100
AcDbArc
 50
148.7368841991
 51
149.3755159756
  0
ARC
  5
2BC
100
AcDbEntity
  8
0
100
AcDbCircle
 62
7
  6
BYLAYER
 10
22.0579121183
 20
10.1488974294
 40
8.5370929622
100
AcDbArc
 50
173.1873532594
 51
174.3251999771
  0
ARC
  5
2BD
100
AcDbEntity
  8
0
100
AcDbCircle
 62
7
  6
BYLAYER
 10
20.5554561149
 20
8.8627864883
 40
8.2774428325
100
AcDbArc
 50
163.8758525206
 51
164.9994077136
  0
ARC
  5
2BE
100
AcDbEntity
  8
0
100
AcDbCircle
 62
7
  6
BYLAYER
 10
19.8912074972
 20
8.8649979807
 40
8.2693063571
100
AcDbArc
 50
14.9998344385
 51
16.1244948734
  0
ARC
  5
2BF
100
AcDbEntity
  8
0
100
AcDbCircle
 62
7
  6
BYLAYER
 10
21.0609710682
 20
11.7003215922
 40
7.9950857217
100
AcDbArc
 50
183.8636498049
 51
184.4978424087
  0
ARC
  5
2C0
100
AcDbEntity
  8
0
100
AcDbCircle
 62
7
  6
BYLAYER
 10
29.1005399375
 20
10.563377983
 40
2.5103797979
100
AcDbArc
 50
255.2079080202
 51
261.2676489708
  0
ARC
  5
2C1
100
AcDbEntity
  8
0
100
AcDbCircle
 62
7
  6
BYLAYER
 10
29.0934424707
 20
7.393894536
 40
2.4756087834
100
AcDbArc
 50
98.689771531
 51
104.8347038975
  0
ARC
  5
2C2
100
AcDbEntity
  8
0
100
AcDbCircle
 62
7
  6
BYLAYER
 10
25.2694167226
 20
4.6615942029
 40
0.2
100
AcDbArc
 50
270.0
 51
360.0
  0
ARC
  5
2C3
100
AcDbEntity
  8
0
100
AcDbCircle
 62
7
  6
BYLAYER
 10
117.3132841293
 20
124.9983347498
 40
150.8234843762
100
AcDbArc
 50
229.1374994302
 51
229.2617797994
  0
ARC
  5
2C4
100
AcDbEntity
  8
0
100
AcDbCircle
 62
7
  6
BYLAYER
 10
107.9987285785
 20
104.079705235
 40
129.0800688541
100
AcDbArc
 50
226.0419846612
 51
226.1881825537
  0
ARC
  5
2C5
100
AcDbEntity
  8
0
100
AcDbCircle
 62
7
  6
BYLAYER
 10
73.7991301546
 20
82.8564384578
 40
91.4125006184
100
AcDbArc
 50
231.8872697468
 51
232.0625282463
  0
ARC
  5
2C6
100
AcDbEntity
  8
0
100
AcDbCircle
 62
7
  6
BYLAYER
 10
58.1264131909
 20
67.6296302892
 40
70.5083607402
100
AcDbArc
 50
233.5242236707
 51
233.7016172167
  0
ARC
  5
2C7
100
AcDbEntity
  8
0
100
AcDbCircle
 62
7
  6
BYLAYER
 10
62.9865941523
 20
58.877914261
 40
66.172500825
100
AcDbArc
 50
226.1445356309
 51
226.4306150155
  0
ARC
  5
2C8
100
AcDbEntity
  8
0
100
AcDbCircle
 62
7
  6
BYLAYER
 10
50.0902477121
 20
59.3697148437
 40
59.7111537858
100
AcDbArc
 50
234.2112940005
 51
234.3545562847
  0
ARC
  5
2C9
100
AcDbEntity
  8
0
100
AcDbCircle
 62
7
  6
BYLAYER
 10
46.5583513828
 20
42.079886005
 40
43.4868896036
100
AcDbArc
 50
225.3146750674
 51
225.7440868305
  0
ARC
  5
2CA
100
AcDbEntity
  8
0
100
AcDbCircle
 62
7
  6
BYLAYER
 10
37.4139311838
 20
32.4736136439
 40
30.9632199891
100
AcDbArc
 50
223.4957789277
 51
224.081033604
  0
ARC
  5
2CB
100
AcDbEntity
  8
0
100
AcDbCircle
 62
7
  6
BYLAYER
 10
31.3708622671
 20
25.9504744958
 40
22.7402800758
100
AcDbArc
 50
220.567130371
 51
221.3287729499
  0
ARC
  5
2CC
100
AcDbEntity
  8
0
100
AcDbCircle
 62
7
  6
BYLAYER
 10
27.0950504015
 20
21.2121975976
 40
16.9574787484
100
AcDbArc
 50
216.3484479881
 51
217.2640330278
  0
ARC
  5
2CD
100
AcDbEntity
  8
0
100
AcDbCircle
 62
7
  6
BYLAYER
 10
24.0566265495
 20
17.7094532415
 40
12.8537171636
100
AcDbArc
 50
210.6247814758
 51
211.2623790717
  0
ARC
  5
2CE
100
AcDbEntity
  8
0
100
AcDbCircle
 62
7
  6
BYLAYER
 10
22.0486747585
 20
14.7732448793
 40
8.5277968473
100
AcDbArc
 50
185.6739421276
 51
186.813029976
  0
ARC
  5
2CF
100
AcDbEntity
  8
0
100
AcDbCircle
 62
7
  6
BYLAYER
 10
19.8833772959
 20
16.060401927
 40
8.2774428681
100
AcDbArc
 50
343.8758525239
 51
344.9994077121
  0
ARC
  5
2D0
100
AcDbEntity
  8
0
100
AcDbCircle
 62
7
  6
BYLAYER
 10
20.547625879
 20
16.0581904058
 40
8.2693062854
100
AcDbArc
 50
194.9998344336
 51
196.1244948783
  0
ARC
  5
2D1
100
AcDbEntity
  8
0
100
AcDbCircle
 62
7
  6
BYLAYER
 10
21.0486662849
 20
13.2237615776
 40
7.9827487349
100
AcDbArc
 50
175.5017187757
 51
176.13680678
  0
ARC
  5
2D2
100
AcDbEntity
  8
0
100
AcDbCircle
 62
7
  6
BYLAYER
 10
29.1007286272
 20
14.3587598281
 40
2.5114427349
100
AcDbArc
 50
98.7329815152
 51
104.7901408145
  0
ARC
  5
2D3
100
AcDbEntity
  8
0
100
AcDbCircle
 62
7
  6
BYLAYER
 10
29.0932052455
 20
17.528292417
 40
2.474584016
100
AcDbArc
 50
255.1646937712
 51
261.3121584581
  0
ARC
  5
2D4
100
AcDbEntity
  8
0
100
AcDbCircle
 62
7
  6
BYLAYER
 10
24.5694167226
 20
34.028581501
 40
1.0
100
AcDbArc
 50
330.0
 51
360.0
  0
SPLINE
  5
2D5
100
AcDbEntity
  8
0
100
AcDbSpline
 62
7
  6
BYLAYER
 70
0
 71
3
 72
11
 73
7
 74
0
 42
0.0000001
 43
0.0000001
 44
0.0000000001
 40
0.0
 40
0.0
 40
0.0
 40
0.0
 40
0.2512111438
 40
0.5014749859
 40
0.750962354
 40
1.0
 40
1.0
 40
1.0
 40
1.0
 10
19.7864039934
 20
15.0821016061
 30
0.0
 10
19.4757333674
 20
14.9867624004
 30
0.0
 10
18.8502443995
 20
14.8130863078
 30
0.0
 10
17.8984221193
 20
14.6147572652
 30
0.0
 10
16.9368145477
 20
14.4900591428
 30
0.0
 10
16.2915766085
 20
14.4615948383
 30
0.0
 10
15.9694178142
 20
14.4615949329
 30
0.0
  0
SPLINE
  5
2D6
100
AcDbEntity
  8
0
100
AcDbSpline
 62
7
  6
BYLAYER
 70
0
 71
3
 72
13
 73
9
 74
0
 42
0.0000001
 43
0.0000001
 44
0.0000000001
 40
0.0
 40
0.0
 40
0.0
 40
0.0
 40
0.1244617198
 40
0.2489956025
 40
0.3736474287
 40
0.498470876
 40
0.7487325985
 40
1.0
 40
1.0
 40
1.0
 40
1.0
 10
24.4694167323
 20
14.4615949329
 30
0.0
 10
24.3008676207
 20
14.4615948534
 30
0.0
 10
23.9636212635
 20
14.4693462851
 30
0.0
 10
23.4586406862
 20
14.5039173844
 30
0.0
 10
22.9551845023
 20
14.5607663132
 30
0.0
 10
22.2863222633
 20
14.6649367261
 30
0.0
 10
21.4565973724
 20
14.8450300313
 30
0.0
 10
20.8035240123
 20
15.0331671473
 30
0.0
 10
20.4792243512
 20
15.1361966882
 30
0.0
  0
SPLINE
  5
2D7
100
AcDbEntity
  8
0
100
AcDbSpline
 62
7
  6
BYLAYER
 70
0
 71
3
 72
13
 73
9
 74
0
 42
0.0000001
 43
0.0000001
 44
0.0000000001
 40
0.0
 40
0.0
 40
0.0
 40
0.0
 40
0.1244617199
 40
0.2489956026
 40
0.3736474287
 40
0.4984708761
 40
0.7487325986
 40
1.0
 40
1.0
 40
1.0
 40
1.0
 10
24.4694167384
 20
17.4615934728
 30
0.0
 10
24.6379658441
 20
17.461593552
 30
0.0
 10
24.9752121893
 20
17.4538421193
 30
0.0
 10
25.4801927486
 20
17.4192710205
 30
0.0
 10
25.9836489148
 20
17.3624220951
 30
0.0
 10
26.6525111309
 20
17.2582516916
 30
0.0
 10
27.4822359918
 20
17.0781583923
 30
0.0
 10
28.135309332
 20
16.8900212955
 30
0.0
 10
28.4596089819
 20
16.7869917601
 30
0.0
  0
SPLINE
  5
2D8
100
AcDbEntity
  8
0
100
AcDbSpline
 62
7
  6
BYLAYER
 70
0
 71
3
 72
11
 73
7
 74
0
 42
0.0000001
 43
0.0000001
 44
0.0000000001
 40
0.0
 40
0.0
 40
0.0
 40
0.0
 40
0.2512111827
 40
0.5014750178
 40
0.7509623394
 40
1.0
 40
1.0
 40
1.0
 40
1.0
 10
12.1524298715
 20
16.8410867618
 30
0.0
 10
12.4631004114
 20
16.9364259327
 30
0.0
 10
13.0885883985
 20
17.1101043664
 30
0.0
 10
14.0404103446
 20
17.3084342766
 30
0.0
 10
15.0020183336
 20
17.4331240079
 30
0.0
 10
15.6472555964
 20
17.4615935526
 30
0.0
 10
15.9694142679
 20
17.4615935552
 30
0.0
  0
SPLINE
  5
2D9
100
AcDbEntity
  8
0
100
AcDbSpline
 62
7
  6
BYLAYER
 70
0
 71
3
 72
11
 73
7
 74
0
 42
0.0000001
 43
0.0000001
 44
0.0000000001
 40
0.0
 40
0.0
 40
0.0
 40
0.0
 40
0.2490347821
 40
0.498518101
 40
0.7487836679
 40
1.0
 40
1.0
 40
1.0
 40
1.0
 10
15.9694178142
 20
14.4615949329
 30
0.0
 10
15.6472625736
 20
14.4615947429
 30
0.0
 10
15.0020328717
 20
14.4900475182
 30
0.0
 10
14.0404314582
 20
14.6147524142
 30
0.0
 10
13.088610506
 20
14.8131039845
 30
0.0
 10
12.4631066394
 20
14.9867603896
 30
0.0
 10
12.1524294515
 20
15.0821016093
 30
0.0
  0
SPLINE
  5
2DA
100
AcDbEntity
  8
0
100
AcDbSpline
 62
7
  6
BYLAYER
 70
0
 71
3
 72
13
 73
9
 74
0
 42
0.0000001
 43
0.0000001
 44
0.0000000001
 40
0.0
 40
0.0
 40
0.0
 40
0.0
 40
0.2512674338
 40
0.5015291654
 40
0.6263526184
 40
0.751004442
 40
0.8755382953
 40
1.0
 40
1.0
 40
1.0
 40
1.0
 10
28.4596090939
 20
15.1361966873
 30
0.0
 10
28.1353093929
 20
15.0331671336
 30
0.0
 10
27.4822360247
 20
14.8450298435
 30
0.0
 10
26.6525110265
 20
14.6649367433
 30
0.0
 10
25.9836487755
 20
14.5607663242
 30
0.0
 10
25.4801926199
 20
14.5039174981
 30
0.0
 10
24.9752121201
 20
14.4693462516
 30
0.0
 10
24.6379658225
 20
14.4615948536
 30
0.0
 10
24.4694167323
 20
14.4615949329
 30
0.0
  0
SPLINE
  5
2DB
100
AcDbEntity
  8
0
100
AcDbSpline
 62
7
  6
BYLAYER
 70
0
 71
3
 72
13
 73
9
 74
0
 42
0.0000001
 43
0.0000001
 44
0.0000000001
 40
0.0
 40
0.0
 40
0.0
 40
0.0
 40
0.2512674337
 40
0.5015291652
 40
0.6263526183
 40
0.7510044419
 40
0.8755382953
 40
1.0
 40
1.0
 40
1.0
 40
1.0
 10
20.4792244624
 20
16.786991759
 30
0.0
 10
20.8035241564
 20
16.8900213083
 30
0.0
 10
21.456597514
 20
17.0781585789
 30
0.0
 10
22.2863224928
 20
17.2582516752
 30
0.0
 10
22.955184729
 20
17.3624220902
 30
0.0
 10
23.4586408734
 20
17.4192709136
 30
0.0
 10
23.963621362
 20
17.4538421566
 30
0.0
 10
24.300867652
 20
17.4615935526
 30
0.0
 10
24.4694167384
 20
17.4615934728
 30
0.0
  0
SPLINE
  5
2DC
100
AcDbEntity
  8
0
100
AcDbSpline
 62
7
  6
BYLAYER
 70
0
 71
3
 72
11
 73
7
 74
0
 42
0.0000001
 43
0.0000001
 44
0.0000000001
 40
0.0
 40
0.0
 40
0.0
 40
0.0
 40
0.2490347938
 40
0.4985180816
 40
0.7487836266
 40
1.0
 40
1.0
 40
1.0
 40
1.0
 10
15.9694142679
 20
17.4615935552
 30
0.0
 10
16.2915696055
 20
17.4615937133
 30
0.0
 10
16.9367991146
 20
17.4331358748
 30
0.0
 10
17.8984015664
 20
17.3084389833
 30
0.0
 10
18.8502229448
 20
17.1100869046
 30
0.0
 10
19.4757262514
 20
16.9364280148
 30
0.0
 10
19.7864035719
 20
16.8410867625
 30
0.0
  0
SPLINE
  5
2DD
100
AcDbEntity
  8
0
100
AcDbSpline
 62
7
  6
BYLAYER
 70
0
 71
3
 72
11
 73
7
 74
0
 42
0.0000001
 43
0.0000001
 44
0.0000000001
 40
0.0
 40
0.0
 40
0.0
 40
0.0
 40
0.2512111826
 40
0.5014750179
 40
0.7509623398
 40
1.0
 40
1.0
 40
1.0
 40
1.0
 10
19.7864035719
 20
8.0821016402
 30
0.0
 10
19.4757331822
 20
7.9867624885
 30
0.0
 10
18.8502454741
 20
7.8130841595
 30
0.0
 10
17.8984239766
 20
7.614754291
 30
0.0
 10
16.9368164418
 20
7.4900645216
 30
0.0
 10
16.2915794753
 20
7.4615949299
 30
0.0
 10
15.9694209521
 20
7.4615949329
 30
0.0
  0
SPLINE
  5
2DE
100
AcDbEntity
  8
0
100
AcDbSpline
 62
7
  6
BYLAYER
 70
0
 71
3
 72
11
 73
7
 74
0
 42
0.0000001
 43
0.0000001
 44
0.0000000001
 40
0.0
 40
0.0
 40
0.0
 40
0.0
 40
0.2512111438
 40
0.501474986
 40
0.750962354
 40
1.0
 40
1.0
 40
1.0
 40
1.0
 10
12.1524294515
 20
9.8410867965
 30
0.0
 10
12.4631000717
 20
9.9364260269
 30
0.0
 10
13.0885890529
 20
10.1101020884
 30
0.0
 10
14.0404113344
 20
10.308431143
 30
0.0
 10
15.0020189117
 20
10.4331292664
 30
0.0
 10
15.6472568542
 20
10.4615935681
 30
0.0
 10
15.9694156502
 20
10.4615934728
 30
0.0
  0
SPLINE
  5
2DF
100
AcDbEntity
  8
0
100
AcDbSpline
 62
7
  6
BYLAYER
 70
0
 71
3
 72
11
 73
7
 74
0
 42
0.0000001
 43
0.0000001
 44
0.0000000001
 40
0.0
 40
0.0
 40
0.0
 40
0.0
 40
0.2490347934
 40
0.4985180811
 40
0.7487836261
 40
1.0
 40
1.0
 40
1.0
 40
1.0
 10
15.9694209521
 20
7.4615949329
 30
0.0
 10
15.6472654677
 20
7.4615946514
 30
0.0
 10
15.0020356517
 20
7.4900523755
 30
0.0
 10
14.0404327592
 20
7.6147492884
 30
0.0
 10
13.0886109123
 20
7.8131013281
 30
0.0
 10
12.463107363
 20
7.9867604441
 30
0.0
 10
12.1524298715
 20
8.0821016469
 30
0.0
  0
SPLINE
  5
2E0
100
AcDbEntity
  8
0
100
AcDbSpline
 62
7
  6
BYLAYER
 70
0
 71
3
 72
13
 73
9
 74
0
 42
0.0000001
 43
0.0000001
 44
0.0000000001
 40
0.0
 40
0.0
 40
0.0
 40
0.0
 40
0.1244617198
 40
0.2489956026
 40
0.3736474287
 40
0.498470876
 40
0.7487325985
 40
1.0
 40
1.0
 40
1.0
 40
1.0
 10
24.4694167384
 20
10.4615934728
 30
0.0
 10
24.637965849
 20
10.461593552
 30
0.0
 10
24.975212204
 20
10.453842119
 30
0.0
 10
25.480192778
 20
10.419271018
 30
0.0
 10
25.9836489583
 20
10.3624220881
 30
0.0
 10
26.6525111954
 20
10.2582516862
 30
0.0
 10
27.4822360694
 20
10.0781583414
 30
0.0
 10
28.1353094511
 20
9.8900213097
 30
0.0
 10
28.4596090939
 20
9.7869917184
 30
0.0
  0
SPLINE
  5
2E1
100
AcDbEntity
  8
0
100
AcDbSpline
 62
7
  6
BYLAYER
 70
0
 71
3
 72
11
 73
7
 74
0
 42
0.0000001
 43
0.0000001
 44
0.0000000001
 40
0.0
 40
0.0
 40
0.0
 40
0.0
 40
0.2490347822
 40
0.4985181009
 40
0.7487836678
 40
1.0
 40
1.0
 40
1.0
 40
1.0
 10
15.9694156502
 20
10.4615934728
 30
0.0
 10
16.2915708891
 20
10.4615936624
 30
0.0
 10
16.9368005889
 20
10.43314089
 30
0.0
 10
17.8984019911
 20
10.3084359712
 30
0.0
 10
18.8502229602
 20
10.1100844802
 30
0.0
 10
19.4757267788
 20
9.936427927
 30
0.0
 10
19.7864039934
 20
9.8410867997
 30
0.0
  0
SPLINE
  5
2E2
100
AcDbEntity
  8
0
100
AcDbSpline
 62
7
  6
BYLAYER
 70
0
 71
3
 72
13
 73
9
 74
0
 42
0.0000001
 43
0.0000001
 44
0.0000000001
 40
0.0
 40
0.0
 40
0.0
 40
0.0
 40
0.2512674338
 40
0.5015291654
 40
0.6263526184
 40
0.751004442
 40
0.8755382953
 40
1.0
 40
1.0
 40
1.0
 40
1.0
 10
20.4792243512
 20
9.7869917176
 30
0.0
 10
20.8035240583
 20
9.8900212592
 30
0.0
 10
21.4565974246
 20
10.0781585702
 30
0.0
 10
22.2863224309
 20
10.2582516612
 30
0.0
 10
22.9551846854
 20
10.3624220851
 30
0.0
 10
23.4586408443
 20
10.4192709112
 30
0.0
 10
23.9636213474
 20
10.453842156
 30
0.0
 10
24.3008676472
 20
10.4615935526
 30
0.0
 10
24.4694167384
 20
10.4615934728
 30
0.0
  0
SPLINE
  5
2E3
100
AcDbEntity
  8
0
100
AcDbSpline
 62
7
  6
BYLAYER
 70
0
 71
3
 72
13
 73
9
 74
0
 42
0.0000001
 43
0.0000001
 44
0.0000000001
 40
0.0
 40
0.0
 40
0.0
 40
0.0
 40
0.2512674337
 40
0.5015291653
 40
0.6263526183
 40
0.7510044419
 40
0.8755382953
 40
1.0
 40
1.0
 40
1.0
 40
1.0
 10
28.4596089819
 20
8.1361966457
 30
0.0
 10
28.1353092859
 20
8.0331671098
 30
0.0
 10
27.4822359397
 20
7.8450298177
 30
0.0
 10
26.6525109633
 20
7.6649367327
 30
0.0
 10
25.9836487317
 20
7.5607663183
 30
0.0
 10
25.4801925905
 20
7.5039174956
 30
0.0
 10
24.9752121055
 20
7.4693462512
 30
0.0
 10
24.6379658177
 20
7.4615948536
 30
0.0
 10
24.4694167323
 20
7.4615949329
 30
0.0
  0
SPLINE
  5
2E4
100
AcDbEntity
  8
0
100
AcDbSpline
 62
7
  6
BYLAYER
 70
0
 71
3
 72
13
 73
9
 74
0
 42
0.0000001
 43
0.0000001
 44
0.0000000001
 40
0.0
 40
0.0
 40
0.0
 40
0.0
 40
0.1244617199
 40
0.2489956026
 40
0.3736474288
 40
0.4984708762
 40
0.7487325986
 40
1.0
 40
1.0
 40
1.0
 40
1.0
 10
24.4694167323
 20
7.4615949329
 30
0.0
 10
24.3008676256
 20
7.4615948534
 30
0.0
 10
23.9636212781
 20
7.4693462845
 30
0.0
 10
23.4586407153
 20
7.5039173819
 30
0.0
 10
22.9551845462
 20
7.5607663091
 30
0.0
 10
22.2863223239
 20
7.6649367068
 30
0.0
 10
21.4565974693
 20
7.8450300479
 30
0.0
 10
20.8035240982
 20
8.0331670598
 30
0.0
 10
20.4792244624
 20
8.1361966468
 30
0.0
  0
SPLINE
  5
2E5
100
AcDbEntity
  8
0
100
AcDbSpline
 62
7
  6
BYLAYER
 70
0
 71
3
 72
45
 73
41
 74
0
 42
0.0000001
 43
0.0000001
 44
0.0000000001
 40
0.0
 40
0.0
 40
0.0
 40
0.0
 40
0.0039098699
 40
0.0078220597
 40
0.0156259263
 40
0.0234375572
 40
0.0312505563
 40
0.0390638716
 40
0.0468772306
 40
0.0625003263
 40
0.0781249055
 40
0.093750037
 40
0.1249973284
 40
0.1562466658
 40
0.1874967668
 40
0.2187472369
 40
0.2499978953
 40
0.312497345
 40
0.3749977582
 40
0.4374986402
 40
0.4999997756
 40
0.562501031
 40
0.6250020422
 40
0.6875025448
 40
0.7500020417
 40
0.7812527134
 40
0.8125031901
 40
0.843753294
 40
0.8750026317
 40
0.9062499238
 40
0.9218750555
 40
0.9374996362
 40
0.9531227324
 40
0.9609360941
 40
0.9687494154
 40
0.9765624212
 40
0.9843740634
 40
0.9921779343
 40
0.9960901269
 40
1.0
 40
1.0
 40
1.0
 40
1.0
 10
19.4965751079
 20
4.6615942029
 30
0.0
 10
19.4965751079
 20
4.6596228511
 30
0.0
 10
19.4970094469
 20
4.6556672512
 30
0.0
 10
19.4994412232
 20
4.6481278991
 30
0.0
 10
19.5048123942
 20
4.6397042971
 30
0.0
 10
19.5131527783
 20
4.6312785439
 30
0.0
 10
19.5225381675
 20
4.6240556368
 30
0.0
 10
19.5325435459
 20
4.6177441334
 30
0.0
 10
19.5464185981
 20
4.6102597683
 30
0.0
 10
19.5644474141
 20
4.602267257
 30
0.0
 10
19.5866537859
 20
4.5941497083
 30
0.0
 10
19.6167498847
 20
4.5847818854
 30
0.0
 10
19.6549731237
 20
4.5751593852
 30
0.0
 10
19.7013244415
 20
4.5658444097
 30
0.0
 10
19.7479770614
 20
4.5581884142
 30
0.0
 10
19.7948215339
 20
4.5518300792
 30
0.0
 10
19.8574539888
 20
4.5447683962
 30
0.0
 10
19.9359737647
 20
4.5381594876
 30
0.0
 10
20.0303762652
 20
4.5329308761
 30
0.0
 10
20.1248758353
 20
4.5299523446
 30
0.0
 10
20.2194164457
 20
4.5289837086
 30
0.0
 10
20.3139571295
 20
4.5299520376
 30
0.0
 10
20.4084568572
 20
4.5329309729
 30
0.0
 10
20.5028595007
 20
4.5381593881
 30
0.0
 10
20.5813793475
 20
4.5447683779
 30
0.0
 10
20.6440118361
 20
4.5518300611
 30
0.0
 10
20.6908563187
 20
4.5581884075
 30
0.0
 10
20.7375089448
 20
4.5658443958
 30
0.0
 10
20.7838602636
 20
4.5751593756
 30
0.0
 10
20.8220835048
 20
4.58478187
 30
0.0
 10
20.852179604
 20
4.5941496947
 30
0.0
 10
20.874385982
 20
4.6022672308
 30
0.0
 10
20.8924147969
 20
4.6102597495
 30
0.0
 10
20.90628986
 20
4.617744104
 30
0.0
 10
20.9162952472
 20
4.6240556081
 30
0.0
 10
20.925680648
 20
4.6312785206
 30
0.0
 10
20.9340210399
 20
4.6397042809
 30
0.0
 10
20.9393922228
 20
4.6481278881
 30
0.0
 10
20.9418239927
 20
4.6556672474
 30
0.0
 10
20.9422583373
 20
4.6596228495
 30
0.0
 10
20.9422583373
 20
4.6615942029
 30
0.0
  0
SPLINE
  5
2E6
100
AcDbEntity
  8
0
100
AcDbSpline
 62
7
  6
BYLAYER
 70
0
 71
3
 72
26
 73
22
 74
0
 42
0.0000001
 43
0.0000001
 44
0.0000000001
 40
0.0
 40
0.0
 40
0.0
 40
0.0
 40
0.1948551135
 40
0.3823715673
 40
0.5550899545
 40
0.6338806839
 40
0.706603872
 40
0.7725278455
 40
0.8310442507
 40
0.8815769878
 40
0.9236210075
 40
0.9413374022
 40
0.9567868127
 40
0.9699219383
 40
0.9807067546
 40
0.9891233081
 40
0.9951552627
 40
0.9972719086
 40
0.998786276
 40
0.9996963212
 40
1.0
 40
1.0
 40
1.0
 40
1.0
 10
14.8928324512
 20
39.9615942029
 30
0.0
 10
14.8928324512
 20
39.9290716245
 30
0.0
 10
14.8922446163
 20
39.8652497748
 30
0.0
 10
14.8897339908
 20
39.7726312843
 30
0.0
 10
14.8865131614
 20
39.6994223683
 30
0.0
 10
14.8834980746
 20
39.6453895815
 30
0.0
 10
14.8812236321
 20
39.6091688363
 30
0.0
 10
14.8789490067
 20
39.576339478
 30
0.0
 10
14.8767612225
 20
39.5472172039
 30
0.0
 10
14.8747462601
 20
39.5220794597
 30
0.0
 10
14.8731986785
 20
39.5037355862
 30
0.0
 10
14.8721075946
 20
39.4912306615
 30
0.0
 10
14.8714233677
 20
39.4835317171
 30
0.0
 10
14.8708345416
 20
39.4769911793
 30
0.0
 10
14.8703433161
 20
39.4716052105
 30
0.0
 10
14.8699638304
 20
39.4674395865
 30
0.0
 10
14.8696963464
 20
39.4646276471
 30
0.0
 10
14.8695626156
 20
39.4631012623
 30
0.0
 10
14.869464765
 20
39.4622157119
 30
0.0
 10
14.8694697537
 20
39.4619940324
 30
0.0
 10
14.869401161
 20
39.461552182
 30
0.0
 10
14.8694167233
 20
39.4616004198
 30
0.0
  0
SPLINE
  5
2E7
100
AcDbEntity
  8
0
100
AcDbSpline
 62
7
  6
BYLAYER
 70
0
 71
3
 72
26
 73
22
 74
0
 42
0.0000001
 43
0.0000001
 44
0.0000000001
 40
0.0
 40
0.0
 40
0.0
 40
0.0
 40
0.0003039591
 40
0.0012141239
 40
0.0027284836
 40
0.0048450275
 40
0.0108766277
 40
0.0192928468
 40
0.0300776131
 40
0.0432128885
 40
0.0586619116
 40
0.0763775941
 40
0.1184203183
 40
0.1689525604
 40
0.2274676084
 40
0.293390744
 40
0.3661126301
 40
0.4449014781
 40
0.6176215663
 40
0.8051441226
 40
1.0
 40
1.0
 40
1.0
 40
1.0
 10
14.8694167233
 20
40.461587986
 30
0.0
 10
14.8694322999
 20
40.4615397037
 30
0.0
 10
14.8694252191
 20
40.461332557
 30
0.0
 10
14.869493236
 20
40.4608843785
 30
0.0
 10
14.869549822
 20
40.4601268194
 30
0.0
 10
14.8697085468
 20
40.4585228684
 30
0.0
 10
14.869957409
 20
40.455768655
 30
0.0
 10
14.870345773
 20
40.4515754697
 30
0.0
 10
14.8708335514
 20
40.446200287
 30
0.0
 10
14.8714237018
 20
40.4396559395
 30
0.0
 10
14.8721074909
 20
40.4319584652
 30
0.0
 10
14.8731986928
 20
40.4194533804
 30
0.0
 10
14.8747460836
 20
40.4011102551
 30
0.0
 10
14.8767611206
 20
40.3759729054
 30
0.0
 10
14.8789487786
 20
40.3468511183
 30
0.0
 10
14.8812233133
 20
40.3140223245
 30
0.0
 10
14.8834978645
 20
40.2778022637
 30
0.0
 10
14.8865131512
 20
40.223769734
 30
0.0
 10
14.8897338499
 20
40.1505598222
 30
0.0
 10
14.8922444003
 20
40.0579399022
 30
0.0
 10
14.8928324512
 20
39.9941169086
 30
0.0
 10
14.8928324512
 20
39.9615942029
 30
0.0
  0
ELLIPSE
  5
2E8
100
AcDbEntity
  8
0
100
AcDbEllipse
 62
7
  6
BYLAYER
 10
18.0177371362
 20
16.4992335746
 30
0.0
 11
-8.3101296192
 21
8.3198018011
 31
0.0
 40
0.0867605666
 41
-4.5275689667
 42
-4.464835068
  0
ELLIPSE
  5
2E9
100
AcDbEntity
  8
0
100
AcDbEllipse
 62
7
  6
BYLAYER
 10
18.1244607149
 20
16.4992335746
 30
0.0
 11
-8.1879427371
 21
8.2267964868
 31
0.0
 40
0.1752375009
 41
-4.6137982553
 42
-4.5510643566
  0
ELLIPSE
  5
2EA
100
AcDbEntity
  8
0
100
AcDbEllipse
 62
7
  6
BYLAYER
 10
18.2985179035
 20
16.4992335746
 30
0.0
 11
-7.9853861146
 21
8.0737150076
 31
0.0
 40
0.2672411313
 41
-4.6995330697
 42
-4.636799171
  0
ELLIPSE
  5
2EB
100
AcDbEntity
  8
0
100
AcDbEllipse
 62
7
  6
BYLAYER
 10
18.5343143606
 20
16.4992335746
 30
0.0
 11
-7.7033964826
 21
7.8639978811
 31
0.0
 40
0.3647826662
 41
1.4988675672
 42
1.5616014659
  0
ELLIPSE
  5
2EC
100
AcDbEntity
  8
0
100
AcDbEllipse
 62
7
  6
BYLAYER
 10
18.8242713941
 20
16.4992335746
 30
0.0
 11
-7.3412429793
 21
7.604157766
 31
0.0
 40
0.4702084876
 41
1.4159253908
 42
1.4786592895
  0
ELLIPSE
  5
2ED
100
AcDbEntity
  8
0
100
AcDbEllipse
 62
7
  6
BYLAYER
 10
19.1590695464
 20
16.4992335746
 30
0.0
 11
-6.8914584337
 21
7.3081770241
 31
0.0
 40
0.5863744367
 41
1.3369633491
 42
1.3996972478
  0
ELLIPSE
  5
2EE
100
AcDbEntity
  8
0
100
AcDbEllipse
 62
7
  6
BYLAYER
 10
19.5279481295
 20
16.4992335746
 30
0.0
 11
-6.3177540165
 21
7.0163824592
 31
0.0
 40
0.7168244188
 41
1.26889048
 42
1.3316243787
  0
ELLIPSE
  5
2EF
100
AcDbEntity
  8
0
100
AcDbEllipse
 62
7
  6
BYLAYER
 10
19.919051082
 20
16.4992335746
 30
0.0
 11
-5.3577739701
 21
6.9464733802
 31
0.0
 40
0.865142649
 41
1.2536333794
 42
1.3163672781
  0
ELLIPSE
  5
2F0
100
AcDbEntity
  8
0
100
AcDbEllipse
 62
7
  6
BYLAYER
 10
22.421096309
 20
16.4992335746
 30
0.0
 11
8.3101296192
 21
8.3198018011
 31
0.0
 40
0.0867605666
 41
-1.8183502391
 42
-1.7556163404
  0
ELLIPSE
  5
2F1
100
AcDbEntity
  8
0
100
AcDbEllipse
 62
7
  6
BYLAYER
 10
22.3143727303
 20
16.4992335746
 30
0.0
 11
8.1879427371
 21
8.2267964868
 31
0.0
 40
0.1752375009
 41
-1.7321209506
 42
-1.6693870519
  0
ELLIPSE
  5
2F2
100
AcDbEntity
  8
0
100
AcDbEllipse
 62
7
  6
BYLAYER
 10
22.1403155417
 20
16.4992335746
 30
0.0
 11
7.9853861146
 21
8.0737150076
 31
0.0
 40
0.2672411313
 41
-1.6463861362
 42
-1.5836522375
  0
ELLIPSE
  5
2F3
100
AcDbEntity
  8
0
100
AcDbEllipse
 62
7
  6
BYLAYER
 10
21.9045190846
 20
16.4992335746
 30
0.0
 11
7.7033964826
 21
7.8639978811
 31
0.0
 40
0.3647826662
 41
-1.5616014659
 42
-1.4988675672
  0
ELLIPSE
  5
2F4
100
AcDbEntity
  8
0
100
AcDbEllipse
 62
7
  6
BYLAYER
 10
21.6145620511
 20
16.4992335746
 30
0.0
 11
7.3412429793
 21
7.604157766
 31
0.0
 40
0.4702084876
 41
-1.4786592895
 42
-1.4159253908
  0
ELLIPSE
  5
2F5
100
AcDbEntity
  8
0
100
AcDbEllipse
 62
7
  6
BYLAYER
 10
21.2797638987
 20
16.4992335746
 30
0.0
 11
6.8914584337
 21
7.3081770241
 31
0.0
 40
0.5863744367
 41
-1.3996972478
 42
-1.3369633491
  0
ELLIPSE
  5
2F6
100
AcDbEntity
  8
0
100
AcDbEllipse
 62
7
  6
BYLAYER
 10
20.9108853157
 20
16.4992335746
 30
0.0
 11
6.3177540165
 21
7.0163824592
 31
0.0
 40
0.7168244188
 41
-1.3316243787
 42
-1.26889048
  0
ELLIPSE
  5
2F7
100
AcDbEntity
  8
0
100
AcDbEllipse
 62
7
  6
BYLAYER
 10
20.5197823632
 20
16.4992335746
 30
0.0
 11
5.3577739701
 21
6.9464733802
 31
0.0
 40
0.865142649
 41
-1.3163672781
 42
-1.2536333794
  0
ELLIPSE
  5
2F8
100
AcDbEntity
  8
0
100
AcDbEllipse
 62
7
  6
BYLAYER
 10
18.9867079472
 20
16.4992335746
 30
0.0
 11
-7.1283606482
 21
7.4592354443
 31
0.0
 40
0.5267450305
 41
7.7174967193
 42
7.7216314836
  0
ELLIPSE
  5
2F9
100
AcDbEntity
  8
0
100
AcDbEllipse
 62
7
  6
BYLAYER
 10
21.452125498
 20
16.4992335746
 30
0.0
 11
7.1283606482
 21
7.4592354443
 31
0.0
 40
0.5267450305
 41
-1.4384461764
 42
-1.4343115777
  0
ELLIPSE
  5
2FA
100
AcDbEntity
  8
0
100
AcDbEllipse
 62
7
  6
BYLAYER
 10
19.919051082
 20
16.4992335746
 30
0.0
 11
-5.3577739701
 21
6.9464733802
 31
0.0
 40
0.865142649
 41
-2.4932206803
 42
-2.4304867816
  0
ELLIPSE
  5
2FB
100
AcDbEntity
  8
0
100
AcDbEllipse
 62
7
  6
BYLAYER
 10
19.5279481295
 20
16.4992335746
 30
0.0
 11
-6.3177540165
 21
7.0163824592
 31
0.0
 40
0.7168244188
 41
-2.4779635798
 42
-2.4152296811
  0
ELLIPSE
  5
2FC
100
AcDbEntity
  8
0
100
AcDbEllipse
 62
7
  6
BYLAYER
 10
19.1590695464
 20
16.4992335746
 30
0.0
 11
-6.8914584337
 21
7.3081770241
 31
0.0
 40
0.5863744367
 41
-2.4098907107
 42
-2.3471568119
  0
ELLIPSE
  5
2FD
100
AcDbEntity
  8
0
100
AcDbEllipse
 62
7
  6
BYLAYER
 10
18.8242713941
 20
16.4992335746
 30
0.0
 11
-7.3412429793
 21
7.604157766
 31
0.0
 40
0.4702084876
 41
-2.3309286689
 42
-2.2681947702
  0
ELLIPSE
  5
2FE
100
AcDbEntity
  8
0
100
AcDbEllipse
 62
7
  6
BYLAYER
 10
18.5343143606
 20
16.4992335746
 30
0.0
 11
-7.7033964826
 21
7.8639978811
 31
0.0
 40
0.3647826662
 41
-2.2479864925
 42
-2.1852525938
  0
ELLIPSE
  5
2FF
100
AcDbEntity
  8
0
100
AcDbEllipse
 62
7
  6
BYLAYER
 10
18.2985179035
 20
16.4992335746
 30
0.0
 11
-7.9853861146
 21
8.0737150076
 31
0.0
 40
0.2672411313
 41
-2.1632018223
 42
-2.1004679236
  0
ELLIPSE
  5
300
100
AcDbEntity
  8
0
100
AcDbEllipse
 62
7
  6
BYLAYER
 10
18.1244607149
 20
16.4992335746
 30
0.0
 11
-8.1879427371
 21
8.2267964868
 31
0.0
 40
0.1752375009
 41
-2.0774670079
 42
-2.0147331092
  0
ELLIPSE
  5
301
100
AcDbEntity
  8
0
100
AcDbEllipse
 62
7
  6
BYLAYER
 10
18.0177371362
 20
16.4992335746
 30
0.0
 11
-8.3101296192
 21
8.3198018011
 31
0.0
 40
0.0867605666
 41
-1.9912377193
 42
-1.9285038206
  0
ELLIPSE
  5
302
100
AcDbEntity
  8
0
100
AcDbEllipse
 62
7
  6
BYLAYER
 10
20.5197823632
 20
16.4992335746
 30
0.0
 11
5.3577739701
 21
6.9464733802
 31
0.0
 40
0.865142649
 41
-3.8526985256
 42
-3.7899646269
  0
ELLIPSE
  5
303
100
AcDbEntity
  8
0
100
AcDbEllipse
 62
7
  6
BYLAYER
 10
20.9108853157
 20
16.4992335746
 30
0.0
 11
6.3177540165
 21
7.0163824592
 31
0.0
 40
0.7168244188
 41
-3.8679556261
 42
-3.8052217274
  0
ELLIPSE
  5
304
100
AcDbEntity
  8
0
100
AcDbEllipse
 62
7
  6
BYLAYER
 10
21.2797638987
 20
16.4992335746
 30
0.0
 11
6.8914584337
 21
7.3081770241
 31
0.0
 40
0.5863744367
 41
-3.9360284952
 42
-3.8732945965
  0
ELLIPSE
  5
305
100
AcDbEntity
  8
0
100
AcDbEllipse
 62
7
  6
BYLAYER
 10
22.421096309
 20
16.4992335746
 30
0.0
 11
8.3101296192
 21
8.3198018011
 31
0.0
 40
0.0867605666
 41
-4.3546814866
 42
-4.2919475879
  0
ELLIPSE
  5
306
100
AcDbEntity
  8
0
100
AcDbEllipse
 62
7
  6
BYLAYER
 10
22.3143727303
 20
16.4992335746
 30
0.0
 11
8.1879427371
 21
8.2267964868
 31
0.0
 40
0.1752375009
 41
-4.268452198
 42
-4.2057182993
  0
ELLIPSE
  5
307
100
AcDbEntity
  8
0
100
AcDbEllipse
 62
7
  6
BYLAYER
 10
22.1403155417
 20
16.4992335746
 30
0.0
 11
7.9853861146
 21
8.0737150076
 31
0.0
 40
0.2672411313
 41
-4.1827173836
 42
-4.1199834849
  0
ELLIPSE
  5
308
100
AcDbEntity
  8
0
100
AcDbEllipse
 62
7
  6
BYLAYER
 10
21.6145620511
 20
16.4992335746
 30
0.0
 11
7.3412429793
 21
7.604157766
 31
0.0
 40
0.4702084876
 41
-4.014990537
 42
-3.9522566383
  0
ELLIPSE
  5
309
100
AcDbEntity
  8
0
100
AcDbEllipse
 62
7
  6
BYLAYER
 10
21.9045190846
 20
16.4992335746
 30
0.0
 11
7.7033964826
 21
7.8639978811
 31
0.0
 40
0.3647826662
 41
-4.0979327134
 42
-4.0351988146
  0
ELLIPSE
  5
30A
100
AcDbEntity
  8
0
100
AcDbEllipse
 62
7
  6
BYLAYER
 10
19.1590695464
 20
8.4239548312
 30
0.0
 11
6.8914584337
 21
7.3081770241
 31
0.0
 40
0.5863744367
 41
-4.5412899014
 42
-4.4785560027
  0
ELLIPSE
  5
30B
100
AcDbEntity
  8
0
100
AcDbEllipse
 62
7
  6
BYLAYER
 10
19.5279481295
 20
8.4239548312
 30
0.0
 11
6.3177540165
 21
7.0163824592
 31
0.0
 40
0.7168244188
 41
-4.4732170323
 42
-4.4104831336
  0
ELLIPSE
  5
30C
100
AcDbEntity
  8
0
100
AcDbEllipse
 62
7
  6
BYLAYER
 10
18.8242713941
 20
8.4239548312
 30
0.0
 11
7.3412429793
 21
7.604157766
 31
0.0
 40
0.4702084876
 41
-4.6202519431
 42
-4.5575180444
  0
ELLIPSE
  5
30D
100
AcDbEntity
  8
0
100
AcDbEllipse
 62
7
  6
BYLAYER
 10
19.919051082
 20
8.4239548312
 30
0.0
 11
5.3577739701
 21
6.9464733802
 31
0.0
 40
0.865142649
 41
-4.4579599317
 42
-4.395226033
  0
ELLIPSE
  5
30E
100
AcDbEntity
  8
0
100
AcDbEllipse
 62
7
  6
BYLAYER
 10
18.5343143606
 20
8.4239548312
 30
0.0
 11
7.7033964826
 21
7.8639978811
 31
0.0
 40
0.3647826662
 41
-4.7031941195
 42
-4.6404602208
  0
ELLIPSE
  5
30F
100
AcDbEntity
  8
0
100
AcDbEllipse
 62
7
  6
BYLAYER
 10
18.2985179035
 20
8.4239548312
 30
0.0
 11
7.9853861146
 21
8.0737150076
 31
0.0
 40
0.2672411313
 41
1.4952065174
 42
1.5579404161
  0
ELLIPSE
  5
310
100
AcDbEntity
  8
0
100
AcDbEllipse
 62
7
  6
BYLAYER
 10
22.421096309
 20
8.4239548312
 30
0.0
 11
-8.3101296192
 21
8.3198018011
 31
0.0
 40
0.0867605666
 41
-1.3859763132
 42
-1.3232424144
  0
ELLIPSE
  5
311
100
AcDbEntity
  8
0
100
AcDbEllipse
 62
7
  6
BYLAYER
 10
22.3143727303
 20
8.4239548312
 30
0.0
 11
-8.1879427371
 21
8.2267964868
 31
0.0
 40
0.1752375009
 41
-1.4722056017
 42
-1.409471703
  0
ELLIPSE
  5
312
100
AcDbEntity
  8
0
100
AcDbEllipse
 62
7
  6
BYLAYER
 10
22.1403155417
 20
8.4239548312
 30
0.0
 11
-7.9853861146
 21
8.0737150076
 31
0.0
 40
0.2672411313
 41
-1.5579404161
 42
-1.4952065174
  0
ELLIPSE
  5
313
100
AcDbEntity
  8
0
100
AcDbEllipse
 62
7
  6
BYLAYER
 10
21.9045190846
 20
8.4239548312
 30
0.0
 11
-7.7033964826
 21
7.8639978811
 31
0.0
 40
0.3647826662
 41
-1.6427250864
 42
-1.5799911877
  0
ELLIPSE
  5
314
100
AcDbEntity
  8
0
100
AcDbEllipse
 62
7
  6
BYLAYER
 10
21.6145620511
 20
8.4239548312
 30
0.0
 11
-7.3412429793
 21
7.604157766
 31
0.0
 40
0.4702084876
 41
-1.7256672628
 42
-1.6629333641
  0
ELLIPSE
  5
315
100
AcDbEntity
  8
0
100
AcDbEllipse
 62
7
  6
BYLAYER
 10
21.2797638987
 20
8.4239548312
 30
0.0
 11
-6.8914584337
 21
7.3081770241
 31
0.0
 40
0.5863744367
 41
-1.8046293045
 42
-1.7418954058
  0
ELLIPSE
  5
316
100
AcDbEntity
  8
0
100
AcDbEllipse
 62
7
  6
BYLAYER
 10
20.9108853157
 20
8.4239548312
 30
0.0
 11
-6.3177540165
 21
7.0163824592
 31
0.0
 40
0.7168244188
 41
-1.8727021736
 42
-1.8099682749
  0
ELLIPSE
  5
317
100
AcDbEntity
  8
0
100
AcDbEllipse
 62
7
  6
BYLAYER
 10
20.5197823632
 20
8.4239548312
 30
0.0
 11
-5.3577739701
 21
6.9464733802
 31
0.0
 40
0.865142649
 41
-1.8879592742
 42
-1.8252253755
  0
ELLIPSE
  5
318
100
AcDbEntity
  8
0
100
AcDbEllipse
 62
7
  6
BYLAYER
 10
18.1244607149
 20
8.4239548312
 30
0.0
 11
8.1879427371
 21
8.2267964868
 31
0.0
 40
0.1752375009
 41
1.409471703
 42
1.4722056017
  0
ELLIPSE
  5
319
100
AcDbEntity
  8
0
100
AcDbEllipse
 62
7
  6
BYLAYER
 10
18.0177371362
 20
8.4239548312
 30
0.0
 11
8.3101296192
 21
8.3198018011
 31
0.0
 40
0.0867605666
 41
1.3232424144
 42
1.3859763132
  0
ELLIPSE
  5
31A
100
AcDbEntity
  8
0
100
AcDbEllipse
 62
7
  6
BYLAYER
 10
18.9867079472
 20
8.4239548312
 30
0.0
 11
7.1283606482
 21
7.4592354443
 31
0.0
 40
0.5267450305
 41
-4.58003883
 42
-4.5759042313
  0
ELLIPSE
  5
31B
100
AcDbEntity
  8
0
100
AcDbEllipse
 62
7
  6
BYLAYER
 10
21.452125498
 20
8.4239548312
 30
0.0
 11
-7.1283606482
 21
7.4592354443
 31
0.0
 40
0.5267450305
 41
4.5759040657
 42
4.58003883
  0
ELLIPSE
  5
31C
100
AcDbEntity
  8
0
100
AcDbEllipse
 62
7
  6
BYLAYER
 10
22.1403155417
 20
8.4239548312
 30
0.0
 11
-7.9853861146
 21
8.0737150076
 31
0.0
 40
0.2672411313
 41
0.9783908313
 42
1.04112473
  0
ELLIPSE
  5
31D
100
AcDbEntity
  8
0
100
AcDbEllipse
 62
7
  6
BYLAYER
 10
22.3143727303
 20
8.4239548312
 30
0.0
 11
-8.1879427371
 21
8.2267964868
 31
0.0
 40
0.1752375009
 41
1.0641256457
 42
1.1268595444
  0
ELLIPSE
  5
31E
100
AcDbEntity
  8
0
100
AcDbEllipse
 62
7
  6
BYLAYER
 10
18.2985179035
 20
8.4239548312
 30
0.0
 11
7.9853861146
 21
8.0737150076
 31
0.0
 40
0.2672411313
 41
-1.04112473
 42
-0.9783908313
  0
ELLIPSE
  5
31F
100
AcDbEntity
  8
0
100
AcDbEllipse
 62
7
  6
BYLAYER
 10
18.5343143606
 20
8.4239548312
 30
0.0
 11
7.7033964826
 21
7.8639978811
 31
0.0
 40
0.3647826662
 41
-0.9563400598
 42
-0.8936061611
  0
ELLIPSE
  5
320
100
AcDbEntity
  8
0
100
AcDbEllipse
 62
7
  6
BYLAYER
 10
22.421096309
 20
8.4239548312
 30
0.0
 11
-8.3101296192
 21
8.3198018011
 31
0.0
 40
0.0867605666
 41
1.1503549343
 42
1.213088833
  0
ELLIPSE
  5
321
100
AcDbEntity
  8
0
100
AcDbEllipse
 62
7
  6
BYLAYER
 10
18.8242713941
 20
8.4239548312
 30
0.0
 11
7.3412429793
 21
7.604157766
 31
0.0
 40
0.4702084876
 41
-0.8733978834
 42
-0.8106639847
  0
ELLIPSE
  5
322
100
AcDbEntity
  8
0
100
AcDbEllipse
 62
7
  6
BYLAYER
 10
19.1590695464
 20
8.4239548312
 30
0.0
 11
6.8914584337
 21
7.3081770241
 31
0.0
 40
0.5863744367
 41
-0.7944358416
 42
-0.7317019429
  0
ELLIPSE
  5
323
100
AcDbEntity
  8
0
100
AcDbEllipse
 62
7
  6
BYLAYER
 10
18.0177371362
 20
8.4239548312
 30
0.0
 11
8.3101296192
 21
8.3198018011
 31
0.0
 40
0.0867605666
 41
-1.213088833
 42
-1.1503549343
  0
ELLIPSE
  5
324
100
AcDbEntity
  8
0
100
AcDbEllipse
 62
7
  6
BYLAYER
 10
19.5279481295
 20
8.4239548312
 30
0.0
 11
6.3177540165
 21
7.0163824592
 31
0.0
 40
0.7168244188
 41
-0.7263629725
 42
-0.6636290738
  0
ELLIPSE
  5
325
100
AcDbEntity
  8
0
100
AcDbEllipse
 62
7
  6
BYLAYER
 10
20.5197823632
 20
8.4239548312
 30
0.0
 11
-5.3577739701
 21
6.9464733802
 31
0.0
 40
0.865142649
 41
0.6483719733
 42
0.711105872
  0
ELLIPSE
  5
326
100
AcDbEntity
  8
0
100
AcDbEllipse
 62
7
  6
BYLAYER
 10
20.9108853157
 20
8.4239548312
 30
0.0
 11
-6.3177540165
 21
7.0163824592
 31
0.0
 40
0.7168244188
 41
0.6636290738
 42
0.7263629725
  0
ELLIPSE
  5
327
100
AcDbEntity
  8
0
100
AcDbEllipse
 62
7
  6
BYLAYER
 10
21.2797638987
 20
8.4239548312
 30
0.0
 11
-6.8914584337
 21
7.3081770241
 31
0.0
 40
0.5863744367
 41
0.7317019429
 42
0.7944358416
  0
ELLIPSE
  5
328
100
AcDbEntity
  8
0
100
AcDbEllipse
 62
7
  6
BYLAYER
 10
19.919051082
 20
8.4239548312
 30
0.0
 11
5.3577739701
 21
6.9464733802
 31
0.0
 40
0.865142649
 41
-0.711105872
 42
-0.6483719733
  0
ELLIPSE
  5
329
100
AcDbEntity
  8
0
100
AcDbEllipse
 62
7
  6
BYLAYER
 10
21.6145620511
 20
8.4239548312
 30
0.0
 11
-7.3412429793
 21
7.604157766
 31
0.0
 40
0.4702084876
 41
0.8106639847
 42
0.8733978834
  0
ELLIPSE
  5
32A
100
AcDbEntity
  8
0
100
AcDbEllipse
 62
7
  6
BYLAYER
 10
18.1244607149
 20
8.4239548312
 30
0.0
 11
8.1879427371
 21
8.2267964868
 31
0.0
 40
0.1752375009
 41
-1.1268595444
 42
-1.0641256457
  0
ELLIPSE
  5
32B
100
AcDbEntity
  8
0
100
AcDbEllipse
 62
7
  6
BYLAYER
 10
21.9045190846
 20
8.4239548312
 30
0.0
 11
-7.7033964826
 21
7.8639978811
 31
0.0
 40
0.3647826662
 41
0.8936061611
 42
0.9563400598
  0
ENDSEC
  0
SECTION
  2
OBJECTS
  0
DICTIONARY
  5
C
100
AcDbDictionary
280
0
281
1
  3
ACAD_GROUP
350
D
  3
ACAD_MLINESTYLE
350
17
  3
ACAD_LAYOUT
350
1A
  3
ACAD_PLOTSETTINGS
350
19
  3
ACAD_PLOTSTYLENAME
350
E
  0
DICTIONARY
  5
D
102
{ACAD_REACTORS
330
C
102
}
100
AcDbDictionary
280
0
281
1
  0
ACDBDICTIONARYWDFLT
  5
E
102
{ACAD_REACTORS
330
C
102
}
100
AcDbDictionary
281
1
  3
Normal
350
F
100
AcDbDictionaryWithDefault
340
F
  0
DICTIONARY
  5
17
102
{ACAD_REACTORS
330
C
102
}
100
AcDbDictionary
280
0
281
1
  3
Standard
350
18
  0
DICTIONARY
  5
19
102
{ACAD_REACTORS
330
C
102
}
100
AcDbDictionary
281
1
  0
DICTIONARY
  5
1A
102
{ACAD_REACTORS
330
C
102
}
100
AcDbDictionary
281
1
  3
Model
350
32C
  3
Layout1
350
32D
  0
ACDBPLACEHOLDER
  5
F
102
{ACAD_REACTORS
330
E
102
}
  0
MLINESTYLE
  5
18
102
{ACAD_REACTORS
330
17
102
}
100
AcDbMlineStyle
  2
STANDARD
 70
0
  3

 62
256
 51
90.0
 52
90.0
 71
2
 49
0.5
 62
256
  6
BYLAYER
 49
-0.5
 62
256
  6
BYLAYER
  0
LAYOUT
  5
32C
102
{ACAD_REACTORS
330
1A
102
}
100
AcDbPlotSettings
  1

  2
none_device
  4

  6

 40
0.0
 41
0.0
 42
0.0
 43
0.0
 44
210.0
 45
297.0
 46
0.0
 47
0.0
 48
0.0
 49
0.0
140
0.0
141
0.0
142
1.0
143
1.0
 70
1024
 72
1
 73
0
 74
0
  7

 75
0
147
1.0
148
0.0
149
0.0
100
AcDbLayout
  1
Model
 70
0
 71
0
 10
0.0
 20
0.0
 11
210.0
 21
297.0
 12
0.0
 22
0.0
 32
0.0
 14
0.0
 24
0.0
 34
0.0
 15
0.0
 25
0.0
 35
0.0
146
0.0
 13
0.0
 23
0.0
 33
0.0
 16
1.0
 26
0.0
 36
0.0
 17
0.0
 27
1.0
 37
0.0
 76
0
330
210
345
0
346
0
  0
LAYOUT
  5
32D
102
{ACAD_REACTORS
330
1A
102
}
100
AcDbPlotSettings
  1

  2
none_device
  4

  6

 40
0.0
 41
0.0
 42
0.0
 43
0.0
 44
210.0
 45
297.0
 46
0.0
 47
0.0
 48
0.0
 49
0.0
140
0.0
141
0.0
142
1.0
143
1.0
 70
0
 72
1
 73
0
 74
0
  7

 75
0
147
1.0
148
0.0
149
0.0
100
AcDbLayout
  1
Layout1
 70
0
 71
1
 10
0.0
 20
0.0
 11
210.0
 21
297.0
 12
0.0
 22
0.0
 32
0.0
 14
0.0
 24
0.0
 34
0.0
 15
0.0
 25
0.0
 35
0.0
146
0.0
 13
0.0
 23
0.0
 33
0.0
 16
1.0
 26
0.0
 36
0.0
 17
0.0
 27
1.0
 37
0.0
 76
0
330
211
345
0
346
0
  0
ENDSEC
  0
EOF
