999
DXF file: C:\Users\sesa63760\Dev\_Creo\CAD\MCADID0000480_3D-CAD\drw0001_1.dxf
999
Pro/ENGINEER 2019471 by Parametric Technology Corporation
  0
SECTION
  2
HEADER
  9
$ACADVER
  1
AC1024
  9
$DWGCODEPAGE
  3
ANSI_1252
  9
$EXTMAX
 10
304.138932862
 20
430.1393479048
 30
0.0
  9
$EXTMIN
 10
-0.0
 20
0.0
 30
0.0
  9
$LIMMIN
 10
-0.0
 20
0.0
  9
$LIMMAX
 10
304.138932862
 20
430.1393479048
  9
$VIEWCTR
 10
152.069466431
 20
215.0696739524
  9
$VIEWSIZE
 40
430.1393479048
  9
$CLAYER
  8
0
  9
$LTSCALE
 40
28.0387130486
  9
$CELTYPE
  6
BYLAYER
  9
$DIMSCALE
 40
1.0
  9
$DIMASZ
 40
3.6207015817
  9
$DIMEXO
 40
1.0
  9
$DIMDLI
 40
19.3722017427
  9
$DIMEXE
 40
1.0
  9
$DIMCEN
 40
4.5881530443
  9
$DIMLFAC
 40
1.0
  9
$DIMBLK
  1
_FILLED
  9
$DIMALT
 70
0
  9
$DIMALTF
 40
0.0393700787
  9
$DIMTXT
 40
5.0689822144
  9
$DIMTOL
 70
1
  9
$DIMLIM
 70
0
  9
$DIMTFAC
 40
1.0
  9
$DIMTP
 40
0.01
  9
$DIMTM
 40
0.01
  9
$DIMGAP
 40
0.625
  9
$DIMDSEP
 70
46
  9
$AUNITS
 70
0
  9
$PDMODE
 70
3
  9
$PDSIZE
 40
0.3125
  9
$HANDSEED
  5
2CE
  9
$TILEMODE
 70
1
  9
$MEASUREMENT
 70
1
  9
$INSUNITS
 70
4
  0
ENDSEC
  0
SECTION
  2
CLASSES
  0
CLASS
  1
ACDBDICTIONARYWDFLT
  2
AcDbDictionaryWithDefault
  3
AutoCAD 2000
 90
0
 91
1
280
0
281
0
  0
CLASS
  1
ACDBPLACEHOLDER
  2
AcDbPlaceHolder
  3
AutoCAD 2000
 90
0
 91
1
280
0
281
0
  0
CLASS
  1
LAYOUT
  2
AcDbLayout
  3
AutoCAD 2000
 90
0
 91
0
280
0
281
0
  0
ENDSEC
  0
SECTION
  2
TABLES
  0
TABLE
  2
VPORT
  5
8
100
AcDbSymbolTable
 70
2
  0
VPORT
  5
1F4
100
AcDbSymbolTableRecord
100
AcDbViewportTableRecord
  2
*ACTIVE
 70
0
 10
0.0
 20
0.0
 11
1.0
 21
1.0
 12
152.069466431
 22
215.0696739524
 13
0.0
 23
0.0
 14
1.0
 24
1.0
 15
0.0
 25
0.0
 16
0.0
 26
0.0
 36
1.0
 17
0.0
 27
0.0
 37
0.0
 40
430.1393479048
 41
0.7070707071
 42
50.0
 43
0.0
 44
0.0
 50
0.0
 51
0.0
 71
0
 72
100
 73
1
 74
1
 75
0
 76
0
 77
0
 78
0
  0
ENDTAB
  0
TABLE
  2
LTYPE
  5
5
100
AcDbSymbolTable
 70
6
  0
LTYPE
  5
14
100
AcDbSymbolTableRecord
100
AcDbLinetypeTableRecord
  2
BYBLOCK
 70
0
  3

 72
65
 73
0
 40
0.0
  0
LTYPE
  5
15
100
AcDbSymbolTableRecord
100
AcDbLinetypeTableRecord
  2
BYLAYER
 70
0
  3

 72
65
 73
0
 40
0.0
  0
LTYPE
  5
16
100
AcDbSymbolTableRecord
100
AcDbLinetypeTableRecord
  2
CONTINUOUS
 70
64
  3
Solid line
 72
65
 73
0
 40
0.0
  0
LTYPE
  5
1F5
100
AcDbSymbolTableRecord
100
AcDbLinetypeTableRecord
  2
CENTER
 70
64
  3
____ _ ____ _ ____ _ ____ _ ____ _ ____ _ ____
 72
65
 73
4
 40
0.6
 49
0.375
 74
0
 49
-0.075
 74
0
 49
0.075
 74
0
 49
-0.075
 74
0
  0
LTYPE
  5
1F6
100
AcDbSymbolTableRecord
100
AcDbLinetypeTableRecord
  2
HIDDEN
 70
64
  3
- - - - - - - - - - - - - - - - - - - -
 72
65
 73
2
 40
0.2
 49
0.1
 74
0
 49
-0.1
 74
0
  0
LTYPE
  5
1F7
100
AcDbSymbolTableRecord
100
AcDbLinetypeTableRecord
  2
PHANTOM
 70
64
  3
_____ _ _ _____ _ _ _____ _ _ _____
 72
65
 73
6
 40
0.8
 49
0.45
 74
0
 49
-0.05
 74
0
 49
0.1
 74
0
 49
-0.05
 74
0
 49
0.1
 74
0
 49
-0.05
 74
0
  0
LTYPE
  5
1F8
100
AcDbSymbolTableRecord
100
AcDbLinetypeTableRecord
  2
DOT
 70
64
  3
. . . . . . . . . . . . . . . . . . . .
 72
65
 73
2
 40
0.2
 49
0.1
 74
0
 49
-0.1
 74
0
  0
LTYPE
  5
1F9
100
AcDbSymbolTableRecord
100
AcDbLinetypeTableRecord
  2
DASHED
 70
64
  3
- - - - - - - - - - - - - - - - - - - -
 72
65
 73
2
 40
0.2
 49
0.1
 74
0
 49
-0.1
 74
0
  0
ENDTAB
  0
TABLE
  2
LAYER
  5
2
100
AcDbSymbolTable
 70
36
  0
LAYER
  5
10
100
AcDbSymbolTableRecord
100
AcDbLayerTableRecord
  2
0
 70
0
 62
7
  6
CONTINUOUS
370
-3
390
F
  0
LAYER
  5
1FA
100
AcDbSymbolTableRecord
100
AcDbLayerTableRecord
  2
DEFAULT_1
 70
0
 62
7
  6
CENTER
370
-3
390
F
  0
LAYER
  5
1FB
100
AcDbSymbolTableRecord
100
AcDbLayerTableRecord
  2
DEFAULT_2
 70
0
 62
8
  6
HIDDEN
370
-3
390
F
  0
LAYER
  5
1FC
100
AcDbSymbolTableRecord
100
AcDbLayerTableRecord
  2
DEFAULT_3
 70
0
 62
7
  6
PHANTOM
370
-3
390
F
  0
LAYER
  5
1FD
100
AcDbSymbolTableRecord
100
AcDbLayerTableRecord
  2
00_COMPONENTS
 70
0
 62
7
  6
CONTINUOUS
370
-3
390
F
  0
LAYER
  5
1FE
100
AcDbSymbolTableRecord
100
AcDbLayerTableRecord
  2
01_1_DEFAULT_DATUMS
 70
0
 62
7
  6
CONTINUOUS
370
-3
390
F
  0
LAYER
  5
1FF
100
AcDbSymbolTableRecord
100
AcDbLayerTableRecord
  2
01_PLANES
 70
0
 62
7
  6
CONTINUOUS
370
-3
390
F
  0
LAYER
  5
200
100
AcDbSymbolTableRecord
100
AcDbLayerTableRecord
  2
02_COORD_SYS
 70
0
 62
7
  6
CONTINUOUS
370
-3
390
F
  0
LAYER
  5
201
100
AcDbSymbolTableRecord
100
AcDbLayerTableRecord
  2
03_AXES
 70
0
 62
7
  6
CONTINUOUS
370
-3
390
F
  0
LAYER
  5
202
100
AcDbSymbolTableRecord
100
AcDbLayerTableRecord
  2
04_POINTS
 70
0
 62
7
  6
CONTINUOUS
370
-3
390
F
  0
LAYER
  5
203
100
AcDbSymbolTableRecord
100
AcDbLayerTableRecord
  2
05_CURVES
 70
0
 62
7
  6
CONTINUOUS
370
-3
390
F
  0
LAYER
  5
204
100
AcDbSymbolTableRecord
100
AcDbLayerTableRecord
  2
06_SURFS
 70
0
 62
7
  6
CONTINUOUS
370
-3
390
F
  0
LAYER
  5
205
100
AcDbSymbolTableRecord
100
AcDbLayerTableRecord
  2
07_COSMETICS
 70
0
 62
7
  6
CONTINUOUS
370
-3
390
F
  0
LAYER
  5
206
100
AcDbSymbolTableRecord
100
AcDbLayerTableRecord
  2
10_NOTES
 70
0
 62
7
  6
CONTINUOUS
370
-3
390
F
  0
LAYER
  5
207
100
AcDbSymbolTableRecord
100
AcDbLayerTableRecord
  2
11_NOTES_PUB
 70
0
 62
7
  6
CONTINUOUS
370
-3
390
F
  0
LAYER
  5
208
100
AcDbSymbolTableRecord
100
AcDbLayerTableRecord
  2
13_REF_GTOL
 70
0
 62
7
  6
CONTINUOUS
370
-3
390
F
  0
LAYER
  5
209
100
AcDbSymbolTableRecord
100
AcDbLayerTableRecord
  2
16_MISC
 70
0
 62
7
  6
CONTINUOUS
370
-3
390
F
  0
LAYER
  5
20A
100
AcDbSymbolTableRecord
100
AcDbLayerTableRecord
  2
17_NO_PRINT
 70
0
 62
7
  6
CONTINUOUS
370
-3
390
F
  0
LAYER
  5
20B
100
AcDbSymbolTableRecord
100
AcDbLayerTableRecord
  2
18_DATUM_CAMS_JOINTS
 70
0
 62
7
  6
CONTINUOUS
370
-3
390
F
  0
LAYER
  5
20C
100
AcDbSymbolTableRecord
100
AcDbLayerTableRecord
  2
19_DATUM_FUNCTIONAL
 70
0
 62
7
  6
CONTINUOUS
370
-3
390
F
  0
LAYER
  5
20D
100
AcDbSymbolTableRecord
100
AcDbLayerTableRecord
  2
20_DATUM_KINEMATIC_SCHEME
 70
0
 62
7
  6
CONTINUOUS
370
-3
390
F
  0
ENDTAB
  0
TABLE
  2
STYLE
  5
3
100
AcDbSymbolTable
 70
1
  0
STYLE
  5
11
100
AcDbSymbolTableRecord
100
AcDbTextStyleTableRecord
  2
STANDARD
 70
0
 40
0.0
 41
0.8
 50
0.0
 71
0
 42
0.2
  3
txt
  4

  0
STYLE
  5
20E
100
AcDbSymbolTableRecord
100
AcDbTextStyleTableRecord
  2
TEXTSTYLE_1
 70
0
 40
0.0
 41
0.8
 50
0.0
 71
0
 42
0.2
  3
gdt
  4

  0
ENDTAB
  0
TABLE
  2
VIEW
  5
6
100
AcDbSymbolTable
 70
0
  0
ENDTAB
  0
TABLE
  2
UCS
  5
7
100
AcDbSymbolTable
 70
0
  0
ENDTAB
  0
TABLE
  2
APPID
  5
9
100
AcDbSymbolTable
 70
1
  0
APPID
  5
20F
100
AcDbSymbolTableRecord
100
AcDbRegAppTableRecord
  2
ACAD
 70
0
  0
ENDTAB
  0
TABLE
  2
BLOCK_RECORD
  5
1
100
AcDbSymbolTable
 70
0
  0
BLOCK_RECORD
  5
210
100
AcDbSymbolTableRecord
100
AcDbBlockTableRecord
  2
*Model_Space
  0
BLOCK_RECORD
  5
211
100
AcDbSymbolTableRecord
100
AcDbBlockTableRecord
  2
*Paper_Space
  0
BLOCK_RECORD
  5
212
100
AcDbSymbolTableRecord
100
AcDbBlockTableRecord
  2
_FILLED
  0
ENDTAB
  0
TABLE
  2
DIMSTYLE
  5
A
100
AcDbSymbolTable
 70
1
100
AcDbDimStyleTable
 71
0
  0
DIMSTYLE
105
213
100
AcDbSymbolTableRecord
100
AcDbDimStyleTableRecord
  2
STANDARD
 70
0
  3

  4

 40
1.0
 41
3.6207015817
 42
1.0
 43
0.38
 44
1.0
 45
0.0
 46
0.0
 47
0.01
 48
0.01
140
5.0689822144
141
0.09
142
0.0
143
25.4
144
1.0
145
0.0
146
1.0
147
0.625
 71
1
 72
0
 73
0
 74
0
 75
0
 76
0
 77
1
 78
8
 79
2
170
0
171
1
172
0
173
0
174
0
175
0
176
0
177
0
178
0
270
2
179
2
271
2
272
2
273
2
274
2
275
0
280
0
281
0
282
0
283
1
284
8
285
0
286
0
287
3
288
0
340
11
278
46
341
212
342
212
343
212
344
212
  0
ENDTAB
  0
ENDSEC
  0
SECTION
  2
BLOCKS
  0
BLOCK
  5
20
100
AcDbEntity
  8
0
100
AcDbBlockBegin
  2
*Model_Space
 70
0
 10
0.0
 20
0.0
 30
0.0
  3
*Model_Space
  1

  0
ENDBLK
  5
21
100
AcDbEntity
  8
0
100
AcDbBlockEnd
  0
BLOCK
  5
1C
100
AcDbEntity
  8
0
100
AcDbBlockBegin
  2
*Paper_Space
 70
0
 10
0.0
 20
0.0
 30
0.0
  3
*Paper_Space
  1

  0
ENDBLK
  5
1D
100
AcDbEntity
  8
0
100
AcDbBlockEnd
  0
BLOCK
  5
214
100
AcDbEntity
  8
0
100
AcDbBlockBegin
  2
_FILLED
 70
64
 10
0.0
 20
0.0
  3
_FILLED
  1

  0
SOLID
  5
215
100
AcDbEntity
  8
0
  6
BYBLOCK
 62
0
100
AcDbTrace
 10
0.0
 20
0.0
 11
-1.0
 21
0.25
 12
-1.0
 22
-0.25
 13
-1.0
 23
-0.25
  0
ENDBLK
  5
216
100
AcDbEntity
  8
0
  6
BYBLOCK
 62
0
100
AcDbBlockEnd
  0
ENDSEC
  0
SECTION
  2
ENTITIES
  0
LINE
  5
217
100
AcDbEntity
  8
0
100
AcDbLine
 62
7
  6
CONTINUOUS
 10
35.2836684049
 20
185.3163581847
 11
35.2836419092
 21
271.8655356111
  0
LINE
  5
218
100
AcDbEntity
  8
0
100
AcDbLine
 62
7
  6
CONTINUOUS
 10
122.5402819171
 20
322.2429429882
 11
35.2836419092
 21
271.8655356111
  0
LINE
  5
219
100
AcDbEntity
  8
0
100
AcDbLine
 62
7
  6
CONTINUOUS
 10
68.8713715175
 20
205.5714972126
 11
68.8713715175
 21
207.9285366642
  0
LINE
  5
21A
100
AcDbEntity
  8
0
100
AcDbLine
 62
7
  6
CONTINUOUS
 10
223.3745167379
 20
119.6189987472
 11
222.0107159782
 21
119.7408235023
  0
LINE
  5
21B
100
AcDbEntity
  8
0
100
AcDbLine
 62
7
  6
CONTINUOUS
 10
35.2836684049
 20
185.3163581847
 11
120.4903372937
 21
136.1231896864
  0
LINE
  5
21C
100
AcDbEntity
  8
0
100
AcDbLine
 62
7
  6
CONTINUOUS
 10
70.6391311105
 20
206.5921075973
 11
70.6391311105
 21
208.0864545037
  0
LINE
  5
21D
100
AcDbEntity
  8
0
100
AcDbLine
 62
7
  6
CONTINUOUS
 10
72.4069201432
 20
205.8873328916
 11
72.4069201432
 21
203.53029344
  0
LINE
  5
21E
100
AcDbEntity
  8
0
100
AcDbLine
 62
7
  6
CONTINUOUS
 10
225.1935890043
 20
125.1134004631
 11
225.4958282495
 21
125.0864022217
  0
LINE
  5
21F
100
AcDbEntity
  8
0
100
AcDbLine
 62
7
  6
CONTINUOUS
 10
197.8069983031
 20
111.6387412032
 11
175.8865968235
 21
124.2942045934
  0
LINE
  5
220
100
AcDbEntity
  8
0
100
AcDbLine
 62
7
  6
CONTINUOUS
 10
126.0603607765
 20
153.1184793021
 11
175.5947949615
 21
124.5204073661
  0
LINE
  5
221
100
AcDbEntity
  8
0
100
AcDbLine
 62
7
  6
CONTINUOUS
 10
70.6391458304
 20
203.3723756005
 11
68.8713715175
 21
205.5714972126
  0
LINE
  5
222
100
AcDbEntity
  8
0
100
AcDbLine
 62
7
  6
CONTINUOUS
 10
70.6391311105
 20
206.5921075973
 11
72.4069054234
 21
204.3929859851
  0
LINE
  5
223
100
AcDbEntity
  8
0
100
AcDbLine
 62
7
  6
CONTINUOUS
 10
70.6391458304
 20
208.0864545037
 11
72.4069201432
 21
205.8873328916
  0
LINE
  5
224
100
AcDbEntity
  8
0
100
AcDbLine
 62
7
  6
CONTINUOUS
 10
209.3852887422
 20
125.1613084647
 11
206.5568498416
 21
126.7942714828
  0
LINE
  5
225
100
AcDbEntity
  8
0
100
AcDbLine
 62
7
  6
CONTINUOUS
 10
222.1305099983
 20
120.3372101251
 11
223.3745167379
 21
119.6189987472
  0
LINE
  5
226
100
AcDbEntity
  8
0
100
AcDbLine
 62
7
  6
CONTINUOUS
 10
187.3755431925
 20
142.1967185783
 11
189.2440646494
 21
141.1179516171
  0
LINE
  5
227
100
AcDbEntity
  8
0
100
AcDbLine
 62
7
  6
CONTINUOUS
 10
223.6223220375
 20
123.3395997255
 11
225.4958282495
 21
122.2579548798
  0
LINE
  5
228
100
AcDbEntity
  8
0
100
AcDbLine
 62
7
  6
CONTINUOUS
 10
189.2331995809
 20
144.987919134
 11
190.4688044217
 21
144.2745584849
  0
LINE
  5
229
100
AcDbEntity
  8
0
100
AcDbLine
 62
7
  6
CONTINUOUS
 10
114.1264027588
 20
218.9982485173
 11
114.1264027588
 21
139.7975140557
  0
LINE
  5
22A
100
AcDbEntity
  8
0
100
AcDbLine
 62
7
  6
CONTINUOUS
 10
120.4903372937
 20
230.0209676563
 11
114.1264027588
 21
218.9982485173
  0
LINE
  5
22B
100
AcDbEntity
  8
0
100
AcDbLine
 62
7
  6
CONTINUOUS
 10
191.1299252564
 20
282.6435897997
 11
178.8263184888
 21
275.5401415224
  0
LINE
  5
22C
100
AcDbEntity
  8
0
100
AcDbLine
 62
7
  6
CONTINUOUS
 10
70.6391311105
 20
206.5921075973
 11
68.8713715175
 21
205.5714972126
  0
LINE
  5
22D
100
AcDbEntity
  8
0
100
AcDbLine
 62
7
  6
CONTINUOUS
 10
72.4069054234
 20
204.3929859851
 11
70.6391458304
 21
203.3723756005
  0
LINE
  5
22E
100
AcDbEntity
  8
0
100
AcDbLine
 62
7
  6
CONTINUOUS
 10
189.0794095035
 20
269.6206505818
 11
120.4903372937
 21
230.0209676563
  0
LINE
  5
22F
100
AcDbEntity
  8
0
100
AcDbLine
 62
7
  6
CONTINUOUS
 10
197.4939127827
 20
271.6209012549
 11
191.5542405501
 21
268.1916503624
  0
LINE
  5
230
100
AcDbEntity
  8
0
100
AcDbLine
 62
7
  6
CONTINUOUS
 10
258.4905417029
 20
128.5651040351
 11
223.8421651707
 21
148.5689010066
  0
LINE
  5
231
100
AcDbEntity
  8
0
100
AcDbLine
 62
7
  6
CONTINUOUS
 10
114.1264027588
 20
218.9982485173
 11
35.2836684049
 21
264.5170926463
  0
LINE
  5
232
100
AcDbEntity
  8
0
100
AcDbLine
 62
7
  6
CONTINUOUS
 10
186.7945851049
 20
139.7037523843
 11
186.6161332014
 21
139.9576315888
  0
LINE
  5
233
100
AcDbEntity
  8
0
100
AcDbLine
 62
7
  6
CONTINUOUS
 10
189.6849175116
 20
145.3897754216
 11
190.4688044217
 21
144.2745584849
  0
LINE
  5
234
100
AcDbEntity
  8
0
100
AcDbLine
 62
7
  6
CONTINUOUS
 10
72.4069201432
 20
203.53029344
 11
70.6391458304
 21
203.3723756005
  0
LINE
  5
235
100
AcDbEntity
  8
0
100
AcDbLine
 62
7
  6
CONTINUOUS
 10
68.8713715175
 20
207.9285366642
 11
70.6391458304
 21
208.0864545037
  0
LINE
  5
236
100
AcDbEntity
  8
0
100
AcDbLine
 62
7
  6
CONTINUOUS
 10
223.3745167379
 20
201.2692404602
 11
222.0107159782
 21
201.3910652152
  0
LINE
  5
237
100
AcDbEntity
  8
0
100
AcDbLine
 62
7
  6
CONTINUOUS
 10
225.1935890043
 20
206.763642176
 11
225.4958282495
 21
206.7366439347
  0
LINE
  5
238
100
AcDbEntity
  8
0
100
AcDbLine
 62
7
  6
CONTINUOUS
 10
120.4903372937
 20
230.0209676563
 11
41.6476029398
 21
275.5398117853
  0
LINE
  5
239
100
AcDbEntity
  8
0
100
AcDbLine
 62
7
  6
CONTINUOUS
 10
270.990329615
 20
150.2158615773
 11
236.3419530828
 21
170.2196585488
  0
LINE
  5
23A
100
AcDbEntity
  8
0
100
AcDbLine
 62
7
  6
CONTINUOUS
 10
270.0436673346
 20
152.2502028959
 11
247.4161561299
 21
165.3139070405
  0
LINE
  5
23B
100
AcDbEntity
  8
0
100
AcDbLine
 62
7
  6
CONTINUOUS
 10
222.1305099983
 20
201.987451838
 11
223.3745167379
 21
201.2692404602
  0
LINE
  5
23C
100
AcDbEntity
  8
0
100
AcDbLine
 62
7
  6
CONTINUOUS
 10
258.0859269138
 20
183.0211339654
 11
259.9544483708
 21
181.9423670042
  0
LINE
  5
23D
100
AcDbEntity
  8
0
100
AcDbLine
 62
7
  6
CONTINUOUS
 10
223.6223220375
 20
204.9898414385
 11
225.4958282495
 21
203.9081965928
  0
LINE
  5
23E
100
AcDbEntity
  8
0
100
AcDbLine
 62
7
  6
CONTINUOUS
 10
259.9435833023
 20
185.8123345211
 11
261.1791881431
 21
185.098973872
  0
LINE
  5
23F
100
AcDbEntity
  8
0
100
AcDbLine
 62
7
  6
CONTINUOUS
 10
249.3846100611
 20
194.4437325997
 11
246.5561711605
 21
196.0766956178
  0
LINE
  5
240
100
AcDbEntity
  8
0
100
AcDbLine
 62
7
  6
CONTINUOUS
 10
195.4433440384
 20
265.9463262125
 11
195.4433440384
 21
245.7354429629
  0
LINE
  5
241
100
AcDbEntity
  8
0
100
AcDbLine
 62
7
  6
CONTINUOUS
 10
197.4939127827
 20
244.5515733291
 11
197.4939121939
 21
271.6687291082
  0
LINE
  5
242
100
AcDbEntity
  8
0
100
AcDbLine
 62
7
  6
CONTINUOUS
 10
187.9017158079
 20
153.6748737838
 11
186.3300281061
 21
141.3492263754
  0
LWPOLYLINE
  5
243
100
AcDbEntity
  8
0
100
AcDbPolyline
 62
7
  6
CONTINUOUS
 90
5
 70
0
 10
223.8333458698
 20
206.3242325142
 10
213.9392190029
 20
198.7819600324
 10
202.6393837173
 20
185.593744598
 10
193.6552477343
 20
170.0233721553
 10
187.9017158079
 20
153.6748737838
  0
LINE
  5
244
100
AcDbEntity
  8
0
100
AcDbLine
 62
7
  6
CONTINUOUS
 10
120.4903372937
 20
136.1231896864
 11
137.9938888109
 21
146.2288095442
  0
LINE
  5
245
100
AcDbEntity
  8
0
100
AcDbLine
 62
7
  6
CONTINUOUS
 10
183.5093860207
 20
252.6253609661
 11
233.0419486163
 21
224.0283695683
  0
LINE
  5
246
100
AcDbEntity
  8
0
100
AcDbLine
 62
7
  6
CONTINUOUS
 10
255.306022699
 20
211.2322258973
 11
233.3856212194
 21
223.8876892875
  0
LINE
  5
247
100
AcDbEntity
  8
0
100
AcDbLine
 62
7
  6
CONTINUOUS
 10
190.4688044217
 20
144.2745584849
 11
189.2440646494
 21
141.1179516171
  0
LINE
  5
248
100
AcDbEntity
  8
0
100
AcDbLine
 62
7
  6
CONTINUOUS
 10
225.4958282495
 20
203.9081965928
 11
223.3745167379
 21
201.2692404602
  0
LINE
  5
249
100
AcDbEntity
  8
0
100
AcDbLine
 62
7
  6
CONTINUOUS
 10
195.4433440384
 20
265.9463262125
 11
178.8263184888
 21
275.5401415224
  0
LINE
  5
24A
100
AcDbEntity
  8
0
100
AcDbLine
 62
7
  6
CONTINUOUS
 10
257.5049688263
 20
180.5281677714
 11
257.3265169228
 21
180.782046976
  0
LINE
  5
24B
100
AcDbEntity
  8
0
100
AcDbLine
 62
7
  6
CONTINUOUS
 10
191.1299252564
 20
282.6435897997
 11
197.4939127827
 21
271.6209012549
  0
LINE
  5
24C
100
AcDbEntity
  8
0
100
AcDbLine
 62
7
  6
CONTINUOUS
 10
225.4958282495
 20
206.7366439347
 11
225.4958282495
 21
203.9081965928
  0
LINE
  5
24D
100
AcDbEntity
  8
0
100
AcDbLine
 62
7
  6
CONTINUOUS
 10
225.4958282495
 20
125.0864022217
 11
225.4958282495
 21
122.2579548798
  0
LINE
  5
24E
100
AcDbEntity
  8
0
100
AcDbLine
 62
7
  6
CONTINUOUS
 10
260.395301233
 20
186.2141908087
 11
261.1791881431
 21
185.098973872
  0
LINE
  5
24F
100
AcDbEntity
  8
0
100
AcDbLine
 62
7
  6
CONTINUOUS
 10
259.9544483708
 20
181.9423670042
 11
257.5049688263
 21
180.5281677714
  0
LINE
  5
250
100
AcDbEntity
  8
0
100
AcDbLine
 62
7
  6
CONTINUOUS
 10
189.2440646494
 20
141.1179516171
 11
186.7945851049
 21
139.7037523843
  0
LINE
  5
251
100
AcDbEntity
  8
0
100
AcDbLine
 62
7
  6
CONTINUOUS
 10
191.1713461963
 20
282.6196738591
 11
122.5402819171
 21
322.2429429882
  0
LINE
  5
252
100
AcDbEntity
  8
0
100
AcDbLine
 62
7
  6
CONTINUOUS
 10
245.4161650836
 20
165.5120041566
 11
244.9561034429
 21
165.24638903
  0
LINE
  5
253
100
AcDbEntity
  8
0
100
AcDbLine
 62
7
  6
CONTINUOUS
 10
246.1276668803
 20
164.5700018659
 11
247.4161561299
 21
165.3139070405
  0
LINE
  5
254
100
AcDbEntity
  8
0
100
AcDbLine
 62
7
  6
CONTINUOUS
 10
261.1791881431
 20
185.098973872
 11
259.9544483708
 21
181.9423670042
  0
LINE
  5
255
100
AcDbEntity
  8
0
100
AcDbLine
 62
7
  6
CONTINUOUS
 10
225.4958282495
 20
122.2579548798
 11
223.3745167379
 21
119.6189987472
  0
LWPOLYLINE
  5
256
100
AcDbEntity
  8
0
100
AcDbPolyline
 62
7
  6
CONTINUOUS
 90
3
 70
0
 10
229.3849494016
 20
127.142423847
 10
239.0584440342
 20
134.6969292536
 10
241.8522209105
 20
138.1710257085
  0
LINE
  5
257
100
AcDbEntity
  8
0
100
AcDbLine
 62
7
  6
CONTINUOUS
 10
270.0436673346
 20
152.2502028959
 11
268.755178085
 21
151.5062977213
  0
LINE
  5
258
100
AcDbEntity
  8
0
100
AcDbLine
 62
7
  6
CONTINUOUS
 10
265.4475453841
 20
145.0651850593
 11
266.4999805763
 21
145.5499452272
  0
LWPOLYLINE
  5
259
100
AcDbEntity
  8
0
100
AcDbPolyline
 62
7
  6
CONTINUOUS
 90
3
 70
0
 10
261.0706854136
 20
157.4306392263
 10
265.2113051941
 20
169.1960933168
 10
267.2149811408
 20
184.9095223979
  0
ARC
  5
25A
100
AcDbEntity
  8
0
100
AcDbCircle
 62
7
  6
CONTINUOUS
 10
244.6641035456
 20
137.8544088669
 40
58.7675976228
100
AcDbArc
 50
176.7561735402
 51
178.2218210968
  0
ARC
  5
25B
100
AcDbEntity
  8
0
100
AcDbCircle
 62
7
  6
CONTINUOUS
 10
255.7795235611
 20
157.9386122677
 40
58.2999019539
100
AcDbArc
 50
121.7786280562
 51
123.2535865108
  0
ARC
  5
25C
100
AcDbEntity
  8
0
100
AcDbCircle
 62
7
  6
CONTINUOUS
 10
241.7568662138
 20
137.948919512
 40
55.8588277568
100
AcDbArc
 50
178.2261837949
 51
179.9871526024
  0
ARC
  5
25D
100
AcDbEntity
  8
0
100
AcDbCircle
 62
7
  6
CONTINUOUS
 10
229.0861538189
 20
176.8302629631
 40
28.5468667036
100
AcDbArc
 50
7.6551570771
 51
11.7264400749
  0
ARC
  5
25E
100
AcDbEntity
  8
0
100
AcDbCircle
 62
7
  6
CONTINUOUS
 10
223.816766536
 20
207.3134855735
 40
19.1380835561
100
AcDbArc
 50
60.0006904181
 51
61.1032819421
  0
ARC
  5
25F
100
AcDbEntity
  8
0
100
AcDbCircle
 62
7
  6
CONTINUOUS
 10
185.4548729956
 20
140.8672450659
 40
19.1367869029
100
AcDbArc
 50
238.9042588617
 51
240.0004491019
  0
ARC
  5
260
100
AcDbEntity
  8
0
100
AcDbCircle
 62
7
  6
CONTINUOUS
 10
64.8510931333
 20
203.3819356703
 40
9.1779242276
100
AcDbArc
 50
50.2790551327
 51
52.2713817776
  0
ARC
  5
261
100
AcDbEntity
  8
0
100
AcDbCircle
 62
7
  6
CONTINUOUS
 10
266.2538294922
 20
146.818124563
 40
6.6737391375
100
AcDbArc
 50
34.9422049117
 51
37.0478725601
  0
ARC
  5
262
100
AcDbEntity
  8
0
100
AcDbCircle
 62
7
  6
CONTINUOUS
 10
73.8159616541
 20
205.9195262944
 40
5.935018654
100
AcDbArc
 50
239.2316530335
 51
243.7776055019
  0
ARC
  5
263
100
AcDbEntity
  8
0
100
AcDbCircle
 62
7
  6
CONTINUOUS
 10
68.1872022335
 20
205.979384356
 40
4.8986080748
100
AcDbArc
 50
59.9643443125
 51
63.7894745978
  0
ARC
  5
264
100
AcDbEntity
  8
0
100
AcDbCircle
 62
7
  6
CONTINUOUS
 10
73.1478604222
 20
204.1509776235
 40
4.0379916375
100
AcDbArc
 50
257.5241078646
 51
260.1222788527
  0
ARC
  5
265
100
AcDbEntity
  8
0
100
AcDbCircle
 62
7
  6
CONTINUOUS
 10
69.5146534648
 20
209.3101497139
 40
2.8367445255
100
AcDbArc
 50
120.0003961203
 51
122.7496756602
  0
ARC
  5
266
100
AcDbEntity
  8
0
100
AcDbCircle
 62
7
  6
CONTINUOUS
 10
73.178343018
 20
202.9644388335
 40
2.8358638708
100
AcDbArc
 50
297.0230360491
 51
299.999070655
  0
ARC
  5
267
100
AcDbEntity
  8
0
100
AcDbCircle
 62
7
  6
CONTINUOUS
 10
228.7932853748
 20
124.3063325357
 40
2.6931965035
100
AcDbArc
 50
78.5181070454
 51
84.822191088
  0
ARC
  5
268
100
AcDbEntity
  8
0
100
AcDbCircle
 62
7
  6
CONTINUOUS
 10
264.5078347027
 20
143.559164226
 40
1.7560273036
100
AcDbArc
 50
52.9405089443
 51
58.2461547443
  0
SPLINE
  5
269
100
AcDbEntity
  8
0
100
AcDbSpline
 62
7
  6
CONTINUOUS
 70
0
 71
3
 72
11
 73
7
 74
0
 42
0.0000001
 43
0.0000001
 44
0.0000000001
 40
0.0
 40
0.0
 40
0.0
 40
0.0
 40
0.2177460211
 40
0.4508843679
 40
0.7104607696
 40
1.0
 40
1.0
 40
1.0
 40
1.0
 10
245.4162769878
 20
165.5118103289
 30
0.0
 10
245.5481946548
 20
165.587972544
 30
0.0
 10
245.8511966725
 20
165.6983223304
 30
0.0
 10
246.3549223139
 20
165.7109758991
 30
0.0
 10
246.8914990206
 20
165.5810999355
 30
0.0
 10
247.2407430742
 20
165.4151795244
 30
0.0
 10
247.4161561299
 20
165.3139070405
 30
0.0
  0
SPLINE
  5
26A
100
AcDbEntity
  8
0
100
AcDbSpline
 62
7
  6
CONTINUOUS
 70
0
 71
3
 72
9
 73
5
 74
0
 42
0.0000001
 43
0.0000001
 44
0.0000000001
 40
0.0
 40
0.0
 40
0.0
 40
0.0
 40
0.2318297406
 40
1.0
 40
1.0
 40
1.0
 40
1.0
 10
221.8187991945
 20
116.7727471457
 30
0.0
 10
221.9460365958
 20
116.7909376087
 30
0.0
 10
222.490173225
 20
116.9023843786
 30
0.0
 10
223.0056853124
 20
117.1313623304
 30
0.0
 10
223.3745167379
 20
117.3443059821
 30
0.0
  0
SPLINE
  5
26B
100
AcDbEntity
  8
0
100
AcDbSpline
 62
7
  6
CONTINUOUS
 70
0
 71
3
 72
11
 73
7
 74
0
 42
0.0000001
 43
0.0000001
 44
0.0000000001
 40
0.0
 40
0.0
 40
0.0
 40
0.0
 40
0.2897728319
 40
0.5490651401
 40
0.7822238182
 40
1.0
 40
1.0
 40
1.0
 40
1.0
 10
273.5792336241
 20
144.4935347296
 30
0.0
 10
273.5792336241
 20
145.1270458593
 30
0.0
 10
273.4834566059
 20
146.3315520119
 30
0.0
 10
272.9953138413
 20
147.9863967641
 30
0.0
 10
272.1742273445
 20
149.3292525819
 30
0.0
 10
271.402625772
 20
149.9777602137
 30
0.0
 10
270.9903004175
 20
150.2158110045
 30
0.0
  0
SPLINE
  5
26C
100
AcDbEntity
  8
0
100
AcDbSpline
 62
7
  6
CONTINUOUS
 70
0
 71
3
 72
15
 73
11
 74
0
 42
0.0000001
 43
0.0000001
 44
0.0000000001
 40
0.0
 40
0.0
 40
0.0
 40
0.0
 40
0.0868127015
 40
0.1839385414
 40
0.2967007082
 40
0.4251454748
 40
0.5657258654
 40
0.7127952703
 40
0.8597504385
 40
1.0
 40
1.0
 40
1.0
 40
1.0
 10
223.0565818068
 20
114.5481712575
 30
0.0
 10
222.7459142143
 20
114.7274998267
 30
0.0
 10
222.1754741317
 20
115.2733548959
 30
0.0
 10
221.694085076
 20
116.4270395714
 30
0.0
 10
221.5518874105
 20
117.8325146095
 30
0.0
 10
221.741581012
 20
119.4086975748
 30
0.0
 10
222.2464035345
 20
121.0602243652
 30
0.0
 10
223.0336645763
 20
122.6819766366
 30
0.0
 10
224.0512997546
 20
124.1675178499
 30
0.0
 10
224.8702723971
 20
125.0356164146
 30
0.0
 10
225.305608141
 20
125.4181297328
 30
0.0
  0
SPLINE
  5
26D
100
AcDbEntity
  8
0
100
AcDbSpline
 62
7
  6
CONTINUOUS
 70
0
 71
3
 72
11
 73
7
 74
0
 42
0.0000001
 43
0.0000001
 44
0.0000000001
 40
0.0
 40
0.0
 40
0.0
 40
0.0
 40
0.2888922759
 40
0.5478105783
 40
0.7813590103
 40
1.0
 40
1.0
 40
1.0
 40
1.0
 10
242.4647628043
 20
166.7618756788
 30
0.0
 10
242.4529654551
 20
167.6246317067
 30
0.0
 10
242.3004650899
 20
169.2644303849
 30
0.0
 10
241.6066380063
 20
171.5139772591
 30
0.0
 10
240.4669162545
 20
173.3395349578
 30
0.0
 10
239.4074405839
 20
174.2233033102
 30
0.0
 10
238.841875983
 20
174.5497499792
 30
0.0
  0
SPLINE
  5
26E
100
AcDbEntity
  8
0
100
AcDbSpline
 62
7
  6
CONTINUOUS
 70
0
 71
3
 72
9
 73
5
 74
0
 42
0.0000001
 43
0.0000001
 44
0.0000000001
 40
0.0
 40
0.0
 40
0.0
 40
0.0
 40
0.2318297406
 40
1.0
 40
1.0
 40
1.0
 40
1.0
 10
186.4636073338
 20
137.1856603086
 30
0.0
 10
186.5908447351
 20
137.2038507716
 30
0.0
 10
187.1349813643
 20
137.3152975415
 30
0.0
 10
187.6504934517
 20
137.5442754933
 30
0.0
 10
188.0193248772
 20
137.757219145
 30
0.0
  0
SPLINE
  5
26F
100
AcDbEntity
  8
0
100
AcDbSpline
 62
7
  6
CONTINUOUS
 70
0
 71
3
 72
9
 73
5
 74
0
 42
0.0000001
 43
0.0000001
 44
0.0000000001
 40
0.0
 40
0.0
 40
0.0
 40
0.0
 40
0.5299386194
 40
1.0
 40
1.0
 40
1.0
 40
1.0
 10
255.106054788
 20
161.0674513412
 30
0.0
 10
256.1800732549
 20
164.3988467332
 30
0.0
 10
257.6817032141
 20
170.8718291563
 30
0.0
 10
257.7932654189
 20
177.5560663981
 30
0.0
 10
257.3786040343
 20
180.633006631
 30
0.0
  0
SPLINE
  5
270
100
AcDbEntity
  8
0
100
AcDbSpline
 62
7
  6
CONTINUOUS
 70
0
 71
3
 72
11
 73
7
 74
0
 42
0.0000001
 43
0.0000001
 44
0.0000000001
 40
0.0
 40
0.0
 40
0.0
 40
0.0
 40
0.2764278157
 40
0.5315609329
 40
0.7702879351
 40
1.0
 40
1.0
 40
1.0
 40
1.0
 10
257.0372224887
 20
182.6321039481
 30
0.0
 10
256.7647140336
 20
183.9381394945
 30
0.0
 10
256.0520307904
 20
186.4173637681
 30
0.0
 10
254.3776257098
 20
189.763826596
 30
0.0
 10
252.1666887657
 20
192.5049256917
 30
0.0
 10
250.3447023668
 20
193.8892775931
 30
0.0
 10
249.3845428224
 20
194.4436159447
 30
0.0
  0
SPLINE
  5
271
100
AcDbEntity
  8
0
100
AcDbSpline
 62
7
  6
CONTINUOUS
 70
0
 71
3
 72
13
 73
9
 74
0
 42
0.0000001
 43
0.0000001
 44
0.0000000001
 40
0.0
 40
0.0
 40
0.0
 40
0.0
 40
0.289410532
 40
0.5482917138
 40
0.6677451845
 40
0.7817693773
 40
0.8919023916
 40
1.0
 40
1.0
 40
1.0
 40
1.0
 10
267.2149811408
 20
184.9095223979
 30
0.0
 10
267.2149811408
 20
187.8240511638
 30
0.0
 10
266.7762677035
 20
193.3623365047
 30
0.0
 10
264.8512681798
 20
199.8773793519
 30
0.0
 10
262.51620674
 20
204.2685812956
 30
0.0
 10
260.4562821187
 20
207.0661161194
 30
0.0
 10
258.0612705779
 20
209.4230072091
 30
0.0
 10
256.2487742181
 20
210.6879105483
 30
0.0
 10
255.3060098685
 20
211.2322036694
 30
0.0
  0
SPLINE
  5
272
100
AcDbEntity
  8
0
100
AcDbSpline
 62
7
  6
CONTINUOUS
 70
0
 71
3
 72
11
 73
7
 74
0
 42
0.0000001
 43
0.0000001
 44
0.0000000001
 40
0.0
 40
0.0
 40
0.0
 40
0.0
 40
0.2895448512
 40
0.5491358493
 40
0.7822770651
 40
1.0
 40
1.0
 40
1.0
 40
1.0
 10
201.5566145862
 20
121.6042885436
 30
0.0
 10
201.7429927129
 20
121.7118933629
 30
0.0
 10
202.1140730336
 20
121.8881907504
 30
0.0
 10
202.6842044029
 20
122.026197164
 30
0.0
 10
203.2193940366
 20
122.0127075382
 30
0.0
 10
203.5413421777
 20
121.8955405236
 30
0.0
 10
203.6814910589
 20
121.8146307519
 30
0.0
  0
SPLINE
  5
273
100
AcDbEntity
  8
0
100
AcDbSpline
 62
7
  6
CONTINUOUS
 70
0
 71
3
 72
15
 73
11
 74
0
 42
0.0000001
 43
0.0000001
 44
0.0000000001
 40
0.0
 40
0.0
 40
0.0
 40
0.0
 40
0.128825143
 40
0.2705983408
 40
0.4178987517
 40
0.5623942948
 40
0.6962070879
 40
0.8135986172
 40
0.913066896
 40
1.0
 40
1.0
 40
1.0
 40
1.0
 10
198.551423278
 20
174.1345552176
 30
0.0
 10
198.551423278
 20
174.4978085655
 30
0.0
 10
198.6531269575
 20
175.2616850165
 30
0.0
 10
199.0323204108
 20
176.3832373566
 30
0.0
 10
199.617008276
 20
177.4636115707
 30
0.0
 10
200.3593695916
 20
178.4140381086
 30
0.0
 10
201.2003676325
 20
179.1587087952
 30
0.0
 10
202.0773955951
 20
179.6377493939
 30
0.0
 10
202.9358780613
 20
179.8097635303
 30
0.0
 10
203.4691923456
 20
179.6726147898
 30
0.0
 10
203.6814859498
 20
179.5500606797
 30
0.0
  0
SPLINE
  5
274
100
AcDbEntity
  8
0
100
AcDbSpline
 62
7
  6
CONTINUOUS
 70
0
 71
3
 72
11
 73
7
 74
0
 42
0.0000001
 43
0.0000001
 44
0.0000000001
 40
0.0
 40
0.0
 40
0.0
 40
0.0
 40
0.2895448512
 40
0.5491358493
 40
0.7822770651
 40
1.0
 40
1.0
 40
1.0
 40
1.0
 10
251.5564064159
 20
208.2069491026
 30
0.0
 10
251.7427845426
 20
208.3145539219
 30
0.0
 10
252.1138648633
 20
208.4908513094
 30
0.0
 10
252.6839962326
 20
208.628857723
 30
0.0
 10
253.2191858663
 20
208.6153680972
 30
0.0
 10
253.5411340074
 20
208.4982010825
 30
0.0
 10
253.6812828886
 20
208.4172913108
 30
0.0
  0
SPLINE
  5
275
100
AcDbEntity
  8
0
100
AcDbSpline
 62
7
  6
CONTINUOUS
 70
0
 71
3
 72
11
 73
7
 74
0
 42
0.0000001
 43
0.0000001
 44
0.0000000001
 40
0.0
 40
0.0
 40
0.0
 40
0.0
 40
0.2897011399
 40
0.5490888176
 40
0.7822183492
 40
1.0
 40
1.0
 40
1.0
 40
1.0
 10
261.9117023617
 20
187.5632081638
 30
0.0
 10
262.2188486889
 20
187.7405381199
 30
0.0
 10
262.8298645004
 20
188.0312168096
 30
0.0
 10
263.7690082503
 20
188.2580276093
 30
0.0
 10
264.6502109465
 20
188.2357177453
 30
0.0
 10
265.1807239933
 20
188.0431705873
 30
0.0
 10
265.411631056
 20
187.9098826802
 30
0.0
  0
SPLINE
  5
276
100
AcDbEntity
  8
0
100
AcDbSpline
 62
7
  6
CONTINUOUS
 70
0
 71
3
 72
11
 73
7
 74
0
 42
0.0000001
 43
0.0000001
 44
0.0000000001
 40
0.0
 40
0.0
 40
0.0
 40
0.0
 40
0.2897011399
 40
0.5490888176
 40
0.7822183492
 40
1.0
 40
1.0
 40
1.0
 40
1.0
 10
226.556510501
 20
207.9761213267
 30
0.0
 10
226.8636568282
 20
208.1534512828
 30
0.0
 10
227.4746726398
 20
208.4441299725
 30
0.0
 10
228.4138163896
 20
208.6709407722
 30
0.0
 10
229.2950190858
 20
208.6486309082
 30
0.0
 10
229.8255321326
 20
208.4560837502
 30
0.0
 10
230.0564391953
 20
208.3227958431
 30
0.0
  0
SPLINE
  5
277
100
AcDbEntity
  8
0
100
AcDbSpline
 62
7
  6
CONTINUOUS
 70
0
 71
3
 72
11
 73
7
 74
0
 42
0.0000001
 43
0.0000001
 44
0.0000000001
 40
0.0
 40
0.0
 40
0.0
 40
0.0
 40
0.2897011399
 40
0.5490888176
 40
0.7822183492
 40
1.0
 40
1.0
 40
1.0
 40
1.0
 10
191.2013186403
 20
146.7387927766
 30
0.0
 10
191.5084649675
 20
146.9161227328
 30
0.0
 10
192.1194807791
 20
147.2068014224
 30
0.0
 10
193.0586245289
 20
147.4336122221
 30
0.0
 10
193.9398272251
 20
147.4113023581
 30
0.0
 10
194.4703402719
 20
147.2187552001
 30
0.0
 10
194.7012473346
 20
147.0854672931
 30
0.0
  0
SPLINE
  5
278
100
AcDbEntity
  8
0
100
AcDbSpline
 62
7
  6
CONTINUOUS
 70
0
 71
3
 72
9
 73
5
 74
0
 42
0.0000001
 43
0.0000001
 44
0.0000000001
 40
0.0
 40
0.0
 40
0.0
 40
0.0
 40
0.2542339005
 40
1.0
 40
1.0
 40
1.0
 40
1.0
 10
229.3293883341
 20
126.945631879
 30
0.0
 10
229.3940346199
 20
126.9324507716
 30
0.0
 10
229.6462380293
 20
126.871010409
 30
0.0
 10
229.8888253824
 20
126.7693068845
 30
0.0
 10
230.0564391953
 20
126.6725541302
 30
0.0
  0
SPLINE
  5
279
100
AcDbEntity
  8
0
100
AcDbSpline
 62
7
  6
CONTINUOUS
 70
0
 71
3
 72
21
 73
17
 74
0
 42
0.0000001
 43
0.0000001
 44
0.0000000001
 40
0.0
 40
0.0
 40
0.0
 40
0.0
 40
0.0623051127
 40
0.1285486093
 40
0.198032017
 40
0.2698992361
 40
0.4167036011
 40
0.5608355241
 40
0.6294833131
 40
0.6946726498
 40
0.7557700753
 40
0.8123946185
 40
0.8644993031
 40
0.912462801
 40
0.9571672741
 40
1.0
 40
1.0
 40
1.0
 40
1.0
 10
163.9776383817
 20
150.6169080928
 30
0.0
 10
163.9776383817
 20
152.9907269013
 30
0.0
 10
164.297679035
 20
157.8916822288
 30
0.0
 10
165.6150177573
 20
165.3333739509
 30
0.0
 10
167.7572939775
 20
172.959936659
 30
0.0
 10
171.6799485919
 20
183.2271507122
 30
0.0
 10
178.2684364707
 20
195.4566509472
 30
0.0
 10
186.716203417
 20
206.3377939113
 30
0.0
 10
194.3256893936
 20
213.7250678169
 30
0.0
 10
200.1631683174
 20
218.3402334836
 30
0.0
 10
206.1002805465
 20
222.0219682957
 30
0.0
 10
212.0179142583
 20
224.6919276378
 30
0.0
 10
217.7990257035
 20
226.2894606099
 30
0.0
 10
223.3312777282
 20
226.7676110674
 30
0.0
 10
228.4940598198
 20
226.0948666546
 30
0.0
 10
231.6361710966
 20
224.8573286619
 30
0.0
 10
233.0649054311
 20
224.068728609
 30
0.0
  0
SPLINE
  5
27A
100
AcDbEntity
  8
0
100
AcDbSpline
 62
7
  6
CONTINUOUS
 70
0
 71
3
 72
11
 73
7
 74
0
 42
0.0000001
 43
0.0000001
 44
0.0000000001
 40
0.0
 40
0.0
 40
0.0
 40
0.0
 40
0.204627227
 40
0.4331939469
 40
0.6982076839
 40
1.0
 40
1.0
 40
1.0
 40
1.0
 10
187.7013899461
 20
134.9610844204
 30
0.0
 10
187.3935477528
 20
135.138782067
 30
0.0
 10
186.8278593198
 20
135.6775559071
 30
0.0
 10
186.3458474806
 20
136.8162638077
 30
0.0
 10
186.1969958619
 20
138.2039962414
 30
0.0
 10
186.3095520875
 20
139.189487667
 30
0.0
 10
186.4124418131
 20
139.7035202158
 30
0.0
  0
SPLINE
  5
27B
100
AcDbEntity
  8
0
100
AcDbSpline
 62
7
  6
CONTINUOUS
 70
0
 71
3
 72
9
 73
5
 74
0
 42
0.0000001
 43
0.0000001
 44
0.0000000001
 40
0.0
 40
0.0
 40
0.0
 40
0.0
 40
0.4977860332
 40
1.0
 40
1.0
 40
1.0
 40
1.0
 10
186.4124418131
 20
139.7035202158
 30
0.0
 10
186.6347764684
 20
140.8142943861
 30
0.0
 10
187.4788929383
 20
142.9694320323
 30
0.0
 10
188.8689728178
 20
144.8174285961
 30
0.0
 10
189.699622364
 20
145.6024155591
 30
0.0
  0
SPLINE
  5
27C
100
AcDbEntity
  8
0
100
AcDbSpline
 62
7
  6
CONTINUOUS
 70
0
 71
3
 72
9
 73
5
 74
0
 42
0.0000001
 43
0.0000001
 44
0.0000000001
 40
0.0
 40
0.0
 40
0.0
 40
0.0
 40
0.2619521903
 40
1.0
 40
1.0
 40
1.0
 40
1.0
 10
189.699622364
 20
145.6024155591
 30
0.0
 10
189.8192809729
 20
145.7154962782
 30
0.0
 10
190.2870255984
 20
146.1351968838
 30
0.0
 10
190.7996000724
 20
146.5068618377
 30
0.0
 10
191.2013186403
 20
146.7387927766
 30
0.0
  0
SPLINE
  5
27D
100
AcDbEntity
  8
0
100
AcDbSpline
 62
7
  6
CONTINUOUS
 70
0
 71
3
 72
9
 73
5
 74
0
 42
0.0000001
 43
0.0000001
 44
0.0000000001
 40
0.0
 40
0.0
 40
0.0
 40
0.0
 40
0.2318297406
 40
1.0
 40
1.0
 40
1.0
 40
1.0
 10
221.8187991945
 20
198.4229888586
 30
0.0
 10
221.9460365958
 20
198.4411793216
 30
0.0
 10
222.490173225
 20
198.5526260916
 30
0.0
 10
223.0056853124
 20
198.7816040434
 30
0.0
 10
223.3745167379
 20
198.9945476951
 30
0.0
  0
SPLINE
  5
27E
100
AcDbEntity
  8
0
100
AcDbSpline
 62
7
  6
CONTINUOUS
 70
0
 71
3
 72
15
 73
11
 74
0
 42
0.0000001
 43
0.0000001
 44
0.0000000001
 40
0.0
 40
0.0
 40
0.0
 40
0.0
 40
0.0868127015
 40
0.1839385414
 40
0.2967007082
 40
0.4251454748
 40
0.5657258654
 40
0.7127952703
 40
0.8597504385
 40
1.0
 40
1.0
 40
1.0
 40
1.0
 10
223.0565818068
 20
196.1984129704
 30
0.0
 10
222.7459142143
 20
196.3777415397
 30
0.0
 10
222.1754741317
 20
196.9235966089
 30
0.0
 10
221.694085076
 20
198.0772812843
 30
0.0
 10
221.5518874105
 20
199.4827563225
 30
0.0
 10
221.741581012
 20
201.0589392877
 30
0.0
 10
222.2464035345
 20
202.7104660781
 30
0.0
 10
223.0336645763
 20
204.3322183495
 30
0.0
 10
224.0512997546
 20
205.8177595629
 30
0.0
 10
224.8702723971
 20
206.6858581275
 30
0.0
 10
225.305608141
 20
207.0683714458
 30
0.0
  0
SPLINE
  5
27F
100
AcDbEntity
  8
0
100
AcDbSpline
 62
7
  6
CONTINUOUS
 70
0
 71
3
 72
9
 73
5
 74
0
 42
0.0000001
 43
0.0000001
 44
0.0000000001
 40
0.0
 40
0.0
 40
0.0
 40
0.0
 40
0.2604355757
 40
1.0
 40
1.0
 40
1.0
 40
1.0
 10
225.305608141
 20
207.0683714458
 30
0.0
 10
225.4064890986
 20
207.1570117893
 30
0.0
 10
225.8012751042
 20
207.4886814283
 30
0.0
 10
226.2262520377
 20
207.7854476521
 30
0.0
 10
226.556510501
 20
207.9761213267
 30
0.0
  0
SPLINE
  5
280
100
AcDbEntity
  8
0
100
AcDbSpline
 62
7
  6
CONTINUOUS
 70
0
 71
3
 72
9
 73
5
 74
0
 42
0.0000001
 43
0.0000001
 44
0.0000000001
 40
0.0
 40
0.0
 40
0.0
 40
0.0
 40
0.2323994294
 40
1.0
 40
1.0
 40
1.0
 40
1.0
 10
257.2192306094
 20
178.0168686343
 30
0.0
 10
257.3430409003
 20
178.0363462062
 30
0.0
 10
257.8709613497
 20
178.1508409724
 30
0.0
 10
258.3712021362
 20
178.3746519651
 30
0.0
 10
258.7297085985
 20
178.5816345322
 30
0.0
  0
SPLINE
  5
281
100
AcDbEntity
  8
0
100
AcDbSpline
 62
7
  6
CONTINUOUS
 70
0
 71
3
 72
9
 73
5
 74
0
 42
0.0000001
 43
0.0000001
 44
0.0000000001
 40
0.0
 40
0.0
 40
0.0
 40
0.0
 40
0.4684457015
 40
1.0
 40
1.0
 40
1.0
 40
1.0
 10
258.4117736674
 20
175.7854998075
 30
0.0
 10
258.076555481
 20
175.9789998675
 30
0.0
 10
257.4654736499
 20
176.5871615863
 30
0.0
 10
257.1747702183
 20
177.3826194018
 30
0.0
 10
257.0812869664
 20
177.8117567682
 30
0.0
  0
SPLINE
  5
282
100
AcDbEntity
  8
0
100
AcDbSpline
 62
7
  6
CONTINUOUS
 70
0
 71
3
 72
9
 73
5
 74
0
 42
0.0000001
 43
0.0000001
 44
0.0000000001
 40
0.0
 40
0.0
 40
0.0
 40
0.0
 40
0.4977860332
 40
1.0
 40
1.0
 40
1.0
 40
1.0
 10
257.1228255344
 20
180.527935603
 30
0.0
 10
257.3451601898
 20
181.6387097732
 30
0.0
 10
258.1892766597
 20
183.7938474195
 30
0.0
 10
259.5793565391
 20
185.6418439833
 30
0.0
 10
260.4100060854
 20
186.4268309462
 30
0.0
  0
SPLINE
  5
283
100
AcDbEntity
  8
0
100
AcDbSpline
 62
7
  6
CONTINUOUS
 70
0
 71
3
 72
9
 73
5
 74
0
 42
0.0000001
 43
0.0000001
 44
0.0000000001
 40
0.0
 40
0.0
 40
0.0
 40
0.0
 40
0.2619521903
 40
1.0
 40
1.0
 40
1.0
 40
1.0
 10
260.4100060854
 20
186.4268309462
 30
0.0
 10
260.5296646943
 20
186.5399116653
 30
0.0
 10
260.9974093198
 20
186.959612271
 30
0.0
 10
261.5099837938
 20
187.3312772249
 30
0.0
 10
261.9117023617
 20
187.5632081638
 30
0.0
  0
SPLINE
  5
284
100
AcDbEntity
  8
0
100
AcDbSpline
 62
7
  6
CONTINUOUS
 70
0
 71
3
 72
15
 73
11
 74
0
 42
0.0000001
 43
0.0000001
 44
0.0000000001
 40
0.0
 40
0.0
 40
0.0
 40
0.0
 40
0.0869269787
 40
0.1863918984
 40
0.3037797627
 40
0.4375877569
 40
0.5820839034
 40
0.7293916416
 40
0.8711748496
 40
1.0
 40
1.0
 40
1.0
 40
1.0
 10
249.4315299431
 20
201.0563363487
 30
0.0
 10
249.2192516216
 20
201.1788873843
 30
0.0
 10
248.8338409031
 20
201.5721709837
 30
0.0
 10
248.5535375536
 20
202.4015964887
 30
0.0
 10
248.5298490902
 20
203.40062457
 30
0.0
 10
248.7542107606
 20
204.5012824402
 30
0.0
 10
249.2060998373
 20
205.6194319833
 30
0.0
 10
249.8493807025
 20
206.6660527125
 30
0.0
 10
250.631106741
 20
207.5552771318
 30
0.0
 10
251.2418160936
 20
208.0253213795
 30
0.0
 10
251.5564064159
 20
208.2069491026
 30
0.0
  0
SPLINE
  5
285
100
AcDbEntity
  8
0
100
AcDbSpline
 62
7
  6
CONTINUOUS
 70
0
 71
3
 72
11
 73
7
 74
0
 42
0.0000001
 43
0.0000001
 44
0.0000000001
 40
0.0
 40
0.0
 40
0.0
 40
0.0
 40
0.2177231375
 40
0.4508717887
 40
0.7104673698
 40
1.0
 40
1.0
 40
1.0
 40
1.0
 10
199.4317432226
 20
172.1891250634
 30
0.0
 10
199.2915873359
 20
172.2700350843
 30
0.0
 10
199.0291288451
 20
172.4902821644
 30
0.0
 10
198.7498332043
 20
172.9470472059
 30
0.0
 10
198.5842884764
 20
173.5098233405
 30
0.0
 10
198.551423278
 20
173.9193456656
 30
0.0
 10
198.551423278
 20
174.1345552176
 30
0.0
  0
SPLINE
  5
286
100
AcDbEntity
  8
0
100
AcDbSpline
 62
7
  6
CONTINUOUS
 70
0
 71
3
 72
15
 73
11
 74
0
 42
0.0000001
 43
0.0000001
 44
0.0000000001
 40
0.0
 40
0.0
 40
0.0
 40
0.0
 40
0.0869269787
 40
0.1863918984
 40
0.3037797627
 40
0.4375877569
 40
0.5820839034
 40
0.7293916416
 40
0.8711748496
 40
1.0
 40
1.0
 40
1.0
 40
1.0
 10
199.4317381134
 20
114.4536757897
 30
0.0
 10
199.2194597919
 20
114.5762268253
 30
0.0
 10
198.8340490734
 20
114.9695104247
 30
0.0
 10
198.5537457239
 20
115.7989359298
 30
0.0
 10
198.5300572605
 20
116.797964011
 30
0.0
 10
198.7544189309
 20
117.8986218812
 30
0.0
 10
199.2063080076
 20
119.0167714243
 30
0.0
 10
199.8495888728
 20
120.0633921535
 30
0.0
 10
200.6313149113
 20
120.9526165728
 30
0.0
 10
201.2420242639
 20
121.4226608205
 30
0.0
 10
201.5566145862
 20
121.6042885436
 30
0.0
  0
SPLINE
  5
287
100
AcDbEntity
  8
0
100
AcDbSpline
 62
7
  6
CONTINUOUS
 70
0
 71
3
 72
9
 73
5
 74
0
 42
0.0000001
 43
0.0000001
 44
0.0000000001
 40
0.0
 40
0.0
 40
0.0
 40
0.0
 40
0.2424322863
 40
1.0
 40
1.0
 40
1.0
 40
1.0
 10
69.5784900745
 20
211.2408169497
 30
0.0
 10
69.6535661458
 20
211.1974727404
 30
0.0
 10
69.9599047708
 20
211.0129261168
 30
0.0
 10
70.2529884567
 20
210.806654805
 30
0.0
 10
70.4672684056
 20
210.6409210289
 30
0.0
  0
SPLINE
  5
288
100
AcDbEntity
  8
0
100
AcDbSpline
 62
7
  6
CONTINUOUS
 70
0
 71
3
 72
11
 73
7
 74
0
 42
0.0000001
 43
0.0000001
 44
0.0000000001
 40
0.0
 40
0.0
 40
0.0
 40
0.0
 40
0.2612057784
 40
0.5338276756
 40
0.7877550223
 40
1.0
 40
1.0
 40
1.0
 40
1.0
 10
70.7162367463
 20
210.4412829153
 30
0.0
 10
71.4721970486
 20
209.8133948088
 30
0.0
 10
72.8244698044
 20
208.2924535895
 30
0.0
 10
74.2441328787
 20
205.6620440461
 30
0.0
 10
74.9649975622
 20
202.9526636806
 30
0.0
 10
74.8864373459
 20
201.1449305493
 30
0.0
 10
74.6453258947
 20
200.383692859
 30
0.0
  0
SPLINE
  5
289
100
AcDbEntity
  8
0
100
AcDbSpline
 62
7
  6
CONTINUOUS
 70
0
 71
3
 72
9
 73
5
 74
0
 42
0.0000001
 43
0.0000001
 44
0.0000000001
 40
0.0
 40
0.0
 40
0.0
 40
0.0
 40
0.5246376287
 40
1.0
 40
1.0
 40
1.0
 40
1.0
 10
74.6453258947
 20
200.383692859
 30
0.0
 10
74.5271060825
 20
200.0104489657
 30
0.0
 10
74.2031349341
 20
199.3208161752
 30
0.0
 10
73.6357001581
 20
198.7992088956
 30
0.0
 10
73.3284561173
 20
198.6218785092
 30
0.0
  0
SPLINE
  5
28A
100
AcDbEntity
  8
0
100
AcDbSpline
 62
7
  6
CONTINUOUS
 70
0
 71
3
 72
15
 73
11
 74
0
 42
0.0000001
 43
0.0000001
 44
0.0000000001
 40
0.0
 40
0.0
 40
0.0
 40
0.0
 40
0.1034444491
 40
0.2120447399
 40
0.3302354263
 40
0.4595439523
 40
0.5970697653
 40
0.7371043156
 40
0.8730841772
 40
1.0
 40
1.0
 40
1.0
 40
1.0
 10
67.9800606003
 20
211.6959712167
 30
0.0
 10
67.608161628
 20
211.4567620981
 30
0.0
 10
66.9597985139
 20
210.7719596475
 30
0.0
 10
66.475575182
 20
209.4156149674
 30
0.0
 10
66.4164850493
 20
207.877370678
 30
0.0
 10
66.7270439822
 20
206.2498003512
 30
0.0
 10
67.3664696356
 20
204.6228435592
 30
0.0
 10
68.2852400789
 20
203.1026491273
 30
0.0
 10
69.4187192934
 20
201.7947687775
 30
0.0
 10
70.313409636
 20
201.0970553496
 30
0.0
 10
70.7797945199
 20
200.8199051755
 30
0.0
  0
SPLINE
  5
28B
100
AcDbEntity
  8
0
100
AcDbSpline
 62
7
  6
CONTINUOUS
 70
0
 71
3
 72
9
 73
5
 74
0
 42
0.0000001
 43
0.0000001
 44
0.0000000001
 40
0.0
 40
0.0
 40
0.0
 40
0.0
 40
0.2566363636
 40
1.0
 40
1.0
 40
1.0
 40
1.0
 10
71.1935349689
 20
200.595305722
 30
0.0
 10
71.2818715574
 20
200.5518899641
 30
0.0
 10
71.6303460197
 20
200.3917378449
 30
0.0
 10
71.9971532978
 20
200.2698776861
 30
0.0
 10
72.2755379064
 20
200.2083351222
 30
0.0
  0
SPLINE
  5
28C
100
AcDbEntity
  8
0
100
AcDbSpline
 62
7
  6
CONTINUOUS
 70
0
 71
3
 72
9
 73
5
 74
0
 42
0.0000001
 43
0.0000001
 44
0.0000000001
 40
0.0
 40
0.0
 40
0.0
 40
0.0
 40
0.5069702824
 40
1.0
 40
1.0
 40
1.0
 40
1.0
 10
72.4551589551
 20
200.1728447522
 30
0.0
 10
72.7974879059
 20
200.1132995258
 30
0.0
 10
73.4935404673
 20
200.0837724356
 30
0.0
 10
74.165792568
 20
200.2846510101
 30
0.0
 10
74.4668140714
 20
200.4381834548
 30
0.0
  0
SPLINE
  5
28D
100
AcDbEntity
  8
0
100
AcDbSpline
 62
7
  6
CONTINUOUS
 70
0
 71
3
 72
9
 73
5
 74
0
 42
0.0000001
 43
0.0000001
 44
0.0000000001
 40
0.0
 40
0.0
 40
0.0
 40
0.0
 40
0.4754307743
 40
1.0
 40
1.0
 40
1.0
 40
1.0
 10
65.8285240318
 20
211.6122191333
 30
0.0
 10
66.1354175385
 20
211.7893472038
 30
0.0
 10
66.86971673
 20
212.0199224272
 30
0.0
 10
67.6280396536
 20
211.9563835334
 30
0.0
 10
68.0098883981
 20
211.8724488974
 30
0.0
  0
SPLINE
  5
28E
100
AcDbEntity
  8
0
100
AcDbSpline
 62
7
  6
CONTINUOUS
 70
0
 71
3
 72
9
 73
5
 74
0
 42
0.0000001
 43
0.0000001
 44
0.0000000001
 40
0.0
 40
0.0
 40
0.0
 40
0.0
 40
0.2348890686
 40
1.0
 40
1.0
 40
1.0
 40
1.0
 10
68.0098883981
 20
211.8724488974
 30
0.0
 10
68.1394949966
 20
211.8439599136
 30
0.0
 10
68.6855737491
 20
211.6968765462
 30
0.0
 10
69.2041484593
 20
211.4569382928
 30
0.0
 10
69.5784900745
 20
211.2408169497
 30
0.0
  0
SPLINE
  5
28F
100
AcDbEntity
  8
0
100
AcDbSpline
 62
7
  6
CONTINUOUS
 70
0
 71
3
 72
13
 73
9
 74
0
 42
0.0000001
 43
0.0000001
 44
0.0000000001
 40
0.0
 40
0.0
 40
0.0
 40
0.0
 40
0.1079996074
 40
0.218192311
 40
0.3323552393
 40
0.451953534
 40
0.7109405076
 40
1.0
 40
1.0
 40
1.0
 40
1.0
 10
175.5713027854
 20
124.4803096334
 30
0.0
 10
174.6511904653
 20
125.0352615051
 30
0.0
 10
172.8838217015
 20
126.3163171202
 30
0.0
 10
170.5523123285
 20
128.6801410027
 30
0.0
 10
168.5478466101
 20
131.4698080117
 30
0.0
 10
166.2769729765
 20
135.8307598021
 30
0.0
 10
164.4053572289
 20
142.2724177761
 30
0.0
 10
163.9776383817
 20
147.7409884501
 30
0.0
 10
163.9776383817
 20
150.6169080928
 30
0.0
  0
SPLINE
  5
290
100
AcDbEntity
  8
0
100
AcDbSpline
 62
7
  6
CONTINUOUS
 70
0
 71
3
 72
15
 73
11
 74
0
 42
0.0000001
 43
0.0000001
 44
0.0000000001
 40
0.0
 40
0.0
 40
0.0
 40
0.0
 40
0.0942201782
 40
0.1934711982
 40
0.3015804463
 40
0.4206633102
 40
0.551234702
 40
0.6925448526
 40
0.8429124451
 40
1.0
 40
1.0
 40
1.0
 40
1.0
 10
197.8070111336
 20
111.6387634311
 30
0.0
 10
199.4335636901
 20
110.6996938024
 30
0.0
 10
203.0832507391
 20
109.2665122741
 30
0.0
 10
209.1344915756
 20
108.7067283313
 30
0.0
 10
215.6225370846
 20
109.6715520555
 30
0.0
 10
222.3691222935
 20
112.0960773231
 30
0.0
 10
229.2064221889
 20
115.8950905304
 30
0.0
 10
235.9574063008
 20
120.9598703897
 30
0.0
 10
242.4410165718
 20
127.1492538274
 30
0.0
 10
246.4058982862
 20
131.8394551421
 30
0.0
 10
248.3073244543
 20
134.3274241595
 30
0.0
  0
SPLINE
  5
291
100
AcDbEntity
  8
0
100
AcDbSpline
 62
7
  6
CONTINUOUS
 70
0
 71
3
 72
12
 73
8
 74
0
 42
0.0000001
 43
0.0000001
 44
0.0000000001
 40
0.0
 40
0.0
 40
0.0
 40
0.0
 40
0.1081619494
 40
0.2183621245
 40
0.4513673188
 40
0.7104093964
 40
1.0
 40
1.0
 40
1.0
 40
1.0
 10
209.3853559809
 20
125.1614251197
 30
0.0
 10
210.0411503207
 20
124.7828089247
 30
0.0
 10
211.4336176697
 20
124.1307585108
 30
0.0
 10
214.491297865
 20
123.2844224889
 30
0.0
 10
218.7738879273
 20
123.1707258386
 30
0.0
 10
224.137271341
 20
124.4673156327
 30
0.0
 10
227.6291442872
 20
126.1287153426
 30
0.0
 10
229.3849494016
 20
127.142423847
 30
0.0
  0
SPLINE
  5
292
100
AcDbEntity
  8
0
100
AcDbSpline
 62
7
  6
CONTINUOUS
 70
0
 71
3
 72
11
 73
7
 74
0
 42
0.0000001
 43
0.0000001
 44
0.0000000001
 40
0.0
 40
0.0
 40
0.0
 40
0.0
 40
0.2183930155
 40
0.4518252625
 40
0.710837879
 40
1.0
 40
1.0
 40
1.0
 40
1.0
 10
221.3422422705
 20
144.2388095762
 30
0.0
 10
221.9110074017
 20
143.9105155454
 30
0.0
 10
223.2145461451
 20
143.4330611233
 30
0.0
 10
225.3796461483
 20
143.3639277285
 30
0.0
 10
227.6893603292
 20
143.8993819792
 30
0.0
 10
229.1942759151
 20
144.5980726323
 30
0.0
 10
229.951588879
 20
145.025314276
 30
0.0
  0
SPLINE
  5
293
100
AcDbEntity
  8
0
100
AcDbSpline
 62
7
  6
CONTINUOUS
 70
0
 71
3
 72
11
 73
7
 74
0
 42
0.0000001
 43
0.0000001
 44
0.0000000001
 40
0.0
 40
0.0
 40
0.0
 40
0.0
 40
0.2177775995
 40
0.4509368668
 40
0.7102286427
 40
1.0
 40
1.0
 40
1.0
 40
1.0
 10
258.4905709005
 20
128.5651546079
 30
0.0
 10
258.9028826049
 20
128.3271116979
 30
0.0
 10
259.8502775432
 20
127.9831644278
 30
0.0
 10
261.4237081431
 20
127.9435186323
 30
0.0
 10
263.1008473803
 20
128.3481797644
 30
0.0
 10
264.1918226343
 20
128.8674626053
 30
0.0
 10
264.740435659
 20
129.1842025921
 30
0.0
  0
SPLINE
  5
294
100
AcDbEntity
  8
0
100
AcDbSpline
 62
7
  6
CONTINUOUS
 70
0
 71
3
 72
11
 73
7
 74
0
 42
0.0000001
 43
0.0000001
 44
0.0000000001
 40
0.0
 40
0.0
 40
0.0
 40
0.0
 40
0.237208662
 40
0.4999841353
 40
0.7627613534
 40
1.0
 40
1.0
 40
1.0
 40
1.0
 10
265.4476858983
 20
129.5926687293
 30
0.0
 10
266.6019877621
 20
130.2591150658
 30
0.0
 10
268.7866487474
 20
132.0976437777
 30
0.0
 10
271.3364560439
 20
135.5820598452
 30
0.0
 10
273.079246661
 20
139.5325920694
 30
0.0
 10
273.5792395121
 20
142.3440034314
 30
0.0
 10
273.5792395121
 20
143.6770498212
 30
0.0
  0
SPLINE
  5
295
100
AcDbEntity
  8
0
100
AcDbSpline
 62
7
  6
CONTINUOUS
 70
0
 71
3
 72
11
 73
7
 74
0
 42
0.0000001
 43
0.0000001
 44
0.0000000001
 40
0.0
 40
0.0
 40
0.0
 40
0.0
 40
0.2237625553
 40
0.4858572832
 40
0.7558569034
 40
1.0
 40
1.0
 40
1.0
 40
1.0
 10
260.2859169567
 20
134.7867475565
 30
0.0
 10
260.1124165572
 20
135.6697204668
 30
0.0
 10
260.2229164839
 20
137.6767179131
 30
0.0
 10
261.2655323348
 20
140.5609390051
 30
0.0
 10
263.0136919301
 20
143.1813595469
 30
0.0
 10
264.597265188
 20
144.5742784895
 30
0.0
 10
265.4475453841
 20
145.0651850593
 30
0.0
  0
SPLINE
  5
296
100
AcDbEntity
  8
0
100
AcDbSpline
 62
7
  6
CONTINUOUS
 70
0
 71
3
 72
9
 73
5
 74
0
 42
0.0000001
 43
0.0000001
 44
0.0000000001
 40
0.0
 40
0.0
 40
0.0
 40
0.0
 40
0.2312765099
 40
1.0
 40
1.0
 40
1.0
 40
1.0
 10
270.0436673346
 20
152.2502028959
 30
0.0
 10
270.183494508
 20
152.169475466
 30
0.0
 10
270.7653063664
 20
151.7812822534
 30
0.0
 10
271.2570076716
 20
151.2672394143
 30
0.0
 10
271.5803568906
 20
150.8389329331
 30
0.0
  0
SPLINE
  5
297
100
AcDbEntity
  8
0
100
AcDbSpline
 62
7
  6
CONTINUOUS
 70
0
 71
3
 72
9
 73
5
 74
0
 42
0.0000001
 43
0.0000001
 44
0.0000000001
 40
0.0
 40
0.0
 40
0.0
 40
0.0
 40
0.5194926759
 40
1.0
 40
1.0
 40
1.0
 40
1.0
 10
271.7244950259
 20
150.6405076801
 30
0.0
 10
272.0470994234
 20
150.1788394574
 30
0.0
 10
272.561969028
 20
149.2124286272
 30
0.0
 10
272.8269250129
 20
148.1430886269
 30
0.0
 10
272.8625722589
 20
147.6233611736
 30
0.0
  0
SPLINE
  5
298
100
AcDbEntity
  8
0
100
AcDbSpline
 62
7
  6
CONTINUOUS
 70
0
 71
3
 72
12
 73
8
 74
0
 42
0.0000001
 43
0.0000001
 44
0.0000000001
 40
0.0
 40
0.0
 40
0.0
 40
0.0
 40
0.2496221213
 40
0.5248228737
 40
0.6598357842
 40
0.7863976972
 40
1.0
 40
1.0
 40
1.0
 40
1.0
 10
223.3745167379
 20
117.3443059821
 30
0.0
 10
224.1470590964
 20
117.7903308583
 30
0.0
 10
225.5678292041
 20
119.0784579293
 30
0.0
 10
226.8350675827
 20
121.0962742868
 30
0.0
 10
227.5088469355
 20
122.9017065022
 30
0.0
 10
227.8562702063
 20
124.5616439774
 30
0.0
 10
227.8076408053
 20
125.8337747225
 30
0.0
 10
227.542694755
 20
126.5496521153
 30
0.0
  0
SPLINE
  5
299
100
AcDbEntity
  8
0
100
AcDbSpline
 62
7
  6
CONTINUOUS
 70
0
 71
3
 72
13
 73
9
 74
0
 42
0.0000001
 43
0.0000001
 44
0.0000000001
 40
0.0
 40
0.0
 40
0.0
 40
0.0
 40
0.1204887003
 40
0.25198634
 40
0.5284683008
 40
0.6634898776
 40
0.7894190875
 40
1.0
 40
1.0
 40
1.0
 40
1.0
 10
188.0193248772
 20
137.757219145
 30
0.0
 10
188.3979674216
 20
137.9758272151
 30
0.0
 10
189.140712912
 20
138.5205808393
 30
0.0
 10
190.4799990075
 20
139.900658696
 30
0.0
 10
191.5315621926
 20
141.6034168086
 30
0.0
 10
192.192431058
 20
143.446961623
 30
0.0
 10
192.5135327536
 20
145.1249091262
 30
0.0
 10
192.4286615759
 20
146.4076827523
 30
0.0
 10
192.1286545908
 20
147.1104629789
 30
0.0
  0
SPLINE
  5
29A
100
AcDbEntity
  8
0
100
AcDbSpline
 62
7
  6
CONTINUOUS
 70
0
 71
3
 72
13
 73
9
 74
0
 42
0.0000001
 43
0.0000001
 44
0.0000000001
 40
0.0
 40
0.0
 40
0.0
 40
0.0
 40
0.1204887003
 40
0.25198634
 40
0.5284683008
 40
0.6634898776
 40
0.7894190875
 40
1.0
 40
1.0
 40
1.0
 40
1.0
 10
258.7297085985
 20
178.5816345322
 30
0.0
 10
259.108351143
 20
178.8002426022
 30
0.0
 10
259.8510966334
 20
179.3449962264
 30
0.0
 10
261.1903827289
 20
180.7250740832
 30
0.0
 10
262.2419459139
 20
182.4278321957
 30
0.0
 10
262.9028147794
 20
184.2713770102
 30
0.0
 10
263.223916475
 20
185.9493245134
 30
0.0
 10
263.1390452973
 20
187.2320981394
 30
0.0
 10
262.8390383122
 20
187.934878366
 30
0.0
  0
SPLINE
  5
29B
100
AcDbEntity
  8
0
100
AcDbSpline
 62
7
  6
CONTINUOUS
 70
0
 71
3
 72
13
 73
9
 74
0
 42
0.0000001
 43
0.0000001
 44
0.0000000001
 40
0.0
 40
0.0
 40
0.0
 40
0.0
 40
0.1204887003
 40
0.25198634
 40
0.5284683008
 40
0.6634898776
 40
0.7894190875
 40
1.0
 40
1.0
 40
1.0
 40
1.0
 10
223.3745167379
 20
198.9945476951
 30
0.0
 10
223.7531592823
 20
199.2131557651
 30
0.0
 10
224.4959047727
 20
199.7579093893
 30
0.0
 10
225.8351908682
 20
201.1379872461
 30
0.0
 10
226.8867540532
 20
202.8407453586
 30
0.0
 10
227.5476229187
 20
204.6842901731
 30
0.0
 10
227.8687246143
 20
206.3622376763
 30
0.0
 10
227.7838534366
 20
207.6450113024
 30
0.0
 10
227.4838464515
 20
208.3477915289
 30
0.0
  0
SPLINE
  5
29C
100
AcDbEntity
  8
0
100
AcDbSpline
 62
7
  6
CONTINUOUS
 70
0
 71
3
 72
16
 73
12
 74
0
 42
0.0000001
 43
0.0000001
 44
0.0000000001
 40
0.0
 40
0.0
 40
0.0
 40
0.0
 40
0.0428776599
 40
0.0875230387
 40
0.1869282897
 40
0.3042399068
 40
0.437963827
 40
0.5823685867
 40
0.7295968178
 40
0.8712510281
 40
1.0
 40
1.0
 40
1.0
 40
1.0
 10
230.0564391953
 20
126.6725541302
 30
0.0
 10
230.2290205269
 20
126.5729339444
 30
0.0
 10
230.5560615424
 20
126.3224452961
 30
0.0
 10
231.099773061
 20
125.6352293707
 30
0.0
 10
231.5047497725
 20
124.4556201199
 30
0.0
 10
231.5407715677
 20
122.8114502686
 30
0.0
 10
231.172093688
 20
120.998141986
 30
0.0
 10
230.4275623801
 20
119.1564494925
 30
0.0
 10
229.3679219714
 20
117.432764043
 30
0.0
 10
228.0805608191
 20
115.9680390387
 30
0.0
 10
227.0746965325
 20
115.1940188328
 30
0.0
 10
226.556510501
 20
114.8948457739
 30
0.0
  0
SPLINE
  5
29D
100
AcDbEntity
  8
0
100
AcDbSpline
 62
7
  6
CONTINUOUS
 70
0
 71
3
 72
16
 73
12
 74
0
 42
0.0000001
 43
0.0000001
 44
0.0000000001
 40
0.0
 40
0.0
 40
0.0
 40
0.0
 40
0.0428776599
 40
0.0875230387
 40
0.1869282897
 40
0.3042399068
 40
0.437963827
 40
0.5823685867
 40
0.7295968178
 40
0.8712510281
 40
1.0
 40
1.0
 40
1.0
 40
1.0
 10
230.0564391953
 20
208.3227958431
 30
0.0
 10
230.2290205269
 20
208.2231756573
 30
0.0
 10
230.5560615424
 20
207.9726870091
 30
0.0
 10
231.099773061
 20
207.2854710836
 30
0.0
 10
231.5047497725
 20
206.1058618329
 30
0.0
 10
231.5407715677
 20
204.4616919815
 30
0.0
 10
231.172093688
 20
202.648383699
 30
0.0
 10
230.4275623801
 20
200.8066912054
 30
0.0
 10
229.3679219714
 20
199.0830057559
 30
0.0
 10
228.0805608191
 20
197.6182807516
 30
0.0
 10
227.0746965325
 20
196.8442605458
 30
0.0
 10
226.556510501
 20
196.5450874869
 30
0.0
  0
SPLINE
  5
29E
100
AcDbEntity
  8
0
100
AcDbSpline
 62
7
  6
CONTINUOUS
 70
0
 71
3
 72
11
 73
7
 74
0
 42
0.0000001
 43
0.0000001
 44
0.0000000001
 40
0.0
 40
0.0
 40
0.0
 40
0.0
 40
0.2177849011
 40
0.4509184398
 40
0.7103088704
 40
1.0
 40
1.0
 40
1.0
 40
1.0
 10
73.3284561173
 20
198.6218785092
 30
0.0
 10
73.0810416563
 20
198.4790796389
 30
0.0
 10
72.5126374225
 20
198.2727358044
 30
0.0
 10
71.5684603873
 20
198.2488505477
 30
0.0
 10
70.5622300985
 20
198.4918542587
 30
0.0
 10
69.9075689878
 20
198.8032911918
 30
0.0
 10
69.5784900745
 20
198.9932806928
 30
0.0
  0
SPLINE
  5
29F
100
AcDbEntity
  8
0
100
AcDbSpline
 62
7
  6
CONTINUOUS
 70
0
 71
3
 72
9
 73
5
 74
0
 42
0.0000001
 43
0.0000001
 44
0.0000000001
 40
0.0
 40
0.0
 40
0.0
 40
0.0
 40
0.2404230863
 40
1.0
 40
1.0
 40
1.0
 40
1.0
 10
67.4951473995
 20
211.8948437855
 30
0.0
 10
67.4641379939
 20
211.8248031448
 30
0.0
 10
67.344144957
 20
211.5295249988
 30
0.0
 10
67.2595394417
 20
211.2203622374
 30
0.0
 10
67.212436052
 20
210.9829915418
 30
0.0
  0
SPLINE
  5
2A0
100
AcDbEntity
  8
0
100
AcDbSpline
 62
7
  6
CONTINUOUS
 70
0
 71
3
 72
17
 73
13
 74
0
 42
0.0000001
 43
0.0000001
 44
0.0000000001
 40
0.0
 40
0.0
 40
0.0
 40
0.0
 40
0.1286882208
 40
0.2702740359
 40
0.4174269561
 40
0.5617747518
 40
0.6954475067
 40
0.8127119178
 40
0.8646773254
 40
0.9125115194
 40
0.9571405925
 40
1.0
 40
1.0
 40
1.0
 40
1.0
 10
230.0920591268
 20
173.6830720775
 30
0.0
 10
228.7966360976
 20
172.9351637072
 30
0.0
 10
226.2821145425
 20
171.0001596289
 30
0.0
 10
223.0636968248
 20
167.3386166753
 30
0.0
 10
220.4145057512
 20
163.0299205402
 30
0.0
 10
218.55358629
 20
158.4241802616
 30
0.0
 10
217.6297403314
 20
153.8958581341
 30
0.0
 10
217.7128361099
 20
150.3277636263
 30
0.0
 10
218.3731152715
 20
147.8804555204
 30
0.0
 10
219.1087145507
 20
146.358369345
 30
0.0
 10
220.0930206581
 20
145.1139669165
 30
0.0
 10
220.9107771791
 20
144.4878533488
 30
0.0
 10
221.3422422705
 20
144.2388095762
 30
0.0
  0
SPLINE
  5
2A1
100
AcDbEntity
  8
0
100
AcDbSpline
 62
7
  6
CONTINUOUS
 70
0
 71
3
 72
11
 73
7
 74
0
 42
0.0000001
 43
0.0000001
 44
0.0000000001
 40
0.0
 40
0.0
 40
0.0
 40
0.0
 40
0.2897762666
 40
0.5490703417
 40
0.782228126
 40
1.0
 40
1.0
 40
1.0
 40
1.0
 10
230.0920591268
 20
169.6005599918
 30
0.0
 10
230.6406804713
 20
169.917304782
 30
0.0
 10
231.7316718931
 20
170.4365859423
 30
0.0
 10
233.4088222022
 20
170.8412434312
 30
0.0
 10
234.9822398904
 20
170.801578045
 30
0.0
 10
235.9296126904
 20
170.4576250323
 30
0.0
 10
236.3419109012
 20
170.2195854754
 30
0.0
  0
SPLINE
  5
2A2
100
AcDbEntity
  8
0
100
AcDbSpline
 62
7
  6
CONTINUOUS
 70
0
 71
3
 72
16
 73
12
 74
0
 42
0.0000001
 43
0.0000001
 44
0.0000000001
 40
0.0
 40
0.0
 40
0.0
 40
0.0
 40
0.0428776599
 40
0.0875230387
 40
0.1869282897
 40
0.3042399068
 40
0.437963827
 40
0.5823685867
 40
0.7295968178
 40
0.8712510281
 40
1.0
 40
1.0
 40
1.0
 40
1.0
 10
265.411631056
 20
187.9098826802
 30
0.0
 10
265.5842123876
 20
187.8102624944
 30
0.0
 10
265.9112534031
 20
187.5597738462
 30
0.0
 10
266.4549649217
 20
186.8725579207
 30
0.0
 10
266.8599416332
 20
185.69294867
 30
0.0
 10
266.8959634283
 20
184.0487788186
 30
0.0
 10
266.5272855487
 20
182.2354705361
 30
0.0
 10
265.7827542408
 20
180.3937780425
 30
0.0
 10
264.7231138321
 20
178.670092593
 30
0.0
 10
263.4357526798
 20
177.2053675887
 30
0.0
 10
262.4298883932
 20
176.4313473829
 30
0.0
 10
261.9117023617
 20
176.132174324
 30
0.0
  0
SPLINE
  5
2A3
100
AcDbEntity
  8
0
100
AcDbSpline
 62
7
  6
CONTINUOUS
 70
0
 71
3
 72
19
 73
15
 74
0
 42
0.0000001
 43
0.0000001
 44
0.0000000001
 40
0.0
 40
0.0
 40
0.0
 40
0.0
 40
0.1286251484
 40
0.2701526356
 40
0.4172434924
 40
0.5615278681
 40
0.6301792613
 40
0.6953180063
 40
0.7563135787
 40
0.8127954637
 40
0.8647370108
 40
0.9125494037
 40
0.9571588947
 40
1.0
 40
1.0
 40
1.0
 40
1.0
 10
229.3849494016
 20
192.4626172174
 30
0.0
 10
226.4241164702
 20
190.7531897313
 30
0.0
 10
220.6767259705
 20
186.3304338162
 30
0.0
 10
213.3198737806
 20
177.9608749148
 30
0.0
 10
207.2657365151
 20
168.1135759445
 30
0.0
 10
203.6583928419
 20
159.1911585202
 30
0.0
 10
201.8767166626
 20
152.007119681
 30
0.0
 10
201.1497927729
 20
146.870536029
 30
0.0
 10
201.0259558464
 20
142.005957395
 30
0.0
 10
201.5105674109
 20
137.5133307011
 30
0.0
 10
202.5990269757
 20
133.4851027341
 30
0.0
 10
204.2801020715
 20
130.0062085511
 30
0.0
 10
206.5297781488
 20
127.1615628392
 30
0.0
 10
208.3991900491
 20
125.7307779946
 30
0.0
 10
209.3853559809
 20
125.1614251197
 30
0.0
  0
SPLINE
  5
2A4
100
AcDbEntity
  8
0
100
AcDbSpline
 62
7
  6
CONTINUOUS
 70
0
 71
3
 72
11
 73
7
 74
0
 42
0.0000001
 43
0.0000001
 44
0.0000000001
 40
0.0
 40
0.0
 40
0.0
 40
0.0
 40
0.289790483
 40
0.5490574633
 40
0.7822296106
 40
1.0
 40
1.0
 40
1.0
 40
1.0
 10
229.3849494016
 20
174.091312832
 30
0.0
 10
230.1530613862
 20
174.5347798459
 30
0.0
 10
231.6803976616
 20
175.2618550555
 30
0.0
 10
234.0284372139
 20
175.8281991533
 30
0.0
 10
236.2312282234
 20
175.7729340472
 30
0.0
 10
237.5575181041
 20
175.2911915708
 30
0.0
 10
238.1347713123
 20
174.9579994716
 30
0.0
  0
SPLINE
  5
2A5
100
AcDbEntity
  8
0
100
AcDbSpline
 62
7
  6
CONTINUOUS
 70
0
 71
3
 72
13
 73
9
 74
0
 42
0.0000001
 43
0.0000001
 44
0.0000000001
 40
0.0
 40
0.0
 40
0.0
 40
0.0
 40
0.1080962684
 40
0.2182281687
 40
0.3322515017
 40
0.4517045099
 40
0.7105859386
 40
1.0
 40
1.0
 40
1.0
 40
1.0
 10
126.06037339
 20
153.1185011511
 30
0.0
 10
125.1184403757
 20
153.6623139386
 30
0.0
 10
123.3075372998
 20
154.9260985852
 30
0.0
 10
120.9146316077
 20
157.2809154809
 30
0.0
 10
118.8564974886
 20
160.0759860213
 30
0.0
 10
116.5234590393
 20
164.4633534709
 30
0.0
 10
114.6000949105
 20
170.9727544769
 30
0.0
 10
114.1617579507
 20
176.5062636656
 30
0.0
 10
114.1617579507
 20
179.4182934942
 30
0.0
  0
SPLINE
  5
2A6
100
AcDbEntity
  8
0
100
AcDbSpline
 62
7
  6
CONTINUOUS
 70
0
 71
3
 72
9
 73
5
 74
0
 42
0.0000001
 43
0.0000001
 44
0.0000000001
 40
0.0
 40
0.0
 40
0.0
 40
0.0
 40
0.2557421778
 40
1.0
 40
1.0
 40
1.0
 40
1.0
 10
73.895393691
 20
200.0130343982
 30
0.0
 10
73.9393829762
 20
200.002487646
 30
0.0
 10
74.1120091724
 20
199.9639047427
 30
0.0
 10
74.2871154186
 20
199.9361962274
 30
0.0
 10
74.4180536727
 20
199.9225722996
 30
0.0
  0
SPLINE
  5
2A7
100
AcDbEntity
  8
0
100
AcDbSpline
 62
7
  6
CONTINUOUS
 70
0
 71
3
 72
9
 73
5
 74
0
 42
0.0000001
 43
0.0000001
 44
0.0000000001
 40
0.0
 40
0.0
 40
0.0
 40
0.0
 40
0.2649175892
 40
1.0
 40
1.0
 40
1.0
 40
1.0
 10
70.9275178956
 20
201.0845260336
 30
0.0
 10
71.0161488671
 20
201.040965592
 30
0.0
 10
71.3557652717
 20
200.8875192545
 30
0.0
 10
71.7175704659
 20
200.7793504964
 30
0.0
 10
71.9885475281
 20
200.7385795158
 30
0.0
  0
SPLINE
  5
2A8
100
AcDbEntity
  8
0
100
AcDbSpline
 62
7
  6
CONTINUOUS
 70
0
 71
3
 72
12
 73
8
 74
0
 42
0.0000001
 43
0.0000001
 44
0.0000000001
 40
0.0
 40
0.0
 40
0.0
 40
0.0
 40
0.2315123565
 40
0.3405085092
 40
0.4519832564
 40
0.7003729738
 40
1.0
 40
1.0
 40
1.0
 40
1.0
 10
71.9885475281
 20
200.7385795158
 30
0.0
 10
72.3591933663
 20
200.6828124551
 30
0.0
 10
72.9421038768
 20
200.7138713652
 30
0.0
 10
73.5925318213
 20
201.0697103344
 30
0.0
 10
74.1334558635
 20
201.6168257816
 30
0.0
 10
74.5359836393
 20
202.6482129187
 30
0.0
 10
74.54784081
 20
203.5479806298
 30
0.0
 10
74.5009186854
 20
204.0308010659
 30
0.0
  0
SPLINE
  5
2A9
100
AcDbEntity
  8
0
100
AcDbSpline
 62
7
  6
CONTINUOUS
 70
0
 71
3
 72
9
 73
5
 74
0
 42
0.0000001
 43
0.0000001
 44
0.0000000001
 40
0.0
 40
0.0
 40
0.0
 40
0.0
 40
0.2564094596
 40
1.0
 40
1.0
 40
1.0
 40
1.0
 10
71.1830079783
 20
209.8618924312
 30
0.0
 10
71.1382601621
 20
209.8950279396
 30
0.0
 10
70.9620532046
 20
210.0219461504
 30
0.0
 10
70.7789875612
 20
210.1394425119
 30
0.0
 10
70.6391458304
 20
210.2201783463
 30
0.0
  0
SPLINE
  5
2AA
100
AcDbEntity
  8
0
100
AcDbSpline
 62
7
  6
CONTINUOUS
 70
0
 71
3
 72
19
 73
15
 74
0
 42
0.0000001
 43
0.0000001
 44
0.0000000001
 40
0.0
 40
0.0
 40
0.0
 40
0.0
 40
0.0579785406
 40
0.1098688224
 40
0.15695579
 40
0.201978287
 40
0.2482802789
 40
0.2987838863
 40
0.3552305539
 40
0.4181009978
 40
0.5601359413
 40
0.7144934467
 40
0.865874784
 40
1.0
 40
1.0
 40
1.0
 40
1.0
 10
70.3507737651
 20
210.3743040706
 30
0.0
 10
70.1108378767
 20
210.4922280092
 30
0.0
 10
69.634986355
 20
210.6772951588
 30
0.0
 10
68.9113696345
 20
210.7832356249
 30
0.0
 10
68.2429511657
 20
210.688326268
 30
0.0
 10
67.665446063
 20
210.3872784179
 30
0.0
 10
67.2148246712
 20
209.8972023983
 30
0.0
 10
66.9084554345
 20
209.2509594471
 30
0.0
 10
66.7495275794
 20
208.478119978
 30
0.0
 10
66.735314173
 20
207.2674708735
 30
0.0
 10
67.1109120277
 20
205.6307319009
 30
0.0
 10
68.0282543646
 20
203.7633607763
 30
0.0
 10
69.3031510775
 20
202.1665217327
 30
0.0
 10
70.3724598941
 20
201.3573265143
 30
0.0
 10
70.9275178956
 20
201.0845260336
 30
0.0
  0
SPLINE
  5
2AB
100
AcDbEntity
  8
0
100
AcDbSpline
 62
7
  6
CONTINUOUS
 70
0
 71
3
 72
13
 73
9
 74
0
 42
0.0000001
 43
0.0000001
 44
0.0000000001
 40
0.0
 40
0.0
 40
0.0
 40
0.0
 40
0.289410532
 40
0.5482917138
 40
0.6677451845
 40
0.7817693773
 40
0.8919023916
 40
1.0
 40
1.0
 40
1.0
 40
1.0
 10
185.8980398612
 20
137.9614447027
 30
0.0
 10
185.8980398612
 20
135.0469159368
 30
0.0
 10
186.3367532985
 20
129.5086305958
 30
0.0
 10
188.2617528222
 20
122.9935877487
 30
0.0
 10
190.596814262
 20
118.602385805
 30
0.0
 10
192.6567388834
 20
115.8048509812
 30
0.0
 10
195.0517504242
 20
113.4479598915
 30
0.0
 10
196.864246784
 20
112.1830565523
 30
0.0
 10
197.8070111336
 20
111.6387634311
 30
0.0
  0
SPLINE
  5
2AC
100
AcDbEntity
  8
0
100
AcDbSpline
 62
7
  6
CONTINUOUS
 70
0
 71
3
 72
15
 73
11
 74
0
 42
0.0000001
 43
0.0000001
 44
0.0000000001
 40
0.0
 40
0.0
 40
0.0
 40
0.0
 40
0.0869269787
 40
0.1863918984
 40
0.3037797627
 40
0.4375877569
 40
0.5820839034
 40
0.7293916416
 40
0.8711748496
 40
1.0
 40
1.0
 40
1.0
 40
1.0
 10
253.6812828886
 20
208.4172913108
 30
0.0
 10
253.8935612101
 20
208.2947402753
 30
0.0
 10
254.2789719287
 20
207.9014566759
 30
0.0
 10
254.5592752782
 20
207.0720311708
 30
0.0
 10
254.5829637415
 20
206.0730030896
 30
0.0
 10
254.3586020712
 20
204.9723452194
 30
0.0
 10
253.9067129944
 20
203.8541956763
 30
0.0
 10
253.2634321292
 20
202.8075749471
 30
0.0
 10
252.4817060907
 20
201.9183505278
 30
0.0
 10
251.8709967382
 20
201.4483062801
 30
0.0
 10
251.5564064159
 20
201.266678557
 30
0.0
  0
SPLINE
  5
2AD
100
AcDbEntity
  8
0
100
AcDbSpline
 62
7
  6
CONTINUOUS
 70
0
 71
3
 72
14
 73
10
 74
0
 42
0.0000001
 43
0.0000001
 44
0.0000000001
 40
0.0
 40
0.0
 40
0.0
 40
0.0
 40
0.1069861993
 40
0.2161753673
 40
0.3295548408
 40
0.4487393861
 40
0.574892616
 40
0.7087324399
 40
1.0
 40
1.0
 40
1.0
 40
1.0
 10
255.3060098685
 20
211.2322036694
 30
0.0
 10
254.3193946596
 20
211.8018135318
 30
0.0
 10
252.2177092232
 20
212.775532649
 30
0.0
 10
248.8090298315
 20
213.6755476369
 30
0.0
 10
245.1703298477
 20
214.0155787488
 30
0.0
 10
241.3440861519
 20
213.7954247565
 30
0.0
 10
237.3697381649
 20
213.0222139169
 30
0.0
 10
231.7729507316
 20
211.2178550693
 30
0.0
 10
227.7132127746
 20
209.1319974303
 30
0.0
 10
225.0765366714
 20
207.498728933
 30
0.0
  0
SPLINE
  5
2AE
100
AcDbEntity
  8
0
100
AcDbSpline
 62
7
  6
CONTINUOUS
 70
0
 71
3
 72
12
 73
8
 74
0
 42
0.0000001
 43
0.0000001
 44
0.0000000001
 40
0.0
 40
0.0
 40
0.0
 40
0.0
 40
0.1081619494
 40
0.2183621245
 40
0.4513673188
 40
0.7104093964
 40
1.0
 40
1.0
 40
1.0
 40
1.0
 10
249.3845428224
 20
194.4436159447
 30
0.0
 10
248.7287484826
 20
194.8222321398
 30
0.0
 10
247.3362811335
 20
195.4742825536
 30
0.0
 10
244.2786009382
 20
196.3206185755
 30
0.0
 10
239.9960108759
 20
196.4343152259
 30
0.0
 10
234.6326274622
 20
195.1377254317
 30
0.0
 10
231.140754516
 20
193.4763257218
 30
0.0
 10
229.3849494016
 20
192.4626172174
 30
0.0
  0
SPLINE
  5
2AF
100
AcDbEntity
  8
0
100
AcDbSpline
 62
7
  6
CONTINUOUS
 70
0
 71
3
 72
19
 73
15
 74
0
 42
0.0000001
 43
0.0000001
 44
0.0000000001
 40
0.0
 40
0.0
 40
0.0
 40
0.0
 40
0.0428416326
 40
0.0874518034
 40
0.1352649446
 40
0.1872071634
 40
0.2436894626
 40
0.3046851044
 40
0.3698235146
 40
0.4384741513
 40
0.5827562655
 40
0.7298455761
 40
0.8713731533
 40
1.0
 40
1.0
 40
1.0
 40
1.0
 10
206.5569170277
 20
126.7943882844
 30
0.0
 10
205.5707377499
 20
127.3637460293
 30
0.0
 10
203.7013057052
 20
128.7945597501
 30
0.0
 10
201.4516071042
 20
131.6392541375
 30
0.0
 10
199.7705313565
 20
135.1182116356
 30
0.0
 10
198.6820943454
 20
139.1464962028
 30
0.0
 10
198.1975111635
 20
143.6391564379
 30
0.0
 10
198.3213753276
 20
148.5037379876
 30
0.0
 10
199.0483172515
 20
153.6402912778
 30
0.0
 10
200.8299964253
 20
160.8242371003
 30
0.0
 10
204.4373060813
 20
169.7465342442
 30
0.0
 10
210.4913780396
 20
179.5937554049
 30
0.0
 10
217.8482174999
 20
187.9633328354
 30
0.0
 10
223.5956385372
 20
192.3861302141
 30
0.0
 10
226.556510501
 20
194.0955802355
 30
0.0
  0
SPLINE
  5
2B0
100
AcDbEntity
  8
0
100
AcDbSpline
 62
7
  6
CONTINUOUS
 70
0
 71
3
 72
11
 73
7
 74
0
 42
0.0000001
 43
0.0000001
 44
0.0000000001
 40
0.0
 40
0.0
 40
0.0
 40
0.0
 40
0.2177231375
 40
0.4508717887
 40
0.7104673698
 40
1.0
 40
1.0
 40
1.0
 40
1.0
 10
203.6814859498
 20
179.5500606797
 30
0.0
 10
203.8216418364
 20
179.4691506588
 30
0.0
 10
204.0841003272
 20
179.2489035787
 30
0.0
 10
204.363395968
 20
178.7921385372
 30
0.0
 10
204.528940696
 20
178.2293624026
 30
0.0
 10
204.5618058943
 20
177.8198400775
 30
0.0
 10
204.5618058943
 20
177.6046305255
 30
0.0
  0
SPLINE
  5
2B1
100
AcDbEntity
  8
0
100
AcDbSpline
 62
7
  6
CONTINUOUS
 70
0
 71
3
 72
12
 73
8
 74
0
 42
0.0000001
 43
0.0000001
 44
0.0000000001
 40
0.0
 40
0.0
 40
0.0
 40
0.0
 40
0.2895877758
 40
0.5486290102
 40
0.7816353164
 40
0.8918365833
 40
1.0
 40
1.0
 40
1.0
 40
1.0
 10
226.556510501
 20
194.0955802355
 30
0.0
 10
228.3122985536
 20
195.1092788893
 30
0.0
 10
231.8041459916
 20
196.7706705766
 30
0.0
 10
237.1675087035
 20
198.0672706042
 30
0.0
 10
241.45010743
 20
197.9535874648
 30
0.0
 10
244.5078187929
 20
197.1072628907
 30
0.0
 10
245.9002998908
 20
196.4551987512
 30
0.0
 10
246.5561039743
 20
196.0765788162
 30
0.0
  0
SPLINE
  5
2B2
100
AcDbEntity
  8
0
100
AcDbSpline
 62
7
  6
CONTINUOUS
 70
0
 71
3
 72
11
 73
7
 74
0
 42
0.0000001
 43
0.0000001
 44
0.0000000001
 40
0.0
 40
0.0
 40
0.0
 40
0.0
 40
0.2177697759
 40
0.4509416102
 40
0.7102110105
 40
1.0
 40
1.0
 40
1.0
 40
1.0
 10
238.841875983
 20
174.5497499792
 30
0.0
 10
238.2646253504
 20
174.8829418831
 30
0.0
 10
236.938338125
 20
175.3646780794
 30
0.0
 10
234.7355449502
 20
175.4199609196
 30
0.0
 10
232.3875054753
 20
174.8536080751
 30
0.0
 10
230.8601666338
 20
174.1265365063
 30
0.0
 10
230.0920591268
 20
173.6830720775
 30
0.0
  0
SPLINE
  5
2B3
100
AcDbEntity
  8
0
100
AcDbSpline
 62
7
  6
CONTINUOUS
 70
0
 71
3
 72
11
 73
7
 74
0
 42
0.0000001
 43
0.0000001
 44
0.0000000001
 40
0.0
 40
0.0
 40
0.0
 40
0.0
 40
0.2412088876
 40
0.5001179597
 40
0.7590179378
 40
1.0
 40
1.0
 40
1.0
 40
1.0
 10
260.6253451406
 20
138.0715021597
 30
0.0
 10
261.0517641176
 20
138.3821281914
 30
0.0
 10
261.8533838244
 20
139.1420916674
 30
0.0
 10
262.8160833437
 20
140.5055698308
 30
0.0
 10
263.5140217337
 20
142.0211355903
 30
0.0
 10
263.7706194275
 20
143.0950119027
 30
0.0
 10
263.825786883
 20
143.6191826986
 30
0.0
  0
SPLINE
  5
2B4
100
AcDbEntity
  8
0
100
AcDbSpline
 62
7
  6
CONTINUOUS
 70
0
 71
3
 72
17
 73
13
 74
0
 42
0.0000001
 43
0.0000001
 44
0.0000000001
 40
0.0
 40
0.0
 40
0.0
 40
0.0
 40
0.0428590303
 40
0.0874880606
 40
0.135322388
 40
0.1872880411
 40
0.3045518802
 40
0.4382224503
 40
0.5825681298
 40
0.7297219414
 40
0.871310019
 40
1.0
 40
1.0
 40
1.0
 40
1.0
 10
220.6351274909
 20
144.6470415928
 30
0.0
 10
220.203665762
 20
144.8960824593
 30
0.0
 10
219.3859175656
 20
145.5221998657
 30
0.0
 10
218.4016165604
 20
146.7665996991
 30
0.0
 10
217.6660003777
 20
148.288682631
 30
0.0
 10
217.0057323233
 20
150.7359925411
 30
0.0
 10
216.9226267284
 20
154.3040552191
 30
0.0
 10
217.8464570085
 20
158.8323225415
 30
0.0
 10
219.7073290016
 20
163.4380386164
 30
0.0
 10
222.3565189539
 20
167.7467504134
 30
0.0
 10
225.5749511135
 20
171.4083569231
 30
0.0
 10
228.0895086037
 20
173.343394203
 30
0.0
 10
229.3849494016
 20
174.091312832
 30
0.0
  0
SPLINE
  5
2B5
100
AcDbEntity
  8
0
100
AcDbSpline
 62
7
  6
CONTINUOUS
 70
0
 71
3
 72
17
 73
13
 74
0
 42
0.0000001
 43
0.0000001
 44
0.0000000001
 40
0.0
 40
0.0
 40
0.0
 40
0.0
 40
0.0428573825
 40
0.0874862414
 40
0.1353204294
 40
0.1872840443
 40
0.3045505915
 40
0.4382203865
 40
0.5825642893
 40
0.7297195826
 40
0.8713070132
 40
1.0
 40
1.0
 40
1.0
 40
1.0
 10
223.8422073523
 20
148.56897408
 30
0.0
 10
223.5340519735
 20
148.7468869789
 30
0.0
 10
222.9498559427
 20
149.1939570405
 30
0.0
 10
222.2468614872
 20
150.0828900165
 30
0.0
 10
221.721504284
 20
151.1700847266
 30
0.0
 10
221.2496397669
 20
152.9181045543
 30
0.0
 10
221.1905480107
 20
155.4667543212
 30
0.0
 10
221.8502229624
 20
158.7012305585
 30
0.0
 10
223.1794240354
 20
161.9910411065
 30
0.0
 10
225.0717737022
 20
165.0686204942
 30
0.0
 10
227.3705782019
 20
167.6841566153
 30
0.0
 10
229.1667236444
 20
169.0663204909
 30
0.0
 10
230.0920591268
 20
169.6005599918
 30
0.0
  0
SPLINE
  5
2B6
100
AcDbEntity
  8
0
100
AcDbSpline
 62
7
  6
CONTINUOUS
 70
0
 71
3
 72
11
 73
7
 74
0
 42
0.0000001
 43
0.0000001
 44
0.0000000001
 40
0.0
 40
0.0
 40
0.0
 40
0.0
 40
0.2895448512
 40
0.5491358493
 40
0.7822770651
 40
1.0
 40
1.0
 40
1.0
 40
1.0
 10
201.5566145862
 20
114.664017998
 30
0.0
 10
201.3702364595
 20
114.5564131787
 30
0.0
 10
200.9991561387
 20
114.3801157912
 30
0.0
 10
200.4290247694
 20
114.2421093776
 30
0.0
 10
199.8938351357
 20
114.2555990034
 30
0.0
 10
199.5718869947
 20
114.372766018
 30
0.0
 10
199.4317381134
 20
114.4536757897
 30
0.0
  0
SPLINE
  5
2B7
100
AcDbEntity
  8
0
100
AcDbSpline
 62
7
  6
CONTINUOUS
 70
0
 71
3
 72
11
 73
7
 74
0
 42
0.0000001
 43
0.0000001
 44
0.0000000001
 40
0.0
 40
0.0
 40
0.0
 40
0.0
 40
0.2177775995
 40
0.4509368668
 40
0.7102286427
 40
1.0
 40
1.0
 40
1.0
 40
1.0
 10
270.9903004175
 20
150.2158110045
 30
0.0
 10
270.577988713
 20
150.4538539145
 30
0.0
 10
269.6305937747
 20
150.7978011846
 30
0.0
 10
268.0571631749
 20
150.8374469801
 30
0.0
 10
266.3800239376
 20
150.432785848
 30
0.0
 10
265.2890486836
 20
149.9135030071
 30
0.0
 10
264.740435659
 20
149.5967630203
 30
0.0
  0
SPLINE
  5
2B8
100
AcDbEntity
  8
0
100
AcDbSpline
 62
7
  6
CONTINUOUS
 70
0
 71
3
 72
15
 73
11
 74
0
 42
0.0000001
 43
0.0000001
 44
0.0000000001
 40
0.0
 40
0.0
 40
0.0
 40
0.0
 40
0.0869269787
 40
0.1863918984
 40
0.3037797627
 40
0.4375877569
 40
0.5820839034
 40
0.7293916416
 40
0.8711748496
 40
1.0
 40
1.0
 40
1.0
 40
1.0
 10
203.6814910589
 20
121.8146307519
 30
0.0
 10
203.8937693804
 20
121.6920797163
 30
0.0
 10
204.279180099
 20
121.2987961169
 30
0.0
 10
204.5594834485
 20
120.4693706118
 30
0.0
 10
204.5831719118
 20
119.4703425306
 30
0.0
 10
204.3588102415
 20
118.3696846604
 30
0.0
 10
203.9069211647
 20
117.2515351173
 30
0.0
 10
203.2636402995
 20
116.2049143881
 30
0.0
 10
202.481914261
 20
115.3156899688
 30
0.0
 10
201.8712049085
 20
114.8456457211
 30
0.0
 10
201.5566145862
 20
114.664017998
 30
0.0
  0
SPLINE
  5
2B9
100
AcDbEntity
  8
0
100
AcDbSpline
 62
7
  6
CONTINUOUS
 70
0
 71
3
 72
15
 73
11
 74
0
 42
0.0000001
 43
0.0000001
 44
0.0000000001
 40
0.0
 40
0.0
 40
0.0
 40
0.0
 40
0.128825143
 40
0.2705983408
 40
0.4178987517
 40
0.5623942948
 40
0.6962070879
 40
0.8135986172
 40
0.913066896
 40
1.0
 40
1.0
 40
1.0
 40
1.0
 10
204.5618058943
 20
177.6046305255
 30
0.0
 10
204.5618058943
 20
177.2413771776
 30
0.0
 10
204.4601022149
 20
176.4775007266
 30
0.0
 10
204.0809087615
 20
175.3559483865
 30
0.0
 10
203.4962208964
 20
174.2755741724
 30
0.0
 10
202.7538595808
 20
173.3251476345
 30
0.0
 10
201.9128615398
 20
172.5804769479
 30
0.0
 10
201.0358335772
 20
172.1014363492
 30
0.0
 10
200.177351111
 20
171.9294222129
 30
0.0
 10
199.6440368267
 20
172.0665709534
 30
0.0
 10
199.4317432226
 20
172.1891250634
 30
0.0
  0
SPLINE
  5
2BA
100
AcDbEntity
  8
0
100
AcDbSpline
 62
7
  6
CONTINUOUS
 70
0
 71
3
 72
19
 73
15
 74
0
 42
0.0000001
 43
0.0000001
 44
0.0000000001
 40
0.0
 40
0.0
 40
0.0
 40
0.0
 40
0.0540133092
 40
0.1028468716
 40
0.1484184772
 40
0.1934541469
 40
0.2408554549
 40
0.2928527284
 40
0.3506252755
 40
0.4143692749
 40
0.5567774551
 40
0.7106761554
 40
0.8626876352
 40
1.0
 40
1.0
 40
1.0
 40
1.0
 10
266.5000000997
 20
145.5500672279
 30
0.0
 10
266.7995928497
 20
145.6526035611
 30
0.0
 10
267.3910807293
 20
145.7954909399
 30
0.0
 10
268.2714374847
 20
145.7894962513
 30
0.0
 10
269.0648948429
 20
145.5420590352
 30
0.0
 10
269.7304438381
 20
145.0574541407
 30
0.0
 10
270.2364739115
 20
144.3639264381
 30
0.0
 10
270.5708925426
 20
143.4962511013
 30
0.0
 10
270.730327009
 20
142.4853958474
 30
0.0
 10
270.706988171
 20
140.9324340514
 30
0.0
 10
270.2151301473
 20
138.8542570593
 30
0.0
 10
269.0647538749
 20
136.4712724263
 30
0.0
 10
267.4735695759
 20
134.3953131857
 30
0.0
 10
266.1446927622
 20
133.3017948679
 30
0.0
 10
265.4475453841
 20
132.8992990441
 30
0.0
  0
SPLINE
  5
2BB
100
AcDbEntity
  8
0
100
AcDbSpline
 62
7
  6
CONTINUOUS
 70
0
 71
3
 72
15
 73
11
 74
0
 42
0.0000001
 43
0.0000001
 44
0.0000000001
 40
0.0
 40
0.0
 40
0.0
 40
0.0
 40
0.0880014225
 40
0.1898101188
 40
0.3089941282
 40
0.443324273
 40
0.5870782058
 40
0.7327992427
 40
0.8726994956
 40
1.0
 40
1.0
 40
1.0
 40
1.0
 10
265.5660939045
 20
144.9604919366
 30
0.0
 10
265.8057378903
 20
144.7795290745
 30
0.0
 10
266.2204167339
 20
144.247850318
 30
0.0
 10
266.4948370245
 20
143.2108800213
 30
0.0
 10
266.4742762036
 20
141.9872547752
 30
0.0
 10
266.1668713413
 20
140.6585860107
 30
0.0
 10
265.5985006292
 20
139.3216088205
 30
0.0
 10
264.8118782485
 20
138.0775848996
 30
0.0
 10
263.8684045916
 20
137.0224890036
 30
0.0
 10
263.1367287096
 20
136.464117266
 30
0.0
 10
262.7605284285
 20
136.2469192289
 30
0.0
  0
SPLINE
  5
2BC
100
AcDbEntity
  8
0
100
AcDbSpline
 62
7
  6
CONTINUOUS
 70
0
 71
3
 72
11
 73
7
 74
0
 42
0.0000001
 43
0.0000001
 44
0.0000000001
 40
0.0
 40
0.0
 40
0.0
 40
0.0
 40
0.2895448512
 40
0.5491358493
 40
0.7822770651
 40
1.0
 40
1.0
 40
1.0
 40
1.0
 10
251.5564064159
 20
201.266678557
 30
0.0
 10
251.3700282892
 20
201.1590737377
 30
0.0
 10
250.9989479684
 20
200.9827763502
 30
0.0
 10
250.4288165991
 20
200.8447699366
 30
0.0
 10
249.8936269654
 20
200.8582595624
 30
0.0
 10
249.5716788244
 20
200.975426577
 30
0.0
 10
249.4315299431
 20
201.0563363487
 30
0.0
  0
SPLINE
  5
2BD
100
AcDbEntity
  8
0
100
AcDbSpline
 62
7
  6
CONTINUOUS
 70
0
 71
3
 72
11
 73
7
 74
0
 42
0.0000001
 43
0.0000001
 44
0.0000000001
 40
0.0
 40
0.0
 40
0.0
 40
0.0
 40
0.2890357058
 40
0.5486513104
 40
0.7822512966
 40
1.0
 40
1.0
 40
1.0
 40
1.0
 10
262.7605284285
 20
136.2469192289
 30
0.0
 10
262.5350389125
 20
136.1167335732
 30
0.0
 10
262.0862290581
 20
135.9024480198
 30
0.0
 10
261.3967526973
 20
135.7306275068
 30
0.0
 10
260.7480934678
 20
135.7368633866
 30
0.0
 10
260.3543558641
 20
135.8684992475
 30
0.0
 10
260.1815748045
 20
135.9613617768
 30
0.0
  0
SPLINE
  5
2BE
100
AcDbEntity
  8
0
100
AcDbSpline
 62
7
  6
CONTINUOUS
 70
0
 71
3
 72
11
 73
7
 74
0
 42
0.0000001
 43
0.0000001
 44
0.0000000001
 40
0.0
 40
0.0
 40
0.0
 40
0.0
 40
0.2897011399
 40
0.5490888176
 40
0.7822183492
 40
1.0
 40
1.0
 40
1.0
 40
1.0
 10
261.9117023617
 20
176.132174324
 30
0.0
 10
261.6045560346
 20
175.9548443678
 30
0.0
 10
260.993540223
 20
175.6641656781
 30
0.0
 10
260.0543964731
 20
175.4373548785
 30
0.0
 10
259.173193777
 20
175.4596647424
 30
0.0
 10
258.6426807301
 20
175.6522119005
 30
0.0
 10
258.4117736674
 20
175.7854998075
 30
0.0
  0
SPLINE
  5
2BF
100
AcDbEntity
  8
0
100
AcDbSpline
 62
7
  6
CONTINUOUS
 70
0
 71
3
 72
11
 73
7
 74
0
 42
0.0000001
 43
0.0000001
 44
0.0000000001
 40
0.0
 40
0.0
 40
0.0
 40
0.0
 40
0.2897011399
 40
0.5490888176
 40
0.7822183492
 40
1.0
 40
1.0
 40
1.0
 40
1.0
 10
226.556510501
 20
196.5450874869
 30
0.0
 10
226.2493641739
 20
196.3677575307
 30
0.0
 10
225.6383483623
 20
196.077078841
 30
0.0
 10
224.6992046124
 20
195.8502680414
 30
0.0
 10
223.8180019163
 20
195.8725779054
 30
0.0
 10
223.2874888694
 20
196.0651250634
 30
0.0
 10
223.0565818068
 20
196.1984129704
 30
0.0
  0
SPLINE
  5
2C0
100
AcDbEntity
  8
0
100
AcDbSpline
 62
7
  6
CONTINUOUS
 70
0
 71
3
 72
11
 73
7
 74
0
 42
0.0000001
 43
0.0000001
 44
0.0000000001
 40
0.0
 40
0.0
 40
0.0
 40
0.0
 40
0.2897011399
 40
0.5490888176
 40
0.7822183492
 40
1.0
 40
1.0
 40
1.0
 40
1.0
 10
191.2013186403
 20
135.3077589368
 30
0.0
 10
190.8941723132
 20
135.1304289807
 30
0.0
 10
190.2831565016
 20
134.839750291
 30
0.0
 10
189.3440127517
 20
134.6129394913
 30
0.0
 10
188.4628100556
 20
134.6352493553
 30
0.0
 10
187.9322970087
 20
134.8277965133
 30
0.0
 10
187.7013899461
 20
134.9610844204
 30
0.0
  0
SPLINE
  5
2C1
100
AcDbEntity
  8
0
100
AcDbSpline
 62
7
  6
CONTINUOUS
 70
0
 71
3
 72
11
 73
7
 74
0
 42
0.0000001
 43
0.0000001
 44
0.0000000001
 40
0.0
 40
0.0
 40
0.0
 40
0.0
 40
0.2897011399
 40
0.5490888176
 40
0.7822183492
 40
1.0
 40
1.0
 40
1.0
 40
1.0
 10
226.556510501
 20
114.8948457739
 30
0.0
 10
226.2493641739
 20
114.7175158178
 30
0.0
 10
225.6383483623
 20
114.4268371281
 30
0.0
 10
224.6992046124
 20
114.2000263284
 30
0.0
 10
223.8180019163
 20
114.2223361924
 30
0.0
 10
223.2874888694
 20
114.4148833504
 30
0.0
 10
223.0565818068
 20
114.5481712575
 30
0.0
  0
SPLINE
  5
2C2
100
AcDbEntity
  8
0
100
AcDbSpline
 62
7
  6
CONTINUOUS
 70
0
 71
3
 72
9
 73
5
 74
0
 42
0.0000001
 43
0.0000001
 44
0.0000000001
 40
0.0
 40
0.0
 40
0.0
 40
0.0
 40
0.2544577022
 40
1.0
 40
1.0
 40
1.0
 40
1.0
 10
273.5792395121
 20
143.6770498212
 30
0.0
 10
273.5792395121
 20
143.7512927292
 30
0.0
 10
273.5762128687
 20
144.0430504033
 30
0.0
 10
273.560923732
 20
144.3347093681
 30
0.0
 10
273.5419986858
 20
144.5514107973
 30
0.0
  0
SPLINE
  5
2C3
100
AcDbEntity
  8
0
100
AcDbSpline
 62
7
  6
CONTINUOUS
 70
0
 71
3
 72
19
 73
15
 74
0
 42
0.0000001
 43
0.0000001
 44
0.0000000001
 40
0.0
 40
0.0
 40
0.0
 40
0.0
 40
0.0574264039
 40
0.1088929937
 40
0.1558553734
 40
0.2008614828
 40
0.2470665383
 40
0.2972484766
 40
0.3531095333
 40
0.4152003502
 40
0.5556193961
 40
0.7093078934
 40
0.8620677655
 40
1.0
 40
1.0
 40
1.0
 40
1.0
 10
273.5419986858
 20
144.5514107973
 30
0.0
 10
273.4952729412
 20
145.0864444015
 30
0.0
 10
273.3200849235
 20
146.0976440722
 30
0.0
 10
272.7520452779
 20
147.4561129352
 30
0.0
 10
271.8996364374
 20
148.5192624282
 30
0.0
 10
270.7878910673
 20
149.2252890612
 30
0.0
 10
269.4783809406
 20
149.5315310026
 30
0.0
 10
268.0409083
 20
149.4391484597
 30
0.0
 10
266.5279568225
 20
148.9695703787
 30
0.0
 10
264.3868656703
 20
147.825694129
 30
0.0
 10
261.8644139097
 20
145.5815199783
 30
0.0
 10
259.433612031
 20
142.1448320132
 30
0.0
 10
257.7850550354
 20
138.2980930809
 30
0.0
 10
257.3158512561
 20
135.5774205751
 30
0.0
 10
257.3158512561
 20
134.2874342822
 30
0.0
  0
SPLINE
  5
2C4
100
AcDbEntity
  8
0
100
AcDbSpline
 62
7
  6
CONTINUOUS
 70
0
 71
3
 72
15
 73
11
 74
0
 42
0.0000001
 43
0.0000001
 44
0.0000000001
 40
0.0
 40
0.0
 40
0.0
 40
0.0
 40
0.1477301541
 40
0.2812016417
 40
0.4018561218
 40
0.5138830048
 40
0.6235054808
 40
0.7376863854
 40
0.8620905455
 40
1.0
 40
1.0
 40
1.0
 40
1.0
 10
257.3158512561
 20
134.2874342822
 30
0.0
 10
257.3158512561
 20
133.7481021448
 30
0.0
 10
257.392010478
 20
132.7185898919
 30
0.0
 10
257.7740537082
 20
131.2914034032
 30
0.0
 10
258.416307667
 20
130.1020430601
 30
0.0
 10
259.3081289373
 20
129.1990496357
 30
0.0
 10
260.4189534826
 20
128.6320652352
 30
0.0
 10
261.6919706697
 20
128.4267641787
 30
0.0
 10
263.071372626
 20
128.5766598357
 30
0.0
 10
263.9852577937
 20
128.8857060389
 30
0.0
 10
264.4470826125
 20
129.0862272101
 30
0.0
  0
SPLINE
  5
2C5
100
AcDbEntity
  8
0
100
AcDbSpline
 62
7
  6
CONTINUOUS
 70
0
 71
3
 72
9
 73
5
 74
0
 42
0.0000001
 43
0.0000001
 44
0.0000000001
 40
0.0
 40
0.0
 40
0.0
 40
0.0
 40
0.2439188054
 40
1.0
 40
1.0
 40
1.0
 40
1.0
 10
264.4470826125
 20
129.0862272101
 30
0.0
 10
264.5307470943
 20
129.1225537548
 30
0.0
 10
264.8714418785
 20
129.276766942
 30
0.0
 10
265.2028375232
 20
129.4513033658
 30
0.0
 10
265.4476858983
 20
129.5926687293
 30
0.0
  0
SPLINE
  5
2C6
100
AcDbEntity
  8
0
100
AcDbSpline
 62
7
  6
CONTINUOUS
 70
0
 71
3
 72
15
 73
11
 74
0
 42
0.0000001
 43
0.0000001
 44
0.0000000001
 40
0.0
 40
0.0
 40
0.0
 40
0.0
 40
0.1492127503
 40
0.2848892092
 40
0.4080114918
 40
0.5220951362
 40
0.6324939366
 40
0.7455032611
 40
0.866759251
 40
1.0
 40
1.0
 40
1.0
 40
1.0
 10
265.4475453841
 20
132.8992990441
 30
0.0
 10
265.1605147191
 20
132.7335828015
 30
0.0
 10
264.588791229
 20
132.4551225889
 30
0.0
 10
263.7119306052
 20
132.2051312287
 30
0.0
 10
262.8773792642
 20
132.1536869017
 30
0.0
 10
262.1106609076
 20
132.3091009095
 30
0.0
 10
261.4414851624
 20
132.6717741538
 30
0.0
 10
260.899262035
 20
133.2272388388
 30
0.0
 10
260.5010088152
 20
133.9489589074
 30
0.0
 10
260.3429799933
 20
134.4963441016
 30
0.0
 10
260.2859169567
 20
134.7867475565
 30
0.0
  0
SPLINE
  5
2C7
100
AcDbEntity
  8
0
100
AcDbSpline
 62
7
  6
CONTINUOUS
 70
0
 71
3
 72
16
 73
12
 74
0
 42
0.0000001
 43
0.0000001
 44
0.0000000001
 40
0.0
 40
0.0
 40
0.0
 40
0.0
 40
0.1287480916
 40
0.2703957241
 40
0.4176176139
 40
0.5620216554
 40
0.6957492491
 40
0.8130638352
 40
0.9124717969
 40
0.9571193719
 40
1.0
 40
1.0
 40
1.0
 40
1.0
 10
69.5784900745
 20
198.9932806928
 30
0.0
 10
69.0232921473
 20
199.313817114
 30
0.0
 10
67.9456016876
 20
200.1430909787
 30
0.0
 10
66.5663140718
 20
201.7123710618
 30
0.0
 10
65.4309847951
 20
203.5590965121
 30
0.0
 10
64.6332397023
 20
205.5323063163
 30
0.0
 10
64.2381753351
 20
207.475158821
 30
0.0
 10
64.2767369142
 20
209.2368118839
 30
0.0
 10
64.7106102174
 20
210.5007416105
 30
0.0
 10
65.2931929839
 20
211.2370623222
 30
0.0
 10
65.6435969018
 20
211.5054857388
 30
0.0
 10
65.8285240318
 20
211.6122191333
 30
0.0
  0
SPLINE
  5
2C8
100
AcDbEntity
  8
0
100
AcDbSpline
 62
7
  6
CONTINUOUS
 70
0
 71
3
 72
16
 73
12
 74
0
 42
0.0000001
 43
0.0000001
 44
0.0000000001
 40
0.0
 40
0.0
 40
0.0
 40
0.0
 40
0.0428776599
 40
0.0875230387
 40
0.1869282897
 40
0.3042399068
 40
0.437963827
 40
0.5823685867
 40
0.7295968178
 40
0.8712510281
 40
1.0
 40
1.0
 40
1.0
 40
1.0
 10
194.7012473346
 20
147.0854672931
 30
0.0
 10
194.8738286662
 20
146.9858471073
 30
0.0
 10
195.2008696817
 20
146.735358459
 30
0.0
 10
195.7445812003
 20
146.0481425336
 30
0.0
 10
196.1495579118
 20
144.8685332828
 30
0.0
 10
196.185579707
 20
143.2243634315
 30
0.0
 10
195.8169018273
 20
141.4110551489
 30
0.0
 10
195.0723705194
 20
139.5693626554
 30
0.0
 10
194.0127301107
 20
137.8456772059
 30
0.0
 10
192.7253689584
 20
136.3809522016
 30
0.0
 10
191.7195046718
 20
135.6069319957
 30
0.0
 10
191.2013186403
 20
135.3077589368
 30
0.0
  0
SPLINE
  5
2C9
100
AcDbEntity
  8
0
100
AcDbSpline
 62
7
  6
CONTINUOUS
 70
0
 71
3
 72
11
 73
7
 74
0
 42
0.0000001
 43
0.0000001
 44
0.0000000001
 40
0.0
 40
0.0
 40
0.0
 40
0.0
 40
0.2372238705
 40
0.499998382
 40
0.7627737741
 40
1.0
 40
1.0
 40
1.0
 40
1.0
 10
264.740435659
 20
149.5967630203
 30
0.0
 10
263.4856537645
 20
148.8723186801
 30
0.0
 10
261.1109406061
 20
146.8737878467
 30
0.0
 10
258.3393853882
 20
143.0862273207
 30
0.0
 10
256.4450559569
 20
138.792186709
 30
0.0
 10
255.9016376938
 20
135.7363404359
 30
0.0
 10
255.9016376938
 20
134.2874308828
 30
0.0
  0
SPLINE
  5
2CA
100
AcDbEntity
  8
0
100
AcDbSpline
 62
7
  6
CONTINUOUS
 70
0
 71
3
 72
21
 73
17
 74
0
 42
0.0000001
 43
0.0000001
 44
0.0000000001
 40
0.0
 40
0.0
 40
0.0
 40
0.0
 40
0.0624095496
 40
0.1287789474
 40
0.1984012031
 40
0.2704088125
 40
0.4174491026
 40
0.5616822154
 40
0.6303094667
 40
0.6954253435
 40
0.7563993729
 40
0.8128611698
 40
0.864784313
 40
0.9125799931
 40
0.957173955
 40
1.0
 40
1.0
 40
1.0
 40
1.0
 10
114.1617579507
 20
179.4182934942
 30
0.0
 10
114.1617579507
 20
181.8016318461
 30
0.0
 10
114.4846690367
 20
186.7228301706
 30
0.0
 10
115.813256554
 20
194.1948486897
 30
0.0
 10
117.9734050687
 20
201.8517522671
 30
0.0
 10
121.9274357074
 20
212.1555634048
 30
0.0
 10
128.564230006
 20
224.4172147356
 30
0.0
 10
137.0701326986
 20
235.3104503751
 30
0.0
 10
144.7263145504
 20
242.6857618593
 30
0.0
 10
150.5931660891
 20
247.2786427297
 30
0.0
 10
156.5548384757
 20
250.9260644485
 30
0.0
 10
162.4908112664
 20
253.5495541065
 30
0.0
 10
168.2827949915
 20
255.0884987081
 30
0.0
 10
173.8170958038
 20
255.4959492589
 30
0.0
 10
178.9708665062
 20
254.7406908834
 30
0.0
 10
182.0930065762
 20
253.4430601044
 30
0.0
 10
183.5093734072
 20
252.6253391171
 30
0.0
  0
SPLINE
  5
2CB
100
AcDbEntity
  8
0
100
AcDbSpline
 62
7
  6
CONTINUOUS
 70
0
 71
3
 72
11
 73
7
 74
0
 42
0.0000001
 43
0.0000001
 44
0.0000000001
 40
0.0
 40
0.0
 40
0.0
 40
0.0
 40
0.2897728319
 40
0.5490651401
 40
0.7822238182
 40
1.0
 40
1.0
 40
1.0
 40
1.0
 10
255.9016376938
 20
134.2874308828
 30
0.0
 10
255.9016376938
 20
133.6539197531
 30
0.0
 10
255.997414712
 20
132.4494136005
 30
0.0
 10
256.4855574766
 20
130.7945688483
 30
0.0
 10
257.3066439734
 20
129.4517130305
 30
0.0
 10
258.0782455459
 20
128.8032053987
 30
0.0
 10
258.4905709005
 20
128.5651546079
 30
0.0
  0
ENDSEC
  0
SECTION
  2
OBJECTS
  0
DICTIONARY
  5
C
100
AcDbDictionary
280
0
281
1
  3
ACAD_GROUP
350
D
  3
ACAD_MLINESTYLE
350
17
  3
ACAD_LAYOUT
350
1A
  3
ACAD_PLOTSETTINGS
350
19
  3
ACAD_PLOTSTYLENAME
350
E
  0
DICTIONARY
  5
D
102
{ACAD_REACTORS
330
C
102
}
100
AcDbDictionary
280
0
281
1
  0
ACDBDICTIONARYWDFLT
  5
E
102
{ACAD_REACTORS
330
C
102
}
100
AcDbDictionary
281
1
  3
Normal
350
F
100
AcDbDictionaryWithDefault
340
F
  0
DICTIONARY
  5
17
102
{ACAD_REACTORS
330
C
102
}
100
AcDbDictionary
280
0
281
1
  3
Standard
350
18
  0
DICTIONARY
  5
19
102
{ACAD_REACTORS
330
C
102
}
100
AcDbDictionary
281
1
  0
DICTIONARY
  5
1A
102
{ACAD_REACTORS
330
C
102
}
100
AcDbDictionary
281
1
  3
Model
350
2CC
  3
Layout1
350
2CD
  0
ACDBPLACEHOLDER
  5
F
102
{ACAD_REACTORS
330
E
102
}
  0
MLINESTYLE
  5
18
102
{ACAD_REACTORS
330
17
102
}
100
AcDbMlineStyle
  2
STANDARD
 70
0
  3

 62
256
 51
90.0
 52
90.0
 71
2
 49
0.5
 62
256
  6
BYLAYER
 49
-0.5
 62
256
  6
BYLAYER
  0
LAYOUT
  5
2CC
102
{ACAD_REACTORS
330
1A
102
}
100
AcDbPlotSettings
  1

  2
none_device
  4

  6

 40
0.0
 41
0.0
 42
0.0
 43
0.0
 44
210.0
 45
297.0
 46
0.0
 47
0.0
 48
0.0
 49
0.0
140
0.0
141
0.0
142
1.0
143
1.0
 70
1024
 72
1
 73
0
 74
0
  7

 75
0
147
1.0
148
0.0
149
0.0
100
AcDbLayout
  1
Model
 70
0
 71
0
 10
0.0
 20
0.0
 11
210.0
 21
297.0
 12
0.0
 22
0.0
 32
0.0
 14
0.0
 24
0.0
 34
0.0
 15
0.0
 25
0.0
 35
0.0
146
0.0
 13
0.0
 23
0.0
 33
0.0
 16
1.0
 26
0.0
 36
0.0
 17
0.0
 27
1.0
 37
0.0
 76
0
330
210
345
0
346
0
  0
LAYOUT
  5
2CD
102
{ACAD_REACTORS
330
1A
102
}
100
AcDbPlotSettings
  1

  2
none_device
  4

  6

 40
0.0
 41
0.0
 42
0.0
 43
0.0
 44
210.0
 45
297.0
 46
0.0
 47
0.0
 48
0.0
 49
0.0
140
0.0
141
0.0
142
1.0
143
1.0
 70
0
 72
1
 73
0
 74
0
  7

 75
0
147
1.0
148
0.0
149
0.0
100
AcDbLayout
  1
Layout1
 70
0
 71
1
 10
0.0
 20
0.0
 11
210.0
 21
297.0
 12
0.0
 22
0.0
 32
0.0
 14
0.0
 24
0.0
 34
0.0
 15
0.0
 25
0.0
 35
0.0
146
0.0
 13
0.0
 23
0.0
 33
0.0
 16
1.0
 26
0.0
 36
0.0
 17
0.0
 27
1.0
 37
0.0
 76
0
330
211
345
0
346
0
  0
ENDSEC
  0
EOF
