999
DXF file: C:\Users\sesa63760\Dev\_Creo\CAD\MCADID0000330_3D-CAD\drw0001_2.dxf
999
Pro/ENGINEER 2019471 by Parametric Technology Corporation
  0
SECTION
  2
HEADER
  9
$ACADVER
  1
AC1024
  9
$DWGCODEPAGE
  3
ANSI_1252
  9
$EXTMAX
 10
254.8573975045
 20
360.4411764706
 30
0.0
  9
$EXTMIN
 10
0.0
 20
0.0
 30
0.0
  9
$LIMMIN
 10
0.0
 20
0.0
  9
$LIMMAX
 10
254.8573975045
 20
360.4411764706
  9
$VIEWCTR
 10
127.4286987522
 20
180.2205882353
  9
$VIEWSIZE
 40
360.4411764706
  9
$CLAYER
  8
0
  9
$LTSCALE
 40
23.4954248366
  9
$CELTYPE
  6
BYLAYER
  9
$DIMSCALE
 40
1.0
  9
$DIMASZ
 40
3.034016637
  9
$DIMEXO
 40
1.0
  9
$DIMDLI
 40
16.2332026144
  9
$DIMEXE
 40
1.0
  9
$DIMCEN
 40
3.8447058824
  9
$DIMLFAC
 40
1.0
  9
$DIMBLK
  1
_FILLED
  9
$DIMALT
 70
0
  9
$DIMALTF
 40
0.0393700787
  9
$DIMTXT
 40
4.2476232917
  9
$DIMTOL
 70
1
  9
$DIMLIM
 70
0
  9
$DIMTFAC
 40
1.0
  9
$DIMTP
 40
0.01
  9
$DIMTM
 40
0.01
  9
$DIMGAP
 40
0.625
  9
$DIMDSEP
 70
46
  9
$AUNITS
 70
0
  9
$PDMODE
 70
3
  9
$PDSIZE
 40
0.3125
  9
$HANDSEED
  5
2AD
  9
$TILEMODE
 70
1
  9
$MEASUREMENT
 70
1
  9
$INSUNITS
 70
4
  0
ENDSEC
  0
SECTION
  2
CLASSES
  0
CLASS
  1
ACDBDICTIONARYWDFLT
  2
AcDbDictionaryWithDefault
  3
AutoCAD 2000
 90
0
 91
1
280
0
281
0
  0
CLASS
  1
ACDBPLACEHOLDER
  2
AcDbPlaceHolder
  3
AutoCAD 2000
 90
0
 91
1
280
0
281
0
  0
CLASS
  1
LAYOUT
  2
AcDbLayout
  3
AutoCAD 2000
 90
0
 91
0
280
0
281
0
  0
ENDSEC
  0
SECTION
  2
TABLES
  0
TABLE
  2
VPORT
  5
8
100
AcDbSymbolTable
 70
2
  0
VPORT
  5
1F4
100
AcDbSymbolTableRecord
100
AcDbViewportTableRecord
  2
*ACTIVE
 70
0
 10
0.0
 20
0.0
 11
1.0
 21
1.0
 12
127.4286987522
 22
180.2205882353
 13
0.0
 23
0.0
 14
1.0
 24
1.0
 15
0.0
 25
0.0
 16
0.0
 26
0.0
 36
1.0
 17
0.0
 27
0.0
 37
0.0
 40
360.4411764706
 41
0.7070707071
 42
50.0
 43
0.0
 44
0.0
 50
0.0
 51
0.0
 71
0
 72
100
 73
1
 74
1
 75
0
 76
0
 77
0
 78
0
  0
ENDTAB
  0
TABLE
  2
LTYPE
  5
5
100
AcDbSymbolTable
 70
6
  0
LTYPE
  5
14
100
AcDbSymbolTableRecord
100
AcDbLinetypeTableRecord
  2
BYBLOCK
 70
0
  3

 72
65
 73
0
 40
0.0
  0
LTYPE
  5
15
100
AcDbSymbolTableRecord
100
AcDbLinetypeTableRecord
  2
BYLAYER
 70
0
  3

 72
65
 73
0
 40
0.0
  0
LTYPE
  5
16
100
AcDbSymbolTableRecord
100
AcDbLinetypeTableRecord
  2
CONTINUOUS
 70
64
  3
Solid line
 72
65
 73
0
 40
0.0
  0
LTYPE
  5
1F5
100
AcDbSymbolTableRecord
100
AcDbLinetypeTableRecord
  2
CENTER
 70
64
  3
____ _ ____ _ ____ _ ____ _ ____ _ ____ _ ____
 72
65
 73
4
 40
0.6
 49
0.375
 74
0
 49
-0.075
 74
0
 49
0.075
 74
0
 49
-0.075
 74
0
  0
LTYPE
  5
1F6
100
AcDbSymbolTableRecord
100
AcDbLinetypeTableRecord
  2
HIDDEN
 70
64
  3
- - - - - - - - - - - - - - - - - - - -
 72
65
 73
2
 40
0.2
 49
0.1
 74
0
 49
-0.1
 74
0
  0
LTYPE
  5
1F7
100
AcDbSymbolTableRecord
100
AcDbLinetypeTableRecord
  2
PHANTOM
 70
64
  3
_____ _ _ _____ _ _ _____ _ _ _____
 72
65
 73
6
 40
0.8
 49
0.45
 74
0
 49
-0.05
 74
0
 49
0.1
 74
0
 49
-0.05
 74
0
 49
0.1
 74
0
 49
-0.05
 74
0
  0
LTYPE
  5
1F8
100
AcDbSymbolTableRecord
100
AcDbLinetypeTableRecord
  2
DOT
 70
64
  3
. . . . . . . . . . . . . . . . . . . .
 72
65
 73
2
 40
0.2
 49
0.1
 74
0
 49
-0.1
 74
0
  0
LTYPE
  5
1F9
100
AcDbSymbolTableRecord
100
AcDbLinetypeTableRecord
  2
DASHED
 70
64
  3
- - - - - - - - - - - - - - - - - - - -
 72
65
 73
2
 40
0.2
 49
0.1
 74
0
 49
-0.1
 74
0
  0
ENDTAB
  0
TABLE
  2
LAYER
  5
2
100
AcDbSymbolTable
 70
36
  0
LAYER
  5
10
100
AcDbSymbolTableRecord
100
AcDbLayerTableRecord
  2
0
 70
0
 62
7
  6
CONTINUOUS
370
-3
390
F
  0
LAYER
  5
1FA
100
AcDbSymbolTableRecord
100
AcDbLayerTableRecord
  2
DEFAULT_1
 70
0
 62
7
  6
CENTER
370
-3
390
F
  0
LAYER
  5
1FB
100
AcDbSymbolTableRecord
100
AcDbLayerTableRecord
  2
DEFAULT_2
 70
0
 62
8
  6
HIDDEN
370
-3
390
F
  0
LAYER
  5
1FC
100
AcDbSymbolTableRecord
100
AcDbLayerTableRecord
  2
DEFAULT_3
 70
0
 62
7
  6
PHANTOM
370
-3
390
F
  0
LAYER
  5
1FD
100
AcDbSymbolTableRecord
100
AcDbLayerTableRecord
  2
00_COMPONENTS
 70
0
 62
7
  6
CONTINUOUS
370
-3
390
F
  0
LAYER
  5
1FE
100
AcDbSymbolTableRecord
100
AcDbLayerTableRecord
  2
01_1_DEFAULT_DATUMS
 70
0
 62
7
  6
CONTINUOUS
370
-3
390
F
  0
LAYER
  5
1FF
100
AcDbSymbolTableRecord
100
AcDbLayerTableRecord
  2
01_PLANES
 70
0
 62
7
  6
CONTINUOUS
370
-3
390
F
  0
LAYER
  5
200
100
AcDbSymbolTableRecord
100
AcDbLayerTableRecord
  2
02_COORD_SYS
 70
0
 62
7
  6
CONTINUOUS
370
-3
390
F
  0
LAYER
  5
201
100
AcDbSymbolTableRecord
100
AcDbLayerTableRecord
  2
03_AXES
 70
0
 62
7
  6
CONTINUOUS
370
-3
390
F
  0
LAYER
  5
202
100
AcDbSymbolTableRecord
100
AcDbLayerTableRecord
  2
04_POINTS
 70
0
 62
7
  6
CONTINUOUS
370
-3
390
F
  0
LAYER
  5
203
100
AcDbSymbolTableRecord
100
AcDbLayerTableRecord
  2
05_CURVES
 70
0
 62
7
  6
CONTINUOUS
370
-3
390
F
  0
LAYER
  5
204
100
AcDbSymbolTableRecord
100
AcDbLayerTableRecord
  2
06_SURFS
 70
0
 62
7
  6
CONTINUOUS
370
-3
390
F
  0
LAYER
  5
205
100
AcDbSymbolTableRecord
100
AcDbLayerTableRecord
  2
07_COSMETICS
 70
0
 62
7
  6
CONTINUOUS
370
-3
390
F
  0
LAYER
  5
206
100
AcDbSymbolTableRecord
100
AcDbLayerTableRecord
  2
10_NOTES
 70
0
 62
7
  6
CONTINUOUS
370
-3
390
F
  0
LAYER
  5
207
100
AcDbSymbolTableRecord
100
AcDbLayerTableRecord
  2
11_NOTES_PUB
 70
0
 62
7
  6
CONTINUOUS
370
-3
390
F
  0
LAYER
  5
208
100
AcDbSymbolTableRecord
100
AcDbLayerTableRecord
  2
13_REF_GTOL
 70
0
 62
7
  6
CONTINUOUS
370
-3
390
F
  0
LAYER
  5
209
100
AcDbSymbolTableRecord
100
AcDbLayerTableRecord
  2
16_MISC
 70
0
 62
7
  6
CONTINUOUS
370
-3
390
F
  0
LAYER
  5
20A
100
AcDbSymbolTableRecord
100
AcDbLayerTableRecord
  2
17_NO_PRINT
 70
0
 62
7
  6
CONTINUOUS
370
-3
390
F
  0
LAYER
  5
20B
100
AcDbSymbolTableRecord
100
AcDbLayerTableRecord
  2
18_DATUM_CAMS_JOINTS
 70
0
 62
7
  6
CONTINUOUS
370
-3
390
F
  0
LAYER
  5
20C
100
AcDbSymbolTableRecord
100
AcDbLayerTableRecord
  2
19_DATUM_FUNCTIONAL
 70
0
 62
7
  6
CONTINUOUS
370
-3
390
F
  0
LAYER
  5
20D
100
AcDbSymbolTableRecord
100
AcDbLayerTableRecord
  2
20_DATUM_KINEMATIC_SCHEME
 70
0
 62
7
  6
CONTINUOUS
370
-3
390
F
  0
ENDTAB
  0
TABLE
  2
STYLE
  5
3
100
AcDbSymbolTable
 70
1
  0
STYLE
  5
11
100
AcDbSymbolTableRecord
100
AcDbTextStyleTableRecord
  2
STANDARD
 70
0
 40
0.0
 41
0.8
 50
0.0
 71
0
 42
0.2
  3
txt
  4

  0
STYLE
  5
20E
100
AcDbSymbolTableRecord
100
AcDbTextStyleTableRecord
  2
TEXTSTYLE_1
 70
0
 40
0.0
 41
0.8
 50
0.0
 71
0
 42
0.2
  3
gdt
  4

  0
ENDTAB
  0
TABLE
  2
VIEW
  5
6
100
AcDbSymbolTable
 70
0
  0
ENDTAB
  0
TABLE
  2
UCS
  5
7
100
AcDbSymbolTable
 70
0
  0
ENDTAB
  0
TABLE
  2
APPID
  5
9
100
AcDbSymbolTable
 70
1
  0
APPID
  5
20F
100
AcDbSymbolTableRecord
100
AcDbRegAppTableRecord
  2
ACAD
 70
0
  0
ENDTAB
  0
TABLE
  2
BLOCK_RECORD
  5
1
100
AcDbSymbolTable
 70
0
  0
BLOCK_RECORD
  5
210
100
AcDbSymbolTableRecord
100
AcDbBlockTableRecord
  2
*Model_Space
  0
BLOCK_RECORD
  5
211
100
AcDbSymbolTableRecord
100
AcDbBlockTableRecord
  2
*Paper_Space
  0
BLOCK_RECORD
  5
212
100
AcDbSymbolTableRecord
100
AcDbBlockTableRecord
  2
_FILLED
  0
ENDTAB
  0
TABLE
  2
DIMSTYLE
  5
A
100
AcDbSymbolTable
 70
1
100
AcDbDimStyleTable
 71
0
  0
DIMSTYLE
105
213
100
AcDbSymbolTableRecord
100
AcDbDimStyleTableRecord
  2
STANDARD
 70
0
  3

  4

 40
1.0
 41
3.034016637
 42
1.0
 43
0.38
 44
1.0
 45
0.0
 46
0.0
 47
0.01
 48
0.01
140
4.2476232917
141
0.09
142
0.0
143
25.4
144
1.0
145
0.0
146
1.0
147
0.625
 71
1
 72
0
 73
0
 74
0
 75
0
 76
0
 77
1
 78
8
 79
2
170
0
171
1
172
0
173
0
174
0
175
0
176
0
177
0
178
0
270
2
179
2
271
2
272
2
273
2
274
2
275
0
280
0
281
0
282
0
283
1
284
8
285
0
286
0
287
3
288
0
340
11
278
46
341
212
342
212
343
212
344
212
  0
ENDTAB
  0
ENDSEC
  0
SECTION
  2
BLOCKS
  0
BLOCK
  5
20
100
AcDbEntity
  8
0
100
AcDbBlockBegin
  2
*Model_Space
 70
0
 10
0.0
 20
0.0
 30
0.0
  3
*Model_Space
  1

  0
ENDBLK
  5
21
100
AcDbEntity
  8
0
100
AcDbBlockEnd
  0
BLOCK
  5
1C
100
AcDbEntity
  8
0
100
AcDbBlockBegin
  2
*Paper_Space
 70
0
 10
0.0
 20
0.0
 30
0.0
  3
*Paper_Space
  1

  0
ENDBLK
  5
1D
100
AcDbEntity
  8
0
100
AcDbBlockEnd
  0
BLOCK
  5
214
100
AcDbEntity
  8
0
100
AcDbBlockBegin
  2
_FILLED
 70
64
 10
0.0
 20
0.0
  3
_FILLED
  1

  0
SOLID
  5
215
100
AcDbEntity
  8
0
  6
BYBLOCK
 62
0
100
AcDbTrace
 10
0.0
 20
0.0
 11
-1.0
 21
0.25
 12
-1.0
 22
-0.25
 13
-1.0
 23
-0.25
  0
ENDBLK
  5
216
100
AcDbEntity
  8
0
  6
BYBLOCK
 62
0
100
AcDbBlockEnd
  0
ENDSEC
  0
SECTION
  2
ENTITIES
  0
LINE
  5
217
100
AcDbEntity
  8
0
100
AcDbLine
 62
7
  6
CONTINUOUS
 10
27.9434046346
 20
153.8088235294
 11
27.9434046346
 21
163.8088235294
  0
LINE
  5
218
100
AcDbEntity
  8
0
100
AcDbLine
 62
7
  6
CONTINUOUS
 10
28.4434046346
 20
153.3088235294
 11
28.4434046346
 21
164.3088235294
  0
LINE
  5
219
100
AcDbEntity
  8
0
100
AcDbLine
 62
7
  6
CONTINUOUS
 10
27.9434046346
 20
153.8088235294
 11
28.4434046346
 21
153.3088235294
  0
LINE
  5
21A
100
AcDbEntity
  8
0
100
AcDbLine
 62
7
  6
CONTINUOUS
 10
48.4434046346
 20
128.8088401464
 11
48.4434046346
 21
188.8088069124
  0
LINE
  5
21B
100
AcDbEntity
  8
0
100
AcDbLine
 62
7
  6
CONTINUOUS
 10
50.9434046346
 20
123.8088235294
 11
50.9434046346
 21
192.8088235294
  0
LINE
  5
21C
100
AcDbEntity
  8
0
100
AcDbLine
 62
7
  6
CONTINUOUS
 10
59.4434046346
 20
192.8088235294
 11
59.4434046346
 21
167.5918490652
  0
LINE
  5
21D
100
AcDbEntity
  8
0
100
AcDbLine
 62
7
  6
CONTINUOUS
 10
59.4434046346
 20
150.0257979936
 11
59.4434046346
 21
123.8088235294
  0
LINE
  5
21E
100
AcDbEntity
  8
0
100
AcDbLine
 62
7
  6
CONTINUOUS
 10
71.9434046346
 20
123.8089708569
 11
71.9434046346
 21
135.1595032136
  0
LINE
  5
21F
100
AcDbEntity
  8
0
100
AcDbLine
 62
7
  6
CONTINUOUS
 10
71.9434046346
 20
135.2014604684
 11
71.9434046346
 21
182.416183961
  0
LINE
  5
220
100
AcDbEntity
  8
0
100
AcDbLine
 62
7
  6
CONTINUOUS
 10
71.9434046346
 20
182.4581240583
 11
71.9434046346
 21
192.8088235294
  0
LINE
  5
221
100
AcDbEntity
  8
0
100
AcDbLine
 62
7
  6
CONTINUOUS
 10
28.4434046346
 20
164.3088235294
 11
27.9434046346
 21
163.8088235294
  0
LINE
  5
222
100
AcDbEntity
  8
0
100
AcDbLine
 62
7
  6
CONTINUOUS
 10
50.9434046346
 20
123.8088235294
 11
226.4433025937
 21
123.8088235294
  0
LINE
  5
223
100
AcDbEntity
  8
0
100
AcDbLine
 62
7
  6
CONTINUOUS
 10
226.5469853626
 20
124.3228766062
 11
59.4434046346
 21
124.3220013659
  0
LINE
  5
224
100
AcDbEntity
  8
0
100
AcDbLine
 62
7
  6
CONTINUOUS
 10
59.4434046346
 20
127.0584973704
 11
71.9434046346
 21
127.0584973704
  0
LINE
  5
225
100
AcDbEntity
  8
0
100
AcDbLine
 62
7
  6
CONTINUOUS
 10
71.9434046346
 20
127.061687956
 11
227.075820277
 21
127.061687956
  0
LINE
  5
226
100
AcDbEntity
  8
0
100
AcDbLine
 62
7
  6
CONTINUOUS
 10
59.4434046346
 20
127.8088235294
 11
50.9434046346
 21
127.8088235294
  0
LINE
  5
227
100
AcDbEntity
  8
0
100
AcDbLine
 62
7
  6
CONTINUOUS
 10
71.9434046346
 20
128.2416450355
 11
59.4434046346
 21
128.2416450355
  0
LINE
  5
228
100
AcDbEntity
  8
0
100
AcDbLine
 62
7
  6
CONTINUOUS
 10
71.9434046346
 20
128.2450746098
 11
227.2920908574
 21
128.2450746846
  0
LINE
  5
229
100
AcDbEntity
  8
0
100
AcDbLine
 62
7
  6
CONTINUOUS
 10
230.0434046346
 20
128.6188235294
 11
227.3588684763
 21
128.6188235294
  0
LINE
  5
22A
100
AcDbEntity
  8
0
100
AcDbLine
 62
7
  6
CONTINUOUS
 10
71.9434046346
 20
128.7399596712
 11
227.3803547817
 21
128.7399596712
  0
LINE
  5
22B
100
AcDbEntity
  8
0
100
AcDbLine
 62
7
  6
CONTINUOUS
 10
50.9434046346
 20
128.8088235294
 11
48.4434046346
 21
128.8088235294
  0
LINE
  5
22C
100
AcDbEntity
  8
0
100
AcDbLine
 62
7
  6
CONTINUOUS
 10
71.9434046346
 20
129.0039910986
 11
59.4434046346
 21
129.0039910986
  0
LINE
  5
22D
100
AcDbEntity
  8
0
100
AcDbLine
 62
7
  6
CONTINUOUS
 10
230.0434046346
 20
134.1188235294
 11
227.4434046346
 21
134.1188235294
  0
LINE
  5
22E
100
AcDbEntity
  8
0
100
AcDbLine
 62
7
  6
CONTINUOUS
 10
228.3674324938
 20
134.8672300457
 11
227.4434046346
 21
134.8672300457
  0
LINE
  5
22F
100
AcDbEntity
  8
0
100
AcDbLine
 62
7
  6
CONTINUOUS
 10
182.4434046346
 20
135.2011809599
 11
71.9434046346
 21
135.2011809599
  0
LINE
  5
230
100
AcDbEntity
  8
0
100
AcDbLine
 62
7
  6
CONTINUOUS
 10
59.4434046346
 20
135.2056008585
 11
71.9434046346
 21
135.2056008585
  0
LINE
  5
231
100
AcDbEntity
  8
0
100
AcDbLine
 62
7
  6
CONTINUOUS
 10
182.4434046346
 20
135.3174455008
 11
227.4434046346
 21
135.3174455008
  0
LINE
  5
232
100
AcDbEntity
  8
0
100
AcDbLine
 62
7
  6
CONTINUOUS
 10
71.9434046346
 20
135.3971330314
 11
182.4434046346
 21
135.3971330314
  0
LINE
  5
233
100
AcDbEntity
  8
0
100
AcDbLine
 62
7
  6
CONTINUOUS
 10
71.9434046346
 20
135.4016110865
 11
59.4434046346
 21
135.4016110865
  0
LINE
  5
234
100
AcDbEntity
  8
0
100
AcDbLine
 62
7
  6
CONTINUOUS
 10
194.6599242766
 20
135.5264153991
 11
227.4434046346
 21
135.5264153991
  0
LINE
  5
235
100
AcDbEntity
  8
0
100
AcDbLine
 62
7
  6
CONTINUOUS
 10
182.4434046346
 20
137.0288009656
 11
71.9434046346
 21
137.0288009656
  0
LINE
  5
236
100
AcDbEntity
  8
0
100
AcDbLine
 62
7
  6
CONTINUOUS
 10
71.9434046346
 20
137.0334523777
 11
59.4434046346
 21
137.0334523777
  0
LINE
  5
237
100
AcDbEntity
  8
0
100
AcDbLine
 62
7
  6
CONTINUOUS
 10
227.4434046346
 20
138.5665410494
 11
202.395823701
 21
138.5665410494
  0
LINE
  5
238
100
AcDbEntity
  8
0
100
AcDbLine
 62
7
  6
CONTINUOUS
 10
183.5106752755
 20
135.3174455008
 11
182.4434046346
 21
135.3971330314
  0
LINE
  5
239
100
AcDbEntity
  8
0
100
AcDbLine
 62
7
  6
CONTINUOUS
 10
59.4434046346
 20
150.0257979936
 11
50.9434046346
 21
150.0257979936
  0
LINE
  5
23A
100
AcDbEntity
  8
0
100
AcDbLine
 62
7
  6
CONTINUOUS
 10
71.9434046346
 20
152.8322471844
 11
182.4434046346
 21
152.8322471844
  0
LINE
  5
23B
100
AcDbEntity
  8
0
100
AcDbLine
 62
7
  6
CONTINUOUS
 10
50.9434046346
 20
152.837299682
 11
71.9434046346
 21
152.837299682
  0
LINE
  5
23C
100
AcDbEntity
  8
0
100
AcDbLine
 62
7
  6
CONTINUOUS
 10
182.4434046346
 20
152.9139104681
 11
227.4434046346
 21
152.9139104681
  0
LINE
  5
23D
100
AcDbEntity
  8
0
100
AcDbLine
 62
7
  6
CONTINUOUS
 10
48.4434046346
 20
153.3088235294
 11
28.4434046346
 21
153.3088235294
  0
LINE
  5
23E
100
AcDbEntity
  8
0
100
AcDbLine
 62
7
  6
CONTINUOUS
 10
182.5595638169
 20
152.8298117203
 11
182.4434046346
 21
152.8322471844
  0
LINE
  5
23F
100
AcDbEntity
  8
0
100
AcDbLine
 62
7
  6
CONTINUOUS
 10
28.4434046346
 20
164.3088235294
 11
48.4434046346
 21
164.3088235294
  0
LINE
  5
240
100
AcDbEntity
  8
0
100
AcDbLine
 62
7
  6
CONTINUOUS
 10
71.9434046346
 20
164.7803473768
 11
50.9434046346
 21
164.7803473768
  0
LINE
  5
241
100
AcDbEntity
  8
0
100
AcDbLine
 62
7
  6
CONTINUOUS
 10
227.4434046346
 20
164.7853998744
 11
71.9434046346
 21
164.7853998744
  0
LINE
  5
242
100
AcDbEntity
  8
0
100
AcDbLine
 62
7
  6
CONTINUOUS
 10
50.9434046346
 20
167.5918490652
 11
59.4434046346
 21
167.5918490652
  0
LINE
  5
243
100
AcDbEntity
  8
0
100
AcDbLine
 62
7
  6
CONTINUOUS
 10
227.4434046346
 20
174.8150163427
 11
230.4434046346
 21
174.8150163427
  0
LINE
  5
244
100
AcDbEntity
  8
0
100
AcDbLine
 62
7
  6
CONTINUOUS
 10
230.4434046346
 20
175.2788235294
 11
227.4434046346
 21
175.2788235294
  0
LINE
  5
245
100
AcDbEntity
  8
0
100
AcDbLine
 62
7
  6
CONTINUOUS
 10
59.4434046346
 20
180.5841946811
 11
71.9434046346
 21
180.5841946811
  0
LINE
  5
246
100
AcDbEntity
  8
0
100
AcDbLine
 62
7
  6
CONTINUOUS
 10
71.9434046346
 20
180.5888460932
 11
227.4434046346
 21
180.5888460932
  0
LINE
  5
247
100
AcDbEntity
  8
0
100
AcDbLine
 62
7
  6
CONTINUOUS
 10
230.4434046346
 20
180.7788235294
 11
227.4434046346
 21
180.7788235294
  0
LINE
  5
248
100
AcDbEntity
  8
0
100
AcDbLine
 62
7
  6
CONTINUOUS
 10
230.4434046346
 20
181.5236341472
 11
227.4434046346
 21
181.5236341472
  0
LINE
  5
249
100
AcDbEntity
  8
0
100
AcDbLine
 62
7
  6
CONTINUOUS
 10
71.9434046346
 20
182.2160359723
 11
59.4434046346
 21
182.2160359723
  0
LINE
  5
24A
100
AcDbEntity
  8
0
100
AcDbLine
 62
7
  6
CONTINUOUS
 10
71.9434046346
 20
182.2205140275
 11
227.4434046346
 21
182.2205140275
  0
LINE
  5
24B
100
AcDbEntity
  8
0
100
AcDbLine
 62
7
  6
CONTINUOUS
 10
182.6026074679
 20
182.3503980186
 11
182.4434046346
 21
182.3503980186
  0
LINE
  5
24C
100
AcDbEntity
  8
0
100
AcDbLine
 62
7
  6
CONTINUOUS
 10
59.4434046346
 20
182.4120462003
 11
71.9434046346
 21
182.4120462003
  0
LINE
  5
24D
100
AcDbEntity
  8
0
100
AcDbLine
 62
7
  6
CONTINUOUS
 10
182.4434046346
 20
182.4164660989
 11
71.9434046346
 21
182.4164660989
  0
LINE
  5
24E
100
AcDbEntity
  8
0
100
AcDbLine
 62
7
  6
CONTINUOUS
 10
182.8121486481
 20
182.4164660989
 11
227.4434046346
 21
182.4164660989
  0
LINE
  5
24F
100
AcDbEntity
  8
0
100
AcDbLine
 62
7
  6
CONTINUOUS
 10
197.4434046346
 20
187.8002015581
 11
182.4434046346
 21
187.8002015581
  0
LINE
  5
250
100
AcDbEntity
  8
0
100
AcDbLine
 62
7
  6
CONTINUOUS
 10
182.4434046346
 20
189.3113670023
 11
182.4660507005
 21
189.3213875933
  0
LINE
  5
251
100
AcDbEntity
  8
0
100
AcDbLine
 62
7
  6
CONTINUOUS
 10
196.7847028693
 20
195.6560733861
 11
196.903100981
 21
195.7084459543
  0
LINE
  5
252
100
AcDbEntity
  8
0
100
AcDbLine
 62
7
  6
CONTINUOUS
 10
182.4434046346
 20
182.3503980186
 11
182.797298173
 21
182.4630984569
  0
LINE
  5
253
100
AcDbEntity
  8
0
100
AcDbLine
 62
7
  6
CONTINUOUS
 10
182.4434046346
 20
182.3002015581
 11
182.8121645762
 21
182.416471121
  0
LINE
  5
254
100
AcDbEntity
  8
0
100
AcDbLine
 62
7
  6
CONTINUOUS
 10
71.9434046346
 20
188.6136559433
 11
59.4434046346
 21
188.6136559433
  0
LINE
  5
255
100
AcDbEntity
  8
0
100
AcDbLine
 62
7
  6
CONTINUOUS
 10
48.4434046346
 20
188.8088235294
 11
59.4434046346
 21
188.8088235294
  0
LINE
  5
256
100
AcDbEntity
  8
0
100
AcDbLine
 62
7
  6
CONTINUOUS
 10
71.9434046346
 20
188.8776874889
 11
182.4434046346
 21
188.8776874889
  0
LINE
  5
257
100
AcDbEntity
  8
0
100
AcDbLine
 62
7
  6
CONTINUOUS
 10
71.9434046346
 20
189.3725724491
 11
182.4434046346
 21
189.3725724491
  0
LINE
  5
258
100
AcDbEntity
  8
0
100
AcDbLine
 62
7
  6
CONTINUOUS
 10
71.9434046346
 20
189.3760020982
 11
59.4434046346
 21
189.3760020982
  0
LINE
  5
259
100
AcDbEntity
  8
0
100
AcDbLine
 62
7
  6
CONTINUOUS
 10
182.4434046346
 20
192.8088235294
 11
50.9434046346
 21
192.8088235294
  0
LINE
  5
25A
100
AcDbEntity
  8
0
100
AcDbLine
 62
7
  6
CONTINUOUS
 10
197.4434046346
 20
195.3088235294
 11
222.4434046346
 21
195.3088235294
  0
LINE
  5
25B
100
AcDbEntity
  8
0
100
AcDbLine
 62
7
  6
CONTINUOUS
 10
182.4434046346
 20
195.8088235294
 11
230.4434046346
 21
195.8088235294
  0
LINE
  5
25C
100
AcDbEntity
  8
0
100
AcDbLine
 62
7
  6
CONTINUOUS
 10
182.5595638169
 20
152.8298117203
 11
202.395823701
 21
138.5665410494
  0
LINE
  5
25D
100
AcDbEntity
  8
0
100
AcDbLine
 62
7
  6
CONTINUOUS
 10
182.4820588411
 20
152.8857964293
 11
182.4434046346
 21
152.9139104681
  0
LINE
  5
25E
100
AcDbEntity
  8
0
100
AcDbLine
 62
7
  6
CONTINUOUS
 10
196.4434046346
 20
198.8088235294
 11
221.4434046346
 21
198.8088235294
  0
LINE
  5
25F
100
AcDbEntity
  8
0
100
AcDbLine
 62
7
  6
CONTINUOUS
 10
196.4434046346
 20
200.4088235294
 11
196.7934046346
 21
200.4088235294
  0
LINE
  5
260
100
AcDbEntity
  8
0
100
AcDbLine
 62
7
  6
CONTINUOUS
 10
221.0934046346
 20
200.4088235294
 11
221.4434046346
 21
200.4088235294
  0
LINE
  5
261
100
AcDbEntity
  8
0
100
AcDbLine
 62
7
  6
CONTINUOUS
 10
196.7934046346
 20
201.1088235294
 11
201.2934046346
 21
201.1088235294
  0
LINE
  5
262
100
AcDbEntity
  8
0
100
AcDbLine
 62
7
  6
CONTINUOUS
 10
216.5934046346
 20
201.1088235294
 11
221.0934046346
 21
201.1088235294
  0
LINE
  5
263
100
AcDbEntity
  8
0
100
AcDbLine
 62
7
  6
CONTINUOUS
 10
196.9934046346
 20
201.3088235294
 11
201.0934046346
 21
201.3088235294
  0
LINE
  5
264
100
AcDbEntity
  8
0
100
AcDbLine
 62
7
  6
CONTINUOUS
 10
216.7934046346
 20
201.3088235294
 11
220.8934046346
 21
201.3088235294
  0
LINE
  5
265
100
AcDbEntity
  8
0
100
AcDbLine
 62
7
  6
CONTINUOUS
 10
196.7934046346
 20
202.7088235294
 11
197.4434046346
 21
202.7088235294
  0
LINE
  5
266
100
AcDbEntity
  8
0
100
AcDbLine
 62
7
  6
CONTINUOUS
 10
220.4434046346
 20
202.7088235294
 11
221.0934046346
 21
202.7088235294
  0
LINE
  5
267
100
AcDbEntity
  8
0
100
AcDbLine
 62
7
  6
CONTINUOUS
 10
196.9934046346
 20
202.9088235294
 11
197.4434046346
 21
202.9088235294
  0
LINE
  5
268
100
AcDbEntity
  8
0
100
AcDbLine
 62
7
  6
CONTINUOUS
 10
220.4434046346
 20
202.9088235294
 11
220.8934046346
 21
202.9088235294
  0
LINE
  5
269
100
AcDbEntity
  8
0
100
AcDbLine
 62
7
  6
CONTINUOUS
 10
220.6933981469
 20
204.1088235294
 11
197.1934111223
 21
204.1088235294
  0
LINE
  5
26A
100
AcDbEntity
  8
0
100
AcDbLine
 62
7
  6
CONTINUOUS
 10
197.1934111223
 20
208.3088235294
 11
220.6933981469
 21
208.3088235294
  0
LINE
  5
26B
100
AcDbEntity
  8
0
100
AcDbLine
 62
7
  6
CONTINUOUS
 10
197.4434109915
 20
218.3088235294
 11
220.4433982777
 21
218.3088235294
  0
LINE
  5
26C
100
AcDbEntity
  8
0
100
AcDbLine
 62
7
  6
CONTINUOUS
 10
195.8008624759
 20
218.8088235294
 11
197.6934046346
 21
218.8088235294
  0
LINE
  5
26D
100
AcDbEntity
  8
0
100
AcDbLine
 62
7
  6
CONTINUOUS
 10
220.1934046346
 20
218.8088235294
 11
222.0859467932
 21
218.8088235294
  0
LINE
  5
26E
100
AcDbEntity
  8
0
100
AcDbLine
 62
7
  6
CONTINUOUS
 10
197.1935606126
 20
220.8088235294
 11
197.6934046346
 21
220.8088235294
  0
LINE
  5
26F
100
AcDbEntity
  8
0
100
AcDbLine
 62
7
  6
CONTINUOUS
 10
220.1934046346
 20
220.8088235294
 11
220.6932486566
 21
220.8088235294
  0
LINE
  5
270
100
AcDbEntity
  8
0
100
AcDbLine
 62
7
  6
CONTINUOUS
 10
197.6934108659
 20
221.3088235294
 11
220.1933984033
 21
221.3088235294
  0
LINE
  5
271
100
AcDbEntity
  8
0
100
AcDbLine
 62
7
  6
CONTINUOUS
 10
182.4434046346
 20
123.8089713609
 11
182.4434046346
 21
182.4161865904
  0
LINE
  5
272
100
AcDbEntity
  8
0
100
AcDbLine
 62
7
  6
CONTINUOUS
 10
182.4434046346
 20
182.4285424969
 11
182.4434046346
 21
195.8088235294
  0
LINE
  5
273
100
AcDbEntity
  8
0
100
AcDbLine
 62
7
  6
CONTINUOUS
 10
197.4435558044
 20
231.3088235294
 11
220.4432534647
 21
231.3088235294
  0
LINE
  5
274
100
AcDbEntity
  8
0
100
AcDbLine
 62
7
  6
CONTINUOUS
 10
197.9434166702
 20
235.3088235294
 11
219.943392599
 21
235.3088235294
  0
LINE
  5
275
100
AcDbEntity
  8
0
100
AcDbLine
 62
7
  6
CONTINUOUS
 10
195.8008624759
 20
218.8088235294
 11
196.4434046346
 21
200.4088235294
  0
LINE
  5
276
100
AcDbEntity
  8
0
100
AcDbLine
 62
7
  6
CONTINUOUS
 10
194.6599242766
 20
135.5264153991
 11
194.6599242766
 21
136.4533681845
  0
LINE
  5
277
100
AcDbEntity
  8
0
100
AcDbLine
 62
7
  6
CONTINUOUS
 10
196.4434046346
 20
200.4088235294
 11
196.4434046346
 21
195.8088235294
  0
LINE
  5
278
100
AcDbEntity
  8
0
100
AcDbLine
 62
7
  6
CONTINUOUS
 10
196.7934046346
 20
202.7088235294
 11
196.7934046346
 21
198.8088235294
  0
LINE
  5
279
100
AcDbEntity
  8
0
100
AcDbLine
 62
7
  6
CONTINUOUS
 10
197.1934046346
 20
220.8088235294
 11
197.1934046346
 21
218.8088235294
  0
LINE
  5
27A
100
AcDbEntity
  8
0
100
AcDbLine
 62
7
  6
CONTINUOUS
 10
197.1934046346
 20
208.3088235294
 11
197.1934046346
 21
204.1088235294
  0
LINE
  5
27B
100
AcDbEntity
  8
0
100
AcDbLine
 62
7
  6
CONTINUOUS
 10
197.4434046346
 20
231.3088235294
 11
197.4434046346
 21
220.8088235294
  0
LINE
  5
27C
100
AcDbEntity
  8
0
100
AcDbLine
 62
7
  6
CONTINUOUS
 10
197.4434046346
 20
218.3088235294
 11
197.4434046346
 21
208.3088235294
  0
LINE
  5
27D
100
AcDbEntity
  8
0
100
AcDbLine
 62
7
  6
CONTINUOUS
 10
197.4434046346
 20
198.8088235294
 11
197.4434046346
 21
195.8088235294
  0
LINE
  5
27E
100
AcDbEntity
  8
0
100
AcDbLine
 62
7
  6
CONTINUOUS
 10
197.4434046346
 20
187.5903042879
 11
197.4434046346
 21
195.4770227878
  0
LINE
  5
27F
100
AcDbEntity
  8
0
100
AcDbLine
 62
7
  6
CONTINUOUS
 10
197.4434046346
 20
201.3088235294
 11
197.4434046346
 21
204.1088235294
  0
LINE
  5
280
100
AcDbEntity
  8
0
100
AcDbLine
 62
7
  6
CONTINUOUS
 10
197.6934046346
 20
221.3088235294
 11
197.6934046346
 21
218.3088235294
  0
LINE
  5
281
100
AcDbEntity
  8
0
100
AcDbLine
 62
7
  6
CONTINUOUS
 10
197.9434046346
 20
235.3088235294
 11
197.9434046346
 21
231.3088235294
  0
LINE
  5
282
100
AcDbEntity
  8
0
100
AcDbLine
 62
7
  6
CONTINUOUS
 10
199.8212527511
 20
204.1088235294
 11
199.8212527511
 21
201.3088235294
  0
LINE
  5
283
100
AcDbEntity
  8
0
100
AcDbLine
 62
7
  6
CONTINUOUS
 10
201.2934046346
 20
201.1088235294
 11
201.2934046346
 21
198.8088235294
  0
LINE
  5
284
100
AcDbEntity
  8
0
100
AcDbLine
 62
7
  6
CONTINUOUS
 10
201.9408090433
 20
204.1088235294
 11
201.9408090433
 21
198.8088235294
  0
LINE
  5
285
100
AcDbEntity
  8
0
100
AcDbLine
 62
7
  6
CONTINUOUS
 10
215.9460002259
 20
204.1088235294
 11
215.9460002259
 21
198.8088235294
  0
LINE
  5
286
100
AcDbEntity
  8
0
100
AcDbLine
 62
7
  6
CONTINUOUS
 10
216.5934046346
 20
201.1088235294
 11
216.5934046346
 21
198.8088235294
  0
LINE
  5
287
100
AcDbEntity
  8
0
100
AcDbLine
 62
7
  6
CONTINUOUS
 10
218.065556518
 20
204.1088235294
 11
218.065556518
 21
201.3088235294
  0
LINE
  5
288
100
AcDbEntity
  8
0
100
AcDbLine
 62
7
  6
CONTINUOUS
 10
219.9434046346
 20
235.3088235294
 11
219.9434046346
 21
231.3088235294
  0
LINE
  5
289
100
AcDbEntity
  8
0
100
AcDbLine
 62
7
  6
CONTINUOUS
 10
220.1934046346
 20
221.3088235294
 11
220.1934046346
 21
218.3088235294
  0
LINE
  5
28A
100
AcDbEntity
  8
0
100
AcDbLine
 62
7
  6
CONTINUOUS
 10
220.4434046346
 20
231.3088235294
 11
220.4434046346
 21
220.8088235294
  0
LINE
  5
28B
100
AcDbEntity
  8
0
100
AcDbLine
 62
7
  6
CONTINUOUS
 10
220.4434046346
 20
218.3088235294
 11
220.4434046346
 21
208.3088235294
  0
LINE
  5
28C
100
AcDbEntity
  8
0
100
AcDbLine
 62
7
  6
CONTINUOUS
 10
220.4434046346
 20
198.8088235294
 11
220.4434046346
 21
195.8088235294
  0
LINE
  5
28D
100
AcDbEntity
  8
0
100
AcDbLine
 62
7
  6
CONTINUOUS
 10
220.4434046346
 20
201.3088235294
 11
220.4434046346
 21
204.1088235294
  0
LINE
  5
28E
100
AcDbEntity
  8
0
100
AcDbLine
 62
7
  6
CONTINUOUS
 10
220.6934046346
 20
220.8088235294
 11
220.6934046346
 21
218.8088235294
  0
LINE
  5
28F
100
AcDbEntity
  8
0
100
AcDbLine
 62
7
  6
CONTINUOUS
 10
220.6934046346
 20
208.3088235294
 11
220.6934046346
 21
204.1088235294
  0
LINE
  5
290
100
AcDbEntity
  8
0
100
AcDbLine
 62
7
  6
CONTINUOUS
 10
221.0934046346
 20
202.7088235294
 11
221.0934046346
 21
198.8088235294
  0
LINE
  5
291
100
AcDbEntity
  8
0
100
AcDbLine
 62
7
  6
CONTINUOUS
 10
221.4434046346
 20
200.4088235294
 11
221.4434046346
 21
195.8088235294
  0
LINE
  5
292
100
AcDbEntity
  8
0
100
AcDbLine
 62
7
  6
CONTINUOUS
 10
222.4434046346
 20
123.8089713609
 11
222.4434046346
 21
195.8088235294
  0
LINE
  5
293
100
AcDbEntity
  8
0
100
AcDbLine
 62
7
  6
CONTINUOUS
 10
221.4434046346
 20
200.4088235294
 11
222.0859467932
 21
218.8088235294
  0
LINE
  5
294
100
AcDbEntity
  8
0
100
AcDbLine
 62
7
  6
CONTINUOUS
 10
227.4434046346
 20
182.4161865904
 11
227.4434046346
 21
129.0979556759
  0
LINE
  5
295
100
AcDbEntity
  8
0
100
AcDbLine
 62
7
  6
CONTINUOUS
 10
230.0434046346
 20
134.1188235294
 11
230.0434046346
 21
128.6188235294
  0
LINE
  5
296
100
AcDbEntity
  8
0
100
AcDbLine
 62
7
  6
CONTINUOUS
 10
230.4434046346
 20
195.8088235294
 11
230.4434046346
 21
163.6088235294
  0
LINE
  5
297
100
AcDbEntity
  8
0
100
AcDbLine
 62
7
  6
CONTINUOUS
 10
230.4434046346
 20
133.7188100623
 11
230.4434046346
 21
129.0188369965
  0
ARC
  5
298
100
AcDbEntity
  8
0
100
AcDbCircle
 62
7
  6
CONTINUOUS
 10
30.4434046346
 20
163.6088235294
 40
200.0
100
AcDbArc
 50
351.5476964572
 51
360.0
  0
ARC
  5
299
100
AcDbEntity
  8
0
100
AcDbCircle
 62
7
  6
CONTINUOUS
 10
30.4434046346
 20
163.6088235294
 40
200.0
100
AcDbArc
 50
348.5215654227
 51
350.0636329279
  0
ARC
  5
29A
100
AcDbEntity
  8
0
100
AcDbCircle
 62
7
  6
CONTINUOUS
 10
195.4250840161
 20
170.7224203212
 40
22.0378549896
100
AcDbArc
 50
234.0337390332
 51
234.2823142602
  0
ARC
  5
29B
100
AcDbEntity
  8
0
100
AcDbCircle
 62
7
  6
CONTINUOUS
 10
230.0434046346
 20
129.0188235294
 40
0.4
100
AcDbArc
 50
270.0
 51
360.0
  0
ARC
  5
29C
100
AcDbEntity
  8
0
100
AcDbCircle
 62
7
  6
CONTINUOUS
 10
230.0434046346
 20
133.7188235294
 40
0.4
100
AcDbArc
 50
0.0
 51
90.0
  0
ARC
  5
29D
100
AcDbEntity
  8
0
100
AcDbCircle
 62
7
  6
CONTINUOUS
 10
216.7934046346
 20
201.1088235294
 40
0.2
100
AcDbArc
 50
90.0
 51
180.0
  0
ARC
  5
29E
100
AcDbEntity
  8
0
100
AcDbCircle
 62
7
  6
CONTINUOUS
 10
220.8934046346
 20
201.1088235294
 40
0.2
100
AcDbArc
 50
0.0
 51
90.0
  0
ARC
  5
29F
100
AcDbEntity
  8
0
100
AcDbCircle
 62
7
  6
CONTINUOUS
 10
196.9934046346
 20
201.1088235294
 40
0.2
100
AcDbArc
 50
90.0
 51
180.0
  0
ARC
  5
2A0
100
AcDbEntity
  8
0
100
AcDbCircle
 62
7
  6
CONTINUOUS
 10
201.0934046346
 20
201.1088235294
 40
0.2
100
AcDbArc
 50
0.0
 51
90.0
  0
ARC
  5
2A1
100
AcDbEntity
  8
0
100
AcDbCircle
 62
7
  6
CONTINUOUS
 10
196.9934046346
 20
202.7088235294
 40
0.2
100
AcDbArc
 50
90.0
 51
180.0
  0
ARC
  5
2A2
100
AcDbEntity
  8
0
100
AcDbCircle
 62
7
  6
CONTINUOUS
 10
220.8934046346
 20
202.7088235294
 40
0.2
100
AcDbArc
 50
0.0
 51
90.0
  0
SPLINE
  5
2A3
100
AcDbEntity
  8
0
100
AcDbSpline
 62
7
  6
CONTINUOUS
 70
0
 71
3
 72
20
 73
16
 74
0
 42
0.0000001
 43
0.0000001
 44
0.0000000001
 40
0.0
 40
0.0
 40
0.0
 40
0.0
 40
0.1250168344
 40
0.2500332086
 40
0.3750484745
 40
0.5000604485
 40
0.6250627965
 40
0.6875706207
 40
0.7500756707
 40
0.8125726113
 40
0.8750401596
 40
0.906294569
 40
0.9375426107
 40
0.9687767781
 40
1.0
 40
1.0
 40
1.0
 40
1.0
 10
222.7140743348
 20
195.8088235294
 30
0.0
 10
223.0857461366
 20
195.6679831899
 30
0.0
 10
223.8271495573
 20
195.3811327385
 30
0.0
 10
224.9314033127
 20
194.9310569402
 30
0.0
 10
226.0247610093
 20
194.4549266681
 30
0.0
 10
227.1018249692
 20
193.942961821
 30
0.0
 10
227.9782174965
 20
193.4731734568
 30
0.0
 10
228.6551961559
 20
193.0561336098
 30
0.0
 10
229.1451841723
 20
192.7157772209
 30
0.0
 10
229.6072797903
 20
192.3382893826
 30
0.0
 10
229.9538523802
 20
191.9793223004
 30
0.0
 10
230.1854276192
 20
191.6554787106
 30
0.0
 10
230.3262617204
 20
191.3915718894
 30
0.0
 10
230.4208408145
 20
191.1072895849
 30
0.0
 10
230.4434046346
 20
190.9080904791
 30
0.0
 10
230.4434046346
 20
190.8088235294
 30
0.0
  0
SPLINE
  5
2A4
100
AcDbEntity
  8
0
100
AcDbSpline
 62
7
  6
CONTINUOUS
 70
0
 71
3
 72
11
 73
7
 74
0
 42
0.0000001
 43
0.0000001
 44
0.0000000001
 40
0.0
 40
0.0
 40
0.0
 40
0.0
 40
0.2906090034
 40
0.5508760152
 40
0.7771216608
 40
1.0
 40
1.0
 40
1.0
 40
1.0
 10
196.7171290013
 20
195.8088235294
 30
0.0
 10
196.7397227893
 20
195.8088235294
 30
0.0
 10
196.7826677864
 20
195.8064679585
 30
0.0
 10
196.8418641183
 20
195.7928473414
 30
0.0
 10
196.8905314165
 20
195.7619029427
 30
0.0
 10
196.9028222771
 20
195.7257719766
 30
0.0
 10
196.9030999251
 20
195.7084462248
 30
0.0
  0
SPLINE
  5
2A5
100
AcDbEntity
  8
0
100
AcDbSpline
 62
7
  6
CONTINUOUS
 70
0
 71
3
 72
10
 73
6
 74
0
 42
0.0000001
 43
0.0000001
 44
0.0000000001
 40
0.0
 40
0.0
 40
0.0
 40
0.0
 40
0.2517517972
 40
0.5021157465
 40
1.0
 40
1.0
 40
1.0
 40
1.0
 10
197.4434046346
 20
195.4770227878
 30
0.0
 10
197.4061411677
 20
195.5099134907
 30
0.0
 10
197.3218027853
 20
195.5639921648
 30
0.0
 10
197.1413526436
 20
195.6444838824
 30
0.0
 10
196.9987455834
 20
195.6857692159
 30
0.0
 10
196.903100981
 20
195.7084459543
 30
0.0
  0
SPLINE
  5
2A6
100
AcDbEntity
  8
0
100
AcDbSpline
 62
7
  6
CONTINUOUS
 70
0
 71
3
 72
8
 73
4
 74
0
 42
0.0000001
 43
0.0000001
 44
0.0000000001
 40
0.0
 40
0.0
 40
0.0
 40
0.0
 40
1.0
 40
1.0
 40
1.0
 40
1.0
 10
182.4660507005
 20
189.3213875933
 30
0.0
 10
187.2387957157
 20
191.4332637788
 30
0.0
 10
192.0117063978
 20
193.544765572
 30
0.0
 10
196.7847028693
 20
195.6560733861
 30
0.0
  0
SPLINE
  5
2A7
100
AcDbEntity
  8
0
100
AcDbSpline
 62
7
  6
CONTINUOUS
 70
0
 71
3
 72
9
 73
5
 74
0
 42
0.0000001
 43
0.0000001
 44
0.0000000001
 40
0.0
 40
0.0
 40
0.0
 40
0.0
 40
0.4999998988
 40
1.0
 40
1.0
 40
1.0
 40
1.0
 10
194.6599242765
 20
136.4533681845
 30
0.0
 10
192.6238133836
 20
136.548747846
 30
0.0
 10
188.5516842178
 20
136.7414953361
 30
0.0
 10
184.4794663175
 20
136.9323590967
 30
0.0
 10
182.4434046346
 20
137.0288009656
 30
0.0
  0
SPLINE
  5
2A8
100
AcDbEntity
  8
0
100
AcDbSpline
 62
7
  6
CONTINUOUS
 70
0
 71
3
 72
17
 73
13
 74
0
 42
0.0000001
 43
0.0000001
 44
0.0000000001
 40
0.0
 40
0.0
 40
0.0
 40
0.0
 40
0.0532078658
 40
0.0831509207
 40
0.1136367015
 40
0.1753551039
 40
0.2378167001
 40
0.3636760467
 40
0.4902758141
 40
0.617325386
 40
0.7446815672
 40
1.0
 40
1.0
 40
1.0
 40
1.0
 10
194.6599242765
 20
135.5264153991
 30
0.0
 10
194.6599242765
 20
135.4957811882
 30
0.0
 10
194.6082860761
 20
135.4610149436
 30
0.0
 10
194.5499147391
 20
135.4391531283
 30
0.0
 10
194.4817611873
 20
135.4185490974
 30
0.0
 10
194.3951466644
 20
135.3992365997
 30
0.0
 10
194.252822466
 20
135.3763289328
 30
0.0
 10
194.0726409216
 20
135.356050693
 30
0.0
 10
193.8546980342
 20
135.3397595869
 30
0.0
 10
193.6355963871
 20
135.3288434658
 30
0.0
 10
193.3422565558
 20
135.3196407822
 30
0.0
 10
193.1219159163
 20
135.3174455008
 30
0.0
 10
192.9749173736
 20
135.3174455008
 30
0.0
  0
SPLINE
  5
2A9
100
AcDbEntity
  8
0
100
AcDbSpline
 62
7
  6
CONTINUOUS
 70
0
 71
3
 72
23
 73
19
 74
0
 42
0.0000001
 43
0.0000001
 44
0.0000000001
 40
0.0
 40
0.0
 40
0.0
 40
0.0
 40
0.1250051048
 40
0.2500102074
 40
0.3750153041
 40
0.5000203815
 40
0.5625229313
 40
0.6250254747
 40
0.6875280009
 40
0.7500304755
 40
0.8125327645
 40
0.8437840073
 40
0.8750351733
 40
0.9062860709
 40
0.9375358871
 40
0.9687789603
 40
0.9844007599
 40
1.0
 40
1.0
 40
1.0
 40
1.0
 10
182.7973181131
 20
182.4630358161
 30
0.0
 10
183.4147202873
 20
182.6595708947
 30
0.0
 10
184.6494072075
 20
183.0530100698
 30
0.0
 10
186.5009387021
 20
183.6447327261
 30
0.0
 10
188.3517249447
 20
184.2387823731
 30
0.0
 10
189.8930751175
 20
184.7368464879
 30
0.0
 10
191.1251264924
 20
185.1384645705
 30
0.0
 10
192.048441159
 20
185.4418912356
 30
0.0
 10
192.9707187888
 20
185.748460234
 30
0.0
 10
193.8914057883
 20
186.0597756968
 30
0.0
 10
194.6565038087
 20
186.3254949312
 30
0.0
 10
195.2661413568
 20
186.5449671914
 30
0.0
 10
195.7215165936
 20
186.7145957606
 30
0.0
 10
196.1741226459
 20
186.8917024934
 30
0.0
 10
196.6214063954
 20
187.0812645901
 30
0.0
 10
196.9868208956
 20
187.2576833043
 30
0.0
 10
197.262969446
 20
187.4263573246
 30
0.0
 10
197.3905447945
 20
187.5291222076
 30
0.0
 10
197.4434046346
 20
187.5903042879
 30
0.0
  0
ELLIPSE
  5
2AA
100
AcDbEntity
  8
0
100
AcDbEllipse
 62
7
  6
CONTINUOUS
 10
-102.6087203445
 20
158.8088235294
 30
0.0
 11
325.7727786937
 21
-6.9317614913
 31
0.0
 40
0.120927247
 41
-0.418868929
 42
-0.3564337714
  0
ENDSEC
  0
SECTION
  2
OBJECTS
  0
DICTIONARY
  5
C
100
AcDbDictionary
280
0
281
1
  3
ACAD_GROUP
350
D
  3
ACAD_MLINESTYLE
350
17
  3
ACAD_LAYOUT
350
1A
  3
ACAD_PLOTSETTINGS
350
19
  3
ACAD_PLOTSTYLENAME
350
E
  0
DICTIONARY
  5
D
102
{ACAD_REACTORS
330
C
102
}
100
AcDbDictionary
280
0
281
1
  0
ACDBDICTIONARYWDFLT
  5
E
102
{ACAD_REACTORS
330
C
102
}
100
AcDbDictionary
281
1
  3
Normal
350
F
100
AcDbDictionaryWithDefault
340
F
  0
DICTIONARY
  5
17
102
{ACAD_REACTORS
330
C
102
}
100
AcDbDictionary
280
0
281
1
  3
Standard
350
18
  0
DICTIONARY
  5
19
102
{ACAD_REACTORS
330
C
102
}
100
AcDbDictionary
281
1
  0
DICTIONARY
  5
1A
102
{ACAD_REACTORS
330
C
102
}
100
AcDbDictionary
281
1
  3
Model
350
2AB
  3
Layout1
350
2AC
  0
ACDBPLACEHOLDER
  5
F
102
{ACAD_REACTORS
330
E
102
}
  0
MLINESTYLE
  5
18
102
{ACAD_REACTORS
330
17
102
}
100
AcDbMlineStyle
  2
STANDARD
 70
0
  3

 62
256
 51
90.0
 52
90.0
 71
2
 49
0.5
 62
256
  6
BYLAYER
 49
-0.5
 62
256
  6
BYLAYER
  0
LAYOUT
  5
2AB
102
{ACAD_REACTORS
330
1A
102
}
100
AcDbPlotSettings
  1

  2
none_device
  4

  6

 40
0.0
 41
0.0
 42
0.0
 43
0.0
 44
210.0
 45
297.0
 46
0.0
 47
0.0
 48
0.0
 49
0.0
140
0.0
141
0.0
142
1.0
143
1.0
 70
1024
 72
1
 73
0
 74
0
  7

 75
0
147
1.0
148
0.0
149
0.0
100
AcDbLayout
  1
Model
 70
0
 71
0
 10
0.0
 20
0.0
 11
210.0
 21
297.0
 12
0.0
 22
0.0
 32
0.0
 14
0.0
 24
0.0
 34
0.0
 15
0.0
 25
0.0
 35
0.0
146
0.0
 13
0.0
 23
0.0
 33
0.0
 16
1.0
 26
0.0
 36
0.0
 17
0.0
 27
1.0
 37
0.0
 76
0
330
210
345
0
346
0
  0
LAYOUT
  5
2AC
102
{ACAD_REACTORS
330
1A
102
}
100
AcDbPlotSettings
  1

  2
none_device
  4

  6

 40
0.0
 41
0.0
 42
0.0
 43
0.0
 44
210.0
 45
297.0
 46
0.0
 47
0.0
 48
0.0
 49
0.0
140
0.0
141
0.0
142
1.0
143
1.0
 70
0
 72
1
 73
0
 74
0
  7

 75
0
147
1.0
148
0.0
149
0.0
100
AcDbLayout
  1
Layout1
 70
0
 71
1
 10
0.0
 20
0.0
 11
210.0
 21
297.0
 12
0.0
 22
0.0
 32
0.0
 14
0.0
 24
0.0
 34
0.0
 15
0.0
 25
0.0
 35
0.0
146
0.0
 13
0.0
 23
0.0
 33
0.0
 16
1.0
 26
0.0
 36
0.0
 17
0.0
 27
1.0
 37
0.0
 76
0
330
211
345
0
346
0
  0
ENDSEC
  0
EOF
