999
DXF file: C:\Users\sesa63760\Dev\_Creo\CAD\MCADID0000377_3D-CAD\drw0001_1.dxf
999
Pro/ENGINEER 2019471 by Parametric Technology Corporation
  0
SECTION
  2
HEADER
  9
$ACADVER
  1
AC1024
  9
$DWGCODEPAGE
  3
ANSI_1252
  9
$EXTMAX
 10
272.5235628079
 20
385.4261816855
 30
0.0
  9
$EXTMIN
 10
0.0
 20
0.0
 30
0.0
  9
$LIMMIN
 10
0.0
 20
0.0
  9
$LIMMAX
 10
272.5235628079
 20
385.4261816855
  9
$VIEWCTR
 10
136.261781404
 20
192.7130908428
  9
$VIEWSIZE
 40
385.4261816855
  9
$CLAYER
  8
0
  9
$LTSCALE
 40
25.1240770284
  9
$CELTYPE
  6
BYLAYER
  9
$DIMSCALE
 40
1.0
  9
$DIMASZ
 40
3.2443281287
  9
$DIMEXO
 40
1.0
  9
$DIMDLI
 40
17.3584532196
  9
$DIMEXE
 40
1.0
  9
$DIMCEN
 40
4.1112126046
  9
$DIMLFAC
 40
1.0
  9
$DIMBLK
  1
_FILLED
  9
$DIMALT
 70
0
  9
$DIMALTF
 40
0.0393700787
  9
$DIMTXT
 40
4.5420593801
  9
$DIMTOL
 70
1
  9
$DIMLIM
 70
0
  9
$DIMTFAC
 40
1.0
  9
$DIMTP
 40
0.01
  9
$DIMTM
 40
0.01
  9
$DIMGAP
 40
0.625
  9
$DIMDSEP
 70
46
  9
$AUNITS
 70
0
  9
$PDMODE
 70
3
  9
$PDSIZE
 40
0.3125
  9
$HANDSEED
  5
3F7
  9
$TILEMODE
 70
1
  9
$MEASUREMENT
 70
1
  9
$INSUNITS
 70
4
  0
ENDSEC
  0
SECTION
  2
CLASSES
  0
CLASS
  1
ACDBDICTIONARYWDFLT
  2
AcDbDictionaryWithDefault
  3
AutoCAD 2000
 90
0
 91
1
280
0
281
0
  0
CLASS
  1
ACDBPLACEHOLDER
  2
AcDbPlaceHolder
  3
AutoCAD 2000
 90
0
 91
1
280
0
281
0
  0
CLASS
  1
LAYOUT
  2
AcDbLayout
  3
AutoCAD 2000
 90
0
 91
0
280
0
281
0
  0
ENDSEC
  0
SECTION
  2
TABLES
  0
TABLE
  2
VPORT
  5
8
100
AcDbSymbolTable
 70
2
  0
VPORT
  5
1F4
100
AcDbSymbolTableRecord
100
AcDbViewportTableRecord
  2
*ACTIVE
 70
0
 10
0.0
 20
0.0
 11
1.0
 21
1.0
 12
136.261781404
 22
192.7130908428
 13
0.0
 23
0.0
 14
1.0
 24
1.0
 15
0.0
 25
0.0
 16
0.0
 26
0.0
 36
1.0
 17
0.0
 27
0.0
 37
0.0
 40
385.4261816855
 41
0.7070707071
 42
50.0
 43
0.0
 44
0.0
 50
0.0
 51
0.0
 71
0
 72
100
 73
1
 74
1
 75
0
 76
0
 77
0
 78
0
  0
ENDTAB
  0
TABLE
  2
LTYPE
  5
5
100
AcDbSymbolTable
 70
6
  0
LTYPE
  5
14
100
AcDbSymbolTableRecord
100
AcDbLinetypeTableRecord
  2
BYBLOCK
 70
0
  3

 72
65
 73
0
 40
0.0
  0
LTYPE
  5
15
100
AcDbSymbolTableRecord
100
AcDbLinetypeTableRecord
  2
BYLAYER
 70
0
  3

 72
65
 73
0
 40
0.0
  0
LTYPE
  5
16
100
AcDbSymbolTableRecord
100
AcDbLinetypeTableRecord
  2
CONTINUOUS
 70
64
  3
Solid line
 72
65
 73
0
 40
0.0
  0
LTYPE
  5
1F5
100
AcDbSymbolTableRecord
100
AcDbLinetypeTableRecord
  2
CENTER
 70
64
  3
____ _ ____ _ ____ _ ____ _ ____ _ ____ _ ____
 72
65
 73
4
 40
0.6
 49
0.375
 74
0
 49
-0.075
 74
0
 49
0.075
 74
0
 49
-0.075
 74
0
  0
LTYPE
  5
1F6
100
AcDbSymbolTableRecord
100
AcDbLinetypeTableRecord
  2
HIDDEN
 70
64
  3
- - - - - - - - - - - - - - - - - - - -
 72
65
 73
2
 40
0.2
 49
0.1
 74
0
 49
-0.1
 74
0
  0
LTYPE
  5
1F7
100
AcDbSymbolTableRecord
100
AcDbLinetypeTableRecord
  2
PHANTOM
 70
64
  3
_____ _ _ _____ _ _ _____ _ _ _____
 72
65
 73
6
 40
0.8
 49
0.45
 74
0
 49
-0.05
 74
0
 49
0.1
 74
0
 49
-0.05
 74
0
 49
0.1
 74
0
 49
-0.05
 74
0
  0
LTYPE
  5
1F8
100
AcDbSymbolTableRecord
100
AcDbLinetypeTableRecord
  2
DOT
 70
64
  3
. . . . . . . . . . . . . . . . . . . .
 72
65
 73
2
 40
0.2
 49
0.1
 74
0
 49
-0.1
 74
0
  0
LTYPE
  5
1F9
100
AcDbSymbolTableRecord
100
AcDbLinetypeTableRecord
  2
DASHED
 70
64
  3
- - - - - - - - - - - - - - - - - - - -
 72
65
 73
2
 40
0.2
 49
0.1
 74
0
 49
-0.1
 74
0
  0
ENDTAB
  0
TABLE
  2
LAYER
  5
2
100
AcDbSymbolTable
 70
36
  0
LAYER
  5
10
100
AcDbSymbolTableRecord
100
AcDbLayerTableRecord
  2
0
 70
0
 62
7
  6
CONTINUOUS
370
-3
390
F
  0
LAYER
  5
1FA
100
AcDbSymbolTableRecord
100
AcDbLayerTableRecord
  2
DEFAULT_1
 70
0
 62
7
  6
CENTER
370
-3
390
F
  0
LAYER
  5
1FB
100
AcDbSymbolTableRecord
100
AcDbLayerTableRecord
  2
DEFAULT_2
 70
0
 62
8
  6
HIDDEN
370
-3
390
F
  0
LAYER
  5
1FC
100
AcDbSymbolTableRecord
100
AcDbLayerTableRecord
  2
DEFAULT_3
 70
0
 62
7
  6
PHANTOM
370
-3
390
F
  0
LAYER
  5
1FD
100
AcDbSymbolTableRecord
100
AcDbLayerTableRecord
  2
00_COMPONENTS
 70
0
 62
7
  6
CONTINUOUS
370
-3
390
F
  0
LAYER
  5
1FE
100
AcDbSymbolTableRecord
100
AcDbLayerTableRecord
  2
01_1_DEFAULT_DATUMS
 70
0
 62
7
  6
CONTINUOUS
370
-3
390
F
  0
LAYER
  5
1FF
100
AcDbSymbolTableRecord
100
AcDbLayerTableRecord
  2
01_PLANES
 70
0
 62
7
  6
CONTINUOUS
370
-3
390
F
  0
LAYER
  5
200
100
AcDbSymbolTableRecord
100
AcDbLayerTableRecord
  2
02_COORD_SYS
 70
0
 62
7
  6
CONTINUOUS
370
-3
390
F
  0
LAYER
  5
201
100
AcDbSymbolTableRecord
100
AcDbLayerTableRecord
  2
03_AXES
 70
0
 62
7
  6
CONTINUOUS
370
-3
390
F
  0
LAYER
  5
202
100
AcDbSymbolTableRecord
100
AcDbLayerTableRecord
  2
04_POINTS
 70
0
 62
7
  6
CONTINUOUS
370
-3
390
F
  0
LAYER
  5
203
100
AcDbSymbolTableRecord
100
AcDbLayerTableRecord
  2
05_CURVES
 70
0
 62
7
  6
CONTINUOUS
370
-3
390
F
  0
LAYER
  5
204
100
AcDbSymbolTableRecord
100
AcDbLayerTableRecord
  2
06_SURFS
 70
0
 62
7
  6
CONTINUOUS
370
-3
390
F
  0
LAYER
  5
205
100
AcDbSymbolTableRecord
100
AcDbLayerTableRecord
  2
07_COSMETICS
 70
0
 62
7
  6
CONTINUOUS
370
-3
390
F
  0
LAYER
  5
206
100
AcDbSymbolTableRecord
100
AcDbLayerTableRecord
  2
10_NOTES
 70
0
 62
7
  6
CONTINUOUS
370
-3
390
F
  0
LAYER
  5
207
100
AcDbSymbolTableRecord
100
AcDbLayerTableRecord
  2
11_NOTES_PUB
 70
0
 62
7
  6
CONTINUOUS
370
-3
390
F
  0
LAYER
  5
208
100
AcDbSymbolTableRecord
100
AcDbLayerTableRecord
  2
13_REF_GTOL
 70
0
 62
7
  6
CONTINUOUS
370
-3
390
F
  0
LAYER
  5
209
100
AcDbSymbolTableRecord
100
AcDbLayerTableRecord
  2
16_MISC
 70
0
 62
7
  6
CONTINUOUS
370
-3
390
F
  0
LAYER
  5
20A
100
AcDbSymbolTableRecord
100
AcDbLayerTableRecord
  2
17_NO_PRINT
 70
0
 62
7
  6
CONTINUOUS
370
-3
390
F
  0
LAYER
  5
20B
100
AcDbSymbolTableRecord
100
AcDbLayerTableRecord
  2
18_DATUM_CAMS_JOINTS
 70
0
 62
7
  6
CONTINUOUS
370
-3
390
F
  0
LAYER
  5
20C
100
AcDbSymbolTableRecord
100
AcDbLayerTableRecord
  2
19_DATUM_FUNCTIONAL
 70
0
 62
7
  6
CONTINUOUS
370
-3
390
F
  0
LAYER
  5
20D
100
AcDbSymbolTableRecord
100
AcDbLayerTableRecord
  2
20_DATUM_KINEMATIC_SCHEME
 70
0
 62
7
  6
CONTINUOUS
370
-3
390
F
  0
ENDTAB
  0
TABLE
  2
STYLE
  5
3
100
AcDbSymbolTable
 70
1
  0
STYLE
  5
11
100
AcDbSymbolTableRecord
100
AcDbTextStyleTableRecord
  2
STANDARD
 70
0
 40
0.0
 41
0.8
 50
0.0
 71
0
 42
0.2
  3
txt
  4

  0
STYLE
  5
20E
100
AcDbSymbolTableRecord
100
AcDbTextStyleTableRecord
  2
TEXTSTYLE_1
 70
0
 40
0.0
 41
0.8
 50
0.0
 71
0
 42
0.2
  3
gdt
  4

  0
ENDTAB
  0
TABLE
  2
VIEW
  5
6
100
AcDbSymbolTable
 70
0
  0
ENDTAB
  0
TABLE
  2
UCS
  5
7
100
AcDbSymbolTable
 70
0
  0
ENDTAB
  0
TABLE
  2
APPID
  5
9
100
AcDbSymbolTable
 70
1
  0
APPID
  5
20F
100
AcDbSymbolTableRecord
100
AcDbRegAppTableRecord
  2
ACAD
 70
0
  0
ENDTAB
  0
TABLE
  2
BLOCK_RECORD
  5
1
100
AcDbSymbolTable
 70
0
  0
BLOCK_RECORD
  5
210
100
AcDbSymbolTableRecord
100
AcDbBlockTableRecord
  2
*Model_Space
  0
BLOCK_RECORD
  5
211
100
AcDbSymbolTableRecord
100
AcDbBlockTableRecord
  2
*Paper_Space
  0
BLOCK_RECORD
  5
212
100
AcDbSymbolTableRecord
100
AcDbBlockTableRecord
  2
_FILLED
  0
ENDTAB
  0
TABLE
  2
DIMSTYLE
  5
A
100
AcDbSymbolTable
 70
1
100
AcDbDimStyleTable
 71
0
  0
DIMSTYLE
105
213
100
AcDbSymbolTableRecord
100
AcDbDimStyleTableRecord
  2
STANDARD
 70
0
  3

  4

 40
1.0
 41
3.2443281287
 42
1.0
 43
0.38
 44
1.0
 45
0.0
 46
0.0
 47
0.01
 48
0.01
140
4.5420593801
141
0.09
142
0.0
143
25.4
144
1.0
145
0.0
146
1.0
147
0.625
 71
1
 72
0
 73
0
 74
0
 75
0
 76
0
 77
1
 78
8
 79
2
170
0
171
1
172
0
173
0
174
0
175
0
176
0
177
0
178
0
270
2
179
2
271
2
272
2
273
2
274
2
275
0
280
0
281
0
282
0
283
1
284
8
285
0
286
0
287
3
288
0
340
11
278
46
341
212
342
212
343
212
344
212
  0
ENDTAB
  0
ENDSEC
  0
SECTION
  2
BLOCKS
  0
BLOCK
  5
20
100
AcDbEntity
  8
0
100
AcDbBlockBegin
  2
*Model_Space
 70
0
 10
0.0
 20
0.0
 30
0.0
  3
*Model_Space
  1

  0
ENDBLK
  5
21
100
AcDbEntity
  8
0
100
AcDbBlockEnd
  0
BLOCK
  5
1C
100
AcDbEntity
  8
0
100
AcDbBlockBegin
  2
*Paper_Space
 70
0
 10
0.0
 20
0.0
 30
0.0
  3
*Paper_Space
  1

  0
ENDBLK
  5
1D
100
AcDbEntity
  8
0
100
AcDbBlockEnd
  0
BLOCK
  5
214
100
AcDbEntity
  8
0
100
AcDbBlockBegin
  2
_FILLED
 70
64
 10
0.0
 20
0.0
  3
_FILLED
  1

  0
SOLID
  5
215
100
AcDbEntity
  8
0
  6
BYBLOCK
 62
0
100
AcDbTrace
 10
0.0
 20
0.0
 11
-1.0
 21
0.25
 12
-1.0
 22
-0.25
 13
-1.0
 23
-0.25
  0
ENDBLK
  5
216
100
AcDbEntity
  8
0
  6
BYBLOCK
 62
0
100
AcDbBlockEnd
  0
ENDSEC
  0
SECTION
  2
ENTITIES
  0
LINE
  5
217
100
AcDbEntity
  8
0
100
AcDbLine
 62
7
  6
CONTINUOUS
 10
32.0066130606
 20
218.5376437786
 11
34.4224842141
 21
238.031685346
  0
LINE
  5
218
100
AcDbEntity
  8
0
100
AcDbLine
 62
7
  6
CONTINUOUS
 10
44.9505427816
 20
263.0664060427
 11
83.2909621796
 21
285.2021253705
  0
LINE
  5
219
100
AcDbEntity
  8
0
100
AcDbLine
 62
7
  6
CONTINUOUS
 10
32.3011033577
 20
188.7118114232
 11
32.3011033577
 21
204.3646242353
  0
LINE
  5
21A
100
AcDbEntity
  8
0
100
AcDbLine
 62
7
  6
CONTINUOUS
 10
36.8973165712
 20
201.7110593309
 11
36.8973165712
 21
186.0582465188
  0
LINE
  5
21B
100
AcDbEntity
  8
0
100
AcDbLine
 62
7
  6
CONTINUOUS
 10
41.3802930758
 20
254.2004025737
 11
41.3802930758
 21
258.4290189675
  0
LINE
  5
21C
100
AcDbEntity
  8
0
100
AcDbLine
 62
7
  6
CONTINUOUS
 10
39.0186974276
 20
235.3781204416
 11
36.6028262741
 21
215.8840788742
  0
LINE
  5
21D
100
AcDbEntity
  8
0
100
AcDbLine
 62
7
  6
CONTINUOUS
 10
84.4279474442
 20
277.2854329691
 11
52.3751948957
 21
258.7798781202
  0
LINE
  5
21E
100
AcDbEntity
  8
0
100
AcDbLine
 62
7
  6
CONTINUOUS
 10
41.5151357306
 20
245.3579402822
 11
41.3802930758
 21
254.2004025737
  0
LINE
  5
21F
100
AcDbEntity
  8
0
100
AcDbLine
 62
7
  6
CONTINUOUS
 10
44.2124390273
 20
252.3243454261
 11
44.2087319764
 21
252.5674395556
  0
LINE
  5
220
100
AcDbEntity
  8
0
100
AcDbLine
 62
7
  6
CONTINUOUS
 10
44.2087319764
 20
252.5674395556
 11
44.2087319764
 21
256.7958417614
  0
LINE
  5
221
100
AcDbEntity
  8
0
100
AcDbLine
 62
7
  6
CONTINUOUS
 10
48.8120162282
 20
254.1520857272
 11
48.8120162282
 21
249.9048930541
  0
LINE
  5
222
100
AcDbEntity
  8
0
100
AcDbLine
 62
7
  6
CONTINUOUS
 10
84.5621121629
 20
272.7497759324
 11
83.5557274514
 21
272.1687429165
  0
LINE
  5
223
100
AcDbEntity
  8
0
100
AcDbLine
 62
7
  6
CONTINUOUS
 10
79.9090994305
 20
270.0633738144
 11
79.1892480056
 21
269.6477698813
  0
LINE
  5
224
100
AcDbEntity
  8
0
100
AcDbLine
 62
7
  6
CONTINUOUS
 10
35.5692527176
 20
240.6261290698
 11
38.2054203985
 21
242.148112105
  0
LINE
  5
225
100
AcDbEntity
  8
0
100
AcDbLine
 62
7
  6
CONTINUOUS
 10
42.8016336119
 20
239.4945472006
 11
40.1654659311
 21
237.9725641654
  0
LINE
  5
226
100
AcDbEntity
  8
0
100
AcDbLine
 62
7
  6
CONTINUOUS
 10
90.3097814956
 20
264.0599893833
 11
88.6982014012
 21
263.1295487359
  0
LINE
  5
227
100
AcDbEntity
  8
0
100
AcDbLine
 62
7
  6
CONTINUOUS
 10
89.1224937319
 20
259.2104221954
 11
88.6982314296
 21
258.9654757031
  0
LINE
  5
228
100
AcDbEntity
  8
0
100
AcDbLine
 62
7
  6
CONTINUOUS
 10
65.1817055771
 20
185.3814291501
 11
65.1817055771
 21
185.0803143641
  0
LINE
  5
229
100
AcDbEntity
  8
0
100
AcDbLine
 62
7
  6
CONTINUOUS
 10
67.3030864335
 20
219.0484902608
 11
64.88721528
 21
199.5544486934
  0
LINE
  5
22A
100
AcDbEntity
  8
0
100
AcDbLine
 62
7
  6
CONTINUOUS
 10
85.5590672283
 20
245.7689069596
 11
84.8392158033
 21
245.3533030265
  0
LINE
  5
22B
100
AcDbEntity
  8
0
100
AcDbLine
 62
7
  6
CONTINUOUS
 10
119.0000032995
 20
264.5859672672
 11
115.4782546089
 21
262.5526968497
  0
LINE
  5
22C
100
AcDbEntity
  8
0
100
AcDbLine
 62
7
  6
CONTINUOUS
 10
84.8392193366
 20
244.8633471786
 11
80.6595839016
 21
242.4502479394
  0
LINE
  5
22D
100
AcDbEntity
  8
0
100
AcDbLine
 62
7
  6
CONTINUOUS
 10
100.0721509802
 20
252.3988887449
 11
100.4964132825
 21
252.6438352372
  0
LINE
  5
22E
100
AcDbEntity
  8
0
100
AcDbLine
 62
7
  6
CONTINUOUS
 10
114.4970692593
 20
260.7270694839
 11
114.9213315617
 21
260.9720159762
  0
LINE
  5
22F
100
AcDbEntity
  8
0
100
AcDbLine
 62
7
  6
CONTINUOUS
 10
176.1906128385
 20
92.6562964835
 11
166.2910766864
 21
98.3716670468
  0
LINE
  5
230
100
AcDbEntity
  8
0
100
AcDbLine
 62
7
  6
CONTINUOUS
 10
67.3030864335
 20
170.4121059829
 11
64.88721528
 21
187.1165564803
  0
LINE
  5
231
100
AcDbEntity
  8
0
100
AcDbLine
 62
7
  6
CONTINUOUS
 10
77.0964052341
 20
237.8224555464
 11
77.0964052341
 21
233.5752628733
  0
LINE
  5
232
100
AcDbEntity
  8
0
100
AcDbLine
 62
7
  6
CONTINUOUS
 10
79.1892480056
 20
269.6477698813
 11
79.1892538935
 21
266.3817777215
  0
LINE
  5
233
100
AcDbEntity
  8
0
100
AcDbLine
 62
7
  6
CONTINUOUS
 10
79.9090994305
 20
271.1174901251
 11
79.9090994305
 21
269.2395345657
  0
LINE
  5
234
100
AcDbEntity
  8
0
100
AcDbLine
 62
7
  6
CONTINUOUS
 10
107.2846401482
 20
252.3989060816
 11
114.9213615901
 21
256.8079429434
  0
LINE
  5
235
100
AcDbEntity
  8
0
100
AcDbLine
 62
7
  6
CONTINUOUS
 10
71.0860226178
 20
223.1649170198
 11
68.4498549369
 21
221.6429339846
  0
LINE
  5
236
100
AcDbEntity
  8
0
100
AcDbLine
 62
7
  6
CONTINUOUS
 10
174.4301581123
 20
96.54747874
 11
164.5306219602
 21
102.2628493033
  0
LINE
  5
237
100
AcDbEntity
  8
0
100
AcDbLine
 62
7
  6
CONTINUOUS
 10
33.6673716217
 20
187.0269786402
 11
53.8782913999
 21
175.3584626428
  0
LINE
  5
238
100
AcDbEntity
  8
0
100
AcDbLine
 62
7
  6
CONTINUOUS
 10
89.1525910147
 20
242.0465495155
 11
88.6982469887
 21
256.8078799108
  0
LINE
  5
239
100
AcDbEntity
  8
0
100
AcDbLine
 62
7
  6
CONTINUOUS
 10
84.4090994305
 20
271.1174901251
 11
84.4090994305
 21
269.2395345657
  0
LINE
  5
23A
100
AcDbEntity
  8
0
100
AcDbLine
 62
7
  6
CONTINUOUS
 10
84.4098136979
 20
276.996341182
 11
84.4098136979
 21
273.5670310301
  0
LINE
  5
23B
100
AcDbEntity
  8
0
100
AcDbLine
 62
7
  6
CONTINUOUS
 10
84.6598136979
 20
285.1613653533
 11
84.6598136979
 21
276.996341182
  0
LINE
  5
23C
100
AcDbEntity
  8
0
100
AcDbLine
 62
7
  6
CONTINUOUS
 10
84.7579016536
 20
272.001674119
 11
84.7579016536
 21
268.3742479499
  0
LINE
  5
23D
100
AcDbEntity
  8
0
100
AcDbLine
 62
7
  6
CONTINUOUS
 10
84.8392158033
 20
245.3533030265
 11
84.8392216913
 21
240.7809069993
  0
LINE
  5
23E
100
AcDbEntity
  8
0
100
AcDbLine
 62
7
  6
CONTINUOUS
 10
84.9098136979
 20
287.6108726047
 11
84.9098136979
 21
285.1613653533
  0
LINE
  5
23F
100
AcDbEntity
  8
0
100
AcDbLine
 62
7
  6
CONTINUOUS
 10
85.5590672283
 20
246.8230232703
 11
85.5590672283
 21
244.9450677109
  0
LINE
  5
240
100
AcDbEntity
  8
0
100
AcDbLine
 62
7
  6
CONTINUOUS
 10
90.0597814956
 20
261.6017506739
 11
90.0597814956
 21
259.9687458397
  0
LINE
  5
241
100
AcDbEntity
  8
0
100
AcDbLine
 62
7
  6
CONTINUOUS
 10
90.1429813858
 20
284.3287783861
 11
90.1429813858
 21
283.4343253332
  0
LINE
  5
242
100
AcDbEntity
  8
0
100
AcDbLine
 62
7
  6
CONTINUOUS
 10
90.3097814956
 20
270.1750260538
 11
90.3097814956
 21
261.6017506739
  0
LINE
  5
243
100
AcDbEntity
  8
0
100
AcDbLine
 62
7
  6
CONTINUOUS
 10
102.516958932
 20
235.1472841634
 11
118.7803471879
 21
244.5368997025
  0
LINE
  5
244
100
AcDbEntity
  8
0
100
AcDbLine
 62
7
  6
CONTINUOUS
 10
118.7803471879
 20
240.7809885837
 11
102.516958932
 21
231.3913730446
  0
LINE
  5
245
100
AcDbEntity
  8
0
100
AcDbLine
 62
7
  6
CONTINUOUS
 10
48.6875036384
 20
179.2513328347
 11
32.3011033577
 21
188.7118114232
  0
LINE
  5
246
100
AcDbEntity
  8
0
100
AcDbLine
 62
7
  6
CONTINUOUS
 10
68.4498549369
 20
169.1418285632
 11
164.5306219602
 21
113.6708267801
  0
LINE
  5
247
100
AcDbEntity
  8
0
100
AcDbLine
 62
7
  6
CONTINUOUS
 10
164.5306219602
 20
114.2790320737
 11
67.3030864335
 21
170.4121059829
  0
LINE
  5
248
100
AcDbEntity
  8
0
100
AcDbLine
 62
7
  6
CONTINUOUS
 10
185.3286491027
 20
109.2998532604
 11
187.8035331407
 21
107.8710106196
  0
LINE
  5
249
100
AcDbEntity
  8
0
100
AcDbLine
 62
7
  6
CONTINUOUS
 10
88.567408486
 20
242.8345261534
 11
87.9250622374
 21
257.8490106536
  0
LINE
  5
24A
100
AcDbEntity
  8
0
100
AcDbLine
 62
7
  6
CONTINUOUS
 10
88.084140788
 20
258.2940095897
 11
87.925032209
 21
262.0130836864
  0
LINE
  5
24B
100
AcDbEntity
  8
0
100
AcDbLine
 62
7
  6
CONTINUOUS
 10
88.75889696
 20
259.0005007543
 11
88.6982169603
 21
260.9719529436
  0
LINE
  5
24C
100
AcDbEntity
  8
0
100
AcDbLine
 62
7
  6
CONTINUOUS
 10
89.1224827954
 20
260.7270084909
 11
89.1681439252
 21
259.2435092359
  0
LINE
  5
24D
100
AcDbEntity
  8
0
100
AcDbLine
 62
7
  6
CONTINUOUS
 10
96.3350320203
 20
252.398879762
 11
96.7893760463
 21
237.6375493667
  0
LINE
  5
24E
100
AcDbEntity
  8
0
100
AcDbLine
 62
7
  6
CONTINUOUS
 10
90.8097814956
 20
273.4410357223
 11
90.8097814956
 21
270.1750260538
  0
LINE
  5
24F
100
AcDbEntity
  8
0
100
AcDbLine
 62
7
  6
CONTINUOUS
 10
91.1429813858
 20
284.3287783861
 11
91.1429813858
 21
283.0086833622
  0
LINE
  5
250
100
AcDbEntity
  8
0
100
AcDbLine
 62
7
  6
CONTINUOUS
 10
92.3248255686
 20
286.1888584064
 11
92.3248255686
 21
282.6392645702
  0
LINE
  5
251
100
AcDbEntity
  8
0
100
AcDbLine
 62
7
  6
CONTINUOUS
 10
93.3248255686
 20
286.1888584064
 11
93.3248255686
 21
282.4380069682
  0
LINE
  5
252
100
AcDbEntity
  8
0
100
AcDbLine
 62
7
  6
CONTINUOUS
 10
94.1395404479
 20
282.6506355882
 11
94.1395404479
 21
282.2740394054
  0
LINE
  5
253
100
AcDbEntity
  8
0
100
AcDbLine
 62
7
  6
CONTINUOUS
 10
95.1033441046
 20
284.7273487426
 11
95.1033441046
 21
282.7382878452
  0
LINE
  5
254
100
AcDbEntity
  8
0
100
AcDbLine
 62
7
  6
CONTINUOUS
 10
95.1395404479
 20
282.6506355882
 11
95.1395404479
 21
282.2050645841
  0
LINE
  5
255
100
AcDbEntity
  8
0
100
AcDbLine
 62
7
  6
CONTINUOUS
 10
95.6464897643
 20
271.0721646079
 11
95.6464897643
 21
269.4717296584
  0
LINE
  5
256
100
AcDbEntity
  8
0
100
AcDbLine
 62
7
  6
CONTINUOUS
 10
96.0671477614
 20
286.8040618971
 11
96.0671477614
 21
284.8150009997
  0
LINE
  5
257
100
AcDbEntity
  8
0
100
AcDbLine
 62
7
  6
CONTINUOUS
 10
96.1033441046
 20
284.7273487426
 11
96.1033441046
 21
282.1849312551
  0
LINE
  5
258
100
AcDbEntity
  8
0
100
AcDbLine
 62
7
  6
CONTINUOUS
 10
96.22942301
 20
274.059256713
 11
96.22942301
 21
271.3426589811
  0
LINE
  5
259
100
AcDbEntity
  8
0
100
AcDbLine
 62
7
  6
CONTINUOUS
 10
96.6464897643
 20
271.0721646079
 11
96.6464897643
 21
269.0863845012
  0
LINE
  5
25A
100
AcDbEntity
  8
0
100
AcDbLine
 62
7
  6
CONTINUOUS
 10
97.0671477614
 20
286.8040618971
 11
97.0671477614
 21
282.1647979261
  0
LINE
  5
25B
100
AcDbEntity
  8
0
100
AcDbLine
 62
7
  6
CONTINUOUS
 10
97.22942301
 20
274.059256713
 11
97.22942301
 21
269.1602422102
  0
LINE
  5
25C
100
AcDbEntity
  8
0
100
AcDbLine
 62
7
  6
CONTINUOUS
 10
97.7365565411
 20
283.2070972263
 11
97.7365565411
 21
282.2393241519
  0
LINE
  5
25D
100
AcDbEntity
  8
0
100
AcDbLine
 62
7
  6
CONTINUOUS
 10
97.97942301
 20
269.1602422102
 11
97.97942301
 21
268.6256401097
  0
LINE
  5
25E
100
AcDbEntity
  8
0
100
AcDbLine
 62
7
  6
CONTINUOUS
 10
98.7003601979
 20
285.2838103807
 11
98.7003601979
 21
283.2947494833
  0
LINE
  5
25F
100
AcDbEntity
  8
0
100
AcDbLine
 62
7
  6
CONTINUOUS
 10
98.7365565411
 20
283.2070972263
 11
98.7365565411
 21
282.3946001273
  0
LINE
  5
260
100
AcDbEntity
  8
0
100
AcDbLine
 62
7
  6
CONTINUOUS
 10
99.3281307025
 20
268.9466163076
 11
99.3281307025
 21
268.3604681808
  0
LINE
  5
261
100
AcDbEntity
  8
0
100
AcDbLine
 62
7
  6
CONTINUOUS
 10
99.5598397862
 20
238.7398563308
 11
99.5598397862
 21
236.8619007714
  0
LINE
  5
262
100
AcDbEntity
  8
0
100
AcDbLine
 62
7
  6
CONTINUOUS
 10
99.7003601979
 20
285.2838103807
 11
99.7003601979
 21
282.5442556801
  0
LINE
  5
263
100
AcDbEntity
  8
0
100
AcDbLine
 62
7
  6
CONTINUOUS
 10
99.8879698157
 20
275.6585513421
 11
99.8879698157
 21
269.2193083855
  0
LINE
  5
264
100
AcDbEntity
  8
0
100
AcDbLine
 62
7
  6
CONTINUOUS
 10
100.3281307025
 20
268.9466163076
 11
100.3281307025
 21
268.2386685154
  0
LINE
  5
265
100
AcDbEntity
  8
0
100
AcDbLine
 62
7
  6
CONTINUOUS
 10
99.6614211469
 20
239.0546631397
 11
100.0721509802
 21
252.3988887449
  0
LINE
  5
266
100
AcDbEntity
  8
0
100
AcDbLine
 62
7
  6
CONTINUOUS
 10
100.4964132825
 20
252.6438352372
 11
100.0950246073
 21
239.6030950626
  0
LINE
  5
267
100
AcDbEntity
  8
0
100
AcDbLine
 62
7
  6
CONTINUOUS
 10
174.4301581123
 20
122.0071177907
 11
164.5306219602
 21
127.722488354
  0
LINE
  5
268
100
AcDbEntity
  8
0
100
AcDbLine
 62
7
  6
CONTINUOUS
 10
32.3011033577
 20
204.3646242353
 11
65.1341895864
 21
185.4088618995
  0
LINE
  5
269
100
AcDbEntity
  8
0
100
AcDbLine
 62
7
  6
CONTINUOUS
 10
64.88721528
 20
187.1165564803
 11
174.1356678152
 21
124.0433599069
  0
LINE
  5
26A
100
AcDbEntity
  8
0
100
AcDbLine
 62
7
  6
CONTINUOUS
 10
103.5252812601
 20
239.5822914954
 11
103.1232553533
 21
252.6438415514
  0
LINE
  5
26B
100
AcDbEntity
  8
0
100
AcDbLine
 62
7
  6
CONTINUOUS
 10
103.5475211884
 20
252.3988970987
 11
103.9596718231
 21
239.0084014737
  0
LINE
  5
26C
100
AcDbEntity
  8
0
100
AcDbLine
 62
7
  6
CONTINUOUS
 10
100.5597814956
 20
272.2162820966
 11
100.5597814956
 21
268.2104535263
  0
LINE
  5
26D
100
AcDbEntity
  8
0
100
AcDbLine
 62
7
  6
CONTINUOUS
 10
101.1027453697
 20
235.1472807641
 11
101.1027453697
 21
231.3913696453
  0
LINE
  5
26E
100
AcDbEntity
  8
0
100
AcDbLine
 62
7
  6
CONTINUOUS
 10
101.3181116456
 20
283.8655818017
 11
101.3181116456
 21
283.0768778156
  0
LINE
  5
26F
100
AcDbEntity
  8
0
100
AcDbLine
 62
7
  6
CONTINUOUS
 10
102.3181116456
 20
283.8655818017
 11
102.3181116456
 21
283.4401675068
  0
LINE
  5
270
100
AcDbEntity
  8
0
100
AcDbLine
 62
7
  6
CONTINUOUS
 10
102.3879698157
 20
275.6585513421
 11
102.3879698157
 21
272.8288668767
  0
LINE
  5
271
100
AcDbEntity
  8
0
100
AcDbLine
 62
7
  6
CONTINUOUS
 10
102.516958932
 20
235.1472841634
 11
102.516958932
 21
231.3913730446
  0
LINE
  5
272
100
AcDbEntity
  8
0
100
AcDbLine
 62
7
  6
CONTINUOUS
 10
103.0597814956
 20
272.2162820966
 11
103.0597814956
 21
268.2228314619
  0
LINE
  5
273
100
AcDbEntity
  8
0
100
AcDbLine
 62
7
  6
CONTINUOUS
 10
104.0598397862
 20
238.7398563308
 11
104.0598397862
 21
236.8619007714
  0
LINE
  5
274
100
AcDbEntity
  8
0
100
AcDbLine
 62
7
  6
CONTINUOUS
 10
104.5019951062
 20
269.2831930354
 11
104.5019951062
 21
268.3375844817
  0
LINE
  5
275
100
AcDbEntity
  8
0
100
AcDbLine
 62
7
  6
CONTINUOUS
 10
104.8024045189
 20
274.6657470198
 11
104.8024045189
 21
269.5321656863
  0
LINE
  5
276
100
AcDbEntity
  8
0
100
AcDbLine
 62
7
  6
CONTINUOUS
 10
105.5019951062
 20
269.2831930354
 11
105.5019951062
 21
268.619883884
  0
LINE
  5
277
100
AcDbEntity
  8
0
100
AcDbLine
 62
7
  6
CONTINUOUS
 10
106.5220575519
 20
271.8284456504
 11
106.5220575519
 21
268.9078469027
  0
LINE
  5
278
100
AcDbEntity
  8
0
100
AcDbLine
 62
7
  6
CONTINUOUS
 10
107.3024045189
 20
274.6657470198
 11
107.3024045189
 21
272.4760869119
  0
LINE
  5
279
100
AcDbEntity
  8
0
100
AcDbLine
 62
7
  6
CONTINUOUS
 10
107.4098136979
 20
287.6108726047
 11
107.4098136979
 21
285.1613653533
  0
LINE
  5
27A
100
AcDbEntity
  8
0
100
AcDbLine
 62
7
  6
CONTINUOUS
 10
107.6598136979
 20
285.1613653533
 11
107.6598136979
 21
278.7406590163
  0
LINE
  5
27B
100
AcDbEntity
  8
0
100
AcDbLine
 62
7
  6
CONTINUOUS
 10
109.0220575519
 20
271.8284456504
 11
109.0220575519
 21
270.1229584254
  0
LINE
  5
27C
100
AcDbEntity
  8
0
100
AcDbLine
 62
7
  6
CONTINUOUS
 10
106.830292339
 20
237.6375735021
 11
107.2846401482
 21
252.3989060816
  0
LINE
  5
27D
100
AcDbEntity
  8
0
100
AcDbLine
 62
7
  6
CONTINUOUS
 10
174.1356678152
 20
136.48125212
 11
32.0066130606
 21
218.5376437786
  0
LINE
  5
27E
100
AcDbEntity
  8
0
100
AcDbLine
 62
7
  6
CONTINUOUS
 10
164.5306219602
 20
144.5729108743
 11
174.4301581123
 21
138.857540311
  0
LINE
  5
27F
100
AcDbEntity
  8
0
100
AcDbLine
 62
7
  6
CONTINUOUS
 10
112.8097814956
 20
273.4410357223
 11
112.8097814956
 21
270.1750260538
  0
LINE
  5
280
100
AcDbEntity
  8
0
100
AcDbLine
 62
7
  6
CONTINUOUS
 10
113.3097814956
 20
270.1750260538
 11
113.3097814956
 21
261.6017506739
  0
LINE
  5
281
100
AcDbEntity
  8
0
100
AcDbLine
 62
7
  6
CONTINUOUS
 10
113.5597814956
 20
261.6017506739
 11
113.5597814956
 21
259.9687458397
  0
LINE
  5
282
100
AcDbEntity
  8
0
100
AcDbLine
 62
7
  6
CONTINUOUS
 10
118.060495763
 20
246.8230905774
 11
118.060495763
 21
244.945135018
  0
LINE
  5
283
100
AcDbEntity
  8
0
100
AcDbLine
 62
7
  6
CONTINUOUS
 10
118.7803471879
 20
240.7809885837
 11
118.7803413
 21
245.3533846109
  0
LINE
  5
284
100
AcDbEntity
  8
0
100
AcDbLine
 62
7
  6
CONTINUOUS
 10
114.4514082245
 20
259.2435854481
 11
114.4970692593
 21
260.7270694839
  0
LINE
  5
285
100
AcDbEntity
  8
0
100
AcDbLine
 62
7
  6
CONTINUOUS
 10
114.9213315617
 20
260.9720159762
 11
114.8606515619
 21
259.0005799111
  0
LINE
  5
286
100
AcDbEntity
  8
0
100
AcDbLine
 62
7
  6
CONTINUOUS
 10
114.9213615901
 20
256.8079429434
 11
114.4670137809
 21
242.0466103639
  0
LINE
  5
287
100
AcDbEntity
  8
0
100
AcDbLine
 62
7
  6
CONTINUOUS
 10
115.5353962324
 20
258.2941584829
 11
115.6945007538
 21
262.0131377361
  0
LINE
  5
288
100
AcDbEntity
  8
0
100
AcDbLine
 62
7
  6
CONTINUOUS
 10
115.0521845338
 20
242.834580203
 11
115.6945307823
 21
257.8490647033
  0
LINE
  5
289
100
AcDbEntity
  8
0
100
AcDbLine
 62
7
  6
CONTINUOUS
 10
65.1817055771
 20
185.0803143641
 11
48.6875036384
 21
179.2513328347
  0
LINE
  5
28A
100
AcDbEntity
  8
0
100
AcDbLine
 62
7
  6
CONTINUOUS
 10
33.0613281204
 20
237.0022286163
 11
34.2125375093
 21
236.3375926018
  0
LINE
  5
28B
100
AcDbEntity
  8
0
100
AcDbLine
 62
7
  6
CONTINUOUS
 10
34.4224842141
 20
238.031685346
 11
164.5306219602
 21
162.9154163516
  0
LINE
  5
28C
100
AcDbEntity
  8
0
100
AcDbLine
 62
7
  6
CONTINUOUS
 10
203.2247845918
 20
141.1140796493
 11
202.8712297293
 21
141.3182000265
  0
LINE
  5
28D
100
AcDbEntity
  8
0
100
AcDbLine
 62
7
  6
CONTINUOUS
 10
231.9056060099
 20
126.2876152982
 11
204.3283267291
 21
142.2090047245
  0
LINE
  5
28E
100
AcDbEntity
  8
0
100
AcDbLine
 62
7
  6
CONTINUOUS
 10
164.5306219602
 20
166.1719322015
 11
35.5692527176
 21
240.6261290698
  0
LINE
  5
28F
100
AcDbEntity
  8
0
100
AcDbLine
 62
7
  6
CONTINUOUS
 10
36.5612687358
 20
243.0644407281
 11
38.1769266231
 21
242.1316613143
  0
LINE
  5
290
100
AcDbEntity
  8
0
100
AcDbLine
 62
7
  6
CONTINUOUS
 10
38.2054203985
 20
242.148112105
 11
174.4301581123
 21
163.5006769446
  0
LINE
  5
291
100
AcDbEntity
  8
0
100
AcDbLine
 62
7
  6
CONTINUOUS
 10
180.4405407286
 20
173.9110227981
 11
44.2158030148
 21
252.5584579585
  0
LINE
  5
292
100
AcDbEntity
  8
0
100
AcDbLine
 62
7
  6
CONTINUOUS
 10
41.3802930758
 20
254.2004025737
 11
44.2087319764
 21
252.5674395556
  0
LINE
  5
293
100
AcDbEntity
  8
0
100
AcDbLine
 62
7
  6
CONTINUOUS
 10
241.4054448231
 20
142.7421910303
 11
213.8281655424
 21
158.6635804566
  0
LINE
  5
294
100
AcDbEntity
  8
0
100
AcDbLine
 62
7
  6
CONTINUOUS
 10
41.3802930758
 20
258.4288047795
 11
44.2087319764
 21
256.7958417614
  0
LINE
  5
295
100
AcDbEntity
  8
0
100
AcDbLine
 62
7
  6
CONTINUOUS
 10
44.2158030148
 20
256.8056506316
 11
174.2190827147
 21
181.7499200888
  0
LINE
  5
296
100
AcDbEntity
  8
0
100
AcDbLine
 62
7
  6
CONTINUOUS
 10
214.2245979545
 20
160.1667462864
 11
213.871043092
 21
160.3708666636
  0
LINE
  5
297
100
AcDbEntity
  8
0
100
AcDbLine
 62
7
  6
CONTINUOUS
 10
157.5185892742
 20
133.6370176381
 11
159.9344604277
 21
116.9325671407
  0
LINE
  5
298
100
AcDbEntity
  8
0
100
AcDbLine
 62
7
  6
CONTINUOUS
 10
180.0085002847
 20
185.0924219293
 11
44.9505427816
 21
263.0664060427
  0
LINE
  5
299
100
AcDbEntity
  8
0
100
AcDbLine
 62
7
  6
CONTINUOUS
 10
101.1027453697
 20
231.3913696453
 11
84.8392216913
 21
240.7809069993
  0
LINE
  5
29A
100
AcDbEntity
  8
0
100
AcDbLine
 62
7
  6
CONTINUOUS
 10
84.8392216913
 20
244.5368181181
 11
101.1027453697
 21
235.1472807641
  0
LINE
  5
29B
100
AcDbEntity
  8
0
100
AcDbLine
 62
7
  6
CONTINUOUS
 10
164.5306219602
 20
102.2628493033
 11
164.5306219602
 21
127.722488354
  0
LINE
  5
29C
100
AcDbEntity
  8
0
100
AcDbLine
 62
7
  6
CONTINUOUS
 10
164.5306219602
 20
144.5729108743
 11
164.5306219602
 21
169.2160475079
  0
LINE
  5
29D
100
AcDbEntity
  8
0
100
AcDbLine
 62
7
  6
CONTINUOUS
 10
159.9344604277
 20
165.5689514186
 11
157.5185892742
 21
146.0749098512
  0
LINE
  5
29E
100
AcDbEntity
  8
0
100
AcDbLine
 62
7
  6
CONTINUOUS
 10
211.6313772938
 20
211.1064284251
 11
173.2909578958
 21
188.9707090972
  0
LINE
  5
29F
100
AcDbEntity
  8
0
100
AcDbLine
 62
7
  6
CONTINUOUS
 10
170.5410045765
 20
179.6263933614
 11
180.0085002847
 21
185.0924219293
  0
LINE
  5
2A0
100
AcDbEntity
  8
0
100
AcDbLine
 62
7
  6
CONTINUOUS
 10
218.3489196827
 20
207.2281412571
 11
227.8164153909
 21
212.694169825
  0
LINE
  5
2A1
100
AcDbEntity
  8
0
100
AcDbLine
 62
7
  6
CONTINUOUS
 10
88.6982469887
 20
256.8078799108
 11
96.3350320203
 21
252.398879762
  0
LINE
  5
2A2
100
AcDbEntity
  8
0
100
AcDbLine
 62
7
  6
CONTINUOUS
 10
174.1356678152
 20
124.0433599069
 11
174.4301581123
 21
122.0071177907
  0
LINE
  5
2A3
100
AcDbEntity
  8
0
100
AcDbLine
 62
7
  6
CONTINUOUS
 10
169.7277792284
 20
184.3429167043
 11
169.7277792284
 21
180.0957240311
  0
LINE
  5
2A4
100
AcDbEntity
  8
0
100
AcDbLine
 62
7
  6
CONTINUOUS
 10
174.4301581123
 20
163.5006769446
 11
174.4301581123
 21
138.857540311
  0
LINE
  5
2A5
100
AcDbEntity
  8
0
100
AcDbLine
 62
7
  6
CONTINUOUS
 10
174.4301581123
 20
122.0071177907
 11
174.4301581123
 21
96.54747874
  0
LINE
  5
2A6
100
AcDbEntity
  8
0
100
AcDbLine
 62
7
  6
CONTINUOUS
 10
163.7173966121
 20
169.6853781776
 11
161.0812289312
 21
168.1633951425
  0
LINE
  5
2A7
100
AcDbEntity
  8
0
100
AcDbLine
 62
7
  6
CONTINUOUS
 10
237.7159515429
 20
206.9787992617
 11
180.4405407286
 21
173.9110227981
  0
LINE
  5
2A8
100
AcDbEntity
  8
0
100
AcDbLine
 62
7
  6
CONTINUOUS
 10
102.516958932
 20
231.3913730446
 11
101.1027453697
 21
231.3913696453
  0
LINE
  5
2A9
100
AcDbEntity
  8
0
100
AcDbLine
 62
7
  6
CONTINUOUS
 10
87.9546322772
 20
261.3211986377
 11
79.1892538935
 21
266.3817777215
  0
LINE
  5
2AA
100
AcDbEntity
  8
0
100
AcDbLine
 62
7
  6
CONTINUOUS
 10
88.6982169603
 20
260.9719529436
 11
89.1224827954
 21
260.7270084909
  0
LINE
  5
2AB
100
AcDbEntity
  8
0
100
AcDbLine
 62
7
  6
CONTINUOUS
 10
103.1232553533
 20
252.6438415514
 11
103.5475211884
 21
252.3988970987
  0
LINE
  5
2AC
100
AcDbEntity
  8
0
100
AcDbLine
 62
7
  6
CONTINUOUS
 10
118.7803413
 20
245.3533846109
 11
118.060495763
 21
245.7689782235
  0
LINE
  5
2AD
100
AcDbEntity
  8
0
100
AcDbLine
 62
7
  6
CONTINUOUS
 10
79.1892538935
 20
268.8312849729
 11
88.8816862554
 21
263.2354831336
  0
LINE
  5
2AE
100
AcDbEntity
  8
0
100
AcDbLine
 62
7
  6
CONTINUOUS
 10
174.4301581123
 20
138.857540311
 11
174.1356678152
 21
136.48125212
  0
LINE
  5
2AF
100
AcDbEntity
  8
0
100
AcDbLine
 62
7
  6
CONTINUOUS
 10
101.1027453697
 20
235.1472807641
 11
102.516958932
 21
235.1472841634
  0
LINE
  5
2B0
100
AcDbEntity
  8
0
100
AcDbLine
 62
7
  6
CONTINUOUS
 10
114.921346031
 20
258.9655387357
 11
114.4970801959
 21
259.2104831884
  0
LINE
  5
2B1
100
AcDbEntity
  8
0
100
AcDbLine
 62
7
  6
CONTINUOUS
 10
232.8278431689
 20
191.5727319207
 11
235.3027272069
 21
190.1438892799
  0
LINE
  5
2B2
100
AcDbEntity
  8
0
100
AcDbLine
 62
7
  6
CONTINUOUS
 10
114.9213160026
 20
263.1296117685
 11
113.3097814956
 21
264.0600106015
  0
LINE
  5
2B3
100
AcDbEntity
  8
0
100
AcDbLine
 62
7
  6
CONTINUOUS
 10
83.2909621796
 20
285.2021253705
 11
84.6598136979
 21
284.4118364567
  0
LINE
  5
2B4
100
AcDbEntity
  8
0
100
AcDbLine
 62
7
  6
CONTINUOUS
 10
113.3097814956
 20
267.8711440368
 11
218.3489196827
 21
207.2281412571
  0
LINE
  5
2B5
100
AcDbEntity
  8
0
100
AcDbLine
 62
7
  6
CONTINUOUS
 10
219.6858594476
 20
208.0000191828
 11
113.3097814956
 21
269.4148870337
  0
LINE
  5
2B6
100
AcDbEntity
  8
0
100
AcDbLine
 62
7
  6
CONTINUOUS
 10
227.8164153909
 20
212.694169825
 11
237.7159515429
 21
206.9787992617
  0
LINE
  5
2B7
100
AcDbEntity
  8
0
100
AcDbLine
 62
7
  6
CONTINUOUS
 10
241.9658794331
 20
207.3997862805
 11
232.066343281
 21
213.1151568437
  0
LINE
  5
2B8
100
AcDbEntity
  8
0
100
AcDbLine
 62
7
  6
CONTINUOUS
 10
237.3626351416
 20
138.025874012
 11
238.5736765684
 21
138.4670903997
  0
LINE
  5
2B9
100
AcDbEntity
  8
0
100
AcDbLine
 62
7
  6
CONTINUOUS
 10
84.6485829491
 20
285.0775562181
 11
84.661256814
 21
285.0759976982
  0
LINE
  5
2BA
100
AcDbEntity
  8
0
100
AcDbLine
 62
7
  6
CONTINUOUS
 10
84.6472434655
 20
285.074231498
 11
84.6598136979
 21
285.0724180727
  0
LINE
  5
2BB
100
AcDbEntity
  8
0
100
AcDbLine
 62
7
  6
CONTINUOUS
 10
243.3730177577
 20
137.5767955087
 11
243.3730118698
 21
138.3932872161
  0
LINE
  5
2BC
100
AcDbEntity
  8
0
100
AcDbLine
 62
7
  6
CONTINUOUS
 10
243.7263341592
 20
136.5554058194
 11
243.7263341592
 21
157.768877636
  0
LINE
  5
2BD
100
AcDbEntity
  8
0
100
AcDbLine
 62
7
  6
CONTINUOUS
 10
243.7263341592
 20
178.8654673904
 11
243.7263341592
 21
203.508604024
  0
LINE
  5
2BE
100
AcDbEntity
  8
0
100
AcDbLine
 62
7
  6
CONTINUOUS
 10
237.3626351416
 20
127.1663918641
 11
236.6555254165
 21
126.7581302015
  0
LINE
  5
2BF
100
AcDbEntity
  8
0
100
AcDbLine
 62
7
  6
CONTINUOUS
 10
180.4405407286
 20
93.0772835023
 11
206.239352002
 21
107.9721452254
  0
LINE
  5
2C0
100
AcDbEntity
  8
0
100
AcDbLine
 62
7
  6
CONTINUOUS
 10
216.8725228547
 20
114.1111726345
 11
237.7159515429
 21
126.1450599659
  0
LINE
  5
2C1
100
AcDbEntity
  8
0
100
AcDbLine
 62
7
  6
CONTINUOUS
 10
244.0208244563
 20
176.8292252742
 11
243.7263341592
 21
178.8654673904
  0
ARC
  5
2C2
100
AcDbEntity
  8
0
100
AcDbCircle
 62
7
  6
CONTINUOUS
 10
116.5057327479
 20
204.2841839786
 40
92.6039677438
100
AcDbArc
 50
140.5970709474
 51
144.2187384308
  0
ARC
  5
2C3
100
AcDbEntity
  8
0
100
AcDbCircle
 62
7
  6
CONTINUOUS
 10
123.8030226559
 20
200.0982343899
 40
92.4417107665
100
AcDbArc
 50
140.5951317542
 51
144.2157688581
  0
ARC
  5
2C4
100
AcDbEntity
  8
0
100
AcDbCircle
 62
7
  6
CONTINUOUS
 10
123.6103722226
 20
199.5384684436
 40
91.8707358192
100
AcDbArc
 50
155.2695584256
 51
157.0386835079
  0
ARC
  5
2C5
100
AcDbEntity
  8
0
100
AcDbCircle
 62
7
  6
CONTINUOUS
 10
123.2169890203
 20
200.5494522431
 40
91.7024661207
100
AcDbArc
 50
140.5805332459
 51
144.2303673665
  0
ARC
  5
2C6
100
AcDbEntity
  8
0
100
AcDbCircle
 62
7
  6
CONTINUOUS
 10
118.7438443031
 20
202.3115149879
 40
91.5752277511
100
AcDbArc
 50
155.2667037646
 51
157.041538169
  0
ARC
  5
2C7
100
AcDbEntity
  8
0
100
AcDbCircle
 62
7
  6
CONTINUOUS
 10
123.3400575157
 20
199.6579500839
 40
91.5752277501
100
AcDbArc
 50
155.2667037645
 51
157.041538169
  0
ARC
  5
2C8
100
AcDbEntity
  8
0
100
AcDbCircle
 62
7
  6
CONTINUOUS
 10
113.5255446777
 20
193.0779581664
 40
49.0510343523
100
AcDbArc
 50
177.9337160121
 51
179.6680989586
  0
ARC
  5
2C9
100
AcDbEntity
  8
0
100
AcDbCircle
 62
7
  6
CONTINUOUS
 10
109.864021867
 20
193.0939298528
 40
45.3894807573
100
AcDbArc
 50
179.661485938
 51
183.4587820595
  0
ARC
  5
2CA
100
AcDbEntity
  8
0
100
AcDbCircle
 62
7
  6
CONTINUOUS
 10
105.6709745547
 20
192.8763313601
 40
41.190958965
100
AcDbArc
 50
183.508532417
 51
185.8027472469
  0
ARC
  5
2CB
100
AcDbEntity
  8
0
100
AcDbCircle
 62
7
  6
CONTINUOUS
 10
102.9708753288
 20
192.6100330375
 40
38.4777724376
100
AcDbArc
 50
185.8147447057
 51
188.2613811792
  0
ARC
  5
2CC
100
AcDbEntity
  8
0
100
AcDbCircle
 62
7
  6
CONTINUOUS
 10
54.5392962317
 20
198.9681340195
 40
21.8610302049
100
AcDbArc
 50
216.1955802865
 51
221.8831446356
  0
ARC
  5
2CD
100
AcDbEntity
  8
0
100
AcDbCircle
 62
7
  6
CONTINUOUS
 10
49.737945649
 20
201.4553484824
 40
21.5972499608
100
AcDbArc
 50
216.1608183839
 51
221.9179065382
  0
ARC
  5
2CE
100
AcDbEntity
  8
0
100
AcDbCircle
 62
7
  6
CONTINUOUS
 10
54.3341588625
 20
198.801783578
 40
21.5972499608
100
AcDbArc
 50
216.1608183839
 51
221.9179065382
  0
ARC
  5
2CF
100
AcDbEntity
  8
0
100
AcDbCircle
 62
7
  6
CONTINUOUS
 10
69.8178301058
 20
189.6708015195
 40
21.4222300025
100
AcDbArc
 50
218.8999897598
 51
221.9211191675
  0
ARC
  5
2D0
100
AcDbEntity
  8
0
100
AcDbCircle
 62
7
  6
CONTINUOUS
 10
82.8869871458
 20
183.3280130765
 40
20.2405191994
100
AcDbArc
 50
219.6518742586
 51
224.4976866028
  0
ARC
  5
2D1
100
AcDbEntity
  8
0
100
AcDbCircle
 62
7
  6
CONTINUOUS
 10
82.7546196143
 20
183.2085156237
 40
20.0623522383
100
AcDbArc
 50
219.630344242
 51
224.5192166194
  0
ARC
  5
2D2
100
AcDbEntity
  8
0
100
AcDbCircle
 62
7
  6
CONTINUOUS
 10
81.9060760575
 20
262.6485804294
 40
22.596023964
100
AcDbArc
 50
83.028754083
 51
86.4862008236
  0
ARC
  5
2D3
100
AcDbEntity
  8
0
100
AcDbCircle
 62
7
  6
CONTINUOUS
 10
101.6887022386
 20
281.6547029666
 40
17.8237073086
100
AcDbArc
 50
259.9026294603
 51
262.3172108646
  0
ARC
  5
2D4
100
AcDbEntity
  8
0
100
AcDbCircle
 62
7
  6
CONTINUOUS
 10
96.1750695385
 20
266.3287506107
 40
16.1519153498
100
AcDbArc
 50
84.4004971241
 51
86.8234843354
  0
ARC
  5
2D5
100
AcDbEntity
  8
0
100
AcDbCircle
 62
7
  6
CONTINUOUS
 10
96.091044422
 20
266.8239211022
 40
15.6538292419
100
AcDbArc
 50
97.2380107724
 51
97.5174862833
  0
ARC
  5
2D6
100
AcDbEntity
  8
0
100
AcDbCircle
 62
7
  6
CONTINUOUS
 10
101.8996065259
 20
255.9955109439
 40
15.0250066936
100
AcDbArc
 50
78.7927330781
 51
85.5172597876
  0
ARC
  5
2D7
100
AcDbEntity
  8
0
100
AcDbCircle
 62
7
  6
CONTINUOUS
 10
62.6107740538
 20
234.9982635623
 40
14.6938012944
100
AcDbArc
 50
328.9530049242
 51
331.0468068461
  0
ARC
  5
2D8
100
AcDbEntity
  8
0
100
AcDbCircle
 62
7
  6
CONTINUOUS
 10
34.4350847474
 20
251.2627870003
 40
14.5671121891
100
AcDbArc
 50
322.5413270683
 51
330.0081404155
  0
ARC
  5
2D9
100
AcDbEntity
  8
0
100
AcDbCircle
 62
7
  6
CONTINUOUS
 10
62.7539288249
 20
234.9094221585
 40
14.5253352499
100
AcDbArc
 50
322.5714938109
 51
328.9620127178
  0
ARC
  5
2DA
100
AcDbEntity
  8
0
100
AcDbCircle
 62
7
  6
CONTINUOUS
 10
34.5536167913
 20
251.2088030528
 40
14.4374720855
100
AcDbArc
 50
329.9585489263
 51
337.4925207246
  0
ARC
  5
2DB
100
AcDbEntity
  8
0
100
AcDbCircle
 62
7
  6
CONTINUOUS
 10
62.8774746267
 20
234.8616662425
 40
14.394311284
100
AcDbArc
 50
331.0086597098
 51
337.4579017559
  0
ARC
  5
2DC
100
AcDbEntity
  8
0
100
AcDbCircle
 62
7
  6
CONTINUOUS
 10
35.6396781056
 20
250.7711990483
 40
13.2666249164
100
AcDbArc
 50
337.4429533969
 51
343.4019975051
  0
ARC
  5
2DD
100
AcDbEntity
  8
0
100
AcDbCircle
 62
7
  6
CONTINUOUS
 10
100.914509995
 20
259.1131449855
 40
11.8009489855
100
AcDbArc
 50
108.4612473997
 51
111.3044510762
  0
ARC
  5
2DE
100
AcDbEntity
  8
0
100
AcDbCircle
 62
7
  6
CONTINUOUS
 10
81.6392669799
 20
270.5065740494
 40
1.8601335607
100
AcDbArc
 50
119.9884664751
 51
122.2555767245
  0
ARC
  5
2DF
100
AcDbEntity
  8
0
100
AcDbCircle
 62
7
  6
CONTINUOUS
 10
101.2899480585
 20
238.1290441305
 40
1.8600139633
100
AcDbArc
 50
119.988484286
 51
122.2550319342
  0
ARC
  5
2E0
100
AcDbEntity
  8
0
100
AcDbCircle
 62
7
  6
CONTINUOUS
 10
87.2891755006
 20
246.21221107
 40
1.8600139633
100
AcDbArc
 50
119.988484286
 51
122.2550319342
  0
ARC
  5
2E1
100
AcDbEntity
  8
0
100
AcDbCircle
 62
7
  6
CONTINUOUS
 10
96.8369044968
 20
269.3829215047
 40
0.4926561336
100
AcDbArc
 50
296.5699240118
 51
299.9658030712
  0
ARC
  5
2E2
100
AcDbEntity
  8
0
100
AcDbCircle
 62
7
  6
CONTINUOUS
 10
244.7187856562
 20
130.2890653667
 40
92.4417107667
100
AcDbArc
 50
140.5951317542
 51
144.2157688581
  0
ARC
  5
2E3
100
AcDbEntity
  8
0
100
AcDbCircle
 62
7
  6
CONTINUOUS
 10
152.0874116618
 20
183.768604209
 40
92.4417107665
100
AcDbArc
 50
140.5951317542
 51
144.2157688581
  0
ARC
  5
2E4
100
AcDbEntity
  8
0
100
AcDbCircle
 62
7
  6
CONTINUOUS
 10
151.8947612285
 20
183.2088382627
 40
91.8707358193
100
AcDbArc
 50
155.2695584256
 51
157.0386835079
  0
ARC
  5
2E5
100
AcDbEntity
  8
0
100
AcDbCircle
 62
7
  6
CONTINUOUS
 10
244.5261352228
 20
129.7292994206
 40
91.8707358192
100
AcDbArc
 50
155.2695584256
 51
157.0386835079
  0
ARC
  5
2E6
100
AcDbEntity
  8
0
100
AcDbCircle
 62
7
  6
CONTINUOUS
 10
151.5013780261
 20
184.2198220623
 40
91.7024661206
100
AcDbArc
 50
140.5805332459
 51
144.2303673665
  0
ARC
  5
2E7
100
AcDbEntity
  8
0
100
AcDbCircle
 62
7
  6
CONTINUOUS
 10
244.1327520203
 20
130.7402832202
 40
91.7024661206
100
AcDbArc
 50
140.5805332459
 51
144.2303673665
  0
ARC
  5
2E8
100
AcDbEntity
  8
0
100
AcDbCircle
 62
7
  6
CONTINUOUS
 10
244.2558205162
 20
129.8487810608
 40
91.5752277505
100
AcDbArc
 50
155.2667037646
 51
157.041538169
  0
ARC
  5
2E9
100
AcDbEntity
  8
0
100
AcDbCircle
 62
7
  6
CONTINUOUS
 10
151.6244465223
 20
183.3283199028
 40
91.5752277509
100
AcDbArc
 50
155.2667037646
 51
157.041538169
  0
ARC
  5
2EA
100
AcDbEntity
  8
0
100
AcDbCircle
 62
7
  6
CONTINUOUS
 10
206.8687169676
 20
171.4589534859
 40
37.5382326427
100
AcDbArc
 50
7.1701959488
 51
8.2250347244
  0
ARC
  5
2EB
100
AcDbEntity
  8
0
100
AcDbCircle
 62
7
  6
CONTINUOUS
 10
216.0771364213
 20
170.2853096424
 40
28.906389826
100
AcDbArc
 50
13.5132999468
 51
17.6004801971
  0
ARC
  5
2EC
100
AcDbEntity
  8
0
100
AcDbCircle
 62
7
  6
CONTINUOUS
 10
175.5183611401
 20
129.8484742343
 40
20.2405191994
100
AcDbArc
 50
219.6518742586
 51
224.4976866028
  0
ARC
  5
2ED
100
AcDbEntity
  8
0
100
AcDbCircle
 62
7
  6
CONTINUOUS
 10
175.3859936085
 20
129.7289767814
 40
20.0623522382
100
AcDbArc
 50
219.630344242
 51
224.5192166194
  0
ARC
  5
2EE
100
AcDbEntity
  8
0
100
AcDbCircle
 62
7
  6
CONTINUOUS
 10
244.8749360065
 20
129.9308054121
 40
13.4922627845
100
AcDbArc
 50
140.0894933144
 51
140.2478486035
  0
ARC
  5
2EF
100
AcDbEntity
  8
0
100
AcDbCircle
 62
7
  6
CONTINUOUS
 10
205.0834609098
 20
144.3269122624
 40
3.7118651403
100
AcDbArc
 50
232.9373310066
 51
233.6578806018
  0
ARC
  5
2F0
100
AcDbEntity
  8
0
100
AcDbCircle
 62
7
  6
CONTINUOUS
 10
212.3716134426
 20
156.9506529332
 40
3.7118430678
100
AcDbArc
 50
66.3433637872
 51
67.0612748242
  0
ARC
  5
2F1
100
AcDbEntity
  8
0
100
AcDbCircle
 62
7
  6
CONTINUOUS
 10
205.0677400191
 20
144.3052382188
 40
3.6850905715
100
AcDbArc
 50
233.6550649883
 51
239.9927401198
  0
ARC
  5
2F2
100
AcDbEntity
  8
0
100
AcDbCircle
 62
7
  6
CONTINUOUS
 10
212.382514888
 20
156.9750868887
 40
3.6850881308
100
AcDbArc
 50
60.0083798659
 51
66.3461798565
  0
ARC
  5
2F3
100
AcDbEntity
  8
0
100
AcDbCircle
 62
7
  6
CONTINUOUS
 10
2972.5244761371
 20
6996.3727412033
 40
7419.2136604904
100
AcDbArc
 50
246.8343852764
 51
246.9567290301
  0
SPLINE
  5
2F4
100
AcDbEntity
  8
0
100
AcDbSpline
 62
7
  6
CONTINUOUS
 70
0
 71
3
 72
9
 73
5
 74
0
 42
0.0000001
 43
0.0000001
 44
0.0000000001
 40
0.0
 40
0.0
 40
0.0
 40
0.0
 40
0.50321023
 40
1.0
 40
1.0
 40
1.0
 40
1.0
 10
84.8103366596
 20
286.2320214403
 30
0.0
 10
84.7608363758
 20
286.0571016554
 30
0.0
 10
84.6853287418
 20
285.7025382985
 30
0.0
 10
84.6598301758
 20
285.340834821
 30
0.0
 10
84.6598297272
 20
285.161365352
 30
0.0
  0
SPLINE
  5
2F5
100
AcDbEntity
  8
0
100
AcDbSpline
 62
7
  6
CONTINUOUS
 70
0
 71
3
 72
24
 73
20
 74
0
 42
0.0000001
 43
0.0000001
 44
0.0000000001
 40
0.0
 40
0.0
 40
0.0
 40
0.0
 40
0.0623887594
 40
0.1287319573
 40
0.1983303618
 40
0.2703122373
 40
0.343695361
 40
0.4174329258
 40
0.4904630405
 40
0.5617550652
 40
0.6303576369
 40
0.6954503452
 40
0.7564027443
 40
0.8128444451
 40
0.8647489452
 40
0.9125272378
 40
0.9571047377
 40
0.9786666353
 40
1.0
 40
1.0
 40
1.0
 40
1.0
 10
104.1147318665
 20
292.2036193357
 30
0.0
 10
103.7105348615
 20
292.4369773061
 30
0.0
 10
102.8443520598
 20
292.8640511723
 30
0.0
 10
101.4470770915
 20
293.3703128756
 30
0.0
 10
99.9371318542
 20
293.7536359948
 30
0.0
 10
98.3467868459
 20
294.0057999906
 30
0.0
 10
96.709790723
 20
294.1215215827
 30
0.0
 10
95.0610642009
 20
294.0983169047
 30
0.0
 10
93.4357770184
 20
293.9366873453
 30
0.0
 10
91.8685621325
 20
293.6400687881
 30
0.0
 10
90.3927128216
 20
293.2147271101
 30
0.0
 10
89.0394279475
 20
292.6695382805
 30
0.0
 10
87.8371407305
 20
292.0156094243
 30
0.0
 10
86.8110272867
 20
291.2658577873
 30
0.0
 10
85.982948146
 20
290.4341489926
 30
0.0
 10
85.3719552838
 20
289.5359660657
 30
0.0
 10
85.0547006923
 20
288.7356953948
 30
0.0
 10
84.9304331138
 20
288.0917550893
 30
0.0
 10
84.9098298184
 20
287.7704652991
 30
0.0
 10
84.9098294098
 20
287.6108726034
 30
0.0
  0
SPLINE
  5
2F6
100
AcDbEntity
  8
0
100
AcDbSpline
 62
7
  6
CONTINUOUS
 70
0
 71
3
 72
14
 73
10
 74
0
 42
0.0000001
 43
0.0000001
 44
0.0000000001
 40
0.0
 40
0.0
 40
0.0
 40
0.0
 40
0.2892820218
 40
0.4225404569
 40
0.548498011
 40
0.6678964344
 40
0.7818698289
 40
0.8919530438
 40
1.0
 40
1.0
 40
1.0
 40
1.0
 10
89.4423272443
 20
283.7325531429
 30
0.0
 10
89.0253148487
 20
283.9733099151
 30
0.0
 10
88.4413193146
 20
284.3753867996
 30
0.0
 10
87.7806018314
 20
285.0077370905
 30
0.0
 10
87.3784807436
 20
285.495171715
 30
0.0
 10
87.0605749585
 20
286.0040388878
 30
0.0
 10
86.8304497669
 20
286.5298354043
 30
0.0
 10
86.6910759099
 20
287.067209267
 30
0.0
 10
86.6598157386
 20
287.4310240299
 30
0.0
 10
86.6598240603
 20
287.6108725915
 30
0.0
  0
SPLINE
  5
2F7
100
AcDbEntity
  8
0
100
AcDbSpline
 62
7
  6
CONTINUOUS
 70
0
 71
3
 72
11
 73
7
 74
0
 42
0.0000001
 43
0.0000001
 44
0.0000000001
 40
0.0
 40
0.0
 40
0.0
 40
0.0
 40
0.2306873806
 40
0.4695292945
 40
0.7241992333
 40
1.0
 40
1.0
 40
1.0
 40
1.0
 10
79.9090994305
 20
271.1174901251
 30
0.0
 10
79.9090994305
 20
271.2162539901
 30
0.0
 10
79.9439882556
 20
271.4186721675
 30
0.0
 10
80.0917854088
 20
271.6960354769
 30
0.0
 10
80.3192606814
 20
271.9383868153
 30
0.0
 10
80.5072660719
 20
272.0685501776
 30
0.0
 10
80.6095249416
 20
272.1275890111
 30
0.0
  0
SPLINE
  5
2F8
100
AcDbEntity
  8
0
100
AcDbSpline
 62
7
  6
CONTINUOUS
 70
0
 71
3
 72
17
 73
13
 74
0
 42
0.0000001
 43
0.0000001
 44
0.0000000001
 40
0.0
 40
0.0
 40
0.0
 40
0.0
 40
0.1273229158
 40
0.2655260336
 40
0.4084846382
 40
0.5487696417
 40
0.6796631286
 40
0.7971330466
 40
0.8509919496
 40
0.9022105555
 40
0.9515214527
 40
1.0
 40
1.0
 40
1.0
 40
1.0
 10
80.6095249416
 20
272.1275890111
 30
0.0
 10
80.7750268467
 20
272.2231410101
 30
0.0
 10
81.1470065014
 20
272.3770189545
 30
0.0
 10
81.7513130514
 20
272.496988783
 30
0.0
 10
82.3867853804
 20
272.5122776721
 30
0.0
 10
83.0050299936
 20
272.421438043
 30
0.0
 10
83.5599385055
 20
272.2301075676
 30
0.0
 10
83.949108628
 20
271.9849134428
 30
0.0
 10
84.1821257586
 20
271.7433866011
 30
0.0
 10
84.310032896
 20
271.5482479378
 30
0.0
 10
84.3906477692
 20
271.3376448077
 30
0.0
 10
84.4090994305
 20
271.1902538191
 30
0.0
 10
84.4090994305
 20
271.1174901251
 30
0.0
  0
SPLINE
  5
2F9
100
AcDbEntity
  8
0
100
AcDbSpline
 62
7
  6
CONTINUOUS
 70
0
 71
3
 72
11
 73
7
 74
0
 42
0.0000001
 43
0.0000001
 44
0.0000000001
 40
0.0
 40
0.0
 40
0.0
 40
0.0
 40
0.2895468475
 40
0.5491384346
 40
0.782278826
 40
1.0
 40
1.0
 40
1.0
 40
1.0
 10
101.464556783
 20
284.069702179
 30
0.0
 10
101.442629739
 20
284.0570426698
 30
0.0
 10
101.402838919
 20
284.0296054991
 30
0.0
 10
101.3552404225
 20
283.9796355384
 30
0.0
 10
101.325132885
 20
283.9243141451
 30
0.0
 10
101.3181325534
 20
283.8846202222
 30
0.0
 10
101.3181322063
 20
283.865581814
 30
0.0
  0
SPLINE
  5
2FA
100
AcDbEntity
  8
0
100
AcDbSpline
 62
7
  6
CONTINUOUS
 70
0
 71
3
 72
11
 73
7
 74
0
 42
0.0000001
 43
0.0000001
 44
0.0000000001
 40
0.0
 40
0.0
 40
0.0
 40
0.0
 40
0.2895468475
 40
0.5491384346
 40
0.782278826
 40
1.0
 40
1.0
 40
1.0
 40
1.0
 10
97.8830016786
 20
283.4112176035
 30
0.0
 10
97.8610746345
 20
283.3985580943
 30
0.0
 10
97.8212838146
 20
283.3711209236
 30
0.0
 10
97.7736853181
 20
283.3211509629
 30
0.0
 10
97.7435777805
 20
283.2658295697
 30
0.0
 10
97.7365774489
 20
283.2261356468
 30
0.0
 10
97.7365771019
 20
283.2070972385
 30
0.0
  0
SPLINE
  5
2FB
100
AcDbEntity
  8
0
100
AcDbSpline
 62
7
  6
CONTINUOUS
 70
0
 71
3
 72
11
 73
7
 74
0
 42
0.0000001
 43
0.0000001
 44
0.0000000001
 40
0.0
 40
0.0
 40
0.0
 40
0.0
 40
0.2895468475
 40
0.5491384346
 40
0.782278826
 40
1.0
 40
1.0
 40
1.0
 40
1.0
 10
98.8468053353
 20
285.487930758
 30
0.0
 10
98.8248782913
 20
285.4752712487
 30
0.0
 10
98.7850874713
 20
285.447834078
 30
0.0
 10
98.7374889748
 20
285.3978641174
 30
0.0
 10
98.7073814373
 20
285.3425427241
 30
0.0
 10
98.7003811057
 20
285.3028488012
 30
0.0
 10
98.7003807586
 20
285.283810393
 30
0.0
  0
SPLINE
  5
2FC
100
AcDbEntity
  8
0
100
AcDbSpline
 62
7
  6
CONTINUOUS
 70
0
 71
3
 72
11
 73
7
 74
0
 42
0.0000001
 43
0.0000001
 44
0.0000000001
 40
0.0
 40
0.0
 40
0.0
 40
0.0
 40
0.2895468475
 40
0.5491384346
 40
0.782278826
 40
1.0
 40
1.0
 40
1.0
 40
1.0
 10
94.2859855853
 20
282.8547559655
 30
0.0
 10
94.2640585413
 20
282.8420964563
 30
0.0
 10
94.2242677213
 20
282.8146592856
 30
0.0
 10
94.1766692248
 20
282.7646893249
 30
0.0
 10
94.1465616872
 20
282.7093679316
 30
0.0
 10
94.1395613556
 20
282.6696740088
 30
0.0
 10
94.1395610086
 20
282.6506356005
 30
0.0
  0
SPLINE
  5
2FD
100
AcDbEntity
  8
0
100
AcDbSpline
 62
7
  6
CONTINUOUS
 70
0
 71
3
 72
11
 73
7
 74
0
 42
0.0000001
 43
0.0000001
 44
0.0000000001
 40
0.0
 40
0.0
 40
0.0
 40
0.0
 40
0.2895468475
 40
0.5491384346
 40
0.782278826
 40
1.0
 40
1.0
 40
1.0
 40
1.0
 10
95.249789242
 20
284.9314691199
 30
0.0
 10
95.227862198
 20
284.9188096107
 30
0.0
 10
95.188071378
 20
284.89137244
 30
0.0
 10
95.1404728816
 20
284.8414024793
 30
0.0
 10
95.110365344
 20
284.7860810861
 30
0.0
 10
95.1033650124
 20
284.7463871632
 30
0.0
 10
95.1033646654
 20
284.7273487549
 30
0.0
  0
SPLINE
  5
2FE
100
AcDbEntity
  8
0
100
AcDbSpline
 62
7
  6
CONTINUOUS
 70
0
 71
3
 72
11
 73
7
 74
0
 42
0.0000001
 43
0.0000001
 44
0.0000000001
 40
0.0
 40
0.0
 40
0.0
 40
0.0
 40
0.2895468475
 40
0.5491384346
 40
0.782278826
 40
1.0
 40
1.0
 40
1.0
 40
1.0
 10
96.2135928988
 20
287.0081822743
 30
0.0
 10
96.1916658548
 20
286.9955227651
 30
0.0
 10
96.1518750348
 20
286.9680855944
 30
0.0
 10
96.1042765383
 20
286.9181156337
 30
0.0
 10
96.0741690007
 20
286.8627942405
 30
0.0
 10
96.0671686691
 20
286.8231003176
 30
0.0
 10
96.0671683221
 20
286.8040619094
 30
0.0
  0
SPLINE
  5
2FF
100
AcDbEntity
  8
0
100
AcDbSpline
 62
7
  6
CONTINUOUS
 70
0
 71
3
 72
11
 73
7
 74
0
 42
0.0000001
 43
0.0000001
 44
0.0000000001
 40
0.0
 40
0.0
 40
0.0
 40
0.0
 40
0.2895468475
 40
0.5491384346
 40
0.782278826
 40
1.0
 40
1.0
 40
1.0
 40
1.0
 10
90.2894265232
 20
284.5328987634
 30
0.0
 10
90.2674994792
 20
284.5202392542
 30
0.0
 10
90.2277086592
 20
284.4928020835
 30
0.0
 10
90.1801101628
 20
284.4428321228
 30
0.0
 10
90.1500026252
 20
284.3875107295
 30
0.0
 10
90.1430022936
 20
284.3478168067
 30
0.0
 10
90.1430019466
 20
284.3287783984
 30
0.0
  0
SPLINE
  5
300
100
AcDbEntity
  8
0
100
AcDbSpline
 62
7
  6
CONTINUOUS
 70
0
 71
3
 72
11
 73
7
 74
0
 42
0.0000001
 43
0.0000001
 44
0.0000000001
 40
0.0
 40
0.0
 40
0.0
 40
0.0
 40
0.2895468475
 40
0.5491384346
 40
0.782278826
 40
1.0
 40
1.0
 40
1.0
 40
1.0
 10
92.471270706
 20
286.3929787837
 30
0.0
 10
92.449343662
 20
286.3803192745
 30
0.0
 10
92.409552842
 20
286.3528821038
 30
0.0
 10
92.3619543456
 20
286.3029121431
 30
0.0
 10
92.331846808
 20
286.2475907498
 30
0.0
 10
92.3248464764
 20
286.207896827
 30
0.0
 10
92.3248461294
 20
286.1888584187
 30
0.0
  0
SPLINE
  5
301
100
AcDbEntity
  8
0
100
AcDbSpline
 62
7
  6
CONTINUOUS
 70
0
 71
3
 72
9
 73
5
 74
0
 42
0.0000001
 43
0.0000001
 44
0.0000000001
 40
0.0
 40
0.0
 40
0.0
 40
0.0
 40
0.5031263584
 40
1.0
 40
1.0
 40
1.0
 40
1.0
 10
84.5595121015
 20
278.0756960183
 30
0.0
 10
84.5102660295
 20
277.8992635928
 30
0.0
 10
84.4351766334
 20
277.5417540909
 30
0.0
 10
84.409830499
 20
277.1772410681
 30
0.0
 10
84.4098300503
 20
276.9963411805
 30
0.0
  0
SPLINE
  5
302
100
AcDbEntity
  8
0
100
AcDbSpline
 62
7
  6
CONTINUOUS
 70
0
 71
3
 72
14
 73
10
 74
0
 42
0.0000001
 43
0.0000001
 44
0.0000000001
 40
0.0
 40
0.0
 40
0.0
 40
0.0
 40
0.2892807849
 40
0.4225388579
 40
0.5484988369
 40
0.6678959873
 40
0.7818693405
 40
0.891953268
 40
1.0
 40
1.0
 40
1.0
 40
1.0
 10
87.8513436106
 20
268.7701622221
 30
0.0
 10
87.3355672009
 20
269.0679391344
 30
0.0
 10
86.6132565771
 20
269.5652407161
 30
0.0
 10
85.7960598189
 20
270.3473660716
 30
0.0
 10
85.2986801777
 20
270.950232603
 30
0.0
 10
84.905495353
 20
271.5796347607
 30
0.0
 10
84.6208724325
 20
272.2299596131
 30
0.0
 10
84.448453825
 20
272.8946018644
 30
0.0
 10
84.409829647
 20
273.3445871624
 30
0.0
 10
84.4098299091
 20
273.567031029
 30
0.0
  0
SPLINE
  5
303
100
AcDbEntity
  8
0
100
AcDbSpline
 62
7
  6
CONTINUOUS
 70
0
 71
3
 72
9
 73
5
 74
0
 42
0.0000001
 43
0.0000001
 44
0.0000000001
 40
0.0
 40
0.0
 40
0.0
 40
0.0
 40
0.514020454
 40
1.0
 40
1.0
 40
1.0
 40
1.0
 10
90.2911803406
 20
267.6899939409
 30
0.0
 10
89.8568494857
 20
267.8345606503
 30
0.0
 10
89.0237494843
 20
268.1532837538
 30
0.0
 10
88.2261500773
 20
268.553772503
 30
0.0
 10
87.8513436106
 20
268.7701622221
 30
0.0
  0
SPLINE
  5
304
100
AcDbEntity
  8
0
100
AcDbSpline
 62
7
  6
CONTINUOUS
 70
0
 71
3
 72
15
 73
11
 74
0
 42
0.0000001
 43
0.0000001
 44
0.0000000001
 40
0.0
 40
0.0
 40
0.0
 40
0.0
 40
0.0869258731
 40
0.1863900355
 40
0.3037775758
 40
0.4375856292
 40
0.582082136
 40
0.7293904368
 40
0.8711742898
 40
1.0
 40
1.0
 40
1.0
 40
1.0
 10
93.3248050079
 20
286.1888583941
 30
0.0
 10
93.3248055335
 20
286.2176947511
 30
0.0
 10
93.307406312
 20
286.2800955211
 30
0.0
 10
93.2393880777
 20
286.3574417515
 30
0.0
 10
93.1389953058
 20
286.4186194261
 30
0.0
 10
93.0136570373
 20
286.4605029617
 30
0.0
 10
92.8731528198
 20
286.4802341708
 30
0.0
 10
92.7286780411
 20
286.4762583587
 30
0.0
 10
92.5920957303
 20
286.4489190442
 30
0.0
 10
92.5082812235
 20
286.4143466883
 30
0.0
 10
92.471270706
 20
286.3929787837
 30
0.0
  0
SPLINE
  5
305
100
AcDbEntity
  8
0
100
AcDbSpline
 62
7
  6
CONTINUOUS
 70
0
 71
3
 72
15
 73
11
 74
0
 42
0.0000001
 43
0.0000001
 44
0.0000000001
 40
0.0
 40
0.0
 40
0.0
 40
0.0
 40
0.0869258731
 40
0.1863900355
 40
0.3037775758
 40
0.4375856292
 40
0.582082136
 40
0.7293904368
 40
0.8711742898
 40
1.0
 40
1.0
 40
1.0
 40
1.0
 10
91.1429608251
 20
284.3287783739
 30
0.0
 10
91.1429613507
 20
284.3576147308
 30
0.0
 10
91.1255621292
 20
284.4200155008
 30
0.0
 10
91.0575438949
 20
284.4973617312
 30
0.0
 10
90.957151123
 20
284.5585394058
 30
0.0
 10
90.8318128545
 20
284.6004229415
 30
0.0
 10
90.691308637
 20
284.6201541505
 30
0.0
 10
90.5468338583
 20
284.6161783384
 30
0.0
 10
90.4102515475
 20
284.5888390239
 30
0.0
 10
90.3264370407
 20
284.554266668
 30
0.0
 10
90.2894265232
 20
284.5328987634
 30
0.0
  0
SPLINE
  5
306
100
AcDbEntity
  8
0
100
AcDbSpline
 62
7
  6
CONTINUOUS
 70
0
 71
3
 72
15
 73
11
 74
0
 42
0.0000001
 43
0.0000001
 44
0.0000000001
 40
0.0
 40
0.0
 40
0.0
 40
0.0
 40
0.0869258731
 40
0.1863900355
 40
0.3037775758
 40
0.4375856292
 40
0.582082136
 40
0.7293904368
 40
0.8711742898
 40
1.0
 40
1.0
 40
1.0
 40
1.0
 10
97.0671272006
 20
286.8040618848
 30
0.0
 10
97.0671277262
 20
286.8328982417
 30
0.0
 10
97.0497285048
 20
286.8952990117
 30
0.0
 10
96.9817102705
 20
286.9726452421
 30
0.0
 10
96.8813174986
 20
287.0338229168
 30
0.0
 10
96.7559792301
 20
287.0757064524
 30
0.0
 10
96.6154750126
 20
287.0954376614
 30
0.0
 10
96.4710002339
 20
287.0914618494
 30
0.0
 10
96.3344179231
 20
287.0641225348
 30
0.0
 10
96.2506034162
 20
287.029550179
 30
0.0
 10
96.2135928988
 20
287.0081822743
 30
0.0
  0
SPLINE
  5
307
100
AcDbEntity
  8
0
100
AcDbSpline
 62
7
  6
CONTINUOUS
 70
0
 71
3
 72
9
 73
5
 74
0
 42
0.0000001
 43
0.0000001
 44
0.0000000001
 40
0.0
 40
0.0
 40
0.0
 40
0.0
 40
0.4949330054
 40
1.0
 40
1.0
 40
1.0
 40
1.0
 10
107.6597976685
 20
285.1613653547
 30
0.0
 10
107.6597982363
 20
285.3885032462
 30
0.0
 10
107.6186175638
 20
285.8483218678
 30
0.0
 10
107.4979084165
 20
286.2936427015
 30
0.0
 10
107.4194401013
 20
286.5117452024
 30
0.0
  0
SPLINE
  5
308
100
AcDbEntity
  8
0
100
AcDbSpline
 62
7
  6
CONTINUOUS
 70
0
 71
3
 72
14
 73
10
 74
0
 42
0.0000001
 43
0.0000001
 44
0.0000000001
 40
0.0
 40
0.0
 40
0.0
 40
0.0
 40
0.1080463396
 40
0.2181299137
 40
0.3321030983
 40
0.4515003041
 40
0.5774603201
 40
0.7107186209
 40
1.0
 40
1.0
 40
1.0
 40
1.0
 10
107.4097979859
 20
287.610872606
 30
0.0
 10
107.4097985311
 20
287.8238499947
 30
0.0
 10
107.3728170022
 20
288.2546853878
 30
0.0
 10
107.2077377337
 20
288.8910435997
 30
0.0
 10
106.9352270218
 20
289.5136944136
 30
0.0
 10
106.5587736102
 20
290.1163132917
 30
0.0
 10
106.0825600647
 20
290.6935275435
 30
0.0
 10
105.3001364322
 20
291.4423721974
 30
0.0
 10
104.6085613398
 20
291.9185132064
 30
0.0
 10
104.1147318665
 20
292.2036193357
 30
0.0
  0
SPLINE
  5
309
100
AcDbEntity
  8
0
100
AcDbSpline
 62
7
  6
CONTINUOUS
 70
0
 71
3
 72
23
 73
19
 74
0
 42
0.0000001
 43
0.0000001
 44
0.0000000001
 40
0.0
 40
0.0
 40
0.0
 40
0.0
 40
0.0428137266
 40
0.0873950035
 40
0.1351772872
 40
0.1870861402
 40
0.2435326078
 40
0.3044901477
 40
0.3695883203
 40
0.4381966675
 40
0.5094946866
 40
0.5825308235
 40
0.6562744106
 40
0.729663534
 40
0.8016518602
 40
0.8712561249
 40
0.9376063732
 40
1.0
 40
1.0
 40
1.0
 40
1.0
 10
105.6598033354
 20
287.6108726179
 30
0.0
 10
105.659790822
 20
287.3404326774
 30
0.0
 10
105.5875042147
 20
286.7860367112
 30
0.0
 10
105.2695445136
 20
285.9855406238
 30
0.0
 10
104.7536209581
 20
285.2266811696
 30
0.0
 10
104.0543474343
 20
284.5244689971
 30
0.0
 10
103.187854867
 20
283.8913095296
 30
0.0
 10
102.1725904229
 20
283.3391138904
 30
0.0
 10
101.0298179232
 20
282.8787290174
 30
0.0
 10
99.7835464604
 20
282.5195523887
 30
0.0
 10
98.4601226394
 20
282.2690742311
 30
0.0
 10
97.0876611763
 20
282.1325862514
 30
0.0
 10
95.6954076257
 20
282.1129911383
 30
0.0
 10
94.3130559605
 20
282.2107076579
 30
0.0
 10
92.9700983964
 20
282.4236489374
 30
0.0
 10
91.6950210368
 20
282.7473384201
 30
0.0
 10
90.5150967783
 20
283.1748568422
 30
0.0
 10
89.7836467594
 20
283.535496687
 30
0.0
 10
89.4423272443
 20
283.7325531429
 30
0.0
  0
SPLINE
  5
30A
100
AcDbEntity
  8
0
100
AcDbSpline
 62
7
  6
CONTINUOUS
 70
0
 71
3
 72
15
 73
11
 74
0
 42
0.0000001
 43
0.0000001
 44
0.0000000001
 40
0.0
 40
0.0
 40
0.0
 40
0.0
 40
0.0869258731
 40
0.1863900355
 40
0.3037775758
 40
0.4375856292
 40
0.582082136
 40
0.7293904368
 40
0.8711742898
 40
1.0
 40
1.0
 40
1.0
 40
1.0
 10
96.1033235439
 20
284.7273487304
 30
0.0
 10
96.1033240695
 20
284.7561850873
 30
0.0
 10
96.085924848
 20
284.8185858573
 30
0.0
 10
96.0179066137
 20
284.8959320877
 30
0.0
 10
95.9175138418
 20
284.9571097624
 30
0.0
 10
95.7921755733
 20
284.998993298
 30
0.0
 10
95.6516713558
 20
285.018724507
 30
0.0
 10
95.5071965771
 20
285.014748695
 30
0.0
 10
95.3706142663
 20
284.9874093804
 30
0.0
 10
95.2867997595
 20
284.9528370246
 30
0.0
 10
95.249789242
 20
284.9314691199
 30
0.0
  0
SPLINE
  5
30B
100
AcDbEntity
  8
0
100
AcDbSpline
 62
7
  6
CONTINUOUS
 70
0
 71
3
 72
15
 73
11
 74
0
 42
0.0000001
 43
0.0000001
 44
0.0000000001
 40
0.0
 40
0.0
 40
0.0
 40
0.0
 40
0.0869258731
 40
0.1863900355
 40
0.3037775758
 40
0.4375856292
 40
0.582082136
 40
0.7293904368
 40
0.8711742898
 40
1.0
 40
1.0
 40
1.0
 40
1.0
 10
102.3180910848
 20
283.8655817894
 30
0.0
 10
102.3180916105
 20
283.8944181464
 30
0.0
 10
102.300692389
 20
283.9568189163
 30
0.0
 10
102.2326741547
 20
284.0341651468
 30
0.0
 10
102.1322813828
 20
284.0953428214
 30
0.0
 10
102.0069431143
 20
284.137226357
 30
0.0
 10
101.8664388968
 20
284.156957566
 30
0.0
 10
101.7219641181
 20
284.152981754
 30
0.0
 10
101.5853818073
 20
284.1256424395
 30
0.0
 10
101.5015673004
 20
284.0910700836
 30
0.0
 10
101.464556783
 20
284.069702179
 30
0.0
  0
SPLINE
  5
30C
100
AcDbEntity
  8
0
100
AcDbSpline
 62
7
  6
CONTINUOUS
 70
0
 71
3
 72
15
 73
11
 74
0
 42
0.0000001
 43
0.0000001
 44
0.0000000001
 40
0.0
 40
0.0
 40
0.0
 40
0.0
 40
0.0869258731
 40
0.1863900355
 40
0.3037775758
 40
0.4375856292
 40
0.582082136
 40
0.7293904368
 40
0.8711742898
 40
1.0
 40
1.0
 40
1.0
 40
1.0
 10
95.1395198871
 20
282.6506355759
 30
0.0
 10
95.1395204127
 20
282.6794719329
 30
0.0
 10
95.1221211913
 20
282.7418727029
 30
0.0
 10
95.054102957
 20
282.8192189333
 30
0.0
 10
94.9537101851
 20
282.8803966079
 30
0.0
 10
94.8283719166
 20
282.9222801435
 30
0.0
 10
94.6878676991
 20
282.9420113525
 30
0.0
 10
94.5433929204
 20
282.9380355405
 30
0.0
 10
94.4068106096
 20
282.910696226
 30
0.0
 10
94.3229961027
 20
282.8761238701
 30
0.0
 10
94.2859855853
 20
282.8547559655
 30
0.0
  0
SPLINE
  5
30D
100
AcDbEntity
  8
0
100
AcDbSpline
 62
7
  6
CONTINUOUS
 70
0
 71
3
 72
15
 73
11
 74
0
 42
0.0000001
 43
0.0000001
 44
0.0000000001
 40
0.0
 40
0.0
 40
0.0
 40
0.0
 40
0.0869258731
 40
0.1863900355
 40
0.3037775758
 40
0.4375856292
 40
0.582082136
 40
0.7293904368
 40
0.8711742898
 40
1.0
 40
1.0
 40
1.0
 40
1.0
 10
98.7365359804
 20
283.207097214
 30
0.0
 10
98.736536506
 20
283.2359335709
 30
0.0
 10
98.7191372845
 20
283.2983343409
 30
0.0
 10
98.6511190503
 20
283.3756805713
 30
0.0
 10
98.5507262783
 20
283.436858246
 30
0.0
 10
98.4253880098
 20
283.4787417816
 30
0.0
 10
98.2848837923
 20
283.4984729906
 30
0.0
 10
98.1404090137
 20
283.4944971786
 30
0.0
 10
98.0038267029
 20
283.467157864
 30
0.0
 10
97.920012196
 20
283.4325855082
 30
0.0
 10
97.8830016786
 20
283.4112176035
 30
0.0
  0
SPLINE
  5
30E
100
AcDbEntity
  8
0
100
AcDbSpline
 62
7
  6
CONTINUOUS
 70
0
 71
3
 72
15
 73
11
 74
0
 42
0.0000001
 43
0.0000001
 44
0.0000000001
 40
0.0
 40
0.0
 40
0.0
 40
0.0
 40
0.0869258731
 40
0.1863900355
 40
0.3037775758
 40
0.4375856292
 40
0.582082136
 40
0.7293904368
 40
0.8711742898
 40
1.0
 40
1.0
 40
1.0
 40
1.0
 10
99.7003396371
 20
285.2838103684
 30
0.0
 10
99.7003401628
 20
285.3126467254
 30
0.0
 10
99.6829409413
 20
285.3750474953
 30
0.0
 10
99.614922707
 20
285.4523937258
 30
0.0
 10
99.5145299351
 20
285.5135714004
 30
0.0
 10
99.3891916666
 20
285.555454936
 30
0.0
 10
99.2486874491
 20
285.575186145
 30
0.0
 10
99.1042126704
 20
285.571210333
 30
0.0
 10
98.9676303596
 20
285.5438710185
 30
0.0
 10
98.8838158527
 20
285.5092986626
 30
0.0
 10
98.8468053353
 20
285.487930758
 30
0.0
  0
SPLINE
  5
30F
100
AcDbEntity
  8
0
100
AcDbSpline
 62
7
  6
CONTINUOUS
 70
0
 71
3
 72
24
 73
20
 74
0
 42
0.0000001
 43
0.0000001
 44
0.0000000001
 40
0.0
 40
0.0
 40
0.0
 40
0.0
 40
0.0623887594
 40
0.1287319573
 40
0.1983303618
 40
0.2703122373
 40
0.343695361
 40
0.4174329258
 40
0.4904630405
 40
0.5617550652
 40
0.6303576369
 40
0.6954503452
 40
0.7564027443
 40
0.8128444451
 40
0.8647489452
 40
0.9125272378
 40
0.9571047377
 40
0.9786666353
 40
1.0
 40
1.0
 40
1.0
 40
1.0
 10
88.2048955292
 20
283.0181258736
 30
0.0
 10
88.6090925342
 20
282.7847679033
 30
0.0
 10
89.475275336
 20
282.3576940371
 30
0.0
 10
90.8725503042
 20
281.8514323338
 30
0.0
 10
92.3824955416
 20
281.4681092146
 30
0.0
 10
93.9728405498
 20
281.2159452187
 30
0.0
 10
95.6098366727
 20
281.1002236266
 30
0.0
 10
97.2585631949
 20
281.1234283047
 30
0.0
 10
98.8838503773
 20
281.2850578641
 30
0.0
 10
100.4510652632
 20
281.5816764212
 30
0.0
 10
101.9269145742
 20
282.0070180992
 30
0.0
 10
103.2801994482
 20
282.5522069289
 30
0.0
 10
104.4824866652
 20
283.2061357851
 30
0.0
 10
105.5086001091
 20
283.9558874221
 30
0.0
 10
106.3366792497
 20
284.7875962168
 30
0.0
 10
106.9476721119
 20
285.6857791437
 30
0.0
 10
107.2649267035
 20
286.4860498145
 30
0.0
 10
107.3891942819
 20
287.1299901201
 30
0.0
 10
107.4097975774
 20
287.4512799103
 30
0.0
 10
107.4097979859
 20
287.610872606
 30
0.0
  0
SPLINE
  5
310
100
AcDbEntity
  8
0
100
AcDbSpline
 62
7
  6
CONTINUOUS
 70
0
 71
3
 72
11
 73
7
 74
0
 42
0.0000001
 43
0.0000001
 44
0.0000000001
 40
0.0
 40
0.0
 40
0.0
 40
0.0
 40
0.2177709015
 40
0.4509493769
 40
0.7101992283
 40
1.0
 40
1.0
 40
1.0
 40
1.0
 10
79.9090994305
 20
271.1174901251
 30
0.0
 10
79.9090994286
 20
271.0317938771
 30
0.0
 10
79.940730343
 20
270.8531390486
 30
0.0
 10
80.0761990517
 20
270.6043229965
 30
0.0
 10
80.290202682
 20
270.379276456
 30
0.0
 10
80.4693527261
 20
270.2559603744
 30
0.0
 10
80.5681157968
 20
270.1989407789
 30
0.0
  0
SPLINE
  5
311
100
AcDbEntity
  8
0
100
AcDbSpline
 62
7
  6
CONTINUOUS
 70
0
 71
3
 72
11
 73
7
 74
0
 42
0.0000001
 43
0.0000001
 44
0.0000000001
 40
0.0
 40
0.0
 40
0.0
 40
0.0
 40
0.2287459566
 40
0.4747397961
 40
0.733621665
 40
1.0
 40
1.0
 40
1.0
 40
1.0
 10
88.0281195699
 20
280.4665575838
 30
0.0
 10
88.5494355253
 20
280.1655824855
 30
0.0
 10
89.6839018393
 20
279.6297446646
 30
0.0
 10
91.5282328168
 20
279.0437153465
 30
0.0
 10
93.5256232855
 20
278.6602843486
 30
0.0
 10
94.9065121036
 20
278.5490576691
 30
0.0
 10
95.6072347026
 20
278.5296052529
 30
0.0
  0
SPLINE
  5
312
100
AcDbEntity
  8
0
100
AcDbSpline
 62
7
  6
CONTINUOUS
 70
0
 71
3
 72
15
 73
11
 74
0
 42
0.0000001
 43
0.0000001
 44
0.0000000001
 40
0.0
 40
0.0
 40
0.0
 40
0.0
 40
0.1534979286
 40
0.2985619963
 40
0.4346586171
 40
0.5617223858
 40
0.6802608138
 40
0.7914514124
 40
0.8971869636
 40
1.0
 40
1.0
 40
1.0
 40
1.0
 10
102.6614103624
 20
279.6848600682
 30
0.0
 10
103.035046021
 20
279.8327067667
 30
0.0
 10
103.749905762
 20
280.1519113886
 30
0.0
 10
104.740115897
 20
280.7164140861
 30
0.0
 10
105.606335071
 20
281.3464998114
 30
0.0
 10
106.3358933516
 20
282.0337286456
 30
0.0
 10
106.9178159564
 20
282.7691297719
 30
0.0
 10
107.3424419991
 20
283.5432243911
 30
0.0
 10
107.601435269
 20
284.3446544795
 30
0.0
 10
107.6597969958
 20
284.8922235446
 30
0.0
 10
107.6597976685
 20
285.1613653547
 30
0.0
  0
SPLINE
  5
313
100
AcDbEntity
  8
0
100
AcDbSpline
 62
7
  6
CONTINUOUS
 70
0
 71
3
 72
17
 73
13
 74
0
 42
0.0000001
 43
0.0000001
 44
0.0000000001
 40
0.0
 40
0.0
 40
0.0
 40
0.0
 40
0.0428583514
 40
0.0874867632
 40
0.1353205869
 40
0.1872858865
 40
0.3045494199
 40
0.4382200143
 40
0.5825658202
 40
0.7297200337
 40
0.8713089174
 40
1.0
 40
1.0
 40
1.0
 40
1.0
 10
84.4090918455
 20
269.2395345639
 30
0.0
 10
84.4090982977
 20
269.1754849008
 30
0.0
 10
84.3919511434
 20
269.0441848996
 30
0.0
 10
84.3166677968
 20
268.8545952035
 30
0.0
 10
84.1944796103
 20
268.674844334
 30
0.0
 10
83.9644273589
 20
268.4440059205
 30
0.0
 10
83.5724819365
 20
268.2053851182
 30
0.0
 10
83.008892256
 20
268.0171550177
 30
0.0
 10
82.3764416015
 20
267.9282792642
 30
0.0
 10
81.7263833271
 20
267.9462693877
 30
0.0
 10
81.1117814911
 20
268.0692383584
 30
0.0
 10
80.7346728134
 20
268.2248256565
 30
0.0
 10
80.5681157968
 20
268.3209852195
 30
0.0
  0
SPLINE
  5
314
100
AcDbEntity
  8
0
100
AcDbSpline
 62
7
  6
CONTINUOUS
 70
0
 71
3
 72
14
 73
10
 74
0
 42
0.0000001
 43
0.0000001
 44
0.0000000001
 40
0.0
 40
0.0
 40
0.0
 40
0.0
 40
0.2892820218
 40
0.4225404569
 40
0.548498011
 40
0.6678964344
 40
0.7818698289
 40
0.8919530438
 40
1.0
 40
1.0
 40
1.0
 40
1.0
 10
102.8773001514
 20
291.4891920665
 30
0.0
 10
103.294312547
 20
291.2484352943
 30
0.0
 10
103.8783080812
 20
290.8463584098
 30
0.0
 10
104.5390255644
 20
290.2140081189
 30
0.0
 10
104.9411466522
 20
289.7265734944
 30
0.0
 10
105.2590524372
 20
289.2177063216
 30
0.0
 10
105.4891776289
 20
288.6919098051
 30
0.0
 10
105.6285514859
 20
288.1545359424
 30
0.0
 10
105.6598116571
 20
287.7907211795
 30
0.0
 10
105.6598033354
 20
287.6108726179
 30
0.0
  0
SPLINE
  5
315
100
AcDbEntity
  8
0
100
AcDbSpline
 62
7
  6
CONTINUOUS
 70
0
 71
3
 72
11
 73
7
 74
0
 42
0.0000001
 43
0.0000001
 44
0.0000000001
 40
0.0
 40
0.0
 40
0.0
 40
0.0
 40
0.2897933785
 40
0.5490611793
 40
0.7822321444
 40
1.0
 40
1.0
 40
1.0
 40
1.0
 10
80.5681157968
 20
268.3209852195
 30
0.0
 10
80.4693556267
 20
268.3780031403
 30
0.0
 10
80.2902072147
 20
268.5013260433
 30
0.0
 10
80.0761947927
 20
268.7263648871
 30
0.0
 10
79.9407368717
 20
268.9751918312
 30
0.0
 10
79.9091156482
 20
269.1538398492
 30
0.0
 10
79.9091070155
 20
269.2395345675
 30
0.0
  0
SPLINE
  5
316
100
AcDbEntity
  8
0
100
AcDbSpline
 62
7
  6
CONTINUOUS
 70
0
 71
3
 72
14
 73
10
 74
0
 42
0.0000001
 43
0.0000001
 44
0.0000000001
 40
0.0
 40
0.0
 40
0.0
 40
0.0
 40
0.1080462317
 40
0.2181297577
 40
0.3321029665
 40
0.4515002196
 40
0.5774602842
 40
0.7107186647
 40
1.0
 40
1.0
 40
1.0
 40
1.0
 10
84.4098300503
 20
276.9963411805
 30
0.0
 10
84.4098294985
 20
276.7738983525
 30
0.0
 10
84.4484546721
 20
276.3239150561
 30
0.0
 10
84.6208705142
 20
275.659274469
 30
0.0
 10
84.9054927927
 20
275.0089502178
 30
0.0
 10
85.2986774708
 20
274.3795479932
 30
0.0
 10
85.7960562511
 20
273.7766794519
 30
0.0
 10
86.6132544517
 20
272.9945527542
 30
0.0
 10
87.3355662391
 20
272.4972498417
 30
0.0
 10
87.8513436106
 20
272.199472374
 30
0.0
  0
SPLINE
  5
317
100
AcDbEntity
  8
0
100
AcDbSpline
 62
7
  6
CONTINUOUS
 70
0
 71
3
 72
14
 73
10
 74
0
 42
0.0000001
 43
0.0000001
 44
0.0000000001
 40
0.0
 40
0.0
 40
0.0
 40
0.0
 40
0.2929937726
 40
0.4285853769
 40
0.5564621088
 40
0.6767671068
 40
0.7900406293
 40
0.8973123324
 40
1.0
 40
1.0
 40
1.0
 40
1.0
 10
89.7593842585
 20
263.7234788732
 30
0.0
 10
89.1135386665
 20
263.9732783258
 30
0.0
 10
88.1918228766
 20
264.4089893741
 30
0.0
 10
87.0931575013
 20
265.1350512336
 30
0.0
 10
86.3911960374
 20
265.7124890884
 30
0.0
 10
85.7982936213
 20
266.3305606592
 30
0.0
 10
85.3212114317
 20
266.9830761744
 30
0.0
 10
84.9662671238
 20
267.662945757
 30
0.0
 10
84.8117806612
 20
268.1376087296
 30
0.0
 10
84.7579016536
 20
268.3742479499
 30
0.0
  0
SPLINE
  5
318
100
AcDbEntity
  8
0
100
AcDbSpline
 62
7
  6
CONTINUOUS
 70
0
 71
3
 72
15
 73
11
 74
0
 42
0.0000001
 43
0.0000001
 44
0.0000000001
 40
0.0
 40
0.0
 40
0.0
 40
0.0
 40
0.0869258731
 40
0.1863900355
 40
0.3037775758
 40
0.4375856292
 40
0.582082136
 40
0.7293904368
 40
0.8711742898
 40
1.0
 40
1.0
 40
1.0
 40
1.0
 10
92.3248461294
 20
286.1888584187
 30
0.0
 10
92.3248456037
 20
286.1600220618
 30
0.0
 10
92.3422448252
 20
286.0976212918
 30
0.0
 10
92.4102630595
 20
286.0202750614
 30
0.0
 10
92.5106558314
 20
285.9590973867
 30
0.0
 10
92.6359940999
 20
285.9172138511
 30
0.0
 10
92.7764983174
 20
285.8974826421
 30
0.0
 10
92.9209730961
 20
285.9014584541
 30
0.0
 10
93.0575554069
 20
285.9287977687
 30
0.0
 10
93.1413699138
 20
285.9633701245
 30
0.0
 10
93.1783804312
 20
285.9847380292
 30
0.0
  0
SPLINE
  5
319
100
AcDbEntity
  8
0
100
AcDbSpline
 62
7
  6
CONTINUOUS
 70
0
 71
3
 72
11
 73
7
 74
0
 42
0.0000001
 43
0.0000001
 44
0.0000000001
 40
0.0
 40
0.0
 40
0.0
 40
0.0
 40
0.2895468475
 40
0.5491384346
 40
0.782278826
 40
1.0
 40
1.0
 40
1.0
 40
1.0
 10
102.1716665082
 20
283.6614614244
 30
0.0
 10
102.1935935522
 20
283.6741209337
 30
0.0
 10
102.2333843722
 20
283.7015581044
 30
0.0
 10
102.2809828686
 20
283.751528065
 30
0.0
 10
102.3110904062
 20
283.8068494583
 30
0.0
 10
102.3180907378
 20
283.8465433812
 30
0.0
 10
102.3180910848
 20
283.8655817894
 30
0.0
  0
SPLINE
  5
31A
100
AcDbEntity
  8
0
100
AcDbSpline
 62
7
  6
CONTINUOUS
 70
0
 71
3
 72
15
 73
11
 74
0
 42
0.0000001
 43
0.0000001
 44
0.0000000001
 40
0.0
 40
0.0
 40
0.0
 40
0.0
 40
0.0869258731
 40
0.1863900355
 40
0.3037775758
 40
0.4375856292
 40
0.582082136
 40
0.7293904368
 40
0.8711742898
 40
1.0
 40
1.0
 40
1.0
 40
1.0
 10
90.1430019466
 20
284.3287783984
 30
0.0
 10
90.1430014209
 20
284.2999420415
 30
0.0
 10
90.1604006424
 20
284.2375412715
 30
0.0
 10
90.2284188767
 20
284.1601950411
 30
0.0
 10
90.3288116486
 20
284.0990173664
 30
0.0
 10
90.4541499171
 20
284.0571338308
 30
0.0
 10
90.5946541346
 20
284.0374026218
 30
0.0
 10
90.7391289133
 20
284.0413784338
 30
0.0
 10
90.8757112241
 20
284.0687177484
 30
0.0
 10
90.959525731
 20
284.1032901042
 30
0.0
 10
90.9965362484
 20
284.1246580089
 30
0.0
  0
SPLINE
  5
31B
100
AcDbEntity
  8
0
100
AcDbSpline
 62
7
  6
CONTINUOUS
 70
0
 71
3
 72
15
 73
11
 74
0
 42
0.0000001
 43
0.0000001
 44
0.0000000001
 40
0.0
 40
0.0
 40
0.0
 40
0.0
 40
0.0869258731
 40
0.1863900355
 40
0.3037775758
 40
0.4375856292
 40
0.582082136
 40
0.7293904368
 40
0.8711742898
 40
1.0
 40
1.0
 40
1.0
 40
1.0
 10
96.0671683221
 20
286.8040619094
 30
0.0
 10
96.0671677965
 20
286.7752255524
 30
0.0
 10
96.084567018
 20
286.7128247824
 30
0.0
 10
96.1525852522
 20
286.635478552
 30
0.0
 10
96.2529780242
 20
286.5743008774
 30
0.0
 10
96.3783162927
 20
286.5324173418
 30
0.0
 10
96.5188205102
 20
286.5126861328
 30
0.0
 10
96.6632952888
 20
286.5166619448
 30
0.0
 10
96.7998775996
 20
286.5440012593
 30
0.0
 10
96.8836921065
 20
286.5785736152
 30
0.0
 10
96.9207026239
 20
286.5999415198
 30
0.0
  0
SPLINE
  5
31C
100
AcDbEntity
  8
0
100
AcDbSpline
 62
7
  6
CONTINUOUS
 70
0
 71
3
 72
11
 73
7
 74
0
 42
0.0000001
 43
0.0000001
 44
0.0000000001
 40
0.0
 40
0.0
 40
0.0
 40
0.0
 40
0.2898002934
 40
0.5490499699
 40
0.7822286378
 40
1.0
 40
1.0
 40
1.0
 40
1.0
 10
83.7500963121
 20
270.1989484274
 30
0.0
 10
83.8488575364
 20
270.2559679065
 30
0.0
 10
84.0280041816
 20
270.3792835168
 30
0.0
 10
84.2420034632
 20
270.6043283897
 30
0.0
 10
84.3774692472
 20
270.853142032
 30
0.0
 10
84.4090994286
 20
271.0317947997
 30
0.0
 10
84.4090994305
 20
271.1174901251
 30
0.0
  0
SPLINE
  5
31D
100
AcDbEntity
  8
0
100
AcDbSpline
 62
7
  6
CONTINUOUS
 70
0
 71
3
 72
13
 73
9
 74
0
 42
0.0000001
 43
0.0000001
 44
0.0000000001
 40
0.0
 40
0.0
 40
0.0
 40
0.0
 40
0.1142562435
 40
0.2375377784
 40
0.5000005226
 40
0.7624629807
 40
0.8857441816
 40
1.0
 40
1.0
 40
1.0
 40
1.0
 10
80.5681157968
 20
270.1989407789
 30
0.0
 10
80.6770317795
 20
270.1360595295
 30
0.0
 10
80.9152066439
 20
270.0251315827
 30
0.0
 10
81.443087336
 20
269.8648338433
 30
0.0
 10
82.1591085469
 20
269.7869236177
 30
0.0
 10
82.8751290692
 20
269.8648371539
 30
0.0
 10
83.4030077832
 20
270.0251374901
 30
0.0
 10
83.641181188
 20
270.1360666266
 30
0.0
 10
83.7500963121
 20
270.1989484274
 30
0.0
  0
SPLINE
  5
31E
100
AcDbEntity
  8
0
100
AcDbSpline
 62
7
  6
CONTINUOUS
 70
0
 71
3
 72
21
 73
17
 74
0
 42
0.0000001
 43
0.0000001
 44
0.0000000001
 40
0.0
 40
0.0
 40
0.0
 40
0.0
 40
0.0604047207
 40
0.1144554927
 40
0.1630583399
 40
0.2084539169
 40
0.2538482643
 40
0.3024555349
 40
0.3564975202
 40
0.4169079394
 40
0.4835290862
 40
0.5554126383
 40
0.7084492893
 40
0.861487024
 40
0.9333831524
 40
1.0
 40
1.0
 40
1.0
 40
1.0
 10
83.6086743671
 20
270.4438970618
 30
0.0
 10
83.6986480895
 20
270.4958431046
 30
0.0
 10
83.8618633453
 20
270.6082273628
 30
0.0
 10
84.0568630318
 20
270.8131846573
 30
0.0
 10
84.1802543391
 20
271.0401051389
 30
0.0
 10
84.2230074878
 20
271.2807872944
 30
0.0
 10
84.180258153
 20
271.5214844329
 30
0.0
 10
84.0568591231
 20
271.7483732307
 30
0.0
 10
83.8618221414
 20
271.9533878473
 30
0.0
 10
83.6038636018
 20
272.1310162119
 30
0.0
 10
83.292499867
 20
272.2760035937
 30
0.0
 10
82.8114420965
 20
272.4221104792
 30
0.0
 10
82.159135621
 20
272.4930609867
 30
0.0
 10
81.5067273253
 20
272.4221093579
 30
0.0
 10
81.0257697939
 20
272.2760357494
 30
0.0
 10
80.8087512711
 20
272.1749724198
 30
0.0
 10
80.7095244939
 20
272.1176841553
 30
0.0
  0
SPLINE
  5
31F
100
AcDbEntity
  8
0
100
AcDbSpline
 62
7
  6
CONTINUOUS
 70
0
 71
3
 72
21
 73
17
 74
0
 42
0.0000001
 43
0.0000001
 44
0.0000000001
 40
0.0
 40
0.0
 40
0.0
 40
0.0
 40
0.0590178302
 40
0.1118268811
 40
0.1596089515
 40
0.204756145
 40
0.2504746832
 40
0.2997839832
 40
0.3546588045
 40
0.4158468364
 40
0.4830867193
 40
0.5553905846
 40
0.7087246982
 40
0.8616194838
 40
0.9334221788
 40
1.0
 40
1.0
 40
1.0
 40
1.0
 10
80.6465195953
 20
272.0796441349
 30
0.0
 10
80.5619054062
 20
272.0262210705
 30
0.0
 10
80.4092644245
 20
271.9114795829
 30
0.0
 10
80.2310063194
 20
271.7044932296
 30
0.0
 10
80.1240803495
 20
271.4775839919
 30
0.0
 10
80.0968518418
 20
271.2394607358
 30
0.0
 10
80.1523807838
 20
271.0038556329
 30
0.0
 10
80.284918719
 20
270.7831062863
 30
0.0
 10
80.4859061143
 20
270.5843141753
 30
0.0
 10
80.7470138346
 20
270.4127514297
 30
0.0
 10
81.058936051
 20
270.2734687315
 30
0.0
 10
81.5369644488
 20
270.1344549336
 30
0.0
 10
82.1812942709
 20
270.0693515431
 30
0.0
 10
82.8240833953
 20
270.142421873
 30
0.0
 10
83.2973271349
 20
270.2876629918
 30
0.0
 10
83.5109118419
 20
270.3874541785
 30
0.0
 10
83.6086743671
 20
270.4438970618
 30
0.0
  0
SPLINE
  5
320
100
AcDbEntity
  8
0
100
AcDbSpline
 62
7
  6
CONTINUOUS
 70
0
 71
3
 72
11
 73
7
 74
0
 42
0.0000001
 43
0.0000001
 44
0.0000000001
 40
0.0
 40
0.0
 40
0.0
 40
0.0
 40
0.2895468475
 40
0.5491384346
 40
0.782278826
 40
1.0
 40
1.0
 40
1.0
 40
1.0
 10
98.5901114037
 20
283.002976849
 30
0.0
 10
98.6120384477
 20
283.0156363582
 30
0.0
 10
98.6518292677
 20
283.0430735289
 30
0.0
 10
98.6994277642
 20
283.0930434896
 30
0.0
 10
98.7295353018
 20
283.1483648829
 30
0.0
 10
98.7365356334
 20
283.1880588057
 30
0.0
 10
98.7365359804
 20
283.207097214
 30
0.0
  0
SPLINE
  5
321
100
AcDbEntity
  8
0
100
AcDbSpline
 62
7
  6
CONTINUOUS
 70
0
 71
3
 72
9
 73
5
 74
0
 42
0.0000001
 43
0.0000001
 44
0.0000000001
 40
0.0
 40
0.0
 40
0.0
 40
0.0
 40
0.5144295811
 40
1.0
 40
1.0
 40
1.0
 40
1.0
 10
90.5122292771
 20
271.2126878822
 30
0.0
 10
90.0693772935
 20
271.356827321
 30
0.0
 10
89.2206519312
 20
271.6763109982
 30
0.0
 10
88.4088198549
 20
272.0817409728
 30
0.0
 10
88.0281195699
 20
272.3015334125
 30
0.0
  0
SPLINE
  5
322
100
AcDbEntity
  8
0
100
AcDbSpline
 62
7
  6
CONTINUOUS
 70
0
 71
3
 72
14
 73
10
 74
0
 42
0.0000001
 43
0.0000001
 44
0.0000000001
 40
0.0
 40
0.0
 40
0.0
 40
0.0
 40
0.1080462897
 40
0.2181298432
 40
0.3321030419
 40
0.4515002712
 40
0.5774603121
 40
0.7107186508
 40
1.0
 40
1.0
 40
1.0
 40
1.0
 10
84.6598297272
 20
285.161365352
 30
0.0
 10
84.659829183
 20
284.943655233
 30
0.0
 10
84.6976325203
 20
284.5032458679
 30
0.0
 10
84.8663801081
 20
283.8527464521
 30
0.0
 10
85.1449466091
 20
283.2162589125
 30
0.0
 10
85.5297656556
 20
282.6002483579
 30
0.0
 10
86.0165618326
 20
282.0102069813
 30
0.0
 10
86.8163727342
 20
281.2447213201
 30
0.0
 10
87.5233161605
 20
280.7579993748
 30
0.0
 10
88.0281195699
 20
280.4665575838
 30
0.0
  0
SPLINE
  5
323
100
AcDbEntity
  8
0
100
AcDbSpline
 62
7
  6
CONTINUOUS
 70
0
 71
3
 72
11
 73
7
 74
0
 42
0.0000001
 43
0.0000001
 44
0.0000000001
 40
0.0
 40
0.0
 40
0.0
 40
0.0
 40
0.2895468475
 40
0.5491384346
 40
0.782278826
 40
1.0
 40
1.0
 40
1.0
 40
1.0
 10
99.5539150605
 20
285.0796900034
 30
0.0
 10
99.5758421045
 20
285.0923495126
 30
0.0
 10
99.6156329245
 20
285.1197866833
 30
0.0
 10
99.6632314209
 20
285.169756644
 30
0.0
 10
99.6933389585
 20
285.2250780373
 30
0.0
 10
99.7003392901
 20
285.2647719602
 30
0.0
 10
99.7003396371
 20
285.2838103684
 30
0.0
  0
SPLINE
  5
324
100
AcDbEntity
  8
0
100
AcDbSpline
 62
7
  6
CONTINUOUS
 70
0
 71
3
 72
15
 73
11
 74
0
 42
0.0000001
 43
0.0000001
 44
0.0000000001
 40
0.0
 40
0.0
 40
0.0
 40
0.0
 40
0.1018058688
 40
0.2067301997
 40
0.3174450505
 40
0.4358999449
 40
0.563251325
 40
0.6999258343
 40
0.8457360173
 40
1.0
 40
1.0
 40
1.0
 40
1.0
 10
107.4097981286
 20
285.161365354
 30
0.0
 10
107.4097978024
 20
284.8876107325
 30
0.0
 10
107.347932665
 20
284.3299276101
 30
0.0
 10
107.0737940194
 20
283.5155089352
 30
0.0
 10
106.6250988225
 20
282.7313154963
 30
0.0
 10
106.0113601296
 20
281.9895983228
 30
0.0
 10
105.2434712139
 20
281.3005416111
 30
0.0
 10
104.3338015898
 20
280.6738065623
 30
0.0
 10
103.2966525244
 20
280.1184390897
 30
0.0
 10
102.5498898434
 20
279.8091437313
 30
0.0
 10
102.1601009837
 20
279.6672454424
 30
0.0
  0
SPLINE
  5
325
100
AcDbEntity
  8
0
100
AcDbSpline
 62
7
  6
CONTINUOUS
 70
0
 71
3
 72
11
 73
7
 74
0
 42
0.0000001
 43
0.0000001
 44
0.0000000001
 40
0.0
 40
0.0
 40
0.0
 40
0.0
 40
0.2662155994
 40
0.5253323368
 40
0.7715078594
 40
1.0
 40
1.0
 40
1.0
 40
1.0
 10
95.9203800058
 20
278.6677465695
 30
0.0
 10
95.2084171465
 20
278.6764896345
 30
0.0
 10
93.8031489885
 20
278.7704800612
 30
0.0
 10
91.7682660238
 20
279.1393096801
 30
0.0
 10
89.8889664005
 20
279.7219026357
 30
0.0
 10
88.7341456145
 20
280.2630628556
 30
0.0
 10
88.2048955292
 20
280.5686186223
 30
0.0
  0
SPLINE
  5
326
100
AcDbEntity
  8
0
100
AcDbSpline
 62
7
  6
CONTINUOUS
 70
0
 71
3
 72
14
 73
10
 74
0
 42
0.0000001
 43
0.0000001
 44
0.0000000001
 40
0.0
 40
0.0
 40
0.0
 40
0.0
 40
0.1080463396
 40
0.2181299137
 40
0.3321030983
 40
0.4515003041
 40
0.5774603201
 40
0.7107186209
 40
1.0
 40
1.0
 40
1.0
 40
1.0
 10
84.9098294098
 20
287.6108726034
 30
0.0
 10
84.9098288646
 20
287.3978952147
 30
0.0
 10
84.9468103936
 20
286.9670598216
 30
0.0
 10
85.111889662
 20
286.3307016097
 30
0.0
 10
85.384400374
 20
285.7080507958
 30
0.0
 10
85.7608537855
 20
285.1054319177
 30
0.0
 10
86.237067331
 20
284.5282176659
 30
0.0
 10
87.0194909635
 20
283.779373012
 30
0.0
 10
87.7110660559
 20
283.303232003
 30
0.0
 10
88.2048955292
 20
283.0181258736
 30
0.0
  0
SPLINE
  5
327
100
AcDbEntity
  8
0
100
AcDbSpline
 62
7
  6
CONTINUOUS
 70
0
 71
3
 72
11
 73
7
 74
0
 42
0.0000001
 43
0.0000001
 44
0.0000000001
 40
0.0
 40
0.0
 40
0.0
 40
0.0
 40
0.2895468475
 40
0.5491384346
 40
0.782278826
 40
1.0
 40
1.0
 40
1.0
 40
1.0
 10
94.9930953104
 20
282.446515211
 30
0.0
 10
95.0150223545
 20
282.4591747202
 30
0.0
 10
95.0548131744
 20
282.4866118909
 30
0.0
 10
95.1024116709
 20
282.5365818516
 30
0.0
 10
95.1325192085
 20
282.5919032448
 30
0.0
 10
95.1395195401
 20
282.6315971677
 30
0.0
 10
95.1395198871
 20
282.6506355759
 30
0.0
  0
SPLINE
  5
328
100
AcDbEntity
  8
0
100
AcDbSpline
 62
7
  6
CONTINUOUS
 70
0
 71
3
 72
23
 73
19
 74
0
 42
0.0000001
 43
0.0000001
 44
0.0000000001
 40
0.0
 40
0.0
 40
0.0
 40
0.0
 40
0.0428137266
 40
0.0873950035
 40
0.1351772872
 40
0.1870861402
 40
0.2435326078
 40
0.3044901477
 40
0.3695883203
 40
0.4381966675
 40
0.5094946866
 40
0.5825308235
 40
0.6562744106
 40
0.729663534
 40
0.8016518602
 40
0.8712561249
 40
0.9376063732
 40
1.0
 40
1.0
 40
1.0
 40
1.0
 10
86.6598240603
 20
287.6108725915
 30
0.0
 10
86.6598365738
 20
287.881312532
 30
0.0
 10
86.732123181
 20
288.4357084982
 30
0.0
 10
87.0500828821
 20
289.2362045856
 30
0.0
 10
87.5660064376
 20
289.9950640398
 30
0.0
 10
88.2652799614
 20
290.6972762123
 30
0.0
 10
89.1317725288
 20
291.3304356798
 30
0.0
 10
90.1470369728
 20
291.882631319
 30
0.0
 10
91.2898094725
 20
292.343016192
 30
0.0
 10
92.5360809353
 20
292.7021928207
 30
0.0
 10
93.8595047564
 20
292.9526709782
 30
0.0
 10
95.2319662194
 20
293.089158958
 30
0.0
 10
96.62421977
 20
293.108754071
 30
0.0
 10
98.0065714353
 20
293.0110375515
 30
0.0
 10
99.3495289993
 20
292.798096272
 30
0.0
 10
100.624606359
 20
292.4744067893
 30
0.0
 10
101.8045306174
 20
292.0468883672
 30
0.0
 10
102.5359806363
 20
291.6862485224
 30
0.0
 10
102.8773001514
 20
291.4891920665
 30
0.0
  0
SPLINE
  5
329
100
AcDbEntity
  8
0
100
AcDbSpline
 62
7
  6
CONTINUOUS
 70
0
 71
3
 72
11
 73
7
 74
0
 42
0.0000001
 43
0.0000001
 44
0.0000000001
 40
0.0
 40
0.0
 40
0.0
 40
0.0
 40
0.2895468475
 40
0.5491384346
 40
0.782278826
 40
1.0
 40
1.0
 40
1.0
 40
1.0
 10
95.9568989672
 20
284.5232283654
 30
0.0
 10
95.9788260112
 20
284.5358878746
 30
0.0
 10
96.0186168312
 20
284.5633250453
 30
0.0
 10
96.0662153277
 20
284.613295006
 30
0.0
 10
96.0963228652
 20
284.6686163992
 30
0.0
 10
96.1033231968
 20
284.7083103221
 30
0.0
 10
96.1033235439
 20
284.7273487304
 30
0.0
  0
SPLINE
  5
32A
100
AcDbEntity
  8
0
100
AcDbSpline
 62
7
  6
CONTINUOUS
 70
0
 71
3
 72
15
 73
11
 74
0
 42
0.0000001
 43
0.0000001
 44
0.0000000001
 40
0.0
 40
0.0
 40
0.0
 40
0.0
 40
0.0869258731
 40
0.1863900355
 40
0.3037775758
 40
0.4375856292
 40
0.582082136
 40
0.7293904368
 40
0.8711742898
 40
1.0
 40
1.0
 40
1.0
 40
1.0
 10
95.1033646654
 20
284.7273487549
 30
0.0
 10
95.1033641397
 20
284.698512398
 30
0.0
 10
95.1207633612
 20
284.636111628
 30
0.0
 10
95.1887815955
 20
284.5587653976
 30
0.0
 10
95.2891743674
 20
284.4975877229
 30
0.0
 10
95.4145126359
 20
284.4557041873
 30
0.0
 10
95.5550168534
 20
284.4359729783
 30
0.0
 10
95.6994916321
 20
284.4399487903
 30
0.0
 10
95.8360739429
 20
284.4672881049
 30
0.0
 10
95.9198884498
 20
284.5018604607
 30
0.0
 10
95.9568989672
 20
284.5232283654
 30
0.0
  0
SPLINE
  5
32B
100
AcDbEntity
  8
0
100
AcDbSpline
 62
7
  6
CONTINUOUS
 70
0
 71
3
 72
15
 73
11
 74
0
 42
0.0000001
 43
0.0000001
 44
0.0000000001
 40
0.0
 40
0.0
 40
0.0
 40
0.0
 40
0.0869258731
 40
0.1863900355
 40
0.3037775758
 40
0.4375856292
 40
0.582082136
 40
0.7293904368
 40
0.8711742898
 40
1.0
 40
1.0
 40
1.0
 40
1.0
 10
101.3181322063
 20
283.865581814
 30
0.0
 10
101.3181316807
 20
283.836745457
 30
0.0
 10
101.3355309022
 20
283.7743446871
 30
0.0
 10
101.4035491365
 20
283.6969984566
 30
0.0
 10
101.5039419084
 20
283.635820782
 30
0.0
 10
101.6292801769
 20
283.5939372464
 30
0.0
 10
101.7697843944
 20
283.5742060374
 30
0.0
 10
101.9142591731
 20
283.5781818494
 30
0.0
 10
102.0508414839
 20
283.6055211639
 30
0.0
 10
102.1346559907
 20
283.6400935198
 30
0.0
 10
102.1716665082
 20
283.6614614244
 30
0.0
  0
SPLINE
  5
32C
100
AcDbEntity
  8
0
100
AcDbSpline
 62
7
  6
CONTINUOUS
 70
0
 71
3
 72
11
 73
7
 74
0
 42
0.0000001
 43
0.0000001
 44
0.0000000001
 40
0.0
 40
0.0
 40
0.0
 40
0.0
 40
0.2895468475
 40
0.5491384346
 40
0.782278826
 40
1.0
 40
1.0
 40
1.0
 40
1.0
 10
96.9207026239
 20
286.5999415198
 30
0.0
 10
96.942629668
 20
286.612601029
 30
0.0
 10
96.9824204879
 20
286.6400381997
 30
0.0
 10
97.0300189844
 20
286.6900081604
 30
0.0
 10
97.060126522
 20
286.7453295537
 30
0.0
 10
97.0671268536
 20
286.7850234765
 30
0.0
 10
97.0671272006
 20
286.8040618848
 30
0.0
  0
SPLINE
  5
32D
100
AcDbEntity
  8
0
100
AcDbSpline
 62
7
  6
CONTINUOUS
 70
0
 71
3
 72
11
 73
7
 74
0
 42
0.0000001
 43
0.0000001
 44
0.0000000001
 40
0.0
 40
0.0
 40
0.0
 40
0.0
 40
0.2895468475
 40
0.5491384346
 40
0.782278826
 40
1.0
 40
1.0
 40
1.0
 40
1.0
 10
90.9965362484
 20
284.1246580089
 30
0.0
 10
91.0184632924
 20
284.1373175181
 30
0.0
 10
91.0582541124
 20
284.1647546888
 30
0.0
 10
91.1058526089
 20
284.2147246495
 30
0.0
 10
91.1359601464
 20
284.2700460427
 30
0.0
 10
91.142960478
 20
284.3097399656
 30
0.0
 10
91.1429608251
 20
284.3287783739
 30
0.0
  0
SPLINE
  5
32E
100
AcDbEntity
  8
0
100
AcDbSpline
 62
7
  6
CONTINUOUS
 70
0
 71
3
 72
15
 73
11
 74
0
 42
0.0000001
 43
0.0000001
 44
0.0000000001
 40
0.0
 40
0.0
 40
0.0
 40
0.0
 40
0.0869258731
 40
0.1863900355
 40
0.3037775758
 40
0.4375856292
 40
0.582082136
 40
0.7293904368
 40
0.8711742898
 40
1.0
 40
1.0
 40
1.0
 40
1.0
 10
97.7365771019
 20
283.2070972385
 30
0.0
 10
97.7365765763
 20
283.1782608816
 30
0.0
 10
97.7539757977
 20
283.1158601116
 30
0.0
 10
97.821994032
 20
283.0385138812
 30
0.0
 10
97.9223868039
 20
282.9773362066
 30
0.0
 10
98.0477250724
 20
282.9354526709
 30
0.0
 10
98.1882292899
 20
282.9157214619
 30
0.0
 10
98.3327040686
 20
282.919697274
 30
0.0
 10
98.4692863794
 20
282.9470365885
 30
0.0
 10
98.5531008863
 20
282.9816089444
 30
0.0
 10
98.5901114037
 20
283.002976849
 30
0.0
  0
SPLINE
  5
32F
100
AcDbEntity
  8
0
100
AcDbSpline
 62
7
  6
CONTINUOUS
 70
0
 71
3
 72
14
 73
10
 74
0
 42
0.0000001
 43
0.0000001
 44
0.0000000001
 40
0.0
 40
0.0
 40
0.0
 40
0.0
 40
0.2892808347
 40
0.4225388232
 40
0.5484987498
 40
0.6678958445
 40
0.7818691687
 40
0.891953148
 40
1.0
 40
1.0
 40
1.0
 40
1.0
 10
88.2048955292
 20
280.5686186223
 30
0.0
 10
87.7110669658
 20
280.8537242263
 30
0.0
 10
87.0194929792
 20
281.3298639582
 30
0.0
 10
86.2370707451
 20
282.0787073387
 30
0.0
 10
85.7608563758
 20
282.6559196228
 30
0.0
 10
85.3844028397
 20
283.2585384124
 30
0.0
 10
85.1118915394
 20
283.8811897885
 30
0.0
 10
84.9468095377
 20
284.517549599
 30
0.0
 10
84.9098290134
 20
284.9483869456
 30
0.0
 10
84.9098292672
 20
285.1613653526
 30
0.0
  0
SPLINE
  5
330
100
AcDbEntity
  8
0
100
AcDbSpline
 62
7
  6
CONTINUOUS
 70
0
 71
3
 72
11
 73
7
 74
0
 42
0.0000001
 43
0.0000001
 44
0.0000000001
 40
0.0
 40
0.0
 40
0.0
 40
0.0
 40
0.2895468475
 40
0.5491384346
 40
0.782278826
 40
1.0
 40
1.0
 40
1.0
 40
1.0
 10
93.1783804312
 20
285.9847380292
 30
0.0
 10
93.2003074752
 20
285.9973975384
 30
0.0
 10
93.2400982952
 20
286.0248347091
 30
0.0
 10
93.2876967917
 20
286.0748046698
 30
0.0
 10
93.3178043292
 20
286.130126063
 30
0.0
 10
93.3248046608
 20
286.1698199859
 30
0.0
 10
93.3248050079
 20
286.1888583941
 30
0.0
  0
SPLINE
  5
331
100
AcDbEntity
  8
0
100
AcDbSpline
 62
7
  6
CONTINUOUS
 70
0
 71
3
 72
9
 73
5
 74
0
 42
0.0000001
 43
0.0000001
 44
0.0000000001
 40
0.0
 40
0.0
 40
0.0
 40
0.0
 40
0.4853326344
 40
1.0
 40
1.0
 40
1.0
 40
1.0
 10
87.8513436106
 20
272.199472374
 30
0.0
 10
88.2486888709
 20
271.9700701708
 30
0.0
 10
89.0970521201
 20
271.547754203
 30
0.0
 10
89.9844193512
 20
271.2169165762
 30
0.0
 10
90.4476579636
 20
271.0681381751
 30
0.0
  0
SPLINE
  5
332
100
AcDbEntity
  8
0
100
AcDbSpline
 62
7
  6
CONTINUOUS
 70
0
 71
3
 72
15
 73
11
 74
0
 42
0.0000001
 43
0.0000001
 44
0.0000000001
 40
0.0
 40
0.0
 40
0.0
 40
0.0
 40
0.0869258731
 40
0.1863900355
 40
0.3037775758
 40
0.4375856292
 40
0.582082136
 40
0.7293904368
 40
0.8711742898
 40
1.0
 40
1.0
 40
1.0
 40
1.0
 10
98.7003807586
 20
285.283810393
 30
0.0
 10
98.700380233
 20
285.254974036
 30
0.0
 10
98.7177794545
 20
285.1925732661
 30
0.0
 10
98.7857976888
 20
285.1152270356
 30
0.0
 10
98.8861904607
 20
285.054049361
 30
0.0
 10
99.0115287292
 20
285.0121658254
 30
0.0
 10
99.1520329467
 20
284.9924346164
 30
0.0
 10
99.2965077254
 20
284.9964104284
 30
0.0
 10
99.4330900362
 20
285.0237497429
 30
0.0
 10
99.516904543
 20
285.0583220988
 30
0.0
 10
99.5539150605
 20
285.0796900034
 30
0.0
  0
SPLINE
  5
333
100
AcDbEntity
  8
0
100
AcDbSpline
 62
7
  6
CONTINUOUS
 70
0
 71
3
 72
14
 73
10
 74
0
 42
0.0000001
 43
0.0000001
 44
0.0000000001
 40
0.0
 40
0.0
 40
0.0
 40
0.0
 40
0.289280801
 40
0.4225388303
 40
0.548498784
 40
0.6678959068
 40
0.7818692476
 40
0.8919532045
 40
1.0
 40
1.0
 40
1.0
 40
1.0
 10
88.0281195699
 20
272.3015334125
 30
0.0
 10
87.5233170975
 20
272.5929746626
 30
0.0
 10
86.8163748066
 20
273.0796953034
 30
0.0
 10
86.016565325
 20
273.8451796563
 30
0.0
 10
85.5297683045
 20
274.4352190456
 30
0.0
 10
85.1449491215
 20
275.0512295236
 30
0.0
 10
84.8663820054
 20
275.6877176459
 30
0.0
 10
84.6976316687
 20
276.3382186927
 30
0.0
 10
84.6598293314
 20
276.7786300345
 30
0.0
 10
84.659829585
 20
276.9963411812
 30
0.0
  0
SPLINE
  5
334
100
AcDbEntity
  8
0
100
AcDbSpline
 62
7
  6
CONTINUOUS
 70
0
 71
3
 72
15
 73
11
 74
0
 42
0.0000001
 43
0.0000001
 44
0.0000000001
 40
0.0
 40
0.0
 40
0.0
 40
0.0
 40
0.0869258731
 40
0.1863900355
 40
0.3037775758
 40
0.4375856292
 40
0.582082136
 40
0.7293904368
 40
0.8711742898
 40
1.0
 40
1.0
 40
1.0
 40
1.0
 10
94.1395610086
 20
282.6506356005
 30
0.0
 10
94.139560483
 20
282.6217992435
 30
0.0
 10
94.1569597045
 20
282.5593984736
 30
0.0
 10
94.2249779387
 20
282.4820522432
 30
0.0
 10
94.3253707107
 20
282.4208745685
 30
0.0
 10
94.4507089792
 20
282.3789910329
 30
0.0
 10
94.5912131967
 20
282.3592598239
 30
0.0
 10
94.7356879753
 20
282.3632356359
 30
0.0
 10
94.8722702861
 20
282.3905749505
 30
0.0
 10
94.956084793
 20
282.4251473063
 30
0.0
 10
94.9930953104
 20
282.446515211
 30
0.0
  0
SPLINE
  5
335
100
AcDbEntity
  8
0
100
AcDbSpline
 62
7
  6
CONTINUOUS
 70
0
 71
3
 72
9
 73
5
 74
0
 42
0.0000001
 43
0.0000001
 44
0.0000000001
 40
0.0
 40
0.0
 40
0.0
 40
0.0
 40
0.5035409473
 40
1.0
 40
1.0
 40
1.0
 40
1.0
 10
90.2298407054
 20
262.7516631019
 30
0.0
 10
90.173982357
 20
262.5641834851
 30
0.0
 10
90.0886738212
 20
262.1836459899
 30
0.0
 10
90.0598031611
 20
261.7946234037
 30
0.0
 10
90.0597942352
 20
261.6017506654
 30
0.0
  0
SPLINE
  5
336
100
AcDbEntity
  8
0
100
AcDbSpline
 62
7
  6
CONTINUOUS
 70
0
 71
3
 72
9
 73
5
 74
0
 42
0.0000001
 43
0.0000001
 44
0.0000000001
 40
0.0
 40
0.0
 40
0.0
 40
0.0
 40
0.5078021578
 40
1.0
 40
1.0
 40
1.0
 40
1.0
 10
90.6862753101
 20
271.8599812146
 30
0.0
 10
90.5646712539
 20
271.592383476
 30
0.0
 10
90.3753212214
 20
271.0404895153
 30
0.0
 10
90.309807023
 20
270.4599258962
 30
0.0
 10
90.3097939369
 20
270.1750260449
 30
0.0
  0
SPLINE
  5
337
100
AcDbEntity
  8
0
100
AcDbSpline
 62
7
  6
CONTINUOUS
 70
0
 71
3
 72
23
 73
19
 74
0
 42
0.0000001
 43
0.0000001
 44
0.0000000001
 40
0.0
 40
0.0
 40
0.0
 40
0.0
 40
0.0623921821
 40
0.1287433132
 40
0.1983464336
 40
0.2703343575
 40
0.3437240578
 40
0.4174689059
 40
0.4905058649
 40
0.5618044537
 40
0.6304130064
 40
0.6955110947
 40
0.7564683747
 40
0.8129145292
 40
0.8648231189
 40
0.9126052214
 40
0.9571863559
 40
1.0
 40
1.0
 40
1.0
 40
1.0
 10
109.587923705
 20
277.9317214149
 30
0.0
 10
109.192720874
 20
278.1598867139
 30
0.0
 10
108.3457809194
 20
278.5774634415
 30
0.0
 10
106.9795691502
 20
279.0724928221
 30
0.0
 10
105.5031660178
 20
279.4472791172
 30
0.0
 10
103.9481719568
 20
279.6938529675
 30
0.0
 10
102.3475434494
 20
279.8069939396
 30
0.0
 10
100.7354413712
 20
279.784308111
 30
0.0
 10
99.1462566282
 20
279.6262646147
 30
0.0
 10
97.6138602785
 20
279.3362339283
 30
0.0
 10
96.1708052193
 20
278.9203415252
 30
0.0
 10
94.8475969285
 20
278.3872629953
 30
0.0
 10
93.672032856
 20
277.7478797339
 30
0.0
 10
92.6687310394
 20
277.0147510156
 30
0.0
 10
91.8590504537
 20
276.2016677817
 30
0.0
 10
91.2616644706
 20
275.3229927299
 30
0.0
 10
90.8935088188
 20
274.3961064451
 30
0.0
 10
90.8097860415
 20
273.7541760339
 30
0.0
 10
90.8097863172
 20
273.4410357226
 30
0.0
  0
SPLINE
  5
338
100
AcDbEntity
  8
0
100
AcDbSpline
 62
7
  6
CONTINUOUS
 70
0
 71
3
 72
22
 73
18
 74
0
 42
0.0000001
 43
0.0000001
 44
0.0000000001
 40
0.0
 40
0.0
 40
0.0
 40
0.0
 40
0.0623990858
 40
0.1287612932
 40
0.1983726619
 40
0.2703705519
 40
0.4173906053
 40
0.4904374903
 40
0.5617459069
 40
0.6303639194
 40
0.695470839
 40
0.7564362235
 40
0.8128897769
 40
0.8648051399
 40
0.9125935186
 40
0.9571805446
 40
1.0
 40
1.0
 40
1.0
 40
1.0
 10
108.3505464533
 20
269.664808743
 30
0.0
 10
108.018224916
 20
269.4729439593
 30
0.0
 10
107.3060131693
 20
269.1217971077
 30
0.0
 10
106.1571831145
 20
268.7055137562
 30
0.0
 10
104.9155488716
 20
268.3903192717
 30
0.0
 10
103.1607245821
 20
268.1121763769
 30
0.0
 10
101.3548096271
 20
268.062438876
 30
0.0
 10
99.570128897
 20
268.2397828513
 30
0.0
 10
98.2813998427
 20
268.4837032769
 30
0.0
 10
97.0679414579
 20
268.8334192613
 30
0.0
 10
95.9552311945
 20
269.2816946641
 30
0.0
 10
94.9666895254
 20
269.819361418
 30
0.0
 10
94.1230051544
 20
270.4358599795
 30
0.0
 10
93.4421405463
 20
271.1195911603
 30
0.0
 10
92.9397915348
 20
271.8584781831
 30
0.0
 10
92.6302133952
 20
272.6379053088
 30
0.0
 10
92.5597808836
 20
273.1777118142
 30
0.0
 10
92.5597980233
 20
273.4410356182
 30
0.0
  0
SPLINE
  5
339
100
AcDbEntity
  8
0
100
AcDbSpline
 62
7
  6
CONTINUOUS
 70
0
 71
3
 72
11
 73
7
 74
0
 42
0.0000001
 43
0.0000001
 44
0.0000000001
 40
0.0
 40
0.0
 40
0.0
 40
0.0
 40
0.2306873806
 40
0.4695292945
 40
0.7241992333
 40
1.0
 40
1.0
 40
1.0
 40
1.0
 10
85.5590672283
 20
246.8230232703
 30
0.0
 10
85.5590672283
 20
246.9217871352
 30
0.0
 10
85.5939560534
 20
247.1242053127
 30
0.0
 10
85.7417532066
 20
247.4015686221
 30
0.0
 10
85.9692284792
 20
247.6439199605
 30
0.0
 10
86.1572338697
 20
247.7740833227
 30
0.0
 10
86.2594927394
 20
247.8331221563
 30
0.0
  0
SPLINE
  5
33A
100
AcDbEntity
  8
0
100
AcDbSpline
 62
7
  6
CONTINUOUS
 70
0
 71
3
 72
11
 73
7
 74
0
 42
0.0000001
 43
0.0000001
 44
0.0000000001
 40
0.0
 40
0.0
 40
0.0
 40
0.0
 40
0.230931314
 40
0.4802076677
 40
0.7399293875
 40
1.0
 40
1.0
 40
1.0
 40
1.0
 10
86.2594927394
 20
247.8331221563
 30
0.0
 10
86.4027540437
 20
247.9158336151
 30
0.0
 10
86.7208076561
 20
248.053800605
 30
0.0
 10
87.2385967747
 20
248.1766915522
 30
0.0
 10
87.7897851722
 20
248.2203093124
 30
0.0
 10
88.1629119493
 20
248.1946458729
 30
0.0
 10
88.3472016557
 20
248.1673711513
 30
0.0
  0
SPLINE
  5
33B
100
AcDbEntity
  8
0
100
AcDbSpline
 62
7
  6
CONTINUOUS
 70
0
 71
3
 72
11
 73
7
 74
0
 42
0.0000001
 43
0.0000001
 44
0.0000000001
 40
0.0
 40
0.0
 40
0.0
 40
0.0
 40
0.2895468475
 40
0.5491384346
 40
0.782278826
 40
1.0
 40
1.0
 40
1.0
 40
1.0
 10
104.6484402436
 20
269.4873134126
 30
0.0
 10
104.6265131996
 20
269.4746539034
 30
0.0
 10
104.5867223796
 20
269.4472167327
 30
0.0
 10
104.5391238832
 20
269.397246772
 30
0.0
 10
104.5090163456
 20
269.3419253788
 30
0.0
 10
104.502016014
 20
269.3022314559
 30
0.0
 10
104.502015667
 20
269.2831930476
 30
0.0
  0
SPLINE
  5
33C
100
AcDbEntity
  8
0
100
AcDbSpline
 62
7
  6
CONTINUOUS
 70
0
 71
3
 72
11
 73
7
 74
0
 42
0.0000001
 43
0.0000001
 44
0.0000000001
 40
0.0
 40
0.0
 40
0.0
 40
0.0
 40
0.2897031353
 40
0.5490914015
 40
0.7822201129
 40
1.0
 40
1.0
 40
1.0
 40
1.0
 10
106.8881703954
 20
272.3387465935
 30
0.0
 10
106.8333223231
 20
272.3070802333
 30
0.0
 10
106.7338135245
 20
272.2385417846
 30
0.0
 10
106.6148843838
 20
272.1135567276
 30
0.0
 10
106.5396552701
 20
271.9752893053
 30
0.0
 10
106.5220654172
 20
271.876055262
 30
0.0
 10
106.5220618132
 20
271.828445648
 30
0.0
  0
SPLINE
  5
33D
100
AcDbEntity
  8
0
100
AcDbSpline
 62
7
  6
CONTINUOUS
 70
0
 71
3
 72
11
 73
7
 74
0
 42
0.0000001
 43
0.0000001
 44
0.0000000001
 40
0.0
 40
0.0
 40
0.0
 40
0.0
 40
0.2895468475
 40
0.5491384346
 40
0.782278826
 40
1.0
 40
1.0
 40
1.0
 40
1.0
 10
99.4745758399
 20
269.1507366848
 30
0.0
 10
99.4526487959
 20
269.1380771756
 30
0.0
 10
99.4128579759
 20
269.1106400049
 30
0.0
 10
99.3652594795
 20
269.0606700442
 30
0.0
 10
99.3351519419
 20
269.005348651
 30
0.0
 10
99.3281516103
 20
268.9656547281
 30
0.0
 10
99.3281512633
 20
268.9466163198
 30
0.0
  0
SPLINE
  5
33E
100
AcDbEntity
  8
0
100
AcDbSpline
 62
7
  6
CONTINUOUS
 70
0
 71
3
 72
11
 73
7
 74
0
 42
0.0000001
 43
0.0000001
 44
0.0000000001
 40
0.0
 40
0.0
 40
0.0
 40
0.0
 40
0.2897031353
 40
0.5490914015
 40
0.7822201129
 40
1.0
 40
1.0
 40
1.0
 40
1.0
 10
105.1685173625
 20
275.176047963
 30
0.0
 10
105.1136692902
 20
275.1443816027
 30
0.0
 10
105.0141604916
 20
275.0758431541
 30
0.0
 10
104.8952313508
 20
274.950858097
 30
0.0
 10
104.8200022371
 20
274.8125906747
 30
0.0
 10
104.8024123842
 20
274.7133566314
 30
0.0
 10
104.8024087802
 20
274.6657470174
 30
0.0
  0
SPLINE
  5
33F
100
AcDbEntity
  8
0
100
AcDbSpline
 62
7
  6
CONTINUOUS
 70
0
 71
3
 72
11
 73
7
 74
0
 42
0.0000001
 43
0.0000001
 44
0.0000000001
 40
0.0
 40
0.0
 40
0.0
 40
0.0
 40
0.2897031353
 40
0.5490914015
 40
0.7822201129
 40
1.0
 40
1.0
 40
1.0
 40
1.0
 10
100.9258943392
 20
272.7265830397
 30
0.0
 10
100.8710462669
 20
272.6949166795
 30
0.0
 10
100.7715374683
 20
272.6263782309
 30
0.0
 10
100.6526083275
 20
272.5013931738
 30
0.0
 10
100.5773792138
 20
272.3631257515
 30
0.0
 10
100.5597893609
 20
272.2638917082
 30
0.0
 10
100.559785757
 20
272.2162820942
 30
0.0
  0
SPLINE
  5
340
100
AcDbEntity
  8
0
100
AcDbSpline
 62
7
  6
CONTINUOUS
 70
0
 71
3
 72
11
 73
7
 74
0
 42
0.0000001
 43
0.0000001
 44
0.0000000001
 40
0.0
 40
0.0
 40
0.0
 40
0.0
 40
0.2895468475
 40
0.5491384346
 40
0.782278826
 40
1.0
 40
1.0
 40
1.0
 40
1.0
 10
95.7929349018
 20
271.2762849852
 30
0.0
 10
95.7710078577
 20
271.263625476
 30
0.0
 10
95.7312170378
 20
271.2361883053
 30
0.0
 10
95.6836185413
 20
271.1862183446
 30
0.0
 10
95.6535110037
 20
271.1308969513
 30
0.0
 10
95.6465106721
 20
271.0912030285
 30
0.0
 10
95.6465103251
 20
271.0721646202
 30
0.0
  0
SPLINE
  5
341
100
AcDbEntity
  8
0
100
AcDbSpline
 62
7
  6
CONTINUOUS
 70
0
 71
3
 72
11
 73
7
 74
0
 42
0.0000001
 43
0.0000001
 44
0.0000000001
 40
0.0
 40
0.0
 40
0.0
 40
0.0
 40
0.2897031353
 40
0.5490914015
 40
0.7822201129
 40
1.0
 40
1.0
 40
1.0
 40
1.0
 10
100.2540826593
 20
276.1688522853
 30
0.0
 10
100.199234587
 20
276.137185925
 30
0.0
 10
100.0997257883
 20
276.0686474764
 30
0.0
 10
99.9807966476
 20
275.9436624193
 30
0.0
 10
99.9055675339
 20
275.805394997
 30
0.0
 10
99.887977681
 20
275.7061609537
 30
0.0
 10
99.887974077
 20
275.6585513397
 30
0.0
  0
SPLINE
  5
342
100
AcDbEntity
  8
0
100
AcDbSpline
 62
7
  6
CONTINUOUS
 70
0
 71
3
 72
11
 73
7
 74
0
 42
0.0000001
 43
0.0000001
 44
0.0000000001
 40
0.0
 40
0.0
 40
0.0
 40
0.0
 40
0.2895468475
 40
0.5491384346
 40
0.782278826
 40
1.0
 40
1.0
 40
1.0
 40
1.0
 10
96.3758681474
 20
274.2633770903
 30
0.0
 10
96.3539411034
 20
274.2507175811
 30
0.0
 10
96.3141502834
 20
274.2232804104
 30
0.0
 10
96.2665517869
 20
274.1733104497
 30
0.0
 10
96.2364442493
 20
274.1179890564
 30
0.0
 10
96.2294439177
 20
274.0782951335
 30
0.0
 10
96.2294435707
 20
274.0592567253
 30
0.0
  0
SPLINE
  5
343
100
AcDbEntity
  8
0
100
AcDbSpline
 62
7
  6
CONTINUOUS
 70
0
 71
3
 72
11
 73
7
 74
0
 42
0.0000001
 43
0.0000001
 44
0.0000000001
 40
0.0
 40
0.0
 40
0.0
 40
0.0
 40
0.2905619462
 40
0.5495933702
 40
0.7820866284
 40
1.0
 40
1.0
 40
1.0
 40
1.0
 10
114.4970801959
 20
259.2104831884
 30
0.0
 10
114.4131389493
 20
259.2589455934
 30
0.0
 10
114.2613005339
 20
259.3639829149
 30
0.0
 10
114.0817120579
 20
259.5566804627
 30
0.0
 10
113.971602233
 20
259.7701984999
 30
0.0
 10
113.9505150706
 20
259.9226330101
 30
0.0
 10
113.9536169305
 20
259.9952589428
 30
0.0
  0
SPLINE
  5
344
100
AcDbEntity
  8
0
100
AcDbSpline
 62
7
  6
CONTINUOUS
 70
0
 71
3
 72
11
 73
7
 74
0
 42
0.0000001
 43
0.0000001
 44
0.0000000001
 40
0.0
 40
0.0
 40
0.0
 40
0.0
 40
0.2905614579
 40
0.5495927057
 40
0.7820861619
 40
1.0
 40
1.0
 40
1.0
 40
1.0
 10
88.6982314296
 20
258.9654757031
 30
0.0
 10
88.5788132655
 20
258.8965300055
 30
0.0
 10
88.3628019487
 20
258.7470975018
 30
0.0
 10
88.1073126861
 20
258.4729552015
 30
0.0
 10
87.9506666218
 20
258.1691932123
 30
0.0
 10
87.9206674006
 20
257.9523322574
 30
0.0
 10
87.9250802675
 20
257.8490108853
 30
0.0
  0
SPLINE
  5
345
100
AcDbEntity
  8
0
100
AcDbSpline
 62
7
  6
CONTINUOUS
 70
0
 71
3
 72
11
 73
7
 74
0
 42
0.0000001
 43
0.0000001
 44
0.0000000001
 40
0.0
 40
0.0
 40
0.0
 40
0.0
 40
0.2905614579
 40
0.5495927057
 40
0.7820861619
 40
1.0
 40
1.0
 40
1.0
 40
1.0
 10
88.6982014012
 20
263.1295487359
 30
0.0
 10
88.5787832371
 20
263.0606030383
 30
0.0
 10
88.3627719203
 20
262.9111705346
 30
0.0
 10
88.1072826576
 20
262.6370282343
 30
0.0
 10
87.9506365934
 20
262.3332662451
 30
0.0
 10
87.9206373721
 20
262.1164052902
 30
0.0
 10
87.925050239
 20
262.0130839181
 30
0.0
  0
SPLINE
  5
346
100
AcDbEntity
  8
0
100
AcDbSpline
 62
7
  6
CONTINUOUS
 70
0
 71
3
 72
11
 73
7
 74
0
 42
0.0000001
 43
0.0000001
 44
0.0000000001
 40
0.0
 40
0.0
 40
0.0
 40
0.0
 40
0.2306873806
 40
0.4695292945
 40
0.7241992333
 40
1.0
 40
1.0
 40
1.0
 40
1.0
 10
99.5598397862
 20
238.7398563308
 30
0.0
 10
99.5598397862
 20
238.8386201957
 30
0.0
 10
99.5947286113
 20
239.0410383732
 30
0.0
 10
99.7425257645
 20
239.3184016826
 30
0.0
 10
99.9700010371
 20
239.560753021
 30
0.0
 10
100.1580064276
 20
239.6909163832
 30
0.0
 10
100.2602652973
 20
239.7499552168
 30
0.0
  0
SPLINE
  5
347
100
AcDbEntity
  8
0
100
AcDbSpline
 62
7
  6
CONTINUOUS
 70
0
 71
3
 72
17
 73
13
 74
0
 42
0.0000001
 43
0.0000001
 44
0.0000000001
 40
0.0
 40
0.0
 40
0.0
 40
0.0
 40
0.1273471029
 40
0.2655725476
 40
0.4085598247
 40
0.5488708564
 40
0.6797873935
 40
0.7404205781
 40
0.7975478401
 40
0.9021972366
 40
0.9514958125
 40
1.0
 40
1.0
 40
1.0
 40
1.0
 10
100.2602652973
 20
239.7499552168
 30
0.0
 10
100.4257680803
 20
239.8455077227
 30
0.0
 10
100.7977472512
 20
239.9993880764
 30
0.0
 10
101.4020351599
 20
240.1193475993
 30
0.0
 10
102.0375888876
 20
240.1346152094
 30
0.0
 10
102.6555341817
 20
240.0438932364
 30
0.0
 10
103.1301454895
 20
239.8802439647
 30
0.0
 10
103.4566518315
 20
239.6972373071
 30
0.0
 10
103.7237780961
 20
239.496448911
 30
0.0
 10
103.932027998
 20
239.2460640158
 30
0.0
 10
104.0413412004
 20
238.9600369483
 30
0.0
 10
104.0598397862
 20
238.8126450682
 30
0.0
 10
104.0598397862
 20
238.7398563308
 30
0.0
  0
SPLINE
  5
348
100
AcDbEntity
  8
0
100
AcDbSpline
 62
7
  6
CONTINUOUS
 70
0
 71
3
 72
14
 73
10
 74
0
 42
0.0000001
 43
0.0000001
 44
0.0000000001
 40
0.0
 40
0.0
 40
0.0
 40
0.0
 40
0.2895104053
 40
0.4306322487
 40
0.5637385318
 40
0.6863576239
 40
0.7981565909
 40
0.9013569757
 40
1.0
 40
1.0
 40
1.0
 40
1.0
 10
115.2742504804
 20
248.1677143901
 30
0.0
 10
115.601594464
 20
248.2159320061
 30
0.0
 10
116.1015964804
 20
248.2213330932
 30
0.0
 10
116.7356714682
 20
248.0991761424
 30
0.0
 10
117.1652819097
 20
247.9474508816
 30
0.0
 10
117.5331199147
 20
247.7393700562
 30
0.0
 10
117.8226302023
 20
247.4782838953
 30
0.0
 10
118.0143317685
 20
247.1684756548
 30
0.0
 10
118.060495763
 20
246.9358278844
 30
0.0
 10
118.060495763
 20
246.8230905774
 30
0.0
  0
SPLINE
  5
349
100
AcDbEntity
  8
0
100
AcDbSpline
 62
7
  6
CONTINUOUS
 70
0
 71
3
 72
11
 73
7
 74
0
 42
0.0000001
 43
0.0000001
 44
0.0000000001
 40
0.0
 40
0.0
 40
0.0
 40
0.0
 40
0.2179133716
 40
0.4504066298
 40
0.7094380538
 40
1.0
 40
1.0
 40
1.0
 40
1.0
 10
115.6944827247
 20
262.0131379677
 30
0.0
 10
115.6988956353
 20
262.1164604145
 30
0.0
 10
115.6688956459
 20
262.3333238128
 30
0.0
 10
115.5122461393
 20
262.6370886694
 30
0.0
 10
115.2567517164
 20
262.9112329232
 30
0.0
 10
115.040736362
 20
263.0606659516
 30
0.0
 10
114.9213160026
 20
263.1296117685
 30
0.0
  0
SPLINE
  5
34A
100
AcDbEntity
  8
0
100
AcDbSpline
 62
7
  6
CONTINUOUS
 70
0
 71
3
 72
11
 73
7
 74
0
 42
0.0000001
 43
0.0000001
 44
0.0000000001
 40
0.0
 40
0.0
 40
0.0
 40
0.0
 40
0.2179133716
 40
0.4504066298
 40
0.7094380538
 40
1.0
 40
1.0
 40
1.0
 40
1.0
 10
115.6945127532
 20
257.8490649349
 30
0.0
 10
115.6989256638
 20
257.9523873817
 30
0.0
 10
115.6689256744
 20
258.16925078
 30
0.0
 10
115.5122761678
 20
258.4730156366
 30
0.0
 10
115.2567817449
 20
258.7471598904
 30
0.0
 10
115.0407663905
 20
258.8965929188
 30
0.0
 10
114.921346031
 20
258.9655387357
 30
0.0
  0
SPLINE
  5
34B
100
AcDbEntity
  8
0
100
AcDbSpline
 62
7
  6
CONTINUOUS
 70
0
 71
3
 72
11
 73
7
 74
0
 42
0.0000001
 43
0.0000001
 44
0.0000000001
 40
0.0
 40
0.0
 40
0.0
 40
0.0
 40
0.2179138381
 40
0.4504072943
 40
0.7094385421
 40
1.0
 40
1.0
 40
1.0
 40
1.0
 10
89.6659460602
 20
259.9951916356
 30
0.0
 10
89.6690478893
 20
259.9225664583
 30
0.0
 10
89.6479612669
 20
259.7701336656
 30
0.0
 10
89.5378538617
 20
259.5566176439
 30
0.0
 10
89.3582690127
 20
259.3639214693
 30
0.0
 10
89.2064334354
 20
259.2588845166
 30
0.0
 10
89.1224937319
 20
259.2104221954
 30
0.0
  0
SPLINE
  5
34C
100
AcDbEntity
  8
0
100
AcDbSpline
 62
7
  6
CONTINUOUS
 70
0
 71
3
 72
15
 73
11
 74
0
 42
0.0000001
 43
0.0000001
 44
0.0000000001
 40
0.0
 40
0.0
 40
0.0
 40
0.0
 40
0.0869258731
 40
0.1863900355
 40
0.3037775758
 40
0.4375856292
 40
0.582082136
 40
0.7293904368
 40
0.8711742898
 40
1.0
 40
1.0
 40
1.0
 40
1.0
 10
97.2294024492
 20
274.0592567007
 30
0.0
 10
97.2294029748
 20
274.0880930577
 30
0.0
 10
97.2120037534
 20
274.1504938276
 30
0.0
 10
97.1439855191
 20
274.2278400581
 30
0.0
 10
97.0435927472
 20
274.2890177327
 30
0.0
 10
96.9182544787
 20
274.3309012683
 30
0.0
 10
96.7777502612
 20
274.3506324773
 30
0.0
 10
96.6332754825
 20
274.3466566653
 30
0.0
 10
96.4966931717
 20
274.3193173508
 30
0.0
 10
96.4128786648
 20
274.2847449949
 30
0.0
 10
96.3758681474
 20
274.2633770903
 30
0.0
  0
SPLINE
  5
34D
100
AcDbEntity
  8
0
100
AcDbSpline
 62
7
  6
CONTINUOUS
 70
0
 71
3
 72
12
 73
8
 74
0
 42
0.0000001
 43
0.0000001
 44
0.0000000001
 40
0.0
 40
0.0
 40
0.0
 40
0.0
 40
0.0986140254
 40
0.2010878856
 40
0.4282837485
 40
0.6954086473
 40
1.0
 40
1.0
 40
1.0
 40
1.0
 10
97.9794187486
 20
269.1602422126
 30
0.0
 10
97.9794213694
 20
269.1948628185
 30
0.0
 10
97.9704088546
 20
269.2657426142
 30
0.0
 10
97.9158828922
 20
269.4072013863
 30
0.0
 10
97.7773755402
 20
269.5716235551
 30
0.0
 10
97.5381085159
 20
269.7230001328
 30
0.0
 10
97.3475272831
 20
269.7909217274
 30
0.0
 10
97.2440543655
 20
269.8179053597
 30
0.0
  0
SPLINE
  5
34E
100
AcDbEntity
  8
0
100
AcDbSpline
 62
7
  6
CONTINUOUS
 70
0
 71
3
 72
16
 73
12
 74
0
 42
0.0000001
 43
0.0000001
 44
0.0000000001
 40
0.0
 40
0.0
 40
0.0
 40
0.0
 40
0.0428770841
 40
0.0875219403
 40
0.1869264335
 40
0.304237726
 40
0.4379617048
 40
0.5823668234
 40
0.7295956164
 40
0.8712504692
 40
1.0
 40
1.0
 40
1.0
 40
1.0
 10
102.3879655544
 20
275.6585513445
 30
0.0
 10
102.387968248
 20
275.6941345204
 30
0.0
 10
102.3784302632
 20
275.7670740862
 30
0.0
 10
102.3206986115
 20
275.9125128919
 30
0.0
 10
102.1744327987
 20
276.0804589806
 30
0.0
 10
101.9233827182
 20
276.2328250466
 30
0.0
 10
101.6100425996
 20
276.3377078057
 30
0.0
 10
101.2587549983
 20
276.3870012563
 30
0.0
 10
100.8975822428
 20
276.3770289993
 30
0.0
 10
100.5561246473
 20
276.3087204485
 30
0.0
 10
100.3466156076
 20
276.222275889
 30
0.0
 10
100.2540826593
 20
276.1688522853
 30
0.0
  0
SPLINE
  5
34F
100
AcDbEntity
  8
0
100
AcDbSpline
 62
7
  6
CONTINUOUS
 70
0
 71
3
 72
15
 73
11
 74
0
 42
0.0000001
 43
0.0000001
 44
0.0000000001
 40
0.0
 40
0.0
 40
0.0
 40
0.0
 40
0.0869258731
 40
0.1863900355
 40
0.3037775758
 40
0.4375856292
 40
0.582082136
 40
0.7293904368
 40
0.8711742898
 40
1.0
 40
1.0
 40
1.0
 40
1.0
 10
96.6464692036
 20
271.0721645957
 30
0.0
 10
96.6464697292
 20
271.1010009526
 30
0.0
 10
96.6290705077
 20
271.1634017226
 30
0.0
 10
96.5610522735
 20
271.240747953
 30
0.0
 10
96.4606595015
 20
271.3019256276
 30
0.0
 10
96.335321233
 20
271.3438091633
 30
0.0
 10
96.1948170155
 20
271.3635403723
 30
0.0
 10
96.0503422369
 20
271.3595645602
 30
0.0
 10
95.9137599261
 20
271.3322252457
 30
0.0
 10
95.8299454192
 20
271.2976528898
 30
0.0
 10
95.7929349018
 20
271.2762849852
 30
0.0
  0
SPLINE
  5
350
100
AcDbEntity
  8
0
100
AcDbSpline
 62
7
  6
CONTINUOUS
 70
0
 71
3
 72
9
 73
5
 74
0
 42
0.0000001
 43
0.0000001
 44
0.0000000001
 40
0.0
 40
0.0
 40
0.0
 40
0.0
 40
0.495257018
 40
1.0
 40
1.0
 40
1.0
 40
1.0
 10
113.5597687561
 20
261.6017506825
 30
0.0
 10
113.5597791359
 20
261.826040846
 30
0.0
 10
113.5204875546
 20
262.2797366339
 30
0.0
 10
113.4052950818
 20
262.7200793893
 30
0.0
 10
113.3302664149
 20
262.9360014097
 30
0.0
  0
SPLINE
  5
351
100
AcDbEntity
  8
0
100
AcDbSpline
 62
7
  6
CONTINUOUS
 70
0
 71
3
 72
9
 73
5
 74
0
 42
0.0000001
 43
0.0000001
 44
0.0000000001
 40
0.0
 40
0.0
 40
0.0
 40
0.0
 40
0.4916754483
 40
1.0
 40
1.0
 40
1.0
 40
1.0
 10
113.3097690544
 20
270.1750260627
 30
0.0
 10
113.3097826013
 20
270.4699592056
 30
0.0
 10
113.2393588013
 20
271.0717236572
 30
0.0
 10
113.0365952841
 20
271.6416806296
 30
0.0
 10
112.9066498441
 20
271.9175256739
 30
0.0
  0
SPLINE
  5
352
100
AcDbEntity
  8
0
100
AcDbSpline
 62
7
  6
CONTINUOUS
 70
0
 71
3
 72
14
 73
10
 74
0
 42
0.0000001
 43
0.0000001
 44
0.0000000001
 40
0.0
 40
0.0
 40
0.0
 40
0.0
 40
0.1080477053
 40
0.2181300025
 40
0.3321016202
 40
0.4515004859
 40
0.5774546212
 40
0.7107147396
 40
1.0
 40
1.0
 40
1.0
 40
1.0
 10
112.8097766741
 20
273.441035722
 30
0.0
 10
112.8097764907
 20
273.6492828307
 30
0.0
 10
112.7735812018
 20
274.0705411918
 30
0.0
 10
112.6121911476
 20
274.692756046
 30
0.0
 10
112.3457575896
 20
275.3015805904
 30
0.0
 10
111.9776368583
 20
275.8907730076
 30
0.0
 10
111.5120431823
 20
276.4551823124
 30
0.0
 10
110.7469971706
 20
277.1873786022
 30
0.0
 10
110.0707854799
 20
277.6529473459
 30
0.0
 10
109.587923705
 20
277.9317214149
 30
0.0
  0
SPLINE
  5
353
100
AcDbEntity
  8
0
100
AcDbSpline
 62
7
  6
CONTINUOUS
 70
0
 71
3
 72
14
 73
10
 74
0
 42
0.0000001
 43
0.0000001
 44
0.0000000001
 40
0.0
 40
0.0
 40
0.0
 40
0.0
 40
0.1080475079
 40
0.218129458
 40
0.3321012995
 40
0.4515009845
 40
0.5774519083
 40
0.7107147531
 40
1.0
 40
1.0
 40
1.0
 40
1.0
 10
111.059764968
 20
273.4410358264
 30
0.0
 10
111.0597535699
 20
273.2659215682
 30
0.0
 10
111.0293695872
 20
272.9116829195
 30
0.0
 10
110.8936110142
 20
272.3884728948
 30
0.0
 10
110.6695944453
 20
271.8765038176
 30
0.0
 10
110.3600371546
 20
271.3810583603
 30
0.0
 10
109.9685287351
 20
270.9064415575
 30
0.0
 10
109.3252090662
 20
270.2907329864
 30
0.0
 10
108.7565822477
 20
269.8992322189
 30
0.0
 10
108.3505464533
 20
269.664808743
 30
0.0
  0
SPLINE
  5
354
100
AcDbEntity
  8
0
100
AcDbSpline
 62
7
  6
CONTINUOUS
 70
0
 71
3
 72
15
 73
11
 74
0
 42
0.0000001
 43
0.0000001
 44
0.0000000001
 40
0.0
 40
0.0
 40
0.0
 40
0.0
 40
0.0869258731
 40
0.1863900355
 40
0.3037775758
 40
0.4375856292
 40
0.582082136
 40
0.7293904368
 40
0.8711742898
 40
1.0
 40
1.0
 40
1.0
 40
1.0
 10
105.5019745455
 20
269.2831930231
 30
0.0
 10
105.5019750711
 20
269.31202938
 30
0.0
 10
105.4845758496
 20
269.37443015
 30
0.0
 10
105.4165576153
 20
269.4517763804
 30
0.0
 10
105.3161648434
 20
269.5129540551
 30
0.0
 10
105.1908265749
 20
269.5548375907
 30
0.0
 10
105.0503223574
 20
269.5745687997
 30
0.0
 10
104.9058475787
 20
269.5705929877
 30
0.0
 10
104.7692652679
 20
269.5432536731
 30
0.0
 10
104.6854507611
 20
269.5086813173
 30
0.0
 10
104.6484402436
 20
269.4873134126
 30
0.0
  0
SPLINE
  5
355
100
AcDbEntity
  8
0
100
AcDbSpline
 62
7
  6
CONTINUOUS
 70
0
 71
3
 72
16
 73
12
 74
0
 42
0.0000001
 43
0.0000001
 44
0.0000000001
 40
0.0
 40
0.0
 40
0.0
 40
0.0
 40
0.0428770841
 40
0.0875219403
 40
0.1869264335
 40
0.304237726
 40
0.4379617048
 40
0.5823668234
 40
0.7295956164
 40
0.8712504692
 40
1.0
 40
1.0
 40
1.0
 40
1.0
 10
103.0597772343
 20
272.216282099
 30
0.0
 10
103.0597799279
 20
272.2518652749
 30
0.0
 10
103.0502419431
 20
272.3248048407
 30
0.0
 10
102.9925102915
 20
272.4702436464
 30
0.0
 10
102.8462444786
 20
272.6381897351
 30
0.0
 10
102.5951943981
 20
272.7905558011
 30
0.0
 10
102.2818542795
 20
272.8954385602
 30
0.0
 10
101.9305666783
 20
272.9447320108
 30
0.0
 10
101.5693939227
 20
272.9347597538
 30
0.0
 10
101.2279363272
 20
272.866451203
 30
0.0
 10
101.0184272875
 20
272.7800066435
 30
0.0
 10
100.9258943392
 20
272.7265830397
 30
0.0
  0
SPLINE
  5
356
100
AcDbEntity
  8
0
100
AcDbSpline
 62
7
  6
CONTINUOUS
 70
0
 71
3
 72
16
 73
12
 74
0
 42
0.0000001
 43
0.0000001
 44
0.0000000001
 40
0.0
 40
0.0
 40
0.0
 40
0.0
 40
0.0428770841
 40
0.0875219403
 40
0.1869264335
 40
0.304237726
 40
0.4379617048
 40
0.5823668234
 40
0.7295956164
 40
0.8712504692
 40
1.0
 40
1.0
 40
1.0
 40
1.0
 10
109.0220532906
 20
271.8284456528
 30
0.0
 10
109.0220559841
 20
271.8640288287
 30
0.0
 10
109.0125179994
 20
271.9369683944
 30
0.0
 10
108.9547863477
 20
272.0824072002
 30
0.0
 10
108.8085205349
 20
272.2503532889
 30
0.0
 10
108.5574704543
 20
272.4027193549
 30
0.0
 10
108.2441303357
 20
272.507602114
 30
0.0
 10
107.8928427345
 20
272.5568955646
 30
0.0
 10
107.5316699789
 20
272.5469233076
 30
0.0
 10
107.1902123835
 20
272.4786147568
 30
0.0
 10
106.9807033438
 20
272.3921701973
 30
0.0
 10
106.8881703954
 20
272.3387465935
 30
0.0
  0
SPLINE
  5
357
100
AcDbEntity
  8
0
100
AcDbSpline
 62
7
  6
CONTINUOUS
 70
0
 71
3
 72
15
 73
11
 74
0
 42
0.0000001
 43
0.0000001
 44
0.0000000001
 40
0.0
 40
0.0
 40
0.0
 40
0.0
 40
0.0869258731
 40
0.1863900355
 40
0.3037775758
 40
0.4375856292
 40
0.582082136
 40
0.7293904368
 40
0.8711742898
 40
1.0
 40
1.0
 40
1.0
 40
1.0
 10
100.3281101417
 20
268.9466162953
 30
0.0
 10
100.3281106674
 20
268.9754526522
 30
0.0
 10
100.3107114459
 20
269.0378534222
 30
0.0
 10
100.2426932116
 20
269.1151996526
 30
0.0
 10
100.1423004397
 20
269.1763773273
 30
0.0
 10
100.0169621712
 20
269.2182608629
 30
0.0
 10
99.8764579537
 20
269.2379920719
 30
0.0
 10
99.731983175
 20
269.2340162599
 30
0.0
 10
99.5954008642
 20
269.2066769453
 30
0.0
 10
99.5115863573
 20
269.1721045895
 30
0.0
 10
99.4745758399
 20
269.1507366848
 30
0.0
  0
SPLINE
  5
358
100
AcDbEntity
  8
0
100
AcDbSpline
 62
7
  6
CONTINUOUS
 70
0
 71
3
 72
16
 73
12
 74
0
 42
0.0000001
 43
0.0000001
 44
0.0000000001
 40
0.0
 40
0.0
 40
0.0
 40
0.0
 40
0.0428770841
 40
0.0875219403
 40
0.1869264335
 40
0.304237726
 40
0.4379617048
 40
0.5823668234
 40
0.7295956164
 40
0.8712504692
 40
1.0
 40
1.0
 40
1.0
 40
1.0
 10
107.3024002576
 20
274.6657470222
 30
0.0
 10
107.3024029512
 20
274.7013301981
 30
0.0
 10
107.2928649664
 20
274.7742697639
 30
0.0
 10
107.2351333148
 20
274.9197085697
 30
0.0
 10
107.0888675019
 20
275.0876546583
 30
0.0
 10
106.8378174214
 20
275.2400207244
 30
0.0
 10
106.5244773028
 20
275.3449034834
 30
0.0
 10
106.1731897015
 20
275.394196934
 30
0.0
 10
105.812016946
 20
275.3842246771
 30
0.0
 10
105.4705593505
 20
275.3159161262
 30
0.0
 10
105.2610503108
 20
275.2294715667
 30
0.0
 10
105.1685173625
 20
275.176047963
 30
0.0
  0
SPLINE
  5
359
100
AcDbEntity
  8
0
100
AcDbSpline
 62
7
  6
CONTINUOUS
 70
0
 71
3
 72
11
 73
7
 74
0
 42
0.0000001
 43
0.0000001
 44
0.0000000001
 40
0.0
 40
0.0
 40
0.0
 40
0.0
 40
0.2372279391
 40
0.4999994739
 40
0.762771295
 40
1.0
 40
1.0
 40
1.0
 40
1.0
 10
100.4964132825
 20
252.6438352372
 30
0.0
 10
100.6828725071
 20
252.7514868781
 30
0.0
 10
101.1164992627
 20
252.9085935182
 30
0.0
 10
101.8098322529
 20
252.9838512481
 30
0.0
 10
102.5031662893
 20
252.9085966822
 30
0.0
 10
102.9367947504
 20
252.7514921952
 30
0.0
 10
103.1232553533
 20
252.6438415514
 30
0.0
  0
SPLINE
  5
35A
100
AcDbEntity
  8
0
100
AcDbSpline
 62
7
  6
CONTINUOUS
 70
0
 71
3
 72
13
 73
9
 74
0
 42
0.0000001
 43
0.0000001
 44
0.0000000001
 40
0.0
 40
0.0
 40
0.0
 40
0.0
 40
0.1142487484
 40
0.2375477548
 40
0.5000005226
 40
0.7624530043
 40
0.8857516767
 40
1.0
 40
1.0
 40
1.0
 40
1.0
 10
96.3350320203
 20
252.398879762
 30
0.0
 10
96.462941252
 20
252.3250330033
 30
0.0
 10
96.7426863814
 20
252.1947617421
 30
0.0
 10
97.3626544488
 20
252.0064730025
 30
0.0
 10
98.2035944275
 20
251.9150088689
 30
0.0
 10
99.0445335975
 20
252.0064768907
 30
0.0
 10
99.6644993417
 20
252.19476868
 30
0.0
 10
99.9442427569
 20
252.3250413386
 30
0.0
 10
100.0721509802
 20
252.3988887449
 30
0.0
  0
SPLINE
  5
35B
100
AcDbEntity
  8
0
100
AcDbSpline
 62
7
  6
CONTINUOUS
 70
0
 71
3
 72
11
 73
7
 74
0
 42
0.0000001
 43
0.0000001
 44
0.0000000001
 40
0.0
 40
0.0
 40
0.0
 40
0.0
 40
0.2889228682
 40
0.5484192683
 40
0.782234259
 40
1.0
 40
1.0
 40
1.0
 40
1.0
 10
89.1224827954
 20
260.7270084909
 30
0.0
 10
89.2015826338
 20
260.681341211
 30
0.0
 10
89.3454837002
 20
260.5827461112
 30
0.0
 10
89.5191176162
 20
260.4038426212
 30
0.0
 10
89.632249833
 20
260.2063864886
 30
0.0
 10
89.6630085116
 20
260.0639704047
 30
0.0
 10
89.6659460602
 20
259.9951916356
 30
0.0
  0
SPLINE
  5
35C
100
AcDbEntity
  8
0
100
AcDbSpline
 62
7
  6
CONTINUOUS
 70
0
 71
3
 72
9
 73
5
 74
0
 42
0.0000001
 43
0.0000001
 44
0.0000000001
 40
0.0
 40
0.0
 40
0.0
 40
0.0
 40
0.2581074888
 40
1.0
 40
1.0
 40
1.0
 40
1.0
 10
100.5397308223
 20
268.4928772629
 30
0.0
 10
100.5199294745
 20
268.4991071267
 30
0.0
 10
100.4436730125
 20
268.5246637533
 30
0.0
 10
100.3692960626
 20
268.5559909536
 30
0.0
 10
100.3160094629
 20
268.5828356107
 30
0.0
  0
SPLINE
  5
35D
100
AcDbEntity
  8
0
100
AcDbSpline
 62
7
  6
CONTINUOUS
 70
0
 71
3
 72
23
 73
19
 74
0
 42
0.0000001
 43
0.0000001
 44
0.0000000001
 40
0.0
 40
0.0
 40
0.0
 40
0.0
 40
0.0623931507
 40
0.1287428623
 40
0.1983468673
 40
0.2703348026
 40
0.3437247836
 40
0.4174695398
 40
0.4905066381
 40
0.5618054579
 40
0.630413519
 40
0.6955107838
 40
0.7564677918
 40
0.8129141746
 40
0.8648230602
 40
0.9126053043
 40
0.9571864534
 40
1.0
 40
1.0
 40
1.0
 40
1.0
 10
93.6780873677
 20
265.4802182843
 30
0.0
 10
94.0912604713
 20
265.2416780782
 30
0.0
 10
94.9766925143
 20
264.8051165462
 30
0.0
 10
96.4050123405
 20
264.2875965819
 30
0.0
 10
97.9485173809
 20
263.8957609822
 30
0.0
 10
99.5742039626
 20
263.637986729
 30
0.0
 10
101.2475894441
 20
263.5196953888
 30
0.0
 10
102.9329719395
 20
263.5434160883
 30
0.0
 10
104.5943948908
 20
263.7086423149
 30
0.0
 10
106.1964446362
 20
264.0118589477
 30
0.0
 10
107.7050850434
 20
264.4466546213
 30
0.0
 10
109.0884277659
 20
265.0039605491
 30
0.0
 10
110.3174208628
 20
265.6724040168
 30
0.0
 10
111.3663285641
 20
266.4388585875
 30
0.0
 10
112.2128161354
 20
267.2889053633
 30
0.0
 10
112.8373533989
 20
268.2075246919
 30
0.0
 10
113.2222496499
 20
269.1765442555
 30
0.0
 10
113.3097540174
 20
269.8476527727
 30
0.0
 10
113.3097690544
 20
270.1750260627
 30
0.0
  0
SPLINE
  5
35E
100
AcDbEntity
  8
0
100
AcDbSpline
 62
7
  6
CONTINUOUS
 70
0
 71
3
 72
14
 73
10
 74
0
 42
0.0000001
 43
0.0000001
 44
0.0000000001
 40
0.0
 40
0.0
 40
0.0
 40
0.0
 40
0.2892820265
 40
0.4225404649
 40
0.548498026
 40
0.6678964531
 40
0.7818698434
 40
0.8919530505
 40
1.0
 40
1.0
 40
1.0
 40
1.0
 10
93.5013114084
 20
255.1718770317
 30
0.0
 10
92.9855329106
 20
255.4696551496
 30
0.0
 10
92.2632226313
 20
255.9669607799
 30
0.0
 10
91.4460194081
 20
256.7490782701
 30
0.0
 10
90.9486591107
 20
257.3519579705
 30
0.0
 10
90.5554598447
 20
257.9813463295
 30
0.0
 10
90.2708313485
 20
258.6316735937
 30
0.0
 10
90.098447895
 20
259.2963201745
 30
0.0
 10
90.0597840213
 20
259.7463015635
 30
0.0
 10
90.059794312
 20
259.9687458233
 30
0.0
  0
SPLINE
  5
35F
100
AcDbEntity
  8
0
100
AcDbSpline
 62
7
  6
CONTINUOUS
 70
0
 71
3
 72
11
 73
7
 74
0
 42
0.0000001
 43
0.0000001
 44
0.0000000001
 40
0.0
 40
0.0
 40
0.0
 40
0.0
 40
0.2177753738
 40
0.4509336309
 40
0.7102261693
 40
1.0
 40
1.0
 40
1.0
 40
1.0
 10
99.5598502975
 20
238.7398563308
 30
0.0
 10
99.5598502986
 20
238.6541589942
 30
0.0
 10
99.5914996286
 20
238.4755176504
 30
0.0
 10
99.7269319938
 20
238.2266739786
 30
0.0
 10
99.9409616756
 20
238.0016518803
 30
0.0
 10
100.1201030368
 20
237.8783208327
 30
0.0
 10
100.2188561525
 20
237.8213069846
 30
0.0
  0
SPLINE
  5
360
100
AcDbEntity
  8
0
100
AcDbSpline
 62
7
  6
CONTINUOUS
 70
0
 71
3
 72
17
 73
13
 74
0
 42
0.0000001
 43
0.0000001
 44
0.0000000001
 40
0.0
 40
0.0
 40
0.0
 40
0.0
 40
0.0428572827
 40
0.0874860934
 40
0.1353200924
 40
0.1872833297
 40
0.3045486557
 40
0.4382179215
 40
0.582562828
 40
0.7297192441
 40
0.8713072941
 40
1.0
 40
1.0
 40
1.0
 40
1.0
 10
104.0598244107
 20
236.8619007714
 30
0.0
 10
104.059823923
 20
236.7978527736
 30
0.0
 10
104.0427090249
 20
236.6665510273
 30
0.0
 10
103.9674047669
 20
236.476965012
 30
0.0
 10
103.8452087229
 20
236.2972272711
 30
0.0
 10
103.615187422
 20
236.0663575555
 30
0.0
 10
103.2232140264
 20
235.8277778408
 30
0.0
 10
102.6596435371
 20
235.6395165681
 30
0.0
 10
102.0271885774
 20
235.5506408309
 30
0.0
 10
101.3771329364
 20
235.5686489612
 30
0.0
 10
100.7625234749
 20
235.691598517
 30
0.0
 10
100.3854150918
 20
235.8471907521
 30
0.0
 10
100.2188561525
 20
235.9433514252
 30
0.0
  0
SPLINE
  5
361
100
AcDbEntity
  8
0
100
AcDbSpline
 62
7
  6
CONTINUOUS
 70
0
 71
3
 72
16
 73
12
 74
0
 42
0.0000001
 43
0.0000001
 44
0.0000000001
 40
0.0
 40
0.0
 40
0.0
 40
0.0
 40
0.0434179124
 40
0.0880206985
 40
0.184316514
 40
0.29441916
 40
0.4192827627
 40
0.556804507
 40
0.7029319534
 40
0.8525117199
 40
1.0
 40
1.0
 40
1.0
 40
1.0
 10
118.0604803876
 20
244.9451350181
 30
0.0
 10
118.0604799954
 20
244.8936405217
 30
0.0
 10
118.0495827603
 20
244.7889400748
 30
0.0
 10
117.9834009058
 20
244.579258094
 30
0.0
 10
117.8138793721
 20
244.3270661112
 30
0.0
 10
117.5080997361
 20
244.0744868125
 30
0.0
 10
117.1127912447
 20
243.8711888547
 30
0.0
 10
116.6482251531
 20
243.7266788027
 30
0.0
 10
116.1387161633
 20
243.6479609804
 30
0.0
 10
115.611646225
 20
243.6392084914
 30
0.0
 10
115.2604413333
 20
243.6812045604
 30
0.0
 10
115.0887661615
 20
243.7147610728
 30
0.0
  0
SPLINE
  5
362
100
AcDbEntity
  8
0
100
AcDbSpline
 62
7
  6
CONTINUOUS
 70
0
 71
3
 72
23
 73
19
 74
0
 42
0.0000001
 43
0.0000001
 44
0.0000000001
 40
0.0
 40
0.0
 40
0.0
 40
0.0
 40
0.0623934684
 40
0.1287433239
 40
0.1983472907
 40
0.2703354259
 40
0.3437246704
 40
0.4174685401
 40
0.4905048679
 40
0.5618029521
 40
0.6304113567
 40
0.6955096173
 40
0.7564672408
 40
0.8129137769
 40
0.8648227057
 40
0.9126050623
 40
0.9571863459
 40
1.0
 40
1.0
 40
1.0
 40
1.0
 10
93.5013114084
 20
256.8048818659
 30
0.0
 10
93.9234686912
 20
256.5611547589
 30
0.0
 10
94.8281528177
 20
256.1151017215
 30
0.0
 10
96.2875264007
 20
255.5863307506
 30
0.0
 10
97.864588522
 20
255.1859774551
 30
0.0
 10
99.5256119104
 20
254.9226014704
 30
0.0
 10
101.2353641936
 20
254.8017393319
 30
0.0
 10
102.9573667275
 20
254.8259741109
 30
0.0
 10
104.6548891837
 20
254.9947875251
 30
0.0
 10
106.291758091
 20
255.3045890513
 30
0.0
 10
107.8332009392
 20
255.7488335299
 30
0.0
 10
109.2466320245
 20
256.3182569827
 30
0.0
 10
110.5023557688
 20
257.0012362426
 30
0.0
 10
111.5740719473
 20
257.7843552976
 30
0.0
 10
112.438964218
 20
258.6528820083
 30
0.0
 10
113.0770807382
 20
259.5914724968
 30
0.0
 10
113.4703463397
 20
260.581559983
 30
0.0
 10
113.5597532764
 20
261.2672597377
 30
0.0
 10
113.5597687561
 20
261.6017506825
 30
0.0
  0
SPLINE
  5
363
100
AcDbEntity
  8
0
100
AcDbSpline
 62
7
  6
CONTINUOUS
 70
0
 71
3
 72
11
 73
7
 74
0
 42
0.0000001
 43
0.0000001
 44
0.0000000001
 40
0.0
 40
0.0
 40
0.0
 40
0.0
 40
0.2177661967
 40
0.4515813729
 40
0.7110776032
 40
1.0
 40
1.0
 40
1.0
 40
1.0
 10
113.9536169305
 20
259.9952589428
 30
0.0
 10
113.9565544449
 20
260.064036945
 30
0.0
 10
113.9873124709
 20
260.2064513445
 30
0.0
 10
114.1004422703
 20
260.4039055125
 30
0.0
 10
114.2740726353
 20
260.5828076217
 30
0.0
 10
114.4179709268
 20
260.6814023129
 30
0.0
 10
114.4970692593
 20
260.7270694839
 30
0.0
  0
SPLINE
  5
364
100
AcDbEntity
  8
0
100
AcDbSpline
 62
7
  6
CONTINUOUS
 70
0
 71
3
 72
14
 73
10
 74
0
 42
0.0000001
 43
0.0000001
 44
0.0000000001
 40
0.0
 40
0.0
 40
0.0
 40
0.0
 40
0.2892813285
 40
0.4225408356
 40
0.5484954049
 40
0.6678948454
 40
0.7818674214
 40
0.8919509063
 40
1.0
 40
1.0
 40
1.0
 40
1.0
 10
94.0316392863
 20
265.6843403612
 30
0.0
 10
93.5487840716
 20
265.9631106427
 30
0.0
 10
92.8725796566
 20
266.4286739362
 30
0.0
 10
92.1075363101
 20
267.1608614455
 30
0.0
 10
91.6419395634
 20
267.725269274
 30
0.0
 10
91.2738147247
 20
268.3144635716
 30
0.0
 10
91.0073759896
 20
268.9232916417
 30
0.0
 10
90.8459832724
 20
269.545512999
 30
0.0
 10
90.8097872694
 20
269.9667762684
 30
0.0
 10
90.8097865964
 20
270.1750260541
 30
0.0
  0
SPLINE
  5
365
100
AcDbEntity
  8
0
100
AcDbSpline
 62
7
  6
CONTINUOUS
 70
0
 71
3
 72
11
 73
7
 74
0
 42
0.0000001
 43
0.0000001
 44
0.0000000001
 40
0.0
 40
0.0
 40
0.0
 40
0.0
 40
0.2177661967
 40
0.4515813729
 40
0.7110776032
 40
1.0
 40
1.0
 40
1.0
 40
1.0
 10
115.0521708885
 20
242.8345803784
 30
0.0
 10
115.0490079479
 20
242.760524321
 30
0.0
 10
115.0158895369
 20
242.6071809758
 30
0.0
 10
114.8940781053
 20
242.3945740852
 30
0.0
 10
114.7071232672
 20
242.2019429469
 30
0.0
 10
114.5521821554
 20
242.0957820543
 30
0.0
 10
114.4670137809
 20
242.0466103639
 30
0.0
  0
SPLINE
  5
366
100
AcDbEntity
  8
0
100
AcDbSpline
 62
7
  6
CONTINUOUS
 70
0
 71
3
 72
11
 73
7
 74
0
 42
0.0000001
 43
0.0000001
 44
0.0000000001
 40
0.0
 40
0.0
 40
0.0
 40
0.0
 40
0.2895468475
 40
0.5491384346
 40
0.782278826
 40
1.0
 40
1.0
 40
1.0
 40
1.0
 10
105.3555499688
 20
269.0790726581
 30
0.0
 10
105.3774770128
 20
269.0917321673
 30
0.0
 10
105.4172678328
 20
269.119169338
 30
0.0
 10
105.4648663293
 20
269.1691392987
 30
0.0
 10
105.4949738668
 20
269.2244606919
 30
0.0
 10
105.5019741984
 20
269.2641546148
 30
0.0
 10
105.5019745455
 20
269.2831930231
 30
0.0
  0
SPLINE
  5
367
100
AcDbEntity
  8
0
100
AcDbSpline
 62
7
  6
CONTINUOUS
 70
0
 71
3
 72
11
 73
7
 74
0
 42
0.0000001
 43
0.0000001
 44
0.0000000001
 40
0.0
 40
0.0
 40
0.0
 40
0.0
 40
0.217765741
 40
0.4515807317
 40
0.7110771318
 40
1.0
 40
1.0
 40
1.0
 40
1.0
 10
87.9250802675
 20
257.8490108853
 30
0.0
 10
87.9292594181
 20
257.7511616674
 30
0.0
 10
87.973018745
 20
257.5485511438
 30
0.0
 10
88.1339681059
 20
257.2676370131
 30
0.0
 10
88.3809911785
 20
257.0131170967
 30
0.0
 10
88.5857143363
 20
256.8728491982
 30
0.0
 10
88.6982469887
 20
256.8078799108
 30
0.0
  0
SPLINE
  5
368
100
AcDbEntity
  8
0
100
AcDbSpline
 62
7
  6
CONTINUOUS
 70
0
 71
3
 72
11
 73
7
 74
0
 42
0.0000001
 43
0.0000001
 44
0.0000000001
 40
0.0
 40
0.0
 40
0.0
 40
0.0
 40
0.2897031353
 40
0.5490914015
 40
0.7822201129
 40
1.0
 40
1.0
 40
1.0
 40
1.0
 10
108.6559447083
 20
271.3181447072
 30
0.0
 10
108.7107927806
 20
271.3498110675
 30
0.0
 10
108.8103015792
 20
271.4183495161
 30
0.0
 10
108.92923072
 20
271.5433345732
 30
0.0
 10
109.0044598337
 20
271.6816019955
 30
0.0
 10
109.0220496866
 20
271.7808360388
 30
0.0
 10
109.0220532906
 20
271.8284456528
 30
0.0
  0
SPLINE
  5
369
100
AcDbEntity
  8
0
100
AcDbSpline
 62
7
  6
CONTINUOUS
 70
0
 71
3
 72
11
 73
7
 74
0
 42
0.0000001
 43
0.0000001
 44
0.0000000001
 40
0.0
 40
0.0
 40
0.0
 40
0.0
 40
0.2889228682
 40
0.5484192683
 40
0.782234259
 40
1.0
 40
1.0
 40
1.0
 40
1.0
 10
89.1525910147
 20
242.0465495155
 30
0.0
 10
89.0674210187
 20
242.0957213232
 30
0.0
 10
88.9124769191
 20
242.2018826558
 30
0.0
 10
88.7255182575
 20
242.3945152808
 30
0.0
 10
88.6037042229
 20
242.6071242867
 30
0.0
 10
88.5705851094
 20
242.7604694456
 30
0.0
 10
88.567422132
 20
242.8345263287
 30
0.0
  0
SPLINE
  5
36A
100
AcDbEntity
  8
0
100
AcDbSpline
 62
7
  6
CONTINUOUS
 70
0
 71
3
 72
11
 73
7
 74
0
 42
0.0000001
 43
0.0000001
 44
0.0000000001
 40
0.0
 40
0.0
 40
0.0
 40
0.0
 40
0.2897766779
 40
0.5490706103
 40
0.7822286453
 40
1.0
 40
1.0
 40
1.0
 40
1.0
 10
86.2180835945
 20
244.0265183647
 30
0.0
 10
86.1193296742
 20
244.0835326773
 30
0.0
 10
85.9401875208
 20
244.2068650469
 30
0.0
 10
85.7261582661
 20
244.4318889569
 30
0.0
 10
85.5907280338
 20
244.6807322934
 30
0.0
 10
85.5590819512
 20
244.8593720996
 30
0.0
 10
85.5590826037
 20
244.9450677109
 30
0.0
  0
SPLINE
  5
36B
100
AcDbEntity
  8
0
100
AcDbSpline
 62
7
  6
CONTINUOUS
 70
0
 71
3
 72
11
 73
7
 74
0
 42
0.0000001
 43
0.0000001
 44
0.0000000001
 40
0.0
 40
0.0
 40
0.0
 40
0.0
 40
0.23614603
 40
0.497695455
 40
0.7604898556
 40
1.0
 40
1.0
 40
1.0
 40
1.0
 10
106.830292339
 20
237.6375735021
 30
0.0
 10
106.6345485188
 20
237.5245614293
 30
0.0
 10
106.1803149052
 20
237.3578953213
 30
0.0
 10
105.4521825241
 20
237.2728708362
 30
0.0
 10
104.7192066456
 20
237.343017004
 30
0.0
 10
104.2571520663
 20
237.4996628101
 30
0.0
 10
104.0550977706
 20
237.6079558069
 30
0.0
  0
SPLINE
  5
36C
100
AcDbEntity
  8
0
100
AcDbSpline
 62
7
  6
CONTINUOUS
 70
0
 71
3
 72
11
 73
7
 74
0
 42
0.0000001
 43
0.0000001
 44
0.0000000001
 40
0.0
 40
0.0
 40
0.0
 40
0.0
 40
0.2395089728
 40
0.5023030954
 40
0.7638530268
 40
1.0
 40
1.0
 40
1.0
 40
1.0
 10
99.5645811699
 20
237.6079504414
 30
0.0
 10
99.3625284234
 20
237.4996549628
 30
0.0
 10
98.9004745664
 20
237.3430045635
 30
0.0
 10
98.167497078
 20
237.2728530389
 30
0.0
 10
97.4393600646
 20
237.3578734721
 30
0.0
 10
96.9851222559
 20
237.5245377965
 30
0.0
 10
96.7893760463
 20
237.6375493667
 30
0.0
  0
SPLINE
  5
36D
100
AcDbEntity
  8
0
100
AcDbSpline
 62
7
  6
CONTINUOUS
 70
0
 71
3
 72
11
 73
7
 74
0
 42
0.0000001
 43
0.0000001
 44
0.0000000001
 40
0.0
 40
0.0
 40
0.0
 40
0.0
 40
0.217765741
 40
0.4515807317
 40
0.7110771318
 40
1.0
 40
1.0
 40
1.0
 40
1.0
 10
87.925050239
 20
262.0130839181
 30
0.0
 10
87.9292293896
 20
261.9152347002
 30
0.0
 10
87.9729887165
 20
261.7126241766
 30
0.0
 10
88.1339380774
 20
261.4317100459
 30
0.0
 10
88.38096115
 20
261.1771901295
 30
0.0
 10
88.5856843078
 20
261.036922231
 30
0.0
 10
88.6982169603
 20
260.9719529436
 30
0.0
  0
SPLINE
  5
36E
100
AcDbEntity
  8
0
100
AcDbSpline
 62
7
  6
CONTINUOUS
 70
0
 71
3
 72
11
 73
7
 74
0
 42
0.0000001
 43
0.0000001
 44
0.0000000001
 40
0.0
 40
0.0
 40
0.0
 40
0.0
 40
0.2897766779
 40
0.5490706103
 40
0.7822286453
 40
1.0
 40
1.0
 40
1.0
 40
1.0
 10
100.2188561525
 20
235.9433514252
 30
0.0
 10
100.1201022321
 20
236.0003657378
 30
0.0
 10
99.9409600787
 20
236.1236981074
 30
0.0
 10
99.726930824
 20
236.3487220174
 30
0.0
 10
99.5915005917
 20
236.5975653539
 30
0.0
 10
99.5598545091
 20
236.7762051601
 30
0.0
 10
99.5598551616
 20
236.8619007714
 30
0.0
  0
SPLINE
  5
36F
100
AcDbEntity
  8
0
100
AcDbSpline
 62
7
  6
CONTINUOUS
 70
0
 71
3
 72
11
 73
7
 74
0
 42
0.0000001
 43
0.0000001
 44
0.0000000001
 40
0.0
 40
0.0
 40
0.0
 40
0.0
 40
0.2177227832
 40
0.4508712161
 40
0.7104668615
 40
1.0
 40
1.0
 40
1.0
 40
1.0
 10
97.2294011633
 20
269.1602421741
 30
0.0
 10
97.2294018984
 20
269.1412036687
 30
0.0
 10
97.2224005896
 20
269.101508881
 30
0.0
 10
97.1922928138
 20
269.0461865457
 30
0.0
 10
97.1446935619
 20
268.9962176029
 30
0.0
 10
97.1049038283
 20
268.9687807139
 30
0.0
 10
97.0829778725
 20
268.956121833
 30
0.0
  0
SPLINE
  5
370
100
AcDbEntity
  8
0
100
AcDbSpline
 62
7
  6
CONTINUOUS
 70
0
 71
3
 72
11
 73
7
 74
0
 42
0.0000001
 43
0.0000001
 44
0.0000000001
 40
0.0
 40
0.0
 40
0.0
 40
0.0
 40
0.2177753738
 40
0.4509336309
 40
0.7102261693
 40
1.0
 40
1.0
 40
1.0
 40
1.0
 10
85.5590777396
 20
246.8230232703
 30
0.0
 10
85.5590777407
 20
246.7373259337
 30
0.0
 10
85.5907270707
 20
246.5586845899
 30
0.0
 10
85.7261594359
 20
246.3098409182
 30
0.0
 10
85.9401891177
 20
246.0848188198
 30
0.0
 10
86.1193304788
 20
245.9614877722
 30
0.0
 10
86.2180835945
 20
245.9044739241
 30
0.0
  0
SPLINE
  5
371
100
AcDbEntity
  8
0
100
AcDbSpline
 62
7
  6
CONTINUOUS
 70
0
 71
3
 72
23
 73
19
 74
0
 42
0.0000001
 43
0.0000001
 44
0.0000000001
 40
0.0
 40
0.0
 40
0.0
 40
0.0
 40
0.0623921821
 40
0.1287433132
 40
0.1983464336
 40
0.2703343575
 40
0.3437240578
 40
0.4174689059
 40
0.4905058649
 40
0.5618044537
 40
0.6304130064
 40
0.6955110947
 40
0.7564683747
 40
0.8129145292
 40
0.8648231189
 40
0.9126052214
 40
0.9571863559
 40
1.0
 40
1.0
 40
1.0
 40
1.0
 10
94.0316392863
 20
268.9503500297
 30
0.0
 10
94.4268421172
 20
268.7221847307
 30
0.0
 10
95.2737820719
 20
268.3046080031
 30
0.0
 10
96.6399938411
 20
267.8095786225
 30
0.0
 10
98.1163969735
 20
267.4347923274
 30
0.0
 10
99.6713910345
 20
267.1882184771
 30
0.0
 10
101.2720195419
 20
267.075077505
 30
0.0
 10
102.8841216201
 20
267.0977633335
 30
0.0
 10
104.4733063631
 20
267.2558068299
 30
0.0
 10
106.0057027128
 20
267.5458375163
 30
0.0
 10
107.448757772
 20
267.9617299194
 30
0.0
 10
108.7719660628
 20
268.4948084493
 30
0.0
 10
109.9475301353
 20
269.1341917107
 30
0.0
 10
110.9508319519
 20
269.867320429
 30
0.0
 10
111.7605125376
 20
270.6804036629
 30
0.0
 10
112.3578985207
 20
271.5590787147
 30
0.0
 10
112.7260541725
 20
272.4859649995
 30
0.0
 10
112.8097769498
 20
273.1278954107
 30
0.0
 10
112.8097766741
 20
273.441035722
 30
0.0
  0
SPLINE
  5
372
100
AcDbEntity
  8
0
100
AcDbSpline
 62
7
  6
CONTINUOUS
 70
0
 71
3
 72
15
 73
11
 74
0
 42
0.0000001
 43
0.0000001
 44
0.0000000001
 40
0.0
 40
0.0
 40
0.0
 40
0.0
 40
0.0869258731
 40
0.1863900355
 40
0.3037775758
 40
0.4375856292
 40
0.582082136
 40
0.7293904368
 40
0.8711742898
 40
1.0
 40
1.0
 40
1.0
 40
1.0
 10
96.2294435707
 20
274.0592567253
 30
0.0
 10
96.2294430451
 20
274.0304203683
 30
0.0
 10
96.2468422666
 20
273.9680195984
 30
0.0
 10
96.3148605008
 20
273.8906733679
 30
0.0
 10
96.4152532728
 20
273.8294956933
 30
0.0
 10
96.5405915413
 20
273.7876121577
 30
0.0
 10
96.6810957587
 20
273.7678809487
 30
0.0
 10
96.8255705374
 20
273.7718567607
 30
0.0
 10
96.9621528482
 20
273.7991960752
 30
0.0
 10
97.0459673551
 20
273.8337684311
 30
0.0
 10
97.0829778725
 20
273.8551363358
 30
0.0
  0
SPLINE
  5
373
100
AcDbEntity
  8
0
100
AcDbSpline
 62
7
  6
CONTINUOUS
 70
0
 71
3
 72
11
 73
7
 74
0
 42
0.0000001
 43
0.0000001
 44
0.0000000001
 40
0.0
 40
0.0
 40
0.0
 40
0.0
 40
0.2895468475
 40
0.5491384346
 40
0.782278826
 40
1.0
 40
1.0
 40
1.0
 40
1.0
 10
100.1816855651
 20
268.7424959303
 30
0.0
 10
100.2036126091
 20
268.7551554395
 30
0.0
 10
100.2434034291
 20
268.7825926102
 30
0.0
 10
100.2910019255
 20
268.8325625709
 30
0.0
 10
100.3211094631
 20
268.8878839642
 30
0.0
 10
100.3281097947
 20
268.927577887
 30
0.0
 10
100.3281101417
 20
268.9466162953
 30
0.0
  0
SPLINE
  5
374
100
AcDbEntity
  8
0
100
AcDbSpline
 62
7
  6
CONTINUOUS
 70
0
 71
3
 72
11
 73
7
 74
0
 42
0.0000001
 43
0.0000001
 44
0.0000000001
 40
0.0
 40
0.0
 40
0.0
 40
0.0
 40
0.2897031353
 40
0.5490914015
 40
0.7822201129
 40
1.0
 40
1.0
 40
1.0
 40
1.0
 10
106.9362916754
 20
274.1554460767
 30
0.0
 10
106.9911397477
 20
274.187112437
 30
0.0
 10
107.0906485463
 20
274.2556508856
 30
0.0
 10
107.209577687
 20
274.3806359426
 30
0.0
 10
107.2848068007
 20
274.5189033649
 30
0.0
 10
107.3023966536
 20
274.6181374082
 30
0.0
 10
107.3024002576
 20
274.6657470222
 30
0.0
  0
SPLINE
  5
375
100
AcDbEntity
  8
0
100
AcDbSpline
 62
7
  6
CONTINUOUS
 70
0
 71
3
 72
11
 73
7
 74
0
 42
0.0000001
 43
0.0000001
 44
0.0000000001
 40
0.0
 40
0.0
 40
0.0
 40
0.0
 40
0.2897733512
 40
0.5490657165
 40
0.7822241652
 40
1.0
 40
1.0
 40
1.0
 40
1.0
 10
117.4014926446
 20
245.9045488798
 30
0.0
 10
117.5002439136
 20
245.9615626112
 30
0.0
 10
117.6793818751
 20
246.084893188
 30
0.0
 10
117.89340721
 20
246.3099136184
 30
0.0
 10
118.0288366454
 20
246.5587548808
 30
0.0
 10
118.0604852528
 20
246.7373941634
 30
0.0
 10
118.0604852517
 20
246.8230905774
 30
0.0
  0
SPLINE
  5
376
100
AcDbEntity
  8
0
100
AcDbSpline
 62
7
  6
CONTINUOUS
 70
0
 71
3
 72
11
 73
7
 74
0
 42
0.0000001
 43
0.0000001
 44
0.0000000001
 40
0.0
 40
0.0
 40
0.0
 40
0.0
 40
0.2602431929
 40
0.5216769552
 40
0.7718138644
 40
1.0
 40
1.0
 40
1.0
 40
1.0
 10
115.1550592859
 20
245.5804154416
 30
0.0
 10
115.3523805041
 20
245.5457407346
 30
0.0
 10
115.7542833202
 20
245.5090414082
 30
0.0
 10
116.349606726
 20
245.546110417
 30
0.0
 10
116.9076354446
 20
245.6713079239
 30
0.0
 10
117.2493611925
 20
245.8167162692
 30
0.0
 10
117.4014926446
 20
245.9045488798
 30
0.0
  0
SPLINE
  5
377
100
AcDbEntity
  8
0
100
AcDbSpline
 62
7
  6
CONTINUOUS
 70
0
 71
3
 72
11
 73
7
 74
0
 42
0.0000001
 43
0.0000001
 44
0.0000000001
 40
0.0
 40
0.0
 40
0.0
 40
0.0
 40
0.2897031353
 40
0.5490914015
 40
0.7822201129
 40
1.0
 40
1.0
 40
1.0
 40
1.0
 10
102.6936686521
 20
271.7059811534
 30
0.0
 10
102.7485167244
 20
271.7376475137
 30
0.0
 10
102.848025523
 20
271.8061859623
 30
0.0
 10
102.9669546637
 20
271.9311710194
 30
0.0
 10
103.0421837775
 20
272.0694384417
 30
0.0
 10
103.0597736303
 20
272.168672485
 30
0.0
 10
103.0597772343
 20
272.216282099
 30
0.0
  0
SPLINE
  5
378
100
AcDbEntity
  8
0
100
AcDbSpline
 62
7
  6
CONTINUOUS
 70
0
 71
3
 72
20
 73
16
 74
0
 42
0.0000001
 43
0.0000001
 44
0.0000000001
 40
0.0
 40
0.0
 40
0.0
 40
0.0
 40
0.062543892
 40
0.1196254743
 40
0.1716195437
 40
0.2197760316
 40
0.2660395707
 40
0.3128122995
 40
0.3623705262
 40
0.4163772144
 40
0.4757116294
 40
0.5405426823
 40
0.6844970909
 40
0.8411849668
 40
1.0
 40
1.0
 40
1.0
 40
1.0
 10
117.2600706996
 20
246.1494975141
 30
0.0
 10
117.3358614929
 20
246.1932550878
 30
0.0
 10
117.4754870816
 20
246.2869407796
 30
0.0
 10
117.6508149905
 20
246.4529523848
 30
0.0
 10
117.7777692235
 20
246.6348768005
 30
0.0
 10
117.8517453821
 20
246.8284743237
 30
0.0
 10
117.8687530144
 20
247.0280681841
 30
0.0
 10
117.8276588054
 20
247.2260140305
 30
0.0
 10
117.7310996803
 20
247.4153248623
 30
0.0
 10
117.5834271555
 20
247.5910639349
 30
0.0
 10
117.3893811799
 20
247.7495130294
 30
0.0
 10
117.0645294272
 20
247.9395565239
 30
0.0
 10
116.5755736502
 20
248.1063282267
 30
0.0
 10
115.9345773352
 20
248.1882164071
 30
0.0
 10
115.4906294026
 20
248.1627785956
 30
0.0
 10
115.2711073177
 20
248.1282276262
 30
0.0
  0
SPLINE
  5
379
100
AcDbEntity
  8
0
100
AcDbSpline
 62
7
  6
CONTINUOUS
 70
0
 71
3
 72
11
 73
7
 74
0
 42
0.0000001
 43
0.0000001
 44
0.0000000001
 40
0.0
 40
0.0
 40
0.0
 40
0.0
 40
0.2594898894
 40
0.5210570094
 40
0.7716326248
 40
1.0
 40
1.0
 40
1.0
 40
1.0
 10
115.1669905651
 20
245.8626677498
 30
0.0
 10
115.3497592362
 20
245.827788689
 30
0.0
 10
115.7233329456
 20
245.789239554
 30
0.0
 10
116.2780559161
 20
245.8190623821
 30
0.0
 10
116.7990826634
 20
245.9328209841
 30
0.0
 10
117.1182582686
 20
246.0676225576
 30
0.0
 10
117.2600706996
 20
246.1494975141
 30
0.0
  0
SPLINE
  5
37A
100
AcDbEntity
  8
0
100
AcDbSpline
 62
7
  6
CONTINUOUS
 70
0
 71
3
 72
11
 73
7
 74
0
 42
0.0000001
 43
0.0000001
 44
0.0000000001
 40
0.0
 40
0.0
 40
0.0
 40
0.0
 40
0.2897733512
 40
0.5490657165
 40
0.7822241652
 40
1.0
 40
1.0
 40
1.0
 40
1.0
 10
103.4008366678
 20
237.8213146331
 30
0.0
 10
103.4995879368
 20
237.8783283645
 30
0.0
 10
103.6787258983
 20
238.0016589414
 30
0.0
 10
103.8927512332
 20
238.2266793718
 30
0.0
 10
104.0281806686
 20
238.4755206341
 30
0.0
 10
104.059829276
 20
238.6541599167
 30
0.0
 10
104.0598292749
 20
238.7398563308
 30
0.0
  0
SPLINE
  5
37B
100
AcDbEntity
  8
0
100
AcDbSpline
 62
7
  6
CONTINUOUS
 70
0
 71
3
 72
13
 73
9
 74
0
 42
0.0000001
 43
0.0000001
 44
0.0000000001
 40
0.0
 40
0.0
 40
0.0
 40
0.0
 40
0.1142466307
 40
0.237544229
 40
0.5000005226
 40
0.7624565301
 40
0.8857537943
 40
1.0
 40
1.0
 40
1.0
 40
1.0
 10
100.2188561525
 20
237.8213069846
 30
0.0
 10
100.3277628736
 20
237.7584310823
 30
0.0
 10
100.5659482507
 20
237.6475108512
 30
0.0
 10
101.0938215702
 20
237.4871897211
 30
0.0
 10
101.8098489025
 20
237.4093086092
 30
0.0
 10
102.5258755464
 20
237.4871930317
 30
0.0
 10
103.0537468877
 20
237.6475167585
 30
0.0
 10
103.2919308052
 20
237.7584381794
 30
0.0
 10
103.4008366678
 20
237.8213146331
 30
0.0
  0
SPLINE
  5
37C
100
AcDbEntity
  8
0
100
AcDbSpline
 62
7
  6
CONTINUOUS
 70
0
 71
3
 72
16
 73
12
 74
0
 42
0.0000001
 43
0.0000001
 44
0.0000000001
 40
0.0
 40
0.0
 40
0.0
 40
0.0
 40
0.0428770841
 40
0.0875219403
 40
0.1869264335
 40
0.304237726
 40
0.4379617048
 40
0.5823668234
 40
0.7295956164
 40
0.8712504692
 40
1.0
 40
1.0
 40
1.0
 40
1.0
 10
99.887974077
 20
275.6585513397
 30
0.0
 10
99.8879713834
 20
275.6229681638
 30
0.0
 10
99.8975093682
 20
275.550028598
 30
0.0
 10
99.9552410199
 20
275.4045897923
 30
0.0
 10
100.1015068327
 20
275.2366437036
 30
0.0
 10
100.3525569132
 20
275.0842776376
 30
0.0
 10
100.6658970319
 20
274.9793948785
 30
0.0
 10
101.0171846331
 20
274.9301014279
 30
0.0
 10
101.3783573887
 20
274.9400736849
 30
0.0
 10
101.7198149841
 20
275.0083822357
 30
0.0
 10
101.9293240238
 20
275.0948267952
 30
0.0
 10
102.0218569722
 20
275.148250399
 30
0.0
  0
SPLINE
  5
37D
100
AcDbEntity
  8
0
100
AcDbSpline
 62
7
  6
CONTINUOUS
 70
0
 71
3
 72
20
 73
16
 74
0
 42
0.0000001
 43
0.0000001
 44
0.0000000001
 40
0.0
 40
0.0
 40
0.0
 40
0.0
 40
0.0604268061
 40
0.1144969405
 40
0.1631166567
 40
0.208527791
 40
0.2539373082
 40
0.3025610926
 40
0.35662214
 40
0.4170544351
 40
0.4836998577
 40
0.5556091599
 40
0.7086987237
 40
0.8617907063
 40
1.0
 40
1.0
 40
1.0
 40
1.0
 10
103.2594147227
 20
238.0662632674
 30
0.0
 10
103.3493894788
 20
238.118209907
 30
0.0
 10
103.5126052755
 20
238.2305960346
 30
0.0
 10
103.7076062415
 20
238.4355536902
 30
0.0
 10
103.8309946658
 20
238.6624744104
 30
0.0
 10
103.8737480218
 20
238.9031531715
 30
0.0
 10
103.830999762
 20
239.1438467287
 30
0.0
 10
103.7076035801
 20
239.3707335462
 30
0.0
 10
103.5125677768
 20
239.5757491195
 30
0.0
 10
103.2546111194
 20
239.7533801368
 30
0.0
 10
102.9432338713
 20
239.8983676626
 30
0.0
 10
102.4622414057
 20
240.044482714
 30
0.0
 10
101.8094044426
 20
240.1153675765
 30
0.0
 10
101.0447632468
 20
240.0322460815
 30
0.0
 10
100.5660567536
 20
239.8588636629
 30
0.0
 10
100.3602648496
 20
239.740050361
 30
0.0
  0
SPLINE
  5
37E
100
AcDbEntity
  8
0
100
AcDbSpline
 62
7
  6
CONTINUOUS
 70
0
 71
3
 72
20
 73
16
 74
0
 42
0.0000001
 43
0.0000001
 44
0.0000000001
 40
0.0
 40
0.0
 40
0.0
 40
0.0
 40
0.0590395611
 40
0.1118671376
 40
0.1596656523
 40
0.2048278659
 40
0.2505611575
 40
0.2998866508
 40
0.3547801814
 40
0.415989624
 40
0.4832531899
 40
0.5555821273
 40
0.7089677721
 40
0.8619154977
 40
1.0
 40
1.0
 40
1.0
 40
1.0
 10
100.2972794591
 20
239.7020225141
 30
0.0
 10
100.2126624226
 20
239.6485988144
 30
0.0
 10
100.0600169345
 20
239.5338572985
 30
0.0
 10
99.8817534756
 20
239.3268701804
 30
0.0
 10
99.7748249367
 20
239.0999617146
 30
0.0
 10
99.7475911992
 20
238.8618410439
 30
0.0
 10
99.8031142521
 20
238.6262376463
 30
0.0
 10
99.9356467679
 20
238.4054878806
 30
0.0
 10
100.136631642
 20
238.2066926817
 30
0.0
 10
100.3977368557
 20
238.0351253972
 30
0.0
 10
100.7096720235
 20
237.8958407418
 30
0.0
 10
101.187638125
 20
237.7568167031
 30
0.0
 10
101.8324800349
 20
237.6917763198
 30
0.0
 10
102.5858398485
 20
237.7773830256
 30
0.0
 10
103.0567212284
 20
237.9492388225
 30
0.0
 10
103.2594147227
 20
238.0662632674
 30
0.0
  0
SPLINE
  5
37F
100
AcDbEntity
  8
0
100
AcDbSpline
 62
7
  6
CONTINUOUS
 70
0
 71
3
 72
11
 73
7
 74
0
 42
0.0000001
 43
0.0000001
 44
0.0000000001
 40
0.0
 40
0.0
 40
0.0
 40
0.0
 40
0.2281866977
 40
0.4783239285
 40
0.7397575564
 40
1.0
 40
1.0
 40
1.0
 40
1.0
 10
86.2180835945
 20
245.9044739241
 30
0.0
 10
86.3702171366
 20
245.8166415697
 30
0.0
 10
86.7119469293
 20
245.6712342675
 30
0.0
 10
87.2699810172
 20
245.5460394501
 30
0.0
 10
87.8653084942
 20
245.5089743395
 30
0.0
 10
88.2672132349
 20
245.5456770238
 30
0.0
 10
88.4645349798
 20
245.5803536318
 30
0.0
  0
SPLINE
  5
380
100
AcDbEntity
  8
0
100
AcDbSpline
 62
7
  6
CONTINUOUS
 70
0
 71
3
 72
11
 73
7
 74
0
 42
0.0000001
 43
0.0000001
 44
0.0000000001
 40
0.0
 40
0.0
 40
0.0
 40
0.0
 40
0.2610080061
 40
0.5222851752
 40
0.7719705141
 40
1.0
 40
1.0
 40
1.0
 40
1.0
 10
88.3543650489
 20
248.1272256949
 30
0.0
 10
88.17807468
 20
248.1553024877
 30
0.0
 10
87.8203055658
 20
248.1832470123
 30
0.0
 10
87.2917211046
 20
248.1453338688
 30
0.0
 10
86.7972677708
 20
248.0310685966
 30
0.0
 10
86.4945552713
 20
247.9011954827
 30
0.0
 10
86.3594922917
 20
247.8232173005
 30
0.0
  0
SPLINE
  5
381
100
AcDbEntity
  8
0
100
AcDbSpline
 62
7
  6
CONTINUOUS
 70
0
 71
3
 72
19
 73
15
 74
0
 42
0.0000001
 43
0.0000001
 44
0.0000000001
 40
0.0
 40
0.0
 40
0.0
 40
0.0
 40
0.0608678301
 40
0.1162859727
 40
0.166896955
 40
0.2141472367
 40
0.2601448032
 40
0.3073159918
 40
0.3577984924
 40
0.4130382331
 40
0.5394430273
 40
0.6852335338
 40
0.8423556572
 40
1.0
 40
1.0
 40
1.0
 40
1.0
 10
86.2965069012
 20
247.7851894536
 30
0.0
 10
86.224173883
 20
247.7395213754
 30
0.0
 10
86.0917628628
 20
247.6423463373
 30
0.0
 10
85.9290220944
 20
247.471448979
 30
0.0
 10
85.8160423257
 20
247.2857073794
 30
0.0
 10
85.7573136936
 20
247.0896156733
 30
0.0
 10
85.7563724097
 20
246.8894899587
 30
0.0
 10
85.8132637712
 20
246.6931476959
 30
0.0
 10
85.92455964
 20
246.5069963457
 30
0.0
 10
86.1495372704
 20
246.267959769
 30
0.0
 10
86.5503409436
 20
246.0262720942
 30
0.0
 10
87.1309911942
 20
245.8478497359
 30
0.0
 10
87.7787358586
 20
245.7824318447
 30
0.0
 10
88.2227081131
 20
245.8196274751
 30
0.0
 10
88.4404916644
 20
245.8603177706
 30
0.0
  0
SPLINE
  5
382
100
AcDbEntity
  8
0
100
AcDbSpline
 62
7
  6
CONTINUOUS
 70
0
 71
3
 72
22
 73
18
 74
0
 42
0.0000001
 43
0.0000001
 44
0.0000000001
 40
0.0
 40
0.0
 40
0.0
 40
0.0
 40
0.0623990858
 40
0.1287612932
 40
0.1983726619
 40
0.2703705519
 40
0.4173906053
 40
0.4904374903
 40
0.5617459069
 40
0.6303639194
 40
0.695470839
 40
0.7564362235
 40
0.8128897769
 40
0.8648051399
 40
0.9125935186
 40
0.9571805446
 40
1.0
 40
1.0
 40
1.0
 40
1.0
 10
95.269016538
 20
277.2172627016
 30
0.0
 10
95.6013380753
 20
277.4091274853
 30
0.0
 10
96.313549822
 20
277.7602743369
 30
0.0
 10
97.4623798768
 20
278.1765576883
 30
0.0
 10
98.7040141197
 20
278.4917521729
 30
0.0
 10
100.4588384092
 20
278.7698950676
 30
0.0
 10
102.2647533642
 20
278.8196325686
 30
0.0
 10
104.0494340943
 20
278.6422885932
 30
0.0
 10
105.3381631486
 20
278.3983681677
 30
0.0
 10
106.5516215334
 20
278.0486521833
 30
0.0
 10
107.6643317968
 20
277.6003767805
 30
0.0
 10
108.6528734659
 20
277.0627100265
 30
0.0
 10
109.4965578369
 20
276.4462114651
 30
0.0
 10
110.1774224449
 20
275.7624802842
 30
0.0
 10
110.6797714564
 20
275.0235932615
 30
0.0
 10
110.9893495961
 20
274.2441661358
 30
0.0
 10
111.0597821077
 20
273.7043596303
 30
0.0
 10
111.059764968
 20
273.4410358264
 30
0.0
  0
SPLINE
  5
383
100
AcDbEntity
  8
0
100
AcDbSpline
 62
7
  6
CONTINUOUS
 70
0
 71
3
 72
23
 73
19
 74
0
 42
0.0000001
 43
0.0000001
 44
0.0000000001
 40
0.0
 40
0.0
 40
0.0
 40
0.0
 40
0.042813724
 40
0.0873949992
 40
0.1351772824
 40
0.1870861369
 40
0.2435326081
 40
0.3044901526
 40
0.3695883295
 40
0.4381966788
 40
0.5094946971
 40
0.5825308308
 40
0.6562744134
 40
0.7296635316
 40
0.8016518575
 40
0.8712561261
 40
0.9376063745
 40
1.0
 40
1.0
 40
1.0
 40
1.0
 10
113.5597686793
 20
259.968745856
 30
0.0
 10
113.559753205
 20
259.6342543709
 30
0.0
 10
113.4703460916
 20
258.948554131
 30
0.0
 10
113.077080178
 20
257.958466894
 30
0.0
 10
112.4389642214
 20
257.019877562
 30
0.0
 10
111.574073269
 20
256.1513519435
 30
0.0
 10
110.5023587184
 20
255.3682336048
 30
0.0
 10
109.2466368164
 20
254.6852547472
 30
0.0
 10
107.833207586
 20
254.1158313347
 30
0.0
 10
106.2917665188
 20
253.671586567
 30
0.0
 10
104.6549002249
 20
253.3617846604
 30
0.0
 10
102.9573821639
 20
253.1929706059
 30
0.0
 10
101.2353844516
 20
253.1687345568
 30
0.0
 10
99.525633786
 20
253.2895944596
 30
0.0
 10
97.8646073379
 20
253.5529691942
 30
0.0
 10
96.2875379426
 20
253.9533219766
 30
0.0
 10
94.8281579196
 20
254.4820947724
 30
0.0
 10
93.9234697473
 20
254.9281493149
 30
0.0
 10
93.5013114084
 20
255.1718770317
 30
0.0
  0
SPLINE
  5
384
100
AcDbEntity
  8
0
100
AcDbSpline
 62
7
  6
CONTINUOUS
 70
0
 71
3
 72
14
 73
10
 74
0
 42
0.0000001
 43
0.0000001
 44
0.0000000001
 40
0.0
 40
0.0
 40
0.0
 40
0.0
 40
0.1080463821
 40
0.2181291861
 40
0.3321024731
 40
0.4515010961
 40
0.5774587717
 40
0.7107176015
 40
1.0
 40
1.0
 40
1.0
 40
1.0
 10
90.0597942352
 20
261.6017506654
 30
0.0
 10
90.0597839409
 20
261.3793075851
 30
0.0
 10
90.0984483863
 20
260.9293282846
 30
0.0
 10
90.2708304133
 20
260.2646838209
 30
0.0
 10
90.5554567499
 20
259.6143562542
 30
0.0
 10
90.9486568179
 20
258.984967927
 30
0.0
 10
91.4460163768
 20
258.3820858579
 30
0.0
 10
92.2632209749
 20
257.5999671255
 30
0.0
 10
92.9855322738
 20
257.1026603514
 30
0.0
 10
93.5013114084
 20
256.8048818659
 30
0.0
  0
SPLINE
  5
385
100
AcDbEntity
  8
0
100
AcDbSpline
 62
7
  6
CONTINUOUS
 70
0
 71
3
 72
15
 73
11
 74
0
 42
0.0000001
 43
0.0000001
 44
0.0000000001
 40
0.0
 40
0.0
 40
0.0
 40
0.0
 40
0.0869258731
 40
0.1863900355
 40
0.3037775758
 40
0.4375856292
 40
0.582082136
 40
0.7293904368
 40
0.8711742898
 40
1.0
 40
1.0
 40
1.0
 40
1.0
 10
95.6465103251
 20
271.0721646202
 30
0.0
 10
95.6465097995
 20
271.0433282633
 30
0.0
 10
95.6639090209
 20
270.9809274933
 30
0.0
 10
95.7319272552
 20
270.9035812629
 30
0.0
 10
95.8323200271
 20
270.8424035882
 30
0.0
 10
95.9576582956
 20
270.8005200526
 30
0.0
 10
96.0981625131
 20
270.7807888436
 30
0.0
 10
96.2426372918
 20
270.7847646556
 30
0.0
 10
96.3792196026
 20
270.8121039702
 30
0.0
 10
96.4630341095
 20
270.846676326
 30
0.0
 10
96.5000446269
 20
270.8680442307
 30
0.0
  0
SPLINE
  5
386
100
AcDbEntity
  8
0
100
AcDbSpline
 62
7
  6
CONTINUOUS
 70
0
 71
3
 72
23
 73
19
 74
0
 42
0.0000001
 43
0.0000001
 44
0.0000000001
 40
0.0
 40
0.0
 40
0.0
 40
0.0
 40
0.0428142606
 40
0.0873961484
 40
0.135178974
 40
0.1870875766
 40
0.2435334401
 40
0.3044907176
 40
0.3695889494
 40
0.4381973629
 40
0.5094953081
 40
0.5825313298
 40
0.6562748184
 40
0.7296638441
 40
0.8016520764
 40
0.8712562805
 40
0.9376064277
 40
1.0
 40
1.0
 40
1.0
 40
1.0
 10
113.3097688166
 20
261.6017506953
 30
0.0
 10
113.3097532324
 20
261.274371943
 30
0.0
 10
113.2222469278
 20
260.6032521182
 30
0.0
 10
112.837338359
 20
259.6342202315
 30
0.0
 10
112.2127909081
 20
258.7155982014
 30
0.0
 10
111.3662990792
 20
257.8655581565
 30
0.0
 10
110.317391756
 20
257.0991102875
 30
0.0
 10
109.0883919352
 20
256.4306676489
 30
0.0
 10
107.7050361807
 20
255.8733613503
 30
0.0
 10
106.1963909846
 20
255.4385698373
 30
0.0
 10
104.5943522707
 20
255.1353609875
 30
0.0
 10
102.932953616
 20
254.9701400728
 30
0.0
 10
101.2475964061
 20
254.9464205869
 30
0.0
 10
99.5742255958
 20
255.0647096617
 30
0.0
 10
97.9485420822
 20
255.3224808414
 30
0.0
 10
96.4050294175
 20
255.714315598
 30
0.0
 10
94.9767016352
 20
256.2318374419
 30
0.0
 10
94.0912632674
 20
256.668401084
 30
0.0
 10
93.6780873677
 20
256.9069429044
 30
0.0
  0
SPLINE
  5
387
100
AcDbEntity
  8
0
100
AcDbSpline
 62
7
  6
CONTINUOUS
 70
0
 71
3
 72
11
 73
7
 74
0
 42
0.0000001
 43
0.0000001
 44
0.0000000001
 40
0.0
 40
0.0
 40
0.0
 40
0.0
 40
0.2895468475
 40
0.5491384346
 40
0.782278826
 40
1.0
 40
1.0
 40
1.0
 40
1.0
 10
96.5000446269
 20
270.8680442307
 30
0.0
 10
96.5219716709
 20
270.8807037399
 30
0.0
 10
96.5617624909
 20
270.9081409106
 30
0.0
 10
96.6093609874
 20
270.9581108713
 30
0.0
 10
96.639468525
 20
271.0134322645
 30
0.0
 10
96.6464688566
 20
271.0531261874
 30
0.0
 10
96.6464692036
 20
271.0721645957
 30
0.0
  0
SPLINE
  5
388
100
AcDbEntity
  8
0
100
AcDbSpline
 62
7
  6
CONTINUOUS
 70
0
 71
3
 72
14
 73
10
 74
0
 42
0.0000001
 43
0.0000001
 44
0.0000000001
 40
0.0
 40
0.0
 40
0.0
 40
0.0
 40
0.1080463613
 40
0.2181291605
 40
0.3321024386
 40
0.4515010471
 40
0.577458788
 40
0.7107176033
 40
1.0
 40
1.0
 40
1.0
 40
1.0
 10
90.3097939369
 20
270.1750260449
 30
0.0
 10
90.309783937
 20
269.9573158334
 30
0.0
 10
90.347625162
 20
269.5169105663
 30
0.0
 10
90.5163397591
 20
268.8664075404
 30
0.0
 10
90.794910393
 20
268.2299169016
 30
0.0
 10
91.1797441924
 20
267.6139194942
 30
0.0
 10
91.6665219896
 20
267.0238648604
 30
0.0
 10
92.466339244
 20
266.2583867964
 30
0.0
 10
93.17328225
 20
265.7716610615
 30
0.0
 10
93.6780873677
 20
265.4802182843
 30
0.0
  0
SPLINE
  5
389
100
AcDbEntity
  8
0
100
AcDbSpline
 62
7
  6
CONTINUOUS
 70
0
 71
3
 72
14
 73
10
 74
0
 42
0.0000001
 43
0.0000001
 44
0.0000000001
 40
0.0
 40
0.0
 40
0.0
 40
0.0
 40
0.1060325596
 40
0.2144234179
 40
0.3272821638
 40
0.4462939424
 40
0.5726383038
 40
0.7069994564
 40
1.0
 40
1.0
 40
1.0
 40
1.0
 10
112.8097763949
 20
270.1750260535
 30
0.0
 10
112.8097771277
 20
269.948264527
 30
0.0
 10
112.766720945
 20
269.4886152714
 30
0.0
 10
112.5750187515
 20
268.8118320518
 30
0.0
 10
112.2593287189
 20
268.152562664
 30
0.0
 10
111.8243928408
 20
267.518657838
 30
0.0
 10
111.2759454025
 20
266.9166217559
 30
0.0
 10
110.3766294347
 20
266.1429556813
 30
0.0
 10
109.5888684041
 20
265.6645019184
 30
0.0
 10
109.0288961253
 20
265.3833020505
 30
0.0
  0
SPLINE
  5
38A
100
AcDbEntity
  8
0
100
AcDbSpline
 62
7
  6
CONTINUOUS
 70
0
 71
3
 72
9
 73
5
 74
0
 42
0.0000001
 43
0.0000001
 44
0.0000000001
 40
0.0
 40
0.0
 40
0.0
 40
0.0
 40
0.486098099
 40
1.0
 40
1.0
 40
1.0
 40
1.0
 10
109.0288961253
 20
265.3833020505
 30
0.0
 10
108.6037607993
 20
265.1698129154
 30
0.0
 10
107.70152382
 20
264.7844955829
 30
0.0
 10
106.764304902
 20
264.4965889475
 30
0.0
 10
106.27714451
 20
264.3715984278
 30
0.0
  0
SPLINE
  5
38B
100
AcDbEntity
  8
0
100
AcDbSpline
 62
7
  6
CONTINUOUS
 70
0
 71
3
 72
11
 73
7
 74
0
 42
0.0000001
 43
0.0000001
 44
0.0000000001
 40
0.0
 40
0.0
 40
0.0
 40
0.0
 40
0.2440451847
 40
0.4949336227
 40
0.7483910992
 40
1.0
 40
1.0
 40
1.0
 40
1.0
 10
106.27714451
 20
264.3715984278
 30
0.0
 10
105.7239095927
 20
264.2296551972
 30
0.0
 10
104.5859204751
 20
264.0014217461
 30
0.0
 10
102.8408509802
 20
263.8246229696
 30
0.0
 10
101.0692430046
 20
263.8111099787
 30
0.0
 10
99.889442288
 20
263.9122315093
 30
0.0
 10
99.3058775148
 20
263.9909919025
 30
0.0
  0
SPLINE
  5
38C
100
AcDbEntity
  8
0
100
AcDbSpline
 62
7
  6
CONTINUOUS
 70
0
 71
3
 72
9
 73
5
 74
0
 42
0.0000001
 43
0.0000001
 44
0.0000000001
 40
0.0
 40
0.0
 40
0.0
 40
0.0
 40
0.5217013438
 40
1.0
 40
1.0
 40
1.0
 40
1.0
 10
98.5638223471
 20
264.1070630146
 30
0.0
 10
97.7392482579
 20
264.2540830234
 30
0.0
 10
96.1761573133
 20
264.6490661634
 30
0.0
 10
94.6966607772
 20
265.3003987103
 30
0.0
 10
94.0316392863
 20
265.6843403612
 30
0.0
  0
SPLINE
  5
38D
100
AcDbEntity
  8
0
100
AcDbSpline
 62
7
  6
CONTINUOUS
 70
0
 71
3
 72
11
 73
7
 74
0
 42
0.0000001
 43
0.0000001
 44
0.0000000001
 40
0.0
 40
0.0
 40
0.0
 40
0.0
 40
0.2897031353
 40
0.5490914015
 40
0.7822201129
 40
1.0
 40
1.0
 40
1.0
 40
1.0
 10
102.0218569722
 20
275.148250399
 30
0.0
 10
102.0767050444
 20
275.1799167592
 30
0.0
 10
102.1762138431
 20
275.2484552078
 30
0.0
 10
102.2951429838
 20
275.3734402649
 30
0.0
 10
102.3703720975
 20
275.5117076872
 30
0.0
 10
102.3879619504
 20
275.6109417305
 30
0.0
 10
102.3879655544
 20
275.6585513445
 30
0.0
  0
SPLINE
  5
38E
100
AcDbEntity
  8
0
100
AcDbSpline
 62
7
  6
CONTINUOUS
 70
0
 71
3
 72
14
 73
10
 74
0
 42
0.0000001
 43
0.0000001
 44
0.0000000001
 40
0.0
 40
0.0
 40
0.0
 40
0.0
 40
0.1080477053
 40
0.2181300025
 40
0.3321016202
 40
0.4515004859
 40
0.5774546212
 40
0.7107147396
 40
1.0
 40
1.0
 40
1.0
 40
1.0
 10
90.8097863172
 20
273.4410357226
 30
0.0
 10
90.8097865006
 20
273.2327886139
 30
0.0
 10
90.8459817895
 20
272.8115302528
 30
0.0
 10
91.0073718437
 20
272.1893153986
 30
0.0
 10
91.2738054017
 20
271.5804908541
 30
0.0
 10
91.641926133
 20
270.9912984369
 30
0.0
 10
92.107519809
 20
270.4268891322
 30
0.0
 10
92.8725658207
 20
269.6946928424
 30
0.0
 10
93.5487775114
 20
269.2291240987
 30
0.0
 10
94.0316392863
 20
268.9503500297
 30
0.0
  0
SPLINE
  5
38F
100
AcDbEntity
  8
0
100
AcDbSpline
 62
7
  6
CONTINUOUS
 70
0
 71
3
 72
14
 73
10
 74
0
 42
0.0000001
 43
0.0000001
 44
0.0000000001
 40
0.0
 40
0.0
 40
0.0
 40
0.0
 40
0.1080475079
 40
0.218129458
 40
0.3321012995
 40
0.4515009845
 40
0.5774519083
 40
0.7107147531
 40
1.0
 40
1.0
 40
1.0
 40
1.0
 10
92.5597980233
 20
273.4410356182
 30
0.0
 10
92.5598094214
 20
273.6161498764
 30
0.0
 10
92.5901934041
 20
273.9703885251
 30
0.0
 10
92.7259519771
 20
274.4935985498
 30
0.0
 10
92.949968546
 20
275.0055676269
 30
0.0
 10
93.2595258367
 20
275.5010130843
 30
0.0
 10
93.6510342562
 20
275.9756298871
 30
0.0
 10
94.2943539251
 20
276.5913384582
 30
0.0
 10
94.8629807436
 20
276.9828392257
 30
0.0
 10
95.269016538
 20
277.2172627016
 30
0.0
  0
SPLINE
  5
390
100
AcDbEntity
  8
0
100
AcDbSpline
 62
7
  6
CONTINUOUS
 70
0
 71
3
 72
9
 73
5
 74
0
 42
0.0000001
 43
0.0000001
 44
0.0000000001
 40
0.0
 40
0.0
 40
0.0
 40
0.0
 40
0.2556822957
 40
1.0
 40
1.0
 40
1.0
 40
1.0
 10
97.6133101664
 20
268.6499412671
 30
0.0
 10
97.6221174396
 20
268.6550261183
 30
0.0
 10
97.6563007681
 20
268.6753632423
 30
0.0
 10
97.6894091256
 20
268.6975231553
 30
0.0
 10
97.7132430959
 20
268.7150847399
 30
0.0
  0
SPLINE
  5
391
100
AcDbEntity
  8
0
100
AcDbSpline
 62
7
  6
CONTINUOUS
 70
0
 71
3
 72
11
 73
7
 74
0
 42
0.0000001
 43
0.0000001
 44
0.0000000001
 40
0.0
 40
0.0
 40
0.0
 40
0.0
 40
0.2826299124
 40
0.539370972
 40
0.7754803459
 40
1.0
 40
1.0
 40
1.0
 40
1.0
 10
97.7132430959
 20
268.7150847399
 30
0.0
 10
97.7539821718
 20
268.7451025136
 30
0.0
 10
97.8275741379
 20
268.8085371889
 30
0.0
 10
97.9136239735
 20
268.9188686946
 30
0.0
 10
97.9671108935
 20
269.0371444416
 30
0.0
 10
97.9794157056
 20
269.1200428747
 30
0.0
 10
97.9794187486
 20
269.1602422126
 30
0.0
  0
SPLINE
  5
392
100
AcDbEntity
  8
0
100
AcDbSpline
 62
7
  6
CONTINUOUS
 70
0
 71
3
 72
9
 73
5
 74
0
 42
0.0000001
 43
0.0000001
 44
0.0000000001
 40
0.0
 40
0.0
 40
0.0
 40
0.0
 40
0.2568746305
 40
1.0
 40
1.0
 40
1.0
 40
1.0
 10
99.8691380377
 20
270.9058128074
 30
0.0
 10
99.6346146683
 20
270.8767603212
 30
0.0
 10
98.7244724622
 20
270.7425638423
 30
0.0
 10
97.8260179902
 20
270.5233839476
 30
0.0
 10
97.1775840184
 20
270.3067941315
 30
0.0
  0
SPLINE
  5
393
100
AcDbEntity
  8
0
100
AcDbSpline
 62
7
  6
CONTINUOUS
 70
0
 71
3
 72
11
 73
7
 74
0
 42
0.0000001
 43
0.0000001
 44
0.0000000001
 40
0.0
 40
0.0
 40
0.0
 40
0.0
 40
0.2590104209
 40
0.5206584756
 40
0.7715118421
 40
1.0
 40
1.0
 40
1.0
 40
1.0
 10
88.5467340373
 20
243.7178501757
 30
0.0
 10
88.3441679235
 20
243.6772676323
 30
0.0
 10
87.9291881835
 20
243.6313709766
 30
0.0
 10
87.3120120127
 20
243.6613090903
 30
0.0
 10
86.7315723905
 20
243.7858861305
 30
0.0
 10
86.375914343
 20
243.935396801
 30
0.0
 10
86.2180835945
 20
244.0265183647
 30
0.0
  0
SPLINE
  5
394
100
AcDbEntity
  8
0
100
AcDbSpline
 62
7
  6
CONTINUOUS
 70
0
 71
3
 72
15
 73
11
 74
0
 42
0.0000001
 43
0.0000001
 44
0.0000000001
 40
0.0
 40
0.0
 40
0.0
 40
0.0
 40
0.0869258731
 40
0.1863900355
 40
0.3037775758
 40
0.4375856292
 40
0.582082136
 40
0.7293904368
 40
0.8711742898
 40
1.0
 40
1.0
 40
1.0
 40
1.0
 10
104.502015667
 20
269.2831930476
 30
0.0
 10
104.5020151413
 20
269.2543566907
 30
0.0
 10
104.5194143628
 20
269.1919559207
 30
0.0
 10
104.5874325971
 20
269.1146096903
 30
0.0
 10
104.687825369
 20
269.0534320157
 30
0.0
 10
104.8131636375
 20
269.01154848
 30
0.0
 10
104.953667855
 20
268.991817271
 30
0.0
 10
105.0981426337
 20
268.995793083
 30
0.0
 10
105.2347249445
 20
269.0231323976
 30
0.0
 10
105.3185394514
 20
269.0577047534
 30
0.0
 10
105.3555499688
 20
269.0790726581
 30
0.0
  0
SPLINE
  5
395
100
AcDbEntity
  8
0
100
AcDbSpline
 62
7
  6
CONTINUOUS
 70
0
 71
3
 72
11
 73
7
 74
0
 42
0.0000001
 43
0.0000001
 44
0.0000000001
 40
0.0
 40
0.0
 40
0.0
 40
0.0
 40
0.2895468475
 40
0.5491384346
 40
0.782278826
 40
1.0
 40
1.0
 40
1.0
 40
1.0
 10
97.0829778725
 20
273.8551363358
 30
0.0
 10
97.1049049166
 20
273.867795845
 30
0.0
 10
97.1446957365
 20
273.8952330157
 30
0.0
 10
97.192294233
 20
273.9452029764
 30
0.0
 10
97.2224017706
 20
274.0005243696
 30
0.0
 10
97.2294021022
 20
274.0402182925
 30
0.0
 10
97.2294024492
 20
274.0592567007
 30
0.0
  0
SPLINE
  5
396
100
AcDbEntity
  8
0
100
AcDbSpline
 62
7
  6
CONTINUOUS
 70
0
 71
3
 72
14
 73
10
 74
0
 42
0.0000001
 43
0.0000001
 44
0.0000000001
 40
0.0
 40
0.0
 40
0.0
 40
0.0
 40
0.289280379
 40
0.4225387331
 40
0.5484964493
 40
0.6678946053
 40
0.7818677127
 40
0.8919517501
 40
1.0
 40
1.0
 40
1.0
 40
1.0
 10
93.6780873677
 20
256.9069429044
 30
0.0
 10
93.1732857573
 20
257.1983836568
 30
0.0
 10
92.4663467017
 20
257.6851061235
 30
0.0
 10
91.6665317536
 20
258.4505792283
 30
0.0
 10
91.1797531633
 20
259.0406308163
 30
0.0
 10
90.7949185522
 20
259.6566260762
 30
0.0
 10
90.5163436979
 20
260.2931163399
 30
0.0
 10
90.3476275079
 20
260.9436251494
 30
0.0
 10
90.3097838108
 20
261.3840366297
 30
0.0
 10
90.3097941746
 20
261.6017506526
 30
0.0
  0
SPLINE
  5
397
100
AcDbEntity
  8
0
100
AcDbSpline
 62
7
  6
CONTINUOUS
 70
0
 71
3
 72
16
 73
12
 74
0
 42
0.0000001
 43
0.0000001
 44
0.0000000001
 40
0.0
 40
0.0
 40
0.0
 40
0.0
 40
0.0428770841
 40
0.0875219403
 40
0.1869264335
 40
0.304237726
 40
0.4379617048
 40
0.5823668234
 40
0.7295956164
 40
0.8712504692
 40
1.0
 40
1.0
 40
1.0
 40
1.0
 10
106.5220618132
 20
271.828445648
 30
0.0
 10
106.5220591196
 20
271.7928624721
 30
0.0
 10
106.5315971044
 20
271.7199229063
 30
0.0
 10
106.589328756
 20
271.5744841005
 30
0.0
 10
106.7355945689
 20
271.4065380119
 30
0.0
 10
106.9866446494
 20
271.2541719459
 30
0.0
 10
107.299984768
 20
271.1492891868
 30
0.0
 10
107.6512723693
 20
271.0999957362
 30
0.0
 10
108.0124451248
 20
271.1099679931
 30
0.0
 10
108.3539027203
 20
271.178276544
 30
0.0
 10
108.56341176
 20
271.2647211035
 30
0.0
 10
108.6559447083
 20
271.3181447072
 30
0.0
  0
SPLINE
  5
398
100
AcDbEntity
  8
0
100
AcDbSpline
 62
7
  6
CONTINUOUS
 70
0
 71
3
 72
11
 73
7
 74
0
 42
0.0000001
 43
0.0000001
 44
0.0000000001
 40
0.0
 40
0.0
 40
0.0
 40
0.0
 40
0.2889223968
 40
0.5484186271
 40
0.7822338033
 40
1.0
 40
1.0
 40
1.0
 40
1.0
 10
114.9213315617
 20
260.9720159762
 30
0.0
 10
115.0338620718
 20
261.0369851087
 30
0.0
 10
115.2385812817
 20
261.1772524259
 30
0.0
 10
115.4855993025
 20
261.4317703779
 30
0.0
 10
115.6465452242
 20
261.7126817137
 30
0.0
 10
115.6903036228
 20
261.9152898408
 30
0.0
 10
115.6944827247
 20
262.0131379677
 30
0.0
  0
SPLINE
  5
399
100
AcDbEntity
  8
0
100
AcDbSpline
 62
7
  6
CONTINUOUS
 70
0
 71
3
 72
15
 73
11
 74
0
 42
0.0000001
 43
0.0000001
 44
0.0000000001
 40
0.0
 40
0.0
 40
0.0
 40
0.0
 40
0.0869258731
 40
0.1863900355
 40
0.3037775758
 40
0.4375856292
 40
0.582082136
 40
0.7293904368
 40
0.8711742898
 40
1.0
 40
1.0
 40
1.0
 40
1.0
 10
99.3281512633
 20
268.9466163198
 30
0.0
 10
99.3281507376
 20
268.9177799629
 30
0.0
 10
99.3455499591
 20
268.8553791929
 30
0.0
 10
99.4135681934
 20
268.7780329625
 30
0.0
 10
99.5139609653
 20
268.7168552879
 30
0.0
 10
99.6392992338
 20
268.6749717522
 30
0.0
 10
99.7798034513
 20
268.6552405432
 30
0.0
 10
99.92427823
 20
268.6592163553
 30
0.0
 10
100.0608605408
 20
268.6865556698
 30
0.0
 10
100.1446750477
 20
268.7211280257
 30
0.0
 10
100.1816855651
 20
268.7424959303
 30
0.0
  0
SPLINE
  5
39A
100
AcDbEntity
  8
0
100
AcDbSpline
 62
7
  6
CONTINUOUS
 70
0
 71
3
 72
16
 73
12
 74
0
 42
0.0000001
 43
0.0000001
 44
0.0000000001
 40
0.0
 40
0.0
 40
0.0
 40
0.0
 40
0.0428770841
 40
0.0875219403
 40
0.1869264335
 40
0.304237726
 40
0.4379617048
 40
0.5823668234
 40
0.7295956164
 40
0.8712504692
 40
1.0
 40
1.0
 40
1.0
 40
1.0
 10
100.559785757
 20
272.2162820942
 30
0.0
 10
100.5597830634
 20
272.1806989183
 30
0.0
 10
100.5693210481
 20
272.1077593525
 30
0.0
 10
100.6270526998
 20
271.9623205468
 30
0.0
 10
100.7733185127
 20
271.7943744581
 30
0.0
 10
101.0243685932
 20
271.6420083921
 30
0.0
 10
101.3377087118
 20
271.537125633
 30
0.0
 10
101.688996313
 20
271.4878321824
 30
0.0
 10
102.0501690686
 20
271.4978044394
 30
0.0
 10
102.3916266641
 20
271.5661129902
 30
0.0
 10
102.6011357038
 20
271.6525575497
 30
0.0
 10
102.6936686521
 20
271.7059811534
 30
0.0
  0
SPLINE
  5
39B
100
AcDbEntity
  8
0
100
AcDbSpline
 62
7
  6
CONTINUOUS
 70
0
 71
3
 72
11
 73
7
 74
0
 42
0.0000001
 43
0.0000001
 44
0.0000000001
 40
0.0
 40
0.0
 40
0.0
 40
0.0
 40
0.2889223968
 40
0.5484186271
 40
0.7822338033
 40
1.0
 40
1.0
 40
1.0
 40
1.0
 10
114.9213615901
 20
256.8079429434
 30
0.0
 10
115.0338921002
 20
256.8729120759
 30
0.0
 10
115.2386113102
 20
257.0131793931
 30
0.0
 10
115.485629331
 20
257.2676973451
 30
0.0
 10
115.6465752527
 20
257.5486086809
 30
0.0
 10
115.6903336512
 20
257.751216808
 30
0.0
 10
115.6945127532
 20
257.8490649349
 30
0.0
  0
SPLINE
  5
39C
100
AcDbEntity
  8
0
100
AcDbSpline
 62
7
  6
CONTINUOUS
 70
0
 71
3
 72
16
 73
12
 74
0
 42
0.0000001
 43
0.0000001
 44
0.0000000001
 40
0.0
 40
0.0
 40
0.0
 40
0.0
 40
0.0428770841
 40
0.0875219403
 40
0.1869264335
 40
0.304237726
 40
0.4379617048
 40
0.5823668234
 40
0.7295956164
 40
0.8712504692
 40
1.0
 40
1.0
 40
1.0
 40
1.0
 10
104.8024087802
 20
274.6657470174
 30
0.0
 10
104.8024060867
 20
274.6301638415
 30
0.0
 10
104.8119440714
 20
274.5572242758
 30
0.0
 10
104.8696757231
 20
274.41178547
 30
0.0
 10
105.0159415359
 20
274.2438393813
 30
0.0
 10
105.2669916165
 20
274.0914733153
 30
0.0
 10
105.5803317351
 20
273.9865905562
 30
0.0
 10
105.9316193363
 20
273.9372971057
 30
0.0
 10
106.2927920919
 20
273.9472693626
 30
0.0
 10
106.6342496873
 20
274.0155779134
 30
0.0
 10
106.843758727
 20
274.1020224729
 30
0.0
 10
106.9362916754
 20
274.1554460767
 30
0.0
  0
SPLINE
  5
39D
100
AcDbEntity
  8
0
100
AcDbSpline
 62
7
  6
CONTINUOUS
 70
0
 71
3
 72
13
 73
9
 74
0
 42
0.0000001
 43
0.0000001
 44
0.0000000001
 40
0.0
 40
0.0
 40
0.0
 40
0.0
 40
0.1142487484
 40
0.2375477548
 40
0.5000005226
 40
0.7624530043
 40
0.8857516767
 40
1.0
 40
1.0
 40
1.0
 40
1.0
 10
103.5475211884
 20
252.3988970987
 30
0.0
 10
103.67543042
 20
252.32505034
 30
0.0
 10
103.9551755494
 20
252.1947790788
 30
0.0
 10
104.5751436168
 20
252.0064903392
 30
0.0
 10
105.4160835955
 20
251.9150262056
 30
0.0
 10
106.2570227656
 20
252.0064942274
 30
0.0
 10
106.8769885097
 20
252.1947860167
 30
0.0
 10
107.156731925
 20
252.3250586753
 30
0.0
 10
107.2846401482
 20
252.3989060816
 30
0.0
  0
SPLINE
  5
39E
100
AcDbEntity
  8
0
100
AcDbSpline
 62
7
  6
CONTINUOUS
 70
0
 71
3
 72
15
 73
11
 74
0
 42
0.0000001
 43
0.0000001
 44
0.0000000001
 40
0.0
 40
0.0
 40
0.0
 40
0.0
 40
0.1141570327
 40
0.2373234949
 40
0.3669733429
 40
0.4999978708
 40
0.6330240492
 40
0.7626747937
 40
0.8858462049
 40
1.0
 40
1.0
 40
1.0
 40
1.0
 10
237.3626351416
 20
127.1663918641
 30
0.0
 10
237.7741053744
 20
127.4039528957
 30
0.0
 10
238.5868136273
 20
127.9736423455
 30
0.0
 10
239.7050285892
 20
129.0198687373
 30
0.0
 10
240.7355580078
 20
130.2565366117
 30
0.0
 10
241.6395450147
 20
131.6373441535
 30
0.0
 10
242.3833574467
 20
133.110630844
 30
0.0
 10
242.9390939076
 20
134.6214589336
 30
0.0
 10
243.285992283
 20
136.1129983865
 30
0.0
 10
243.3730045211
 20
137.1016746533
 30
0.0
 10
243.3730002093
 20
137.5767853688
 30
0.0
  0
SPLINE
  5
39F
100
AcDbEntity
  8
0
100
AcDbSpline
 62
7
  6
CONTINUOUS
 70
0
 71
3
 72
16
 73
12
 74
0
 42
0.0000001
 43
0.0000001
 44
0.0000000001
 40
0.0
 40
0.0
 40
0.0
 40
0.0
 40
0.0992134587
 40
0.1542130762
 40
0.2126434927
 40
0.3384382375
 40
0.4731075674
 40
0.6117977538
 40
0.7491623336
 40
0.8800102399
 40
1.0
 40
1.0
 40
1.0
 40
1.0
 10
234.1919894866
 20
130.877605649
 30
0.0
 10
234.0875602125
 20
131.1329960572
 30
0.0
 10
233.9911321308
 20
131.5580641876
 30
0.0
 10
233.9603305195
 20
132.1489533106
 30
0.0
 10
233.9950301743
 20
132.8145828814
 30
0.0
 10
234.1670097871
 20
133.6893617663
 30
0.0
 10
234.547166547
 20
134.736283312
 30
0.0
 10
235.0851793078
 20
135.7480277815
 30
0.0
 10
235.7509919798
 20
136.6677742742
 30
0.0
 10
236.5068871757
 20
137.443970728
 30
0.0
 10
237.0736456634
 20
137.8590268549
 30
0.0
 10
237.3626351416
 20
138.025874012
 30
0.0
  0
SPLINE
  5
3A0
100
AcDbEntity
  8
0
100
AcDbSpline
 62
7
  6
CONTINUOUS
 70
0
 71
3
 72
14
 73
10
 74
0
 42
0.0000001
 43
0.0000001
 44
0.0000000001
 40
0.0
 40
0.0
 40
0.0
 40
0.0
 40
0.2892779148
 40
0.4225356624
 40
0.5484932217
 40
0.6678916715
 40
0.7818654841
 40
0.8919505557
 40
1.0
 40
1.0
 40
1.0
 40
1.0
 10
208.3711364106
 20
159.8260599335
 30
0.0
 10
208.8539765407
 20
160.1048261486
 30
0.0
 10
209.5952528891
 20
160.4576367869
 30
0.0
 10
210.6118515674
 20
160.7540665931
 30
0.0
 10
211.3334302488
 20
160.8750918281
 30
0.0
 10
212.0277459005
 20
160.8992653057
 30
0.0
 10
212.688221335
 20
160.8256179612
 30
0.0
 10
213.3077707554
 20
160.6542660059
 30
0.0
 10
213.6906935192
 20
160.4749866395
 30
0.0
 10
213.8710370179
 20
160.3708561821
 30
0.0
  0
SPLINE
  5
3A1
100
AcDbEntity
  8
0
100
AcDbSpline
 62
7
  6
CONTINUOUS
 70
0
 71
3
 72
14
 73
10
 74
0
 42
0.0000001
 43
0.0000001
 44
0.0000000001
 40
0.0
 40
0.0
 40
0.0
 40
0.0
 40
0.2892707544
 40
0.4225372455
 40
0.5484966612
 40
0.6678939361
 40
0.7818682813
 40
0.8919523447
 40
1.0
 40
1.0
 40
1.0
 40
1.0
 10
243.3730118698
 20
138.3932872161
 30
0.0
 10
243.3730083903
 20
138.8747956202
 30
0.0
 10
243.3167722089
 20
139.5815883262
 30
0.0
 10
243.0994983565
 20
140.4699696905
 30
0.0
 10
242.8784115006
 20
141.0619508042
 30
0.0
 10
242.5966664815
 20
141.5917077469
 30
0.0
 10
242.2563468653
 20
142.0538874092
 30
0.0
 10
241.8606545533
 20
142.4432901457
 30
0.0
 10
241.5612020563
 20
142.6522669535
 30
0.0
 10
241.4054448231
 20
142.7421910302
 30
0.0
  0
SPLINE
  5
3A2
100
AcDbEntity
  8
0
100
AcDbSpline
 62
7
  6
CONTINUOUS
 70
0
 71
3
 72
23
 73
19
 74
0
 42
0.0000001
 43
0.0000001
 44
0.0000000001
 40
0.0
 40
0.0
 40
0.0
 40
0.0
 40
0.0428148404
 40
0.0873972673
 40
0.1351805599
 40
0.18708954
 40
0.2435356925
 40
0.304493166
 40
0.3695915028
 40
0.4381999337
 40
0.5094978101
 40
0.5825336774
 40
0.6562769284
 40
0.7296656385
 40
0.80165348
 40
0.8712572335
 40
0.9376069034
 40
1.0
 40
1.0
 40
1.0
 40
1.0
 10
202.8712358033
 20
141.318210508
 30
0.0
 10
202.6000437108
 20
141.4747970045
 30
0.0
 10
202.0859412415
 20
141.8682585533
 30
0.0
 10
201.4672846255
 20
142.6505652702
 30
0.0
 10
201.0049971833
 20
143.6072766773
 30
0.0
 10
200.7056703858
 20
144.7150434647
 30
0.0
 10
200.5723988715
 20
145.9505088711
 30
0.0
 10
200.6064462236
 20
147.2882871726
 30
0.0
 10
200.8063813766
 20
148.7007779945
 30
0.0
 10
201.1677287585
 20
150.158460787
 30
0.0
 10
201.6827454726
 20
151.6305762056
 30
0.0
 10
202.3404605155
 20
153.0858675457
 30
0.0
 10
203.1268531272
 20
154.4933281102
 30
0.0
 10
204.0251520524
 20
155.8229387874
 30
0.0
 10
205.016189716
 20
157.0463336011
 30
0.0
 10
206.0789850183
 20
158.1375383493
 30
0.0
 10
207.1908093239
 20
159.073210974
 30
0.0
 10
207.975925105
 20
159.5978859418
 30
0.0
 10
208.3711364106
 20
159.8260599335
 30
0.0
  0
SPLINE
  5
3A3
100
AcDbEntity
  8
0
100
AcDbSpline
 62
7
  6
CONTINUOUS
 70
0
 71
3
 72
11
 73
7
 74
0
 42
0.0000001
 43
0.0000001
 44
0.0000000001
 40
0.0
 40
0.0
 40
0.0
 40
0.0
 40
0.2375008575
 40
0.4802505836
 40
0.7330878646
 40
1.0
 40
1.0
 40
1.0
 40
1.0
 10
214.2245979545
 20
160.1667462864
 30
0.0
 10
214.4809892994
 20
160.0187220232
 30
0.0
 10
214.9674129329
 20
159.6599459831
 30
0.0
 10
215.5728389749
 20
158.9670113251
 30
0.0
 10
216.0480049877
 20
158.1375930306
 30
0.0
 10
216.2688278824
 20
157.525021997
 30
0.0
 10
216.358597212
 20
157.2046452446
 30
0.0
  0
SPLINE
  5
3A4
100
AcDbEntity
  8
0
100
AcDbSpline
 62
7
  6
CONTINUOUS
 70
0
 71
3
 72
11
 73
7
 74
0
 42
0.0000001
 43
0.0000001
 44
0.0000000001
 40
0.0
 40
0.0
 40
0.0
 40
0.0
 40
0.2662865859
 40
0.5190146583
 40
0.7619934332
 40
1.0
 40
1.0
 40
1.0
 40
1.0
 10
206.7702715739
 20
140.7255200465
 30
0.0
 10
206.4553194539
 20
140.6493668246
 30
0.0
 10
205.8292563063
 20
140.5451061642
 30
0.0
 10
204.8969487764
 20
140.5517742805
 30
0.0
 10
204.0163459627
 20
140.7315548756
 30
0.0
 10
203.475600623
 20
140.9692742221
 30
0.0
 10
203.2247845918
 20
141.1140796493
 30
0.0
  0
SPLINE
  5
3A5
100
AcDbEntity
  8
0
100
AcDbSpline
 62
7
  6
CONTINUOUS
 70
0
 71
3
 72
14
 73
10
 74
0
 42
0.0000001
 43
0.0000001
 44
0.0000000001
 40
0.0
 40
0.0
 40
0.0
 40
0.0
 40
0.1080482432
 40
0.2181322873
 40
0.3321068339
 40
0.4515071146
 40
0.5774612857
 40
0.7107200697
 40
1.0
 40
1.0
 40
1.0
 40
1.0
 10
231.9056060099
 20
126.2876152983
 30
0.0
 10
232.0613599564
 20
126.1976931192
 30
0.0
 10
232.3920606326
 20
126.0428589305
 30
0.0
 10
232.9271271464
 20
125.8948883788
 30
0.0
 10
233.4975376034
 20
125.8312573407
 30
0.0
 10
234.097172648
 20
125.8521583501
 30
0.0
 10
234.7203549863
 20
125.9566633789
 30
0.0
 10
235.5983264501
 20
126.2126744813
 30
0.0
 10
236.2385241256
 20
126.5173758311
 30
0.0
 10
236.6555254165
 20
126.7581302015
 30
0.0
  0
SPLINE
  5
3A6
100
AcDbEntity
  8
0
100
AcDbSpline
 62
7
  6
CONTINUOUS
 70
0
 71
3
 72
9
 73
5
 74
0
 42
0.0000001
 43
0.0000001
 44
0.0000000001
 40
0.0
 40
0.0
 40
0.0
 40
0.0
 40
0.4781544697
 40
1.0
 40
1.0
 40
1.0
 40
1.0
 10
237.3626351416
 20
141.0469329554
 30
0.0
 10
236.8424272238
 20
140.7465925668
 30
0.0
 10
235.8230201905
 20
139.9974268744
 30
0.0
 10
234.9463373599
 20
139.0901638801
 30
0.0
 10
234.5257294026
 20
138.5873103485
 30
0.0
  0
SPLINE
  5
3A7
100
AcDbEntity
  8
0
100
AcDbSpline
 62
7
  6
CONTINUOUS
 70
0
 71
3
 72
9
 73
5
 74
0
 42
0.0000001
 43
0.0000001
 44
0.0000000001
 40
0.0
 40
0.0
 40
0.0
 40
0.0
 40
0.5001563694
 40
1.0
 40
1.0
 40
1.0
 40
1.0
 10
234.5018439286
 20
138.5586739663
 30
0.0
 10
233.9771940098
 20
137.9278998444
 30
0.0
 10
233.0400704959
 20
136.5707443105
 30
0.0
 10
232.3388614306
 20
135.0779371021
 30
0.0
 10
232.0581702298
 20
134.3075447043
 30
0.0
  0
SPLINE
  5
3A8
100
AcDbEntity
  8
0
100
AcDbSpline
 62
7
  6
CONTINUOUS
 70
0
 71
3
 72
22
 73
18
 74
0
 42
0.0000001
 43
0.0000001
 44
0.0000000001
 40
0.0
 40
0.0
 40
0.0
 40
0.0
 40
0.1633504902
 40
0.2403303017
 40
0.313403147
 40
0.382209661
 40
0.4465923709
 40
0.5066459154
 40
0.5627694726
 40
0.6157030526
 40
0.666526258
 40
0.7165844529
 40
0.7673267653
 40
0.8201099703
 40
0.8760336744
 40
0.9358495576
 40
1.0
 40
1.0
 40
1.0
 40
1.0
 10
232.0581702298
 20
134.3075447043
 30
0.0
 10
231.8370025857
 20
133.7005222139
 30
0.0
 10
231.5741237914
 20
132.7815829824
 30
0.0
 10
231.3879968771
 20
131.5548389128
 30
0.0
 10
231.3378734316
 20
130.6892499156
 30
0.0
 10
231.375324197
 20
129.8726982587
 30
0.0
 10
231.500157108
 20
129.1166273154
 30
0.0
 10
231.7112028351
 20
128.4317856995
 30
0.0
 10
232.0063450055
 20
127.8281406362
 30
0.0
 10
232.3824619404
 20
127.3151802152
 30
0.0
 10
232.8348382229
 20
126.9020524955
 30
0.0
 10
233.3562868329
 20
126.5968728029
 30
0.0
 10
233.9372240142
 20
126.405211645
 30
0.0
 10
234.5670881442
 20
126.3294490037
 30
0.0
 10
235.2355666546
 20
126.3692973713
 30
0.0
 10
235.9328227405
 20
126.5226492944
 30
0.0
 10
236.3943377585
 20
126.6926642231
 30
0.0
 10
236.6269941361
 20
126.7938756065
 30
0.0
  0
SPLINE
  5
3A9
100
AcDbEntity
  8
0
100
AcDbSpline
 62
7
  6
CONTINUOUS
 70
0
 71
3
 72
9
 73
5
 74
0
 42
0.0000001
 43
0.0000001
 44
0.0000000001
 40
0.0
 40
0.0
 40
0.0
 40
0.0
 40
0.2440881034
 40
1.0
 40
1.0
 40
1.0
 40
1.0
 10
236.6269941361
 20
126.7938756065
 30
0.0
 10
236.6885338771
 20
126.8206469436
 30
0.0
 10
236.938975973
 20
126.9341638357
 30
0.0
 10
237.182645494
 20
127.0624754129
 30
0.0
 10
237.3626351416
 20
127.1663918641
 30
0.0
  0
SPLINE
  5
3AA
100
AcDbEntity
  8
0
100
AcDbSpline
 62
7
  6
CONTINUOUS
 70
0
 71
3
 72
15
 73
11
 74
0
 42
0.0000001
 43
0.0000001
 44
0.0000000001
 40
0.0
 40
0.0
 40
0.0
 40
0.0
 40
0.1141569239
 40
0.2373243613
 40
0.3669740778
 40
0.4999983967
 40
0.6330229385
 40
0.7626733065
 40
0.88584177
 40
1.0
 40
1.0
 40
1.0
 40
1.0
 10
208.7246912732
 20
159.6219395562
 30
0.0
 10
208.1922026521
 20
159.3145089426
 30
0.0
 10
207.1404682605
 20
158.5772562942
 30
0.0
 10
205.6933478539
 20
157.2233404561
 30
0.0
 10
204.3597310126
 20
155.6229414914
 30
0.0
 10
203.189878951
 20
153.8360276362
 30
0.0
 10
202.2272999662
 20
151.9294412693
 30
0.0
 10
201.5081268278
 20
149.9742832073
 30
0.0
 10
201.0591627813
 20
148.0440655785
 30
0.0
 10
200.9465490638
 20
146.7645982901
 30
0.0
 10
200.9465490638
 20
146.1497272752
 30
0.0
  0
SPLINE
  5
3AB
100
AcDbEntity
  8
0
100
AcDbSpline
 62
7
  6
CONTINUOUS
 70
0
 71
3
 72
15
 73
11
 74
0
 42
0.0000001
 43
0.0000001
 44
0.0000000001
 40
0.0
 40
0.0
 40
0.0
 40
0.0
 40
0.15145877
 40
0.2907221701
 40
0.4184572084
 40
0.5368513255
 40
0.6494871424
 40
0.7610738588
 40
0.8765315828
 40
1.0
 40
1.0
 40
1.0
 40
1.0
 10
237.3626351416
 20
130.1874508075
 30
0.0
 10
237.1987945683
 20
130.092857973
 30
0.0
 10
236.8723945095
 20
129.9305770129
 30
0.0
 10
236.3723365251
 20
129.7706650992
 30
0.0
 10
235.8917715734
 20
129.7087424603
 30
0.0
 10
235.4413246993
 20
129.7481404761
 30
0.0
 10
235.0326658013
 20
129.8905555244
 30
0.0
 10
234.6785963359
 20
130.1333034254
 30
0.0
 10
234.3898134563
 20
130.4680487674
 30
0.0
 10
234.2503604334
 20
130.7348546814
 30
0.0
 10
234.1919894866
 20
130.877605649
 30
0.0
  0
SPLINE
  5
3AC
100
AcDbEntity
  8
0
100
AcDbSpline
 62
7
  6
CONTINUOUS
 70
0
 71
3
 72
11
 73
7
 74
0
 42
0.0000001
 43
0.0000001
 44
0.0000000001
 40
0.0
 40
0.0
 40
0.0
 40
0.0
 40
0.2857282533
 40
0.5454476737
 40
0.7813891887
 40
1.0
 40
1.0
 40
1.0
 40
1.0
 10
235.4030351889
 20
132.6252046406
 30
0.0
 10
235.2804176311
 20
132.5544117832
 30
0.0
 10
235.0363309442
 20
132.43530498
 30
0.0
 10
234.6618131782
 20
132.328016681
 30
0.0
 10
234.3055391612
 20
132.3047262916
 30
0.0
 10
234.081167361
 20
132.3488250631
 30
0.0
 10
233.9791693072
 20
132.3853121062
 30
0.0
  0
SPLINE
  5
3AD
100
AcDbEntity
  8
0
100
AcDbSpline
 62
7
  6
CONTINUOUS
 70
0
 71
3
 72
11
 73
7
 74
0
 42
0.0000001
 43
0.0000001
 44
0.0000000001
 40
0.0
 40
0.0
 40
0.0
 40
0.0
 40
0.2426513362
 40
0.4997070535
 40
0.7569136846
 40
1.0
 40
1.0
 40
1.0
 40
1.0
 10
234.2695176827
 20
133.8409318171
 30
0.0
 10
234.4963580953
 20
134.024082508
 30
0.0
 10
234.922722704
 20
134.4530636892
 30
0.0
 10
235.4443355973
 20
135.2029046603
 30
0.0
 10
235.8360590118
 20
136.0286573279
 30
0.0
 10
235.9967676971
 20
136.6124333303
 30
0.0
 10
236.0433628143
 20
136.9007641523
 30
0.0
  0
SPLINE
  5
3AE
100
AcDbEntity
  8
0
100
AcDbSpline
 62
7
  6
CONTINUOUS
 70
0
 71
3
 72
22
 73
18
 74
0
 42
0.0000001
 43
0.0000001
 44
0.0000000001
 40
0.0
 40
0.0
 40
0.0
 40
0.0
 40
0.0490401123
 40
0.0946548758
 40
0.139159766
 40
0.1851675447
 40
0.2348922095
 40
0.2897169543
 40
0.350154968
 40
0.4160062186
 40
0.4865408213
 40
0.5606542723
 40
0.7138681508
 40
0.7901286212
 40
0.8640897639
 40
0.9344129363
 40
1.0
 40
1.0
 40
1.0
 40
1.0
 10
238.5736773654
 20
138.4670932691
 30
0.0
 10
238.7485238409
 20
138.4909191366
 30
0.0
 10
239.0930320298
 20
138.5008019532
 30
0.0
 10
239.585756065
 20
138.3787173959
 30
0.0
 10
240.0106764533
 20
138.1197339796
 30
0.0
 10
240.3486497856
 20
137.7358267911
 30
0.0
 10
240.5902241943
 20
137.2450963955
 30
0.0
 10
240.7321708645
 20
136.6647486175
 30
0.0
 10
240.7731576859
 20
136.0115258075
 30
0.0
 10
240.7132560862
 20
135.3036789066
 30
0.0
 10
240.5546360992
 20
134.5611361565
 30
0.0
 10
240.2141967093
 20
133.5431360114
 30
0.0
 10
239.7076733736
 20
132.5651629596
 30
0.0
 10
239.0672352391
 20
131.6792231511
 30
0.0
 10
238.5368369199
 20
131.0866496742
 30
0.0
 10
237.9719088963
 20
130.5830744753
 30
0.0
 10
237.5670206396
 20
130.3054521254
 30
0.0
 10
237.3626351416
 20
130.1874508075
 30
0.0
  0
SPLINE
  5
3AF
100
AcDbEntity
  8
0
100
AcDbSpline
 62
7
  6
CONTINUOUS
 70
0
 71
3
 72
12
 73
8
 74
0
 42
0.0000001
 43
0.0000001
 44
0.0000000001
 40
0.0
 40
0.0
 40
0.0
 40
0.0
 40
0.2870108433
 40
0.5464857354
 40
0.7814413822
 40
0.8921783607
 40
1.0
 40
1.0
 40
1.0
 40
1.0
 10
200.9465490638
 20
146.1497272752
 30
0.0
 10
200.9465490638
 20
145.6402630109
 30
0.0
 10
201.0175195881
 20
144.6674202048
 30
0.0
 10
201.373252041
 20
143.3174676708
 30
0.0
 10
201.8823127817
 20
142.3567124311
 30
0.0
 10
202.4017636369
 20
141.7385427315
 30
0.0
 10
202.6936378028
 20
141.480278745
 30
0.0
 10
202.8463636092
 20
141.3649300734
 30
0.0
  0
SPLINE
  5
3B0
100
AcDbEntity
  8
0
100
AcDbSpline
 62
7
  6
CONTINUOUS
 70
0
 71
3
 72
26
 73
22
 74
0
 42
0.0000001
 43
0.0000001
 44
0.0000000001
 40
0.0
 40
0.0
 40
0.0
 40
0.0
 40
0.0491905843
 40
0.0724001233
 40
0.0949968765
 40
0.1172918451
 40
0.1396172048
 40
0.1623032442
 40
0.1856550302
 40
0.2352512164
 40
0.2899343479
 40
0.3502398607
 40
0.4159806176
 40
0.4864322194
 40
0.5604905869
 40
0.6367995095
 40
0.7138591054
 40
0.7901208935
 40
0.8640898371
 40
0.934412746
 40
1.0
 40
1.0
 40
1.0
 40
1.0
 10
216.0309601326
 20
157.458023038
 30
0.0
 10
215.8870386921
 20
157.8184974963
 30
0.0
 10
215.6161605315
 20
158.3303272336
 30
0.0
 10
215.1365156545
 20
158.9089443008
 30
0.0
 10
214.7365032671
 20
159.2707622408
 30
0.0
 10
214.2928557621
 20
159.5650650386
 30
0.0
 10
213.8091800437
 20
159.7892376808
 30
0.0
 10
213.2896906438
 20
159.9415752908
 30
0.0
 10
212.5406306729
 20
160.0496808364
 30
0.0
 10
211.524199335
 20
159.9894253123
 30
0.0
 10
210.2681626921
 20
159.629286066
 30
0.0
 10
208.9830135693
 20
158.996779745
 30
0.0
 10
207.7041954181
 20
158.1116817956
 30
0.0
 10
206.4673048077
 20
157.0002073884
 30
0.0
 10
205.3080870683
 20
155.694871015
 30
0.0
 10
204.2604695709
 20
154.2340678338
 30
0.0
 10
203.35538693
 20
152.6609194108
 30
0.0
 10
202.6195738806
 20
151.0219900756
 30
0.0
 10
202.074810888
 20
149.3654912321
 30
0.0
 10
201.7371227063
 20
147.7405468606
 30
0.0
 10
201.653655845
 20
146.6672518527
 30
0.0
 10
201.653655845
 20
146.1497289749
 30
0.0
  0
SPLINE
  5
3B1
100
AcDbEntity
  8
0
100
AcDbSpline
 62
7
  6
CONTINUOUS
 70
0
 71
3
 72
15
 73
11
 74
0
 42
0.0000001
 43
0.0000001
 44
0.0000000001
 40
0.0
 40
0.0
 40
0.0
 40
0.0
 40
0.1514269234
 40
0.290568151
 40
0.4181746389
 40
0.536424814
 40
0.6489766386
 40
0.7605872859
 40
0.8762141313
 40
1.0
 40
1.0
 40
1.0
 40
1.0
 10
201.653655845
 20
146.1497289749
 30
0.0
 10
201.653655845
 20
145.7340021286
 30
0.0
 10
201.7036021661
 20
144.9347784458
 30
0.0
 10
201.9498983737
 20
143.8082025761
 30
0.0
 10
202.3618365279
 20
142.827211992
 30
0.0
 10
202.9343985949
 20
142.0159504167
 30
0.0
 10
203.6575690305
 20
141.3987615762
 30
0.0
 10
204.5118240771
 20
140.9971905087
 30
0.0
 10
205.4690904194
 20
140.8222097033
 30
0.0
 10
206.1313005537
 20
140.8549610341
 30
0.0
 10
206.4676906788
 20
140.903269745
 30
0.0
  0
SPLINE
  5
3B2
100
AcDbEntity
  8
0
100
AcDbSpline
 62
7
  6
CONTINUOUS
 70
0
 71
3
 72
12
 73
8
 74
0
 42
0.0000001
 43
0.0000001
 44
0.0000000001
 40
0.0
 40
0.0
 40
0.0
 40
0.0
 40
0.107822375
 40
0.2185596993
 40
0.4535152059
 40
0.7129895209
 40
1.0
 40
1.0
 40
1.0
 40
1.0
 10
213.8182911891
 20
160.3689715926
 30
0.0
 10
213.6420362307
 20
160.4435655426
 30
0.0
 10
213.2724417017
 20
160.5672118906
 30
0.0
 10
212.4773768941
 20
160.7080003804
 30
0.0
 10
211.3908210487
 20
160.6685011142
 30
0.0
 10
210.0438762456
 20
160.3016163771
 30
0.0
 10
209.165894826
 20
159.8766670257
 30
0.0
 10
208.7246912732
 20
159.6219395562
 30
0.0
  0
SPLINE
  5
3B3
100
AcDbEntity
  8
0
100
AcDbSpline
 62
7
  6
CONTINUOUS
 70
0
 71
3
 72
14
 73
10
 74
0
 42
0.0000001
 43
0.0000001
 44
0.0000000001
 40
0.0
 40
0.0
 40
0.0
 40
0.0
 40
0.2892789029
 40
0.4225378197
 40
0.5484923638
 40
0.6678922666
 40
0.7818656531
 40
0.8919499877
 40
1.0
 40
1.0
 40
1.0
 40
1.0
 10
209.0782461358
 20
158.1930655533
 30
0.0
 10
209.4952457855
 20
158.4338189762
 30
0.0
 10
210.1354418819
 20
158.7385193325
 30
0.0
 10
211.0134119517
 20
158.9945309741
 30
0.0
 10
211.6365944676
 20
159.0990350618
 30
0.0
 10
212.2362271157
 20
159.1199365646
 30
0.0
 10
212.8066358086
 20
159.0563085373
 30
0.0
 10
213.341702551
 20
158.9083341216
 30
0.0
 10
213.6724069757
 20
158.7535003844
 30
0.0
 10
213.8281633874
 20
158.6635767241
 30
0.0
  0
SPLINE
  5
3B4
100
AcDbEntity
  8
0
100
AcDbSpline
 62
7
  6
CONTINUOUS
 70
0
 71
3
 72
9
 73
5
 74
0
 42
0.0000001
 43
0.0000001
 44
0.0000000001
 40
0.0
 40
0.0
 40
0.0
 40
0.0
 40
0.2560878521
 40
1.0
 40
1.0
 40
1.0
 40
1.0
 10
243.3730002093
 20
137.5767853688
 30
0.0
 10
243.3729995725
 20
137.6469589457
 30
0.0
 10
243.3694036284
 20
137.9209603186
 30
0.0
 10
243.3511009579
 20
138.1948335251
 30
0.0
 10
243.3281250561
 20
138.3973824893
 30
0.0
  0
SPLINE
  5
3B5
100
AcDbEntity
  8
0
100
AcDbSpline
 62
7
  6
CONTINUOUS
 70
0
 71
3
 72
18
 73
14
 74
0
 42
0.0000001
 43
0.0000001
 44
0.0000000001
 40
0.0
 40
0.0
 40
0.0
 40
0.0
 40
0.1378439122
 40
0.2621768697
 40
0.3203405748
 40
0.3765662825
 40
0.4316351312
 40
0.4864140978
 40
0.5417921958
 40
0.5986135955
 40
0.7191401991
 40
0.8523874758
 40
1.0
 40
1.0
 40
1.0
 40
1.0
 10
243.3281250561
 20
138.3973824893
 30
0.0
 10
243.2861254311
 20
138.767639145
 30
0.0
 10
243.1471187983
 20
139.4676246284
 30
0.0
 10
242.7944050464
 20
140.268791304
 30
0.0
 10
242.4187162787
 20
140.7959304916
 30
0.0
 10
242.100594821
 20
141.1279405796
 30
0.0
 10
241.7427283447
 20
141.4020207209
 30
0.0
 10
241.3482345575
 20
141.6153982131
 30
0.0
 10
240.9208582721
 20
141.7662098009
 30
0.0
 10
240.30084075
 20
141.8845712885
 30
0.0
 10
239.4509418667
 20
141.8611967498
 30
0.0
 10
238.3958366548
 20
141.578448593
 30
0.0
 10
237.7082130969
 20
141.2464512899
 30
0.0
 10
237.3626351416
 20
141.0469329554
 30
0.0
  0
SPLINE
  5
3B6
100
AcDbEntity
  8
0
100
AcDbSpline
 62
7
  6
CONTINUOUS
 70
0
 71
3
 72
22
 73
18
 74
0
 42
0.0000001
 43
0.0000001
 44
0.0000000001
 40
0.0
 40
0.0
 40
0.0
 40
0.0
 40
0.0624002863
 40
0.1287598616
 40
0.198371778
 40
0.2703697238
 40
0.4173878314
 40
0.4904336723
 40
0.5617412658
 40
0.6303588829
 40
0.6954659213
 40
0.756431874
 40
0.8128862891
 40
0.8648026495
 40
0.9125920112
 40
0.957179933
 40
1.0
 40
1.0
 40
1.0
 40
1.0
 10
236.6555254165
 20
142.271676127
 30
0.0
 10
236.314212801
 20
142.0746203728
 30
0.0
 10
235.6361569062
 20
141.6214853044
 30
0.0
 10
234.6759657525
 20
140.8134345906
 30
0.0
 10
233.7580150025
 20
139.8709559047
 30
0.0
 10
232.6095099015
 20
138.4529723779
 30
0.0
 10
231.6379164252
 20
136.8722760196
 30
0.0
 10
230.8792145803
 20
135.1938561321
 30
0.0
 10
230.4343999883
 20
133.9223616605
 30
0.0
 10
230.1223328909
 20
132.6634828379
 30
0.0
 10
229.9496584947
 20
131.4435946869
 30
0.0
 10
229.9202530265
 20
130.2882357918
 30
0.0
 10
230.0353519495
 20
129.221232649
 30
0.0
 10
230.2938649467
 20
128.2645207807
 30
0.0
 10
230.6931125256
 20
127.4382704451
 30
0.0
 10
231.2274072922
 20
126.7626563512
 30
0.0
 10
231.6713906594
 20
126.4228359793
 30
0.0
 10
231.9056060099
 20
126.2876152983
 30
0.0
  0
SPLINE
  5
3B7
100
AcDbEntity
  8
0
100
AcDbSpline
 62
7
  6
CONTINUOUS
 70
0
 71
3
 72
22
 73
18
 74
0
 42
0.0000001
 43
0.0000001
 44
0.0000000001
 40
0.0
 40
0.0
 40
0.0
 40
0.0
 40
0.0428206742
 40
0.0874091258
 40
0.1351989248
 40
0.187115568
 40
0.2435700754
 40
0.3045359276
 40
0.3696426955
 40
0.4382599198
 40
0.5095671094
 40
0.5826126571
 40
0.7296304449
 40
0.8016271967
 40
0.8712391011
 40
0.9375992379
 40
1.0
 40
1.0
 40
1.0
 40
1.0
 10
204.3283288842
 20
142.209008457
 30
0.0
 10
204.0941103621
 20
142.3442310562
 30
0.0
 10
203.6501228218
 20
142.6840579614
 30
0.0
 10
203.115826231
 20
143.3596828607
 30
0.0
 10
202.7165808411
 20
144.1859426131
 30
0.0
 10
202.4580722723
 20
145.1426604589
 30
0.0
 10
202.3429782783
 20
146.20966531
 30
0.0
 10
202.3723878454
 20
147.3650217334
 30
0.0
 10
202.5450646663
 20
148.5849040234
 30
0.0
 10
202.8571321156
 20
149.8437751304
 30
0.0
 10
203.3019456776
 20
151.1152619689
 30
0.0
 10
204.060645439
 20
152.7936746764
 30
0.0
 10
205.0322312446
 20
154.374361436
 30
0.0
 10
206.1807308404
 20
155.7923357261
 30
0.0
 10
207.0986755231
 20
156.7348137242
 30
0.0
 10
208.0588707314
 20
157.5428688396
 30
0.0
 10
208.7369310803
 20
157.9960083904
 30
0.0
 10
209.0782461358
 20
158.1930655533
 30
0.0
  0
SPLINE
  5
3B8
100
AcDbEntity
  8
0
100
AcDbSpline
 62
7
  6
CONTINUOUS
 70
0
 71
3
 72
17
 73
13
 74
0
 42
0.0000001
 43
0.0000001
 44
0.0000000001
 40
0.0
 40
0.0
 40
0.0
 40
0.0
 40
0.0433283829
 40
0.0893334711
 40
0.13898159
 40
0.1927945018
 40
0.3128648311
 40
0.4472998785
 40
0.5904247893
 40
0.7350440533
 40
0.8737086852
 40
1.0
 40
1.0
 40
1.0
 40
1.0
 10
237.1741653887
 20
137.8866322922
 30
0.0
 10
237.2411969629
 20
137.827968052
 30
0.0
 10
237.3650368347
 20
137.6897753411
 30
0.0
 10
237.5061421333
 20
137.4392210956
 30
0.0
 10
237.6050793635
 20
137.1466545916
 30
0.0
 10
237.6816111992
 20
136.6919417903
 30
0.0
 10
237.6555451847
 20
136.0519260514
 30
0.0
 10
237.4582489959
 20
135.2543908466
 30
0.0
 10
237.1087118768
 20
134.4556534693
 30
0.0
 10
236.6325677029
 20
133.7150558332
 30
0.0
 10
236.0656616027
 20
133.0874505359
 30
0.0
 10
235.6278879495
 20
132.7550226676
 30
0.0
 10
235.4030351889
 20
132.6252046406
 30
0.0
  0
SPLINE
  5
3B9
100
AcDbEntity
  8
0
100
AcDbSpline
 62
7
  6
CONTINUOUS
 70
0
 71
3
 72
14
 73
10
 74
0
 42
0.0000001
 43
0.0000001
 44
0.0000000001
 40
0.0
 40
0.0
 40
0.0
 40
0.0
 40
0.1080482432
 40
0.2181322873
 40
0.3321068339
 40
0.4515071146
 40
0.5774612857
 40
0.7107200697
 40
1.0
 40
1.0
 40
1.0
 40
1.0
 10
241.4054448231
 20
142.7421910302
 30
0.0
 10
241.2496908766
 20
142.8321132093
 30
0.0
 10
240.9189902004
 20
142.986947398
 30
0.0
 10
240.3839236866
 20
143.1349179497
 30
0.0
 10
239.8135132296
 20
143.1985489878
 30
0.0
 10
239.213878185
 20
143.1776479785
 30
0.0
 10
238.5906958467
 20
143.0731429496
 30
0.0
 10
237.7127243828
 20
142.8171318472
 30
0.0
 10
237.0725267074
 20
142.5124304974
 30
0.0
 10
236.6555254165
 20
142.271676127
 30
0.0
  0
SPLINE
  5
3BA
100
AcDbEntity
  8
0
100
AcDbSpline
 62
7
  6
CONTINUOUS
 70
0
 71
3
 72
11
 73
7
 74
0
 42
0.0000001
 43
0.0000001
 44
0.0000000001
 40
0.0
 40
0.0
 40
0.0
 40
0.0
 40
0.2177830968
 40
0.450915839
 40
0.7103069095
 40
1.0
 40
1.0
 40
1.0
 40
1.0
 10
33.0613361987
 20
237.0022425288
 30
0.0
 10
32.9458915754
 20
237.0689140142
 30
0.0
 10
32.7298649408
 20
237.2504880725
 30
0.0
 10
32.4998995192
 20
237.6265101219
 30
0.0
 10
32.3633210637
 20
238.0898893902
 30
0.0
 10
32.3364349979
 20
238.427147438
 30
0.0
 10
32.3364349979
 20
238.6044801336
 30
0.0
  0
SPLINE
  5
3BB
100
AcDbEntity
  8
0
100
AcDbSpline
 62
7
  6
CONTINUOUS
 70
0
 71
3
 72
17
 73
13
 74
0
 42
0.0000001
 43
0.0000001
 44
0.0000000001
 40
0.0
 40
0.0
 40
0.0
 40
0.0
 40
0.1286933065
 40
0.2702801751
 40
0.4174384432
 40
0.5617797022
 40
0.6954488753
 40
0.8127120148
 40
0.8646745954
 40
0.9125103814
 40
0.9571382807
 40
1.0
 40
1.0
 40
1.0
 40
1.0
 10
32.3364349979
 20
238.6044801336
 30
0.0
 10
32.3364349979
 20
238.9036519592
 30
0.0
 10
32.4201189948
 20
239.5326885602
 30
0.0
 10
32.7325236778
 20
240.4562855733
 30
0.0
 10
33.2138604168
 20
241.346003613
 30
0.0
 10
33.8254974704
 20
242.1288792563
 30
0.0
 10
34.5174153443
 20
242.7416742453
 30
0.0
 10
35.1436828301
 20
243.0841577812
 30
0.0
 10
35.6335954707
 20
243.2144555624
 30
0.0
 10
35.9707749023
 20
243.2393261584
 30
0.0
 10
36.2847352114
 20
243.1932348129
 30
0.0
 10
36.4749760787
 20
243.1142578156
 30
0.0
 10
36.5612606575
 20
243.0644268155
 30
0.0
  0
SPLINE
  5
3BC
100
AcDbEntity
  8
0
100
AcDbSpline
 62
7
  6
CONTINUOUS
 70
0
 71
3
 72
13
 73
9
 74
0
 42
0.0000001
 43
0.0000001
 44
0.0000000001
 40
0.0
 40
0.0
 40
0.0
 40
0.0
 40
0.1138501036
 40
0.2365558131
 40
0.4979387338
 40
0.760445161
 40
0.8844668064
 40
1.0
 40
1.0
 40
1.0
 40
1.0
 10
38.2054203985
 20
242.148112105
 30
0.0
 10
38.6077656818
 20
242.380404876
 30
0.0
 10
39.4030145279
 20
242.9355393882
 30
0.0
 10
40.8959865007
 20
244.3208123193
 30
0.0
 10
42.4846720858
 20
246.4577082603
 30
0.0
 10
43.5886793576
 20
248.886081087
 30
0.0
 10
44.0898121873
 20
250.8772925247
 30
0.0
 10
44.1990034658
 20
251.8530811084
 30
0.0
 10
44.2124390273
 20
252.3243454261
 30
0.0
  0
SPLINE
  5
3BD
100
AcDbEntity
  8
0
100
AcDbSpline
 62
7
  6
CONTINUOUS
 70
0
 71
3
 72
9
 73
5
 74
0
 42
0.0000001
 43
0.0000001
 44
0.0000000001
 40
0.0
 40
0.0
 40
0.0
 40
0.0
 40
0.4774908127
 40
1.0
 40
1.0
 40
1.0
 40
1.0
 10
32.3011033577
 20
204.3646242353
 30
0.0
 10
31.8663753755
 20
206.585760031
 30
0.0
 10
31.4154984446
 20
211.3317789089
 30
0.0
 10
31.7020135134
 20
216.07978247
 30
0.0
 10
32.0066130606
 20
218.5376437786
 30
0.0
  0
SPLINE
  5
3BE
100
AcDbEntity
  8
0
100
AcDbSpline
 62
7
  6
CONTINUOUS
 70
0
 71
3
 72
9
 73
5
 74
0
 42
0.0000001
 43
0.0000001
 44
0.0000000001
 40
0.0
 40
0.0
 40
0.0
 40
0.0
 40
0.253139686
 40
1.0
 40
1.0
 40
1.0
 40
1.0
 10
45.9983452092
 20
242.4032291657
 30
0.0
 10
45.9274578884
 20
242.3109006997
 30
0.0
 10
45.6428843505
 20
241.9496848239
 30
0.0
 10
45.3401807466
 20
241.6026864934
 30
0.0
 10
45.1040727167
 20
241.3532891153
 30
0.0
  0
SPLINE
  5
3BF
100
AcDbEntity
  8
0
100
AcDbSpline
 62
7
  6
CONTINUOUS
 70
0
 71
3
 72
9
 73
5
 74
0
 42
0.0000001
 43
0.0000001
 44
0.0000000001
 40
0.0
 40
0.0
 40
0.0
 40
0.0
 40
0.4774908127
 40
1.0
 40
1.0
 40
1.0
 40
1.0
 10
36.8973165712
 20
201.7110593309
 30
0.0
 10
36.4625885889
 20
203.9321951266
 30
0.0
 10
36.011711658
 20
208.6782140045
 30
0.0
 10
36.2982267269
 20
213.4262175656
 30
0.0
 10
36.6028262741
 20
215.8840788742
 30
0.0
  0
SPLINE
  5
3C0
100
AcDbEntity
  8
0
100
AcDbSpline
 62
7
  6
CONTINUOUS
 70
0
 71
3
 72
13
 73
9
 74
0
 42
0.0000001
 43
0.0000001
 44
0.0000000001
 40
0.0
 40
0.0
 40
0.0
 40
0.0
 40
0.1142562699
 40
0.2375374873
 40
0.499998411
 40
0.7624602047
 40
0.8857424352
 40
1.0
 40
1.0
 40
1.0
 40
1.0
 10
42.8016336119
 20
239.4945472006
 30
0.0
 10
43.2130927328
 20
239.7321018168
 30
0.0
 10
44.0259004248
 20
240.3017904526
 30
0.0
 10
45.5474469983
 20
241.7260373137
 30
0.0
 10
47.1548213515
 20
243.9214384119
 30
0.0
 10
48.2523957332
 20
246.4111751593
 30
0.0
 10
48.7250541938
 20
248.441010514
 30
0.0
 10
48.8120162282
 20
249.42977631
 30
0.0
 10
48.8120162282
 20
249.9048930541
 30
0.0
  0
SPLINE
  5
3C1
100
AcDbEntity
  8
0
100
AcDbSpline
 62
7
  6
CONTINUOUS
 70
0
 71
3
 72
9
 73
5
 74
0
 42
0.0000001
 43
0.0000001
 44
0.0000000001
 40
0.0
 40
0.0
 40
0.0
 40
0.0
 40
0.4999978202
 40
1.0
 40
1.0
 40
1.0
 40
1.0
 10
67.3030864335
 20
170.4121059829
 30
0.0
 10
64.943404554
 20
171.3793394059
 30
0.0
 10
60.2247713199
 20
173.3156464389
 30
0.0
 10
55.5054335697
 20
175.2502357127
 30
0.0
 10
53.1461239759
 20
176.2184354452
 30
0.0
  0
SPLINE
  5
3C2
100
AcDbEntity
  8
0
100
AcDbSpline
 62
7
  6
CONTINUOUS
 70
0
 71
3
 72
9
 73
5
 74
0
 42
0.0000001
 43
0.0000001
 44
0.0000000001
 40
0.0
 40
0.0
 40
0.0
 40
0.0
 40
0.2545334673
 40
1.0
 40
1.0
 40
1.0
 40
1.0
 10
64.88721528
 20
199.5544486934
 30
0.0
 10
64.8379197111
 20
199.1566750512
 30
0.0
 10
64.6604548584
 20
197.5919752465
 30
0.0
 10
64.548652115
 20
196.0196583335
 30
0.0
 10
64.5064040956
 20
194.8465247098
 30
0.0
  0
SPLINE
  5
3C3
100
AcDbEntity
  8
0
100
AcDbSpline
 62
7
  6
CONTINUOUS
 70
0
 71
3
 72
9
 73
5
 74
0
 42
0.0000001
 43
0.0000001
 44
0.0000000001
 40
0.0
 40
0.0
 40
0.0
 40
0.0
 40
0.2380546825
 40
1.0
 40
1.0
 40
1.0
 40
1.0
 10
77.0964052341
 20
233.5752628733
 30
0.0
 10
77.0964052341
 20
233.3987119887
 30
0.0
 10
77.0717599015
 20
232.6571276537
 30
0.0
 10
76.9556883922
 20
231.9198426873
 30
0.0
 10
76.827976612
 20
231.36937429
 30
0.0
  0
SPLINE
  5
3C4
100
AcDbEntity
  8
0
100
AcDbSpline
 62
7
  6
CONTINUOUS
 70
0
 71
3
 72
9
 73
5
 74
0
 42
0.0000001
 43
0.0000001
 44
0.0000000001
 40
0.0
 40
0.0
 40
0.0
 40
0.0
 40
0.2439725431
 40
1.0
 40
1.0
 40
1.0
 40
1.0
 10
76.827976612
 20
231.36937429
 30
0.0
 10
76.7888124735
 20
231.2005674618
 30
0.0
 10
76.6128547155
 20
230.5122889764
 30
0.0
 10
76.3777375445
 20
229.8394670257
 30
0.0
 10
76.1720332566
 20
229.3434320888
 30
0.0
  0
SPLINE
  5
3C5
100
AcDbEntity
  8
0
100
AcDbSpline
 62
7
  6
CONTINUOUS
 70
0
 71
3
 72
9
 73
5
 74
0
 42
0.0000001
 43
0.0000001
 44
0.0000000001
 40
0.0
 40
0.0
 40
0.0
 40
0.0
 40
0.2555881331
 40
1.0
 40
1.0
 40
1.0
 40
1.0
 10
74.2886767377
 20
226.0813445246
 30
0.0
 10
74.1782217018
 20
225.9372723312
 30
0.0
 10
73.7351627389
 20
225.3820819723
 30
0.0
 10
73.2484146431
 20
224.8612948014
 30
0.0
 10
72.8621028288
 20
224.5002745557
 30
0.0
  0
SPLINE
  5
3C6
100
AcDbEntity
  8
0
100
AcDbSpline
 62
7
  6
CONTINUOUS
 70
0
 71
3
 72
9
 73
5
 74
0
 42
0.0000001
 43
0.0000001
 44
0.0000000001
 40
0.0
 40
0.0
 40
0.0
 40
0.0
 40
0.2615763338
 40
1.0
 40
1.0
 40
1.0
 40
1.0
 10
72.8621028288
 20
224.5002745557
 30
0.0
 10
72.7203814639
 20
224.3678315911
 30
0.0
 10
72.1661396692
 20
223.8752583611
 30
0.0
 10
71.5602459848
 20
223.4387083741
 30
0.0
 10
71.0860226178
 20
223.1649170198
 30
0.0
  0
SPLINE
  5
3C7
100
AcDbEntity
  8
0
100
AcDbSpline
 62
7
  6
CONTINUOUS
 70
0
 71
3
 72
11
 73
7
 74
0
 42
0.0000001
 43
0.0000001
 44
0.0000000001
 40
0.0
 40
0.0
 40
0.0
 40
0.0
 40
0.2898012489
 40
0.5490510236
 40
0.7822290598
 40
1.0
 40
1.0
 40
1.0
 40
1.0
 10
243.7263341592
 20
203.508604024
 30
0.0
 10
243.7263341592
 20
203.9394363687
 30
0.0
 10
243.6612687953
 20
204.758501542
 30
0.0
 10
243.3291975187
 20
205.8837544589
 30
0.0
 10
242.7710141137
 20
206.7969557456
 30
0.0
 10
242.246248327
 20
207.237902138
 30
0.0
 10
241.9658721775
 20
207.3997737133
 30
0.0
  0
SPLINE
  5
3C8
100
AcDbEntity
  8
0
100
AcDbSpline
 62
7
  6
CONTINUOUS
 70
0
 71
3
 72
15
 73
11
 74
0
 42
0.0000001
 43
0.0000001
 44
0.0000000001
 40
0.0
 40
0.0
 40
0.0
 40
0.0
 40
0.1141543519
 40
0.237325601
 40
0.366974755
 40
0.4999984147
 40
0.6330222943
 40
0.7626720931
 40
0.8858443543
 40
1.0
 40
1.0
 40
1.0
 40
1.0
 10
237.7159515429
 20
126.1450599659
 30
0.0
 10
238.1274106638
 20
126.382614582
 30
0.0
 10
238.9401160959
 20
126.9523153442
 30
0.0
 10
240.0583543947
 20
127.9985180158
 30
0.0
 10
241.0888714176
 20
129.235207638
 30
0.0
 10
241.9928521928
 20
130.6159920243
 30
0.0
 10
242.7366501013
 20
132.0892605828
 30
0.0
 10
243.2923925795
 20
133.6000689115
 30
0.0
 10
243.6393104966
 20
135.091605777
 30
0.0
 10
243.7263341592
 20
136.0802890753
 30
0.0
 10
243.7263341592
 20
136.5554058194
 30
0.0
  0
SPLINE
  5
3C9
100
AcDbEntity
  8
0
100
AcDbSpline
 62
7
  6
CONTINUOUS
 70
0
 71
3
 72
14
 73
10
 74
0
 42
0.0000001
 43
0.0000001
 44
0.0000000001
 40
0.0
 40
0.0
 40
0.0
 40
0.0
 40
0.1080467359
 40
0.2181307109
 40
0.3321042074
 40
0.451501513
 40
0.5774614155
 40
0.7107195081
 40
1.0
 40
1.0
 40
1.0
 40
1.0
 10
190.5535156807
 20
112.6342278653
 30
0.0
 10
189.864901322
 20
113.031788372
 30
0.0
 10
188.5409266502
 20
113.9555936101
 30
0.0
 10
186.7915580596
 20
115.6772178619
 30
0.0
 10
185.2870496772
 20
117.7206068635
 30
0.0
 10
184.0413380256
 20
120.0626732711
 30
0.0
 10
183.0639883592
 20
122.6798653682
 30
0.0
 10
182.1033090295
 20
126.6074859104
 30
0.0
 10
181.8547690108
 20
129.7323218408
 30
0.0
 10
181.8547690108
 20
131.8611954871
 30
0.0
  0
SPLINE
  5
3CA
100
AcDbEntity
  8
0
100
AcDbSpline
 62
7
  6
CONTINUOUS
 70
0
 71
3
 72
17
 73
13
 74
0
 42
0.0000001
 43
0.0000001
 44
0.0000000001
 40
0.0
 40
0.0
 40
0.0
 40
0.0
 40
0.1286937171
 40
0.2702785108
 40
0.4174346475
 40
0.5617788521
 40
0.6954492605
 40
0.8127115773
 40
0.8646776011
 40
0.9125100443
 40
0.9571398829
 40
1.0
 40
1.0
 40
1.0
 40
1.0
 10
177.1463985662
 20
98.8026640767
 30
0.0
 10
177.1463985662
 20
99.1873159815
 30
0.0
 10
177.2539950899
 20
99.9960748414
 30
0.0
 10
177.6556572466
 20
101.1835478718
 30
0.0
 10
178.2745074374
 20
102.3274783525
 30
0.0
 10
179.0608765786
 20
103.3340527397
 30
0.0
 10
179.9504947214
 20
104.1219784534
 30
0.0
 10
180.7557408543
 20
104.5621930002
 30
0.0
 10
181.3856067016
 20
104.7298718433
 30
0.0
 10
181.8191300873
 20
104.7616625532
 30
0.0
 10
182.2228245668
 20
104.7025990251
 30
0.0
 10
182.4673607633
 20
104.6009075482
 30
0.0
 10
182.5783142859
 20
104.5368759803
 30
0.0
  0
SPLINE
  5
3CB
100
AcDbEntity
  8
0
100
AcDbSpline
 62
7
  6
CONTINUOUS
 70
0
 71
3
 72
17
 73
13
 74
0
 42
0.0000001
 43
0.0000001
 44
0.0000000001
 40
0.0
 40
0.0
 40
0.0
 40
0.0
 40
0.1286937171
 40
0.2702785108
 40
0.4174346475
 40
0.5617788521
 40
0.6954492605
 40
0.8127115773
 40
0.8646776011
 40
0.9125100443
 40
0.9571398829
 40
1.0
 40
1.0
 40
1.0
 40
1.0
 10
177.1463985662
 20
165.1984196176
 30
0.0
 10
177.1463985662
 20
165.5830715223
 30
0.0
 10
177.2539950899
 20
166.3918303822
 30
0.0
 10
177.6556572466
 20
167.5793034127
 30
0.0
 10
178.2745074374
 20
168.7232338933
 30
0.0
 10
179.0608765786
 20
169.7298082806
 30
0.0
 10
179.9504947214
 20
170.5177339942
 30
0.0
 10
180.7557408543
 20
170.9579485411
 30
0.0
 10
181.3856067016
 20
171.1256273842
 30
0.0
 10
181.8191300873
 20
171.1574180941
 30
0.0
 10
182.2228245668
 20
171.0983545659
 30
0.0
 10
182.4673607633
 20
170.9966630891
 30
0.0
 10
182.5783142859
 20
170.9326315211
 30
0.0
  0
SPLINE
  5
3CC
100
AcDbEntity
  8
0
100
AcDbSpline
 62
7
  6
CONTINUOUS
 70
0
 71
3
 72
17
 73
13
 74
0
 42
0.0000001
 43
0.0000001
 44
0.0000000001
 40
0.0
 40
0.0
 40
0.0
 40
0.0
 40
0.1286937171
 40
0.2702785108
 40
0.4174346475
 40
0.5617788521
 40
0.6954492605
 40
0.8127115773
 40
0.8646776011
 40
0.9125100443
 40
0.9571398829
 40
1.0
 40
1.0
 40
1.0
 40
1.0
 10
234.6461591704
 20
198.3957237196
 30
0.0
 10
234.6461591704
 20
198.7803756243
 30
0.0
 10
234.7537556941
 20
199.5891344842
 30
0.0
 10
235.1554178508
 20
200.7766075147
 30
0.0
 10
235.7742680416
 20
201.9205379953
 30
0.0
 10
236.5606371828
 20
202.9271123826
 30
0.0
 10
237.4502553256
 20
203.7150380962
 30
0.0
 10
238.2555014584
 20
204.1552526431
 30
0.0
 10
238.8853673057
 20
204.3229314861
 30
0.0
 10
239.3188906914
 20
204.354722196
 30
0.0
 10
239.722585171
 20
204.2956586679
 30
0.0
 10
239.9671213675
 20
204.1939671911
 30
0.0
 10
240.0780748901
 20
204.1299356231
 30
0.0
  0
SPLINE
  5
3CD
100
AcDbEntity
  8
0
100
AcDbSpline
 62
7
  6
CONTINUOUS
 70
0
 71
3
 72
17
 73
13
 74
0
 42
0.0000001
 43
0.0000001
 44
0.0000000001
 40
0.0
 40
0.0
 40
0.0
 40
0.0
 40
0.0467066667
 40
0.0940853171
 40
0.142761568
 40
0.1932760489
 40
0.3012789312
 40
0.4204114402
 40
0.55112996
 40
0.6925988112
 40
0.8430361047
 40
1.0
 40
1.0
 40
1.0
 40
1.0
 10
187.8035512667
 20
107.8710419576
 30
0.0
 10
188.4817785456
 20
107.4794459695
 30
0.0
 10
189.9091199166
 20
106.7916406421
 30
0.0
 10
192.2019114454
 20
106.0768470467
 30
0.0
 10
194.6352781569
 20
105.6803443922
 30
0.0
 10
198.1164311781
 20
105.5757335672
 30
0.0
 10
202.7580658873
 20
106.3021564617
 30
0.0
 10
208.4145791947
 20
108.3926587863
 30
0.0
 10
214.1414568759
 20
111.6451207843
 30
0.0
 10
219.7832233242
 20
115.9645744572
 30
0.0
 10
225.1852214819
 20
121.2273128201
 30
0.0
 10
228.4773124008
 20
125.2075240915
 30
0.0
 10
230.0519657273
 20
127.3164170195
 30
0.0
  0
SPLINE
  5
3CE
100
AcDbEntity
  8
0
100
AcDbSpline
 62
7
  6
CONTINUOUS
 70
0
 71
3
 72
11
 73
7
 74
0
 42
0.0000001
 43
0.0000001
 44
0.0000000001
 40
0.0
 40
0.0
 40
0.0
 40
0.0
 40
0.2662465578
 40
0.5236519809
 40
0.7690742584
 40
1.0
 40
1.0
 40
1.0
 40
1.0
 10
239.6064929101
 20
143.8769784169
 30
0.0
 10
240.491516419
 20
145.9401122058
 30
0.0
 10
242.0605823374
 20
150.0743857329
 30
0.0
 10
243.8064349192
 20
156.3293961919
 30
0.0
 10
244.8799977944
 20
162.4328078562
 30
0.0
 10
245.1405624414
 20
166.4519194295
 30
0.0
 10
245.1405624414
 20
168.3990472586
 30
0.0
  0
SPLINE
  5
3CF
100
AcDbEntity
  8
0
100
AcDbSpline
 62
7
  6
CONTINUOUS
 70
0
 71
3
 72
15
 73
11
 74
0
 42
0.0000001
 43
0.0000001
 44
0.0000000001
 40
0.0
 40
0.0
 40
0.0
 40
0.0
 40
0.114155658
 40
0.2373279333
 40
0.3669777387
 40
0.5000016213
 40
0.633025278
 40
0.7626744253
 40
0.8858456604
 40
1.0
 40
1.0
 40
1.0
 40
1.0
 10
164.5306219602
 20
169.2160475079
 30
0.0
 10
164.5306219602
 20
169.6911643032
 30
0.0
 10
164.6176456514
 20
170.6798477103
 30
0.0
 10
164.964563619
 20
172.1713847057
 30
0.0
 10
165.520306182
 20
173.6821931095
 30
0.0
 10
166.2641041402
 20
175.1554616729
 30
0.0
 10
167.168084936
 20
176.5362460137
 30
0.0
 10
168.1986019364
 20
177.7729355249
 30
0.0
 10
169.3168401479
 20
178.8191380879
 30
0.0
 10
170.1295455001
 20
179.3888387708
 30
0.0
 10
170.5410045765
 20
179.6263933614
 30
0.0
  0
SPLINE
  5
3D0
100
AcDbEntity
  8
0
100
AcDbSpline
 62
7
  6
CONTINUOUS
 70
0
 71
3
 72
9
 73
5
 74
0
 42
0.0000001
 43
0.0000001
 44
0.0000000001
 40
0.0
 40
0.0
 40
0.0
 40
0.0
 40
0.242405769
 40
1.0
 40
1.0
 40
1.0
 40
1.0
 10
163.7173966121
 20
169.6853781776
 30
0.0
 10
163.8049239209
 20
169.7359117913
 30
0.0
 10
164.1620150508
 20
169.9512495014
 30
0.0
 10
164.5032577446
 20
170.1925364757
 30
0.0
 10
164.752434613
 20
170.386659254
 30
0.0
  0
SPLINE
  5
3D1
100
AcDbEntity
  8
0
100
AcDbSpline
 62
7
  6
CONTINUOUS
 70
0
 71
3
 72
9
 73
5
 74
0
 42
0.0000001
 43
0.0000001
 44
0.0000000001
 40
0.0
 40
0.0
 40
0.0
 40
0.0
 40
0.2574853377
 40
1.0
 40
1.0
 40
1.0
 40
1.0
 10
169.6379962183
 20
178.8488959868
 30
0.0
 10
169.6527852068
 20
178.9552095331
 30
0.0
 10
169.7036441981
 20
179.3689651972
 30
0.0
 10
169.7277792284
 20
179.7861938675
 30
0.0
 10
169.7277792284
 20
180.0957240311
 30
0.0
  0
SPLINE
  5
3D2
100
AcDbEntity
  8
0
100
AcDbSpline
 62
7
  6
CONTINUOUS
 70
0
 71
3
 72
11
 73
7
 74
0
 42
0.0000001
 43
0.0000001
 44
0.0000000001
 40
0.0
 40
0.0
 40
0.0
 40
0.0
 40
0.2177798776
 40
0.4509240312
 40
0.7102597553
 40
1.0
 40
1.0
 40
1.0
 40
1.0
 10
178.0784173814
 20
96.742649558
 30
0.0
 10
177.9299637111
 20
96.8283225593
 30
0.0
 10
177.6522490739
 20
97.0618493926
 30
0.0
 10
177.3565854665
 20
97.5452433096
 30
0.0
 10
177.1809166858
 20
98.1410093526
 30
0.0
 10
177.1463985662
 20
98.5746273423
 30
0.0
 10
177.1463985662
 20
98.8026640767
 30
0.0
  0
SPLINE
  5
3D3
100
AcDbEntity
  8
0
100
AcDbSpline
 62
7
  6
CONTINUOUS
 70
0
 71
3
 72
11
 73
7
 74
0
 42
0.0000001
 43
0.0000001
 44
0.0000000001
 40
0.0
 40
0.0
 40
0.0
 40
0.0
 40
0.2177709505
 40
0.4509489942
 40
0.7101987597
 40
1.0
 40
1.0
 40
1.0
 40
1.0
 10
166.2910839419
 20
98.371679614
 30
0.0
 10
166.0107077642
 20
98.5335511715
 30
0.0
 10
165.4859419735
 20
98.9744976172
 30
0.0
 10
164.9277585812
 20
99.8876989183
 30
0.0
 10
164.595687309
 20
101.0129518232
 30
0.0
 10
164.5306219602
 20
101.8320169712
 30
0.0
 10
164.5306219602
 20
102.2628493033
 30
0.0
  0
SPLINE
  5
3D4
100
AcDbEntity
  8
0
100
AcDbSpline
 62
7
  6
CONTINUOUS
 70
0
 71
3
 72
11
 73
7
 74
0
 42
0.0000001
 43
0.0000001
 44
0.0000000001
 40
0.0
 40
0.0
 40
0.0
 40
0.0
 40
0.2177723674
 40
0.4509510027
 40
0.7102002307
 40
1.0
 40
1.0
 40
1.0
 40
1.0
 10
176.190620094
 20
92.6563090507
 30
0.0
 10
176.4709869744
 20
92.4944428269
 30
0.0
 10
177.1152202862
 20
92.2604727623
 30
0.0
 10
178.1851267971
 20
92.2336779488
 30
0.0
 10
179.325612607
 20
92.5087105236
 30
0.0
 10
180.0674451015
 20
92.8618779273
 30
0.0
 10
180.4405407286
 20
93.0772835023
 30
0.0
  0
SPLINE
  5
3D5
100
AcDbEntity
  8
0
100
AcDbSpline
 62
7
  6
CONTINUOUS
 70
0
 71
3
 72
11
 73
7
 74
0
 42
0.0000001
 43
0.0000001
 44
0.0000000001
 40
0.0
 40
0.0
 40
0.0
 40
0.0
 40
0.2177798776
 40
0.4509240312
 40
0.7102597553
 40
1.0
 40
1.0
 40
1.0
 40
1.0
 10
235.5781779856
 20
196.3357092009
 30
0.0
 10
235.4297243153
 20
196.4213822021
 30
0.0
 10
235.1520096781
 20
196.6549090354
 30
0.0
 10
234.8563460706
 20
197.1383029525
 30
0.0
 10
234.6806772899
 20
197.7340689954
 30
0.0
 10
234.6461591704
 20
198.1676869851
 30
0.0
 10
234.6461591704
 20
198.3957237196
 30
0.0
  0
SPLINE
  5
3D6
100
AcDbEntity
  8
0
100
AcDbSpline
 62
7
  6
CONTINUOUS
 70
0
 71
3
 72
11
 73
7
 74
0
 42
0.0000001
 43
0.0000001
 44
0.0000000001
 40
0.0
 40
0.0
 40
0.0
 40
0.0
 40
0.2177798776
 40
0.4509240312
 40
0.7102597553
 40
1.0
 40
1.0
 40
1.0
 40
1.0
 10
178.0784173814
 20
163.1384050989
 30
0.0
 10
177.9299637111
 20
163.2240781002
 30
0.0
 10
177.6522490739
 20
163.4576049334
 30
0.0
 10
177.3565854665
 20
163.9409988505
 30
0.0
 10
177.1809166858
 20
164.5367648934
 30
0.0
 10
177.1463985662
 20
164.9703828831
 30
0.0
 10
177.1463985662
 20
165.1984196176
 30
0.0
  0
SPLINE
  5
3D7
100
AcDbEntity
  8
0
100
AcDbSpline
 62
7
  6
CONTINUOUS
 70
0
 71
3
 72
25
 73
21
 74
0
 42
0.0000001
 43
0.0000001
 44
0.0000000001
 40
0.0
 40
0.0
 40
0.0
 40
0.0
 40
0.0623842755
 40
0.1287225467
 40
0.1983155974
 40
0.2702918943
 40
0.3436692288
 40
0.4174008718
 40
0.4904251379
 40
0.5617115082
 40
0.6303087336
 40
0.6953964011
 40
0.7563441197
 40
0.8127815909
 40
0.8646823551
 40
0.9124573561
 40
0.9351022111
 40
0.9571074501
 40
0.9786679797
 40
1.0
 40
1.0
 40
1.0
 40
1.0
 10
181.8547690108
 20
131.8611954871
 30
0.0
 10
181.8547690108
 20
133.6036380286
 30
0.0
 10
182.0908092458
 20
137.2013634322
 30
0.0
 10
183.062177391
 20
142.6640178635
 30
0.0
 10
184.6413437825
 20
148.261463085
 30
0.0
 10
186.7946492065
 20
153.874018496
 30
0.0
 10
189.4761793735
 20
159.3827078211
 30
0.0
 10
192.628781138
 20
164.669990393
 30
0.0
 10
196.1851839632
 20
169.6230962194
 30
0.0
 10
200.0696404238
 20
174.1364658344
 30
0.0
 10
204.1997267471
 20
178.1141582127
 30
0.0
 10
208.4885693067
 20
181.4718466968
 30
0.0
 10
212.8469680063
 20
184.1384099007
 30
0.0
 10
217.1868764255
 20
186.0563114363
 30
0.0
 10
221.4203006018
 20
187.1815902834
 30
0.0
 10
224.8538521334
 20
187.4336096551
 30
0.0
 10
227.4290765525
 20
187.1920833987
 30
0.0
 10
229.2421610889
 20
186.8052780372
 30
0.0
 10
230.9596098888
 20
186.2117493573
 30
0.0
 10
232.0367454978
 20
185.6785759169
 30
0.0
 10
232.5527446669
 20
185.3806720342
 30
0.0
  0
SPLINE
  5
3D8
100
AcDbEntity
  8
0
100
AcDbSpline
 62
7
  6
CONTINUOUS
 70
0
 71
3
 72
11
 73
7
 74
0
 42
0.0000001
 43
0.0000001
 44
0.0000000001
 40
0.0
 40
0.0
 40
0.0
 40
0.0
 40
0.289799778
 40
0.5490490151
 40
0.7822276429
 40
1.0
 40
1.0
 40
1.0
 40
1.0
 10
227.8164153909
 20
212.694169825
 30
0.0
 10
228.1895110289
 20
212.9095754062
 30
0.0
 10
228.9313435529
 20
213.2627428096
 30
0.0
 10
230.0718293754
 20
213.5377753866
 30
0.0
 10
231.1417358802
 20
213.5109805548
 30
0.0
 10
231.7859691438
 20
213.2770104671
 30
0.0
 10
232.0663360255
 20
213.1151442765
 30
0.0
  0
SPLINE
  5
3D9
100
AcDbEntity
  8
0
100
AcDbSpline
 62
7
  6
CONTINUOUS
 70
0
 71
3
 72
9
 73
5
 74
0
 42
0.0000001
 43
0.0000001
 44
0.0000000001
 40
0.0
 40
0.0
 40
0.0
 40
0.0
 40
0.2624407205
 40
1.0
 40
1.0
 40
1.0
 40
1.0
 10
245.1405624414
 20
168.3990472586
 30
0.0
 10
245.1405624414
 20
169.1605308193
 30
0.0
 10
245.0664728623
 20
172.0608105556
 30
0.0
 10
244.684011073
 20
174.9592418896
 30
0.0
 10
244.1832732248
 20
177.0398967325
 30
0.0
  0
SPLINE
  5
3DA
100
AcDbEntity
  8
0
100
AcDbSpline
 62
7
  6
CONTINUOUS
 70
0
 71
3
 72
11
 73
7
 74
0
 42
0.0000001
 43
0.0000001
 44
0.0000000001
 40
0.0
 40
0.0
 40
0.0
 40
0.0
 40
0.2704277957
 40
0.5241166516
 40
0.7653851179
 40
1.0
 40
1.0
 40
1.0
 40
1.0
 10
243.6303641884
 20
179.0259625006
 30
0.0
 10
243.2421835743
 20
180.2455650382
 30
0.0
 10
242.3214955253
 20
182.5615317712
 30
0.0
 10
240.4304477656
 20
185.6733218929
 30
0.0
 10
238.1004785081
 20
188.2509838332
 30
0.0
 10
236.2643237739
 20
189.5886392598
 30
0.0
 10
235.3027090808
 20
190.1438579418
 30
0.0
  0
SPLINE
  5
3DB
100
AcDbEntity
  8
0
100
AcDbSpline
 62
7
  6
CONTINUOUS
 70
0
 71
3
 72
9
 73
5
 74
0
 42
0.0000001
 43
0.0000001
 44
0.0000000001
 40
0.0
 40
0.0
 40
0.0
 40
0.0
 40
0.5190691013
 40
1.0
 40
1.0
 40
1.0
 40
1.0
 10
174.1356678152
 20
136.48125212
 30
0.0
 10
173.8704100286
 20
134.3408456214
 30
0.0
 10
173.5864647024
 20
130.1844964228
 30
0.0
 10
173.8496388906
 20
126.0210961799
 30
0.0
 10
174.1356678152
 20
124.0433599069
 30
0.0
  0
SPLINE
  5
3DC
100
AcDbEntity
  8
0
100
AcDbSpline
 62
7
  6
CONTINUOUS
 70
0
 71
3
 72
11
 73
7
 74
0
 42
0.0000001
 43
0.0000001
 44
0.0000000001
 40
0.0
 40
0.0
 40
0.0
 40
0.0
 40
0.2177798776
 40
0.4509240312
 40
0.7102597553
 40
1.0
 40
1.0
 40
1.0
 40
1.0
 10
182.5783142859
 20
104.5368759803
 30
0.0
 10
182.7267679563
 20
104.451202979
 30
0.0
 10
183.0044825935
 20
104.2176761457
 30
0.0
 10
183.3001462009
 20
103.7342822287
 30
0.0
 10
183.4758149816
 20
103.1385161857
 30
0.0
 10
183.5103331011
 20
102.704898196
 30
0.0
 10
183.5103331011
 20
102.4768614616
 30
0.0
  0
SPLINE
  5
3DD
100
AcDbEntity
  8
0
100
AcDbSpline
 62
7
  6
CONTINUOUS
 70
0
 71
3
 72
24
 73
20
 74
0
 42
0.0000001
 43
0.0000001
 44
0.0000000001
 40
0.0
 40
0.0
 40
0.0
 40
0.0
 40
0.0623893206
 40
0.1287320324
 40
0.1983305319
 40
0.2703122457
 40
0.3436950303
 40
0.4174321035
 40
0.4904617851
 40
0.5617535588
 40
0.6303561095
 40
0.6954488403
 40
0.7564012913
 40
0.8128431186
 40
0.8647478713
 40
0.9125264548
 40
0.957104329
 40
0.9786663896
 40
1.0
 40
1.0
 40
1.0
 40
1.0
 10
175.4908138681
 20
131.0446952817
 30
0.0
 10
175.4908138681
 20
133.015325981
 30
0.0
 10
175.7577566804
 20
137.0841770317
 30
0.0
 10
176.8563515984
 20
143.2621752933
 30
0.0
 10
178.6422992483
 20
149.5926120663
 30
0.0
 10
181.0775974782
 20
155.9401457996
 30
0.0
 10
184.1102760038
 20
162.1702064933
 30
0.0
 10
187.6757137004
 20
168.1498645989
 30
0.0
 10
191.6978301253
 20
173.7515899352
 30
0.0
 10
196.0909590752
 20
178.8560051631
 30
0.0
 10
200.7619053948
 20
183.3545954998
 30
0.0
 10
205.6123460363
 20
187.1520126291
 30
0.0
 10
210.5416380678
 20
190.1677331325
 30
0.0
 10
215.4493975947
 20
192.3369648924
 30
0.0
 10
220.2387799281
 20
193.6090594064
 30
0.0
 10
224.8129258798
 20
193.9469830711
 30
0.0
 10
228.4089796223
 20
193.417665461
 30
0.0
 10
231.0258805403
 20
192.5124498917
 30
0.0
 10
232.2442662093
 20
191.9096349646
 30
0.0
 10
232.8278244123
 20
191.5726994744
 30
0.0
  0
SPLINE
  5
3DE
100
AcDbEntity
  8
0
100
AcDbSpline
 62
7
  6
CONTINUOUS
 70
0
 71
3
 72
11
 73
7
 74
0
 42
0.0000001
 43
0.0000001
 44
0.0000000001
 40
0.0
 40
0.0
 40
0.0
 40
0.0
 40
0.2177798776
 40
0.4509240312
 40
0.7102597553
 40
1.0
 40
1.0
 40
1.0
 40
1.0
 10
240.0780748901
 20
204.1299356231
 30
0.0
 10
240.2265285604
 20
204.0442626218
 30
0.0
 10
240.5042431976
 20
203.8107357885
 30
0.0
 10
240.7999068051
 20
203.3273418715
 30
0.0
 10
240.9755755857
 20
202.7315758285
 30
0.0
 10
241.0100937053
 20
202.2979578389
 30
0.0
 10
241.0100937053
 20
202.0699211044
 30
0.0
  0
SPLINE
  5
3DF
100
AcDbEntity
  8
0
100
AcDbSpline
 62
7
  6
CONTINUOUS
 70
0
 71
3
 72
17
 73
13
 74
0
 42
0.0000001
 43
0.0000001
 44
0.0000000001
 40
0.0
 40
0.0
 40
0.0
 40
0.0
 40
0.1286937171
 40
0.2702785108
 40
0.4174346475
 40
0.5617788521
 40
0.6954492605
 40
0.8127115773
 40
0.8646776011
 40
0.9125100443
 40
0.9571398829
 40
1.0
 40
1.0
 40
1.0
 40
1.0
 10
183.5103331011
 20
102.4768614616
 30
0.0
 10
183.5103331011
 20
102.0922095568
 30
0.0
 10
183.4027365774
 20
101.2834506969
 30
0.0
 10
183.0010744208
 20
100.0959776664
 30
0.0
 10
182.38222423
 20
98.9520471858
 30
0.0
 10
181.5958550888
 20
97.9454727986
 30
0.0
 10
180.7062369459
 20
97.1575470849
 30
0.0
 10
179.9009908131
 20
96.7173325381
 30
0.0
 10
179.2711249658
 20
96.549653695
 30
0.0
 10
178.8376015801
 20
96.5178629851
 30
0.0
 10
178.4339071005
 20
96.5769265132
 30
0.0
 10
178.1893709041
 20
96.6786179901
 30
0.0
 10
178.0784173814
 20
96.742649558
 30
0.0
  0
SPLINE
  5
3E0
100
AcDbEntity
  8
0
100
AcDbSpline
 62
7
  6
CONTINUOUS
 70
0
 71
3
 72
11
 73
7
 74
0
 42
0.0000001
 43
0.0000001
 44
0.0000000001
 40
0.0
 40
0.0
 40
0.0
 40
0.0
 40
0.2177723674
 40
0.4509510027
 40
0.7102002307
 40
1.0
 40
1.0
 40
1.0
 40
1.0
 10
241.9658721775
 20
207.3997737133
 30
0.0
 10
241.6855052972
 20
207.5616399371
 30
0.0
 10
241.0412719853
 20
207.7956100017
 30
0.0
 10
239.9713654745
 20
207.8224048152
 30
0.0
 10
238.8308796645
 20
207.5473722404
 30
0.0
 10
238.08904717
 20
207.1942048367
 30
0.0
 10
237.7159515429
 20
206.9787992617
 30
0.0
  0
SPLINE
  5
3E1
100
AcDbEntity
  8
0
100
AcDbSpline
 62
7
  6
CONTINUOUS
 70
0
 71
3
 72
15
 73
11
 74
0
 42
0.0000001
 43
0.0000001
 44
0.0000000001
 40
0.0
 40
0.0
 40
0.0
 40
0.0
 40
0.1141543519
 40
0.237325601
 40
0.366974755
 40
0.4999984147
 40
0.6330222943
 40
0.7626720931
 40
0.8858443543
 40
1.0
 40
1.0
 40
1.0
 40
1.0
 10
180.4405407286
 20
173.9110227981
 30
0.0
 10
180.0290816078
 20
173.673468182
 30
0.0
 10
179.2163761757
 20
173.1037674198
 30
0.0
 10
178.0981378768
 20
172.0575647482
 30
0.0
 10
177.0676208539
 20
170.820875126
 30
0.0
 10
176.1636400787
 20
169.4400907397
 30
0.0
 10
175.4198421702
 20
167.9668221812
 30
0.0
 10
174.864099692
 20
166.4560138525
 30
0.0
 10
174.5171817749
 20
164.964476987
 30
0.0
 10
174.4301581123
 20
163.9757936887
 30
0.0
 10
174.4301581123
 20
163.5006769446
 30
0.0
  0
SPLINE
  5
3E2
100
AcDbEntity
  8
0
100
AcDbSpline
 62
7
  6
CONTINUOUS
 70
0
 71
3
 72
11
 73
7
 74
0
 42
0.0000001
 43
0.0000001
 44
0.0000000001
 40
0.0
 40
0.0
 40
0.0
 40
0.0
 40
0.2177798776
 40
0.4509240312
 40
0.7102597553
 40
1.0
 40
1.0
 40
1.0
 40
1.0
 10
182.5783142859
 20
170.9326315211
 30
0.0
 10
182.7267679563
 20
170.8469585199
 30
0.0
 10
183.0044825935
 20
170.6134316866
 30
0.0
 10
183.3001462009
 20
170.1300377695
 30
0.0
 10
183.4758149816
 20
169.5342717266
 30
0.0
 10
183.5103331011
 20
169.1006537369
 30
0.0
 10
183.5103331011
 20
168.8726170024
 30
0.0
  0
SPLINE
  5
3E3
100
AcDbEntity
  8
0
100
AcDbSpline
 62
7
  6
CONTINUOUS
 70
0
 71
3
 72
17
 73
13
 74
0
 42
0.0000001
 43
0.0000001
 44
0.0000000001
 40
0.0
 40
0.0
 40
0.0
 40
0.0
 40
0.1286937171
 40
0.2702785108
 40
0.4174346475
 40
0.5617788521
 40
0.6954492605
 40
0.8127115773
 40
0.8646776011
 40
0.9125100443
 40
0.9571398829
 40
1.0
 40
1.0
 40
1.0
 40
1.0
 10
183.5103331011
 20
168.8726170024
 30
0.0
 10
183.5103331011
 20
168.4879650977
 30
0.0
 10
183.4027365774
 20
167.6792062378
 30
0.0
 10
183.0010744208
 20
166.4917332073
 30
0.0
 10
182.38222423
 20
165.3478027267
 30
0.0
 10
181.5958550888
 20
164.3412283394
 30
0.0
 10
180.7062369459
 20
163.5533026258
 30
0.0
 10
179.9009908131
 20
163.1130880789
 30
0.0
 10
179.2711249658
 20
162.9454092358
 30
0.0
 10
178.8376015801
 20
162.913618526
 30
0.0
 10
178.4339071005
 20
162.9726820541
 30
0.0
 10
178.1893709041
 20
163.0743735309
 30
0.0
 10
178.0784173814
 20
163.1384050989
 30
0.0
  0
SPLINE
  5
3E4
100
AcDbEntity
  8
0
100
AcDbSpline
 62
7
  6
CONTINUOUS
 70
0
 71
3
 72
14
 73
10
 74
0
 42
0.0000001
 43
0.0000001
 44
0.0000000001
 40
0.0
 40
0.0
 40
0.0
 40
0.0
 40
0.2871568468
 40
0.4203314973
 40
0.546742463
 40
0.6669283861
 40
0.7817181814
 40
0.8922645927
 40
1.0
 40
1.0
 40
1.0
 40
1.0
 10
238.0694975736
 20
167.9907878077
 30
0.0
 10
238.0694975736
 20
169.9616744428
 30
0.0
 10
237.8557552161
 20
172.8581524268
 30
0.0
 10
237.0397621866
 20
176.5261758485
 30
0.0
 10
236.2071411754
 20
179.0020231119
 30
0.0
 10
235.1449419791
 20
181.2502614436
 30
0.0
 10
233.859852143
 20
183.2521094849
 30
0.0
 10
232.3619156252
 20
184.9891513893
 30
0.0
 10
231.2190120885
 20
185.9685947395
 30
0.0
 10
230.6214356773
 20
186.4041046437
 30
0.0
  0
SPLINE
  5
3E5
100
AcDbEntity
  8
0
100
AcDbSpline
 62
7
  6
CONTINUOUS
 70
0
 71
3
 72
11
 73
7
 74
0
 42
0.0000001
 43
0.0000001
 44
0.0000000001
 40
0.0
 40
0.0
 40
0.0
 40
0.0
 40
0.2313970259
 40
0.4768066122
 40
0.7339481564
 40
1.0
 40
1.0
 40
1.0
 40
1.0
 10
241.2514913368
 20
166.1537044123
 30
0.0
 10
241.2514913368
 20
164.5096723894
 30
0.0
 10
241.0415213557
 20
161.1199714236
 30
0.0
 10
240.1730340996
 20
155.9701126154
 30
0.0
 10
238.7582057431
 20
150.6881789706
 30
0.0
 10
237.4847986687
 20
147.1903590214
 30
0.0
 10
236.7660811343
 20
145.4420791906
 30
0.0
  0
SPLINE
  5
3E6
100
AcDbEntity
  8
0
100
AcDbSpline
 62
7
  6
CONTINUOUS
 70
0
 71
3
 72
17
 73
13
 74
0
 42
0.0000001
 43
0.0000001
 44
0.0000000001
 40
0.0
 40
0.0
 40
0.0
 40
0.0
 40
0.1570362302
 40
0.307262721
 40
0.4483955506
 40
0.578804441
 40
0.6977830718
 40
0.8058747348
 40
0.8565305955
 40
0.9054056914
 40
0.9530272488
 40
1.0
 40
1.0
 40
1.0
 40
1.0
 10
227.1997390766
 20
128.893308123
 30
0.0
 10
225.8129591993
 20
127.1001017389
 30
0.0
 10
222.924976257
 20
123.7216083543
 30
0.0
 10
218.2103609139
 20
119.2677163302
 30
0.0
 10
213.3089830952
 20
115.6286833024
 30
0.0
 10
208.3496635333
 20
112.9046755539
 30
0.0
 10
203.4615265339
 20
111.1724851704
 30
0.0
 10
199.4580655406
 20
110.5946341599
 30
0.0
 10
196.4561036496
 20
110.7128219107
 30
0.0
 10
194.3556318627
 20
111.0706929193
 30
0.0
 10
192.3749953592
 20
111.6979078575
 30
0.0
 10
191.1407459899
 20
112.2951998209
 30
0.0
 10
190.5535156807
 20
112.6342278653
 30
0.0
  0
SPLINE
  5
3E7
100
AcDbEntity
  8
0
100
AcDbSpline
 62
7
  6
CONTINUOUS
 70
0
 71
3
 72
17
 73
13
 74
0
 42
0.0000001
 43
0.0000001
 44
0.0000000001
 40
0.0
 40
0.0
 40
0.0
 40
0.0
 40
0.1286937171
 40
0.2702785108
 40
0.4174346475
 40
0.5617788521
 40
0.6954492605
 40
0.8127115773
 40
0.8646776011
 40
0.9125100443
 40
0.9571398829
 40
1.0
 40
1.0
 40
1.0
 40
1.0
 10
241.0100937053
 20
202.0699211044
 30
0.0
 10
241.0100937053
 20
201.6852691996
 30
0.0
 10
240.9024971816
 20
200.8765103397
 30
0.0
 10
240.5008350249
 20
199.6890373093
 30
0.0
 10
239.8819848341
 20
198.5451068287
 30
0.0
 10
239.0956156929
 20
197.5385324414
 30
0.0
 10
238.2059975501
 20
196.7506067277
 30
0.0
 10
237.4007514173
 20
196.3103921809
 30
0.0
 10
236.7708855699
 20
196.1427133378
 30
0.0
 10
236.3373621843
 20
196.1109226279
 30
0.0
 10
235.9336677047
 20
196.169986156
 30
0.0
 10
235.6891315082
 20
196.2716776329
 30
0.0
 10
235.5781779856
 20
196.3357092009
 30
0.0
  0
SPLINE
  5
3E8
100
AcDbEntity
  8
0
100
AcDbSpline
 62
7
  6
CONTINUOUS
 70
0
 71
3
 72
14
 73
10
 74
0
 42
0.0000001
 43
0.0000001
 44
0.0000000001
 40
0.0
 40
0.0
 40
0.0
 40
0.0
 40
0.2892786306
 40
0.4225367298
 40
0.5484982787
 40
0.6678947224
 40
0.781868223
 40
0.891952818
 40
1.0
 40
1.0
 40
1.0
 40
1.0
 10
177.9656979061
 20
129.6158526408
 30
0.0
 10
177.9656979061
 20
127.2082127743
 30
0.0
 10
178.2467663728
 20
123.6741814464
 30
0.0
 10
179.3332881371
 20
119.2322431075
 30
0.0
 10
180.4385507641
 20
116.2722889209
 30
0.0
 10
181.8474244771
 20
113.6235248473
 30
0.0
 10
183.5489940051
 20
111.3125918389
 30
0.0
 10
185.5273816658
 20
109.3654316354
 30
0.0
 10
187.0247738541
 20
108.3206937483
 30
0.0
 10
187.8035512667
 20
107.8710419576
 30
0.0
  0
SPLINE
  5
3E9
100
AcDbEntity
  8
0
100
AcDbSpline
 62
7
  6
CONTINUOUS
 70
0
 71
3
 72
16
 73
12
 74
0
 42
0.0000001
 43
0.0000001
 44
0.0000000001
 40
0.0
 40
0.0
 40
0.0
 40
0.0
 40
0.0468262029
 40
0.0948068217
 40
0.1958025119
 40
0.3058141664
 40
0.4261243601
 40
0.5568389205
 40
0.6971417945
 40
0.8455285416
 40
1.0
 40
1.0
 40
1.0
 40
1.0
 10
189.3508737021
 20
113.5261234352
 30
0.0
 10
189.9496404096
 20
113.2952712784
 30
0.0
 10
191.1949336434
 20
112.909143631
 30
0.0
 10
193.8445843322
 20
112.4482762717
 30
0.0
 10
197.4274067708
 20
112.4945327927
 30
0.0
 10
201.8832631549
 20
113.4913917667
 30
0.0
 10
206.4754321063
 20
115.387811096
 30
0.0
 10
211.1004428888
 20
118.1333444367
 30
0.0
 10
215.6544668537
 20
121.6610843295
 30
0.0
 10
220.0311757031
 20
125.8866081638
 30
0.0
 10
222.7227337906
 20
129.0558437623
 30
0.0
 10
224.0177886691
 20
130.7304475888
 30
0.0
  0
SPLINE
  5
3EA
100
AcDbEntity
  8
0
100
AcDbSpline
 62
7
  6
CONTINUOUS
 70
0
 71
3
 72
11
 73
7
 74
0
 42
0.0000001
 43
0.0000001
 44
0.0000000001
 40
0.0
 40
0.0
 40
0.0
 40
0.0
 40
0.2660511698
 40
0.5231923508
 40
0.7686023842
 40
1.0
 40
1.0
 40
1.0
 40
1.0
 10
233.5846342248
 20
147.2804956859
 30
0.0
 10
234.3032639446
 20
149.0286683999
 30
0.0
 10
235.5765178543
 20
152.5262679977
 30
0.0
 10
236.991175331
 20
157.8078600614
 30
0.0
 10
237.8595540093
 20
162.9573835031
 30
0.0
 10
238.0694975736
 20
166.3468626369
 30
0.0
 10
238.0694975736
 20
167.9907878077
 30
0.0
  0
SPLINE
  5
3EB
100
AcDbEntity
  8
0
100
AcDbSpline
 62
7
  6
CONTINUOUS
 70
0
 71
3
 72
14
 73
10
 74
0
 42
0.0000001
 43
0.0000001
 44
0.0000000001
 40
0.0
 40
0.0
 40
0.0
 40
0.0
 40
0.1080467359
 40
0.2181307109
 40
0.3321042074
 40
0.451501513
 40
0.5774614155
 40
0.7107195081
 40
1.0
 40
1.0
 40
1.0
 40
1.0
 10
232.5527446669
 20
185.3806720342
 30
0.0
 10
233.2413590255
 20
184.9831115275
 30
0.0
 10
234.5653336974
 20
184.0593062894
 30
0.0
 10
236.3147022879
 20
182.3376820376
 30
0.0
 10
237.8192106704
 20
180.2942930359
 30
0.0
 10
239.0649223219
 20
177.9522266284
 30
0.0
 10
240.0422719883
 20
175.3350345313
 30
0.0
 10
241.002951318
 20
171.4074139891
 30
0.0
 10
241.2514913368
 20
168.2825780587
 30
0.0
 10
241.2514913368
 20
166.1537044123
 30
0.0
  0
SPLINE
  5
3EC
100
AcDbEntity
  8
0
100
AcDbSpline
 62
7
  6
CONTINUOUS
 70
0
 71
3
 72
14
 73
10
 74
0
 42
0.0000001
 43
0.0000001
 44
0.0000000001
 40
0.0
 40
0.0
 40
0.0
 40
0.0
 40
0.1080467658
 40
0.2181310359
 40
0.3321043817
 40
0.4515008661
 40
0.5774624944
 40
0.7107208169
 40
1.0
 40
1.0
 40
1.0
 40
1.0
 10
185.3286678593
 20
109.2998857068
 30
0.0
 10
184.5498932885
 20
109.7495354426
 30
0.0
 10
183.0525059862
 20
110.7942692174
 30
0.0
 10
181.0741209522
 20
112.7414213064
 30
0.0
 10
179.37255282
 20
115.0523508386
 30
0.0
 10
177.9636772878
 20
117.7011133007
 30
0.0
 10
176.8584082458
 20
120.6610681382
 30
0.0
 10
175.771884305
 20
125.1030133273
 30
0.0
 10
175.4908138681
 20
128.6370508823
 30
0.0
 10
175.4908138681
 20
131.0446952817
 30
0.0
  0
SPLINE
  5
3ED
100
AcDbEntity
  8
0
100
AcDbSpline
 62
7
  6
CONTINUOUS
 70
0
 71
3
 72
11
 73
7
 74
0
 42
0.0000001
 43
0.0000001
 44
0.0000000001
 40
0.0
 40
0.0
 40
0.0
 40
0.0
 40
0.2898012489
 40
0.5490510236
 40
0.7822290598
 40
1.0
 40
1.0
 40
1.0
 40
1.0
 10
174.4301581123
 20
96.54747874
 30
0.0
 10
174.4301581123
 20
96.1166463953
 30
0.0
 10
174.4952234762
 20
95.297581222
 30
0.0
 10
174.8272947528
 20
94.1723283051
 30
0.0
 10
175.3854781578
 20
93.2591270184
 30
0.0
 10
175.9102439445
 20
92.818180626
 30
0.0
 10
176.190620094
 20
92.6563090507
 30
0.0
  0
SPLINE
  5
3EE
100
AcDbEntity
  8
0
100
AcDbSpline
 62
7
  6
CONTINUOUS
 70
0
 71
3
 72
24
 73
20
 74
0
 42
0.0000001
 43
0.0000001
 44
0.0000000001
 40
0.0
 40
0.0
 40
0.0
 40
0.0
 40
0.0213336522
 40
0.0428957497
 40
0.087473701
 40
0.1352523976
 40
0.187157301
 40
0.243599241
 40
0.304551673
 40
0.3696442428
 40
0.4382465752
 40
0.5095381497
 40
0.5825676367
 40
0.6563044932
 40
0.7296871331
 40
0.8016688856
 40
0.8712675606
 40
0.9376105171
 40
1.0
 40
1.0
 40
1.0
 40
1.0
 10
235.3027090808
 20
190.1438579418
 30
0.0
 10
234.7191498683
 20
190.4807943252
 30
0.0
 10
233.5007606482
 20
191.0836076975
 30
0.0
 10
230.8838560188
 20
191.9888272246
 30
0.0
 10
227.2877939023
 20
192.5181414789
 30
0.0
 10
222.7136376524
 20
192.18021301
 30
0.0
 10
217.9242451074
 20
190.9081097166
 30
0.0
 10
213.0164810458
 20
188.7388691411
 30
0.0
 10
208.0871939469
 20
185.7231447091
 30
0.0
 10
203.2367660297
 20
181.9257318872
 30
0.0
 10
198.5658345945
 20
177.4271525547
 30
0.0
 10
194.1727185924
 20
172.3227517703
 30
0.0
 10
190.1506122994
 20
166.7210429521
 30
0.0
 10
186.5851810185
 20
160.7414015274
 30
0.0
 10
183.5525028911
 20
154.5113519927
 30
0.0
 10
181.117199418
 20
148.1638179189
 30
0.0
 10
179.3312429178
 20
141.8333684821
 30
0.0
 10
178.2326426258
 20
135.6553523705
 30
0.0
 10
177.9656979061
 20
131.5864884739
 30
0.0
 10
177.9656979061
 20
129.6158526408
 30
0.0
  0
SPLINE
  5
3EF
100
AcDbEntity
  8
0
100
AcDbSpline
 62
7
  6
CONTINUOUS
 70
0
 71
3
 72
9
 73
5
 74
0
 42
0.0000001
 43
0.0000001
 44
0.0000000001
 40
0.0
 40
0.0
 40
0.0
 40
0.0
 40
0.4809308987
 40
1.0
 40
1.0
 40
1.0
 40
1.0
 10
64.88721528
 20
187.1165564803
 30
0.0
 10
64.6011863554
 20
189.0942927532
 30
0.0
 10
64.3380121672
 20
193.2576929962
 30
0.0
 10
64.6219574934
 20
197.4140421948
 30
0.0
 10
64.88721528
 20
199.5544486934
 30
0.0
  0
SPLINE
  5
3F0
100
AcDbEntity
  8
0
100
AcDbSpline
 62
7
  6
CONTINUOUS
 70
0
 71
3
 72
9
 73
5
 74
0
 42
0.0000001
 43
0.0000001
 44
0.0000000001
 40
0.0
 40
0.0
 40
0.0
 40
0.0
 40
0.2541915269
 40
1.0
 40
1.0
 40
1.0
 40
1.0
 10
119.0000032995
 20
264.5859672672
 30
0.0
 10
119.3046520852
 20
264.5672201044
 30
0.0
 10
120.5015311065
 20
264.4697781235
 30
0.0
 10
121.6908677992
 20
264.2752002013
 30
0.0
 10
122.563181967
 20
264.0725546404
 30
0.0
  0
SPLINE
  5
3F1
100
AcDbEntity
  8
0
100
AcDbSpline
 62
7
  6
CONTINUOUS
 70
0
 71
3
 72
13
 73
9
 74
0
 42
0.0000001
 43
0.0000001
 44
0.0000000001
 40
0.0
 40
0.0
 40
0.0
 40
0.0
 40
0.1142481057
 40
0.2375464672
 40
0.499998393
 40
0.7624511984
 40
0.8857505872
 40
1.0
 40
1.0
 40
1.0
 40
1.0
 10
71.0860226178
 20
223.1649170198
 30
0.0
 10
71.4974518702
 20
223.4024543915
 30
0.0
 10
72.3102594958
 20
223.9722026379
 30
0.0
 10
73.8318665154
 20
225.3963823588
 30
0.0
 10
75.4391413518
 20
227.5918478542
 30
0.0
 10
76.5368213575
 20
230.0815306431
 30
0.0
 10
77.0093915146
 20
232.1113849145
 30
0.0
 10
77.0964052341
 20
233.1001805676
 30
0.0
 10
77.0964052341
 20
233.5752628733
 30
0.0
  0
SPLINE
  5
3F2
100
AcDbEntity
  8
0
100
AcDbSpline
 62
7
  6
CONTINUOUS
 70
0
 71
3
 72
9
 73
5
 74
0
 42
0.0000001
 43
0.0000001
 44
0.0000000001
 40
0.0
 40
0.0
 40
0.0
 40
0.0
 40
0.5190691013
 40
1.0
 40
1.0
 40
1.0
 40
1.0
 10
157.5185892742
 20
146.0749098512
 30
0.0
 10
157.2533314877
 20
143.9345033526
 30
0.0
 10
156.9693861615
 20
139.778154154
 30
0.0
 10
157.2325603497
 20
135.6147539111
 30
0.0
 10
157.5185892742
 20
133.6370176381
 30
0.0
  0
SPLINE
  5
3F3
100
AcDbEntity
  8
0
100
AcDbSpline
 62
7
  6
CONTINUOUS
 70
0
 71
3
 72
9
 73
5
 74
0
 42
0.0000001
 43
0.0000001
 44
0.0000000001
 40
0.0
 40
0.0
 40
0.0
 40
0.0
 40
0.2462827593
 40
1.0
 40
1.0
 40
1.0
 40
1.0
 10
215.1945559612
 20
210.5930157982
 30
0.0
 10
214.9064942038
 20
210.6599348494
 30
0.0
 10
213.7310332819
 20
210.9061908927
 30
0.0
 10
212.534720563
 20
211.0508394186
 30
0.0
 10
211.6313772938
 20
211.1064284251
 30
0.0
  0
ELLIPSE
  5
3F4
100
AcDbEntity
  8
0
100
AcDbEllipse
 62
7
  6
CONTINUOUS
 10
387.7771218098
 20
47.2667826224
 30
0.0
 11
367.8536326413
 21
-161.5721034909
 31
0.0
 40
0.0907422256
 41
-2.701791825
 42
-2.6717516902
  0
ENDSEC
  0
SECTION
  2
OBJECTS
  0
DICTIONARY
  5
C
100
AcDbDictionary
280
0
281
1
  3
ACAD_GROUP
350
D
  3
ACAD_MLINESTYLE
350
17
  3
ACAD_LAYOUT
350
1A
  3
ACAD_PLOTSETTINGS
350
19
  3
ACAD_PLOTSTYLENAME
350
E
  0
DICTIONARY
  5
D
102
{ACAD_REACTORS
330
C
102
}
100
AcDbDictionary
280
0
281
1
  0
ACDBDICTIONARYWDFLT
  5
E
102
{ACAD_REACTORS
330
C
102
}
100
AcDbDictionary
281
1
  3
Normal
350
F
100
AcDbDictionaryWithDefault
340
F
  0
DICTIONARY
  5
17
102
{ACAD_REACTORS
330
C
102
}
100
AcDbDictionary
280
0
281
1
  3
Standard
350
18
  0
DICTIONARY
  5
19
102
{ACAD_REACTORS
330
C
102
}
100
AcDbDictionary
281
1
  0
DICTIONARY
  5
1A
102
{ACAD_REACTORS
330
C
102
}
100
AcDbDictionary
281
1
  3
Model
350
3F5
  3
Layout1
350
3F6
  0
ACDBPLACEHOLDER
  5
F
102
{ACAD_REACTORS
330
E
102
}
  0
MLINESTYLE
  5
18
102
{ACAD_REACTORS
330
17
102
}
100
AcDbMlineStyle
  2
STANDARD
 70
0
  3

 62
256
 51
90.0
 52
90.0
 71
2
 49
0.5
 62
256
  6
BYLAYER
 49
-0.5
 62
256
  6
BYLAYER
  0
LAYOUT
  5
3F5
102
{ACAD_REACTORS
330
1A
102
}
100
AcDbPlotSettings
  1

  2
none_device
  4

  6

 40
0.0
 41
0.0
 42
0.0
 43
0.0
 44
210.0
 45
297.0
 46
0.0
 47
0.0
 48
0.0
 49
0.0
140
0.0
141
0.0
142
1.0
143
1.0
 70
1024
 72
1
 73
0
 74
0
  7

 75
0
147
1.0
148
0.0
149
0.0
100
AcDbLayout
  1
Model
 70
0
 71
0
 10
0.0
 20
0.0
 11
210.0
 21
297.0
 12
0.0
 22
0.0
 32
0.0
 14
0.0
 24
0.0
 34
0.0
 15
0.0
 25
0.0
 35
0.0
146
0.0
 13
0.0
 23
0.0
 33
0.0
 16
1.0
 26
0.0
 36
0.0
 17
0.0
 27
1.0
 37
0.0
 76
0
330
210
345
0
346
0
  0
LAYOUT
  5
3F6
102
{ACAD_REACTORS
330
1A
102
}
100
AcDbPlotSettings
  1

  2
none_device
  4

  6

 40
0.0
 41
0.0
 42
0.0
 43
0.0
 44
210.0
 45
297.0
 46
0.0
 47
0.0
 48
0.0
 49
0.0
140
0.0
141
0.0
142
1.0
143
1.0
 70
0
 72
1
 73
0
 74
0
  7

 75
0
147
1.0
148
0.0
149
0.0
100
AcDbLayout
  1
Layout1
 70
0
 71
1
 10
0.0
 20
0.0
 11
210.0
 21
297.0
 12
0.0
 22
0.0
 32
0.0
 14
0.0
 24
0.0
 34
0.0
 15
0.0
 25
0.0
 35
0.0
146
0.0
 13
0.0
 23
0.0
 33
0.0
 16
1.0
 26
0.0
 36
0.0
 17
0.0
 27
1.0
 37
0.0
 76
0
330
211
345
0
346
0
  0
ENDSEC
  0
EOF
