999
DXF file: C:\Users\sesa63760\Dev\_Creo\CAD\MCADID0003806_3D-CAD\drw0001_1.dxf
999
Pro/ENGINEER 2019471 by Parametric Technology Corporation
  0
SECTION
  2
HEADER
  9
$ACADVER
  1
AC1024
  9
$DWGCODEPAGE
  3
ANSI_1252
  9
$EXTMAX
 10
100.6548929823
 20
142.3547772178
 30
0.0
  9
$EXTMIN
 10
0.0
 20
0.0
 30
0.0
  9
$LIMMIN
 10
0.0
 20
0.0
  9
$LIMMAX
 10
100.6548929823
 20
142.3547772178
  9
$VIEWCTR
 10
50.3274464911
 20
71.1773886089
  9
$VIEWSIZE
 40
142.3547772178
  9
$CLAYER
  8
0
  9
$LTSCALE
 40
9.2794225149
  9
$CELTYPE
  6
BYLAYER
  9
$DIMSCALE
 40
1.0
  9
$DIMASZ
 40
1.1982725355
  9
$DIMEXO
 40
1.0
  9
$DIMDLI
 40
6.411237374
  9
$DIMEXE
 40
1.0
  9
$DIMCEN
 40
1.518450957
  9
$DIMLFAC
 40
1.0
  9
$DIMBLK
  1
_FILLED
  9
$DIMALT
 70
0
  9
$DIMALTF
 40
0.0393700787
  9
$DIMTXT
 40
1.6775815497
  9
$DIMTOL
 70
1
  9
$DIMLIM
 70
0
  9
$DIMTFAC
 40
1.0
  9
$DIMTP
 40
0.01
  9
$DIMTM
 40
0.01
  9
$DIMGAP
 40
0.625
  9
$DIMDSEP
 70
46
  9
$AUNITS
 70
0
  9
$PDMODE
 70
3
  9
$PDSIZE
 40
0.3125
  9
$HANDSEED
  5
342
  9
$TILEMODE
 70
1
  9
$MEASUREMENT
 70
1
  9
$INSUNITS
 70
4
  0
ENDSEC
  0
SECTION
  2
CLASSES
  0
CLASS
  1
ACDBDICTIONARYWDFLT
  2
AcDbDictionaryWithDefault
  3
AutoCAD 2000
 90
0
 91
1
280
0
281
0
  0
CLASS
  1
ACDBPLACEHOLDER
  2
AcDbPlaceHolder
  3
AutoCAD 2000
 90
0
 91
1
280
0
281
0
  0
CLASS
  1
LAYOUT
  2
AcDbLayout
  3
AutoCAD 2000
 90
0
 91
0
280
0
281
0
  0
ENDSEC
  0
SECTION
  2
TABLES
  0
TABLE
  2
VPORT
  5
8
100
AcDbSymbolTable
 70
2
  0
VPORT
  5
1F4
100
AcDbSymbolTableRecord
100
AcDbViewportTableRecord
  2
*ACTIVE
 70
0
 10
0.0
 20
0.0
 11
1.0
 21
1.0
 12
50.3274464911
 22
71.1773886089
 13
0.0
 23
0.0
 14
1.0
 24
1.0
 15
0.0
 25
0.0
 16
0.0
 26
0.0
 36
1.0
 17
0.0
 27
0.0
 37
0.0
 40
142.3547772178
 41
0.7070707071
 42
50.0
 43
0.0
 44
0.0
 50
0.0
 51
0.0
 71
0
 72
100
 73
1
 74
1
 75
0
 76
0
 77
0
 78
0
  0
ENDTAB
  0
TABLE
  2
LTYPE
  5
5
100
AcDbSymbolTable
 70
6
  0
LTYPE
  5
14
100
AcDbSymbolTableRecord
100
AcDbLinetypeTableRecord
  2
BYBLOCK
 70
0
  3

 72
65
 73
0
 40
0.0
  0
LTYPE
  5
15
100
AcDbSymbolTableRecord
100
AcDbLinetypeTableRecord
  2
BYLAYER
 70
0
  3

 72
65
 73
0
 40
0.0
  0
LTYPE
  5
16
100
AcDbSymbolTableRecord
100
AcDbLinetypeTableRecord
  2
CONTINUOUS
 70
64
  3
Solid line
 72
65
 73
0
 40
0.0
  0
LTYPE
  5
1F5
100
AcDbSymbolTableRecord
100
AcDbLinetypeTableRecord
  2
CENTER
 70
64
  3
____ _ ____ _ ____ _ ____ _ ____ _ ____ _ ____
 72
65
 73
4
 40
0.6
 49
0.375
 74
0
 49
-0.075
 74
0
 49
0.075
 74
0
 49
-0.075
 74
0
  0
LTYPE
  5
1F6
100
AcDbSymbolTableRecord
100
AcDbLinetypeTableRecord
  2
HIDDEN
 70
64
  3
- - - - - - - - - - - - - - - - - - - -
 72
65
 73
2
 40
0.2
 49
0.1
 74
0
 49
-0.1
 74
0
  0
LTYPE
  5
1F7
100
AcDbSymbolTableRecord
100
AcDbLinetypeTableRecord
  2
PHANTOM
 70
64
  3
_____ _ _ _____ _ _ _____ _ _ _____
 72
65
 73
6
 40
0.8
 49
0.45
 74
0
 49
-0.05
 74
0
 49
0.1
 74
0
 49
-0.05
 74
0
 49
0.1
 74
0
 49
-0.05
 74
0
  0
LTYPE
  5
1F8
100
AcDbSymbolTableRecord
100
AcDbLinetypeTableRecord
  2
DOT
 70
64
  3
. . . . . . . . . . . . . . . . . . . .
 72
65
 73
2
 40
0.2
 49
0.1
 74
0
 49
-0.1
 74
0
  0
LTYPE
  5
1F9
100
AcDbSymbolTableRecord
100
AcDbLinetypeTableRecord
  2
DASHED
 70
64
  3
- - - - - - - - - - - - - - - - - - - -
 72
65
 73
2
 40
0.2
 49
0.1
 74
0
 49
-0.1
 74
0
  0
ENDTAB
  0
TABLE
  2
LAYER
  5
2
100
AcDbSymbolTable
 70
36
  0
LAYER
  5
10
100
AcDbSymbolTableRecord
100
AcDbLayerTableRecord
  2
0
 70
0
 62
7
  6
CONTINUOUS
370
-3
390
F
  0
LAYER
  5
1FA
100
AcDbSymbolTableRecord
100
AcDbLayerTableRecord
  2
DEFAULT_1
 70
0
 62
7
  6
CENTER
370
-3
390
F
  0
LAYER
  5
1FB
100
AcDbSymbolTableRecord
100
AcDbLayerTableRecord
  2
DEFAULT_2
 70
0
 62
7
  6
HIDDEN
370
-3
390
F
  0
LAYER
  5
1FC
100
AcDbSymbolTableRecord
100
AcDbLayerTableRecord
  2
DEFAULT_3
 70
0
 62
7
  6
PHANTOM
370
-3
390
F
  0
LAYER
  5
1FD
100
AcDbSymbolTableRecord
100
AcDbLayerTableRecord
  2
00_COMPONENTS
 70
0
 62
7
  6
CONTINUOUS
370
-3
390
F
  0
LAYER
  5
1FE
100
AcDbSymbolTableRecord
100
AcDbLayerTableRecord
  2
01_1_DEFAULT_DATUMS
 70
0
 62
7
  6
CONTINUOUS
370
-3
390
F
  0
LAYER
  5
1FF
100
AcDbSymbolTableRecord
100
AcDbLayerTableRecord
  2
01_PLANES
 70
0
 62
7
  6
CONTINUOUS
370
-3
390
F
  0
LAYER
  5
200
100
AcDbSymbolTableRecord
100
AcDbLayerTableRecord
  2
02_COORD_SYS
 70
0
 62
7
  6
CONTINUOUS
370
-3
390
F
  0
LAYER
  5
201
100
AcDbSymbolTableRecord
100
AcDbLayerTableRecord
  2
03_AXES
 70
0
 62
7
  6
CONTINUOUS
370
-3
390
F
  0
LAYER
  5
202
100
AcDbSymbolTableRecord
100
AcDbLayerTableRecord
  2
04_POINTS
 70
0
 62
7
  6
CONTINUOUS
370
-3
390
F
  0
LAYER
  5
203
100
AcDbSymbolTableRecord
100
AcDbLayerTableRecord
  2
05_CURVES
 70
0
 62
7
  6
CONTINUOUS
370
-3
390
F
  0
LAYER
  5
204
100
AcDbSymbolTableRecord
100
AcDbLayerTableRecord
  2
06_SURFS
 70
0
 62
7
  6
CONTINUOUS
370
-3
390
F
  0
LAYER
  5
205
100
AcDbSymbolTableRecord
100
AcDbLayerTableRecord
  2
07_COSMETICS
 70
0
 62
7
  6
CONTINUOUS
370
-3
390
F
  0
LAYER
  5
206
100
AcDbSymbolTableRecord
100
AcDbLayerTableRecord
  2
10_NOTES
 70
0
 62
7
  6
CONTINUOUS
370
-3
390
F
  0
LAYER
  5
207
100
AcDbSymbolTableRecord
100
AcDbLayerTableRecord
  2
11_NOTES_PUB
 70
0
 62
7
  6
CONTINUOUS
370
-3
390
F
  0
LAYER
  5
208
100
AcDbSymbolTableRecord
100
AcDbLayerTableRecord
  2
13_REF_GTOL
 70
0
 62
7
  6
CONTINUOUS
370
-3
390
F
  0
LAYER
  5
209
100
AcDbSymbolTableRecord
100
AcDbLayerTableRecord
  2
16_MISC
 70
0
 62
7
  6
CONTINUOUS
370
-3
390
F
  0
LAYER
  5
20A
100
AcDbSymbolTableRecord
100
AcDbLayerTableRecord
  2
17_NO_PRINT
 70
0
 62
7
  6
CONTINUOUS
370
-3
390
F
  0
LAYER
  5
20B
100
AcDbSymbolTableRecord
100
AcDbLayerTableRecord
  2
18_DATUM_CAMS_JOINTS
 70
0
 62
7
  6
CONTINUOUS
370
-3
390
F
  0
LAYER
  5
20C
100
AcDbSymbolTableRecord
100
AcDbLayerTableRecord
  2
19_DATUM_FUNCTIONAL
 70
0
 62
7
  6
CONTINUOUS
370
-3
390
F
  0
LAYER
  5
20D
100
AcDbSymbolTableRecord
100
AcDbLayerTableRecord
  2
20_DATUM_KINEMATIC_SCHEME
 70
0
 62
7
  6
CONTINUOUS
370
-3
390
F
  0
ENDTAB
  0
TABLE
  2
STYLE
  5
3
100
AcDbSymbolTable
 70
1
  0
STYLE
  5
11
100
AcDbSymbolTableRecord
100
AcDbTextStyleTableRecord
  2
STANDARD
 70
0
 40
0.0
 41
1.0
 50
0.0
 71
0
 42
0.2
  3
ARIAL.TTF
  4

  0
STYLE
  5
20E
100
AcDbSymbolTableRecord
100
AcDbTextStyleTableRecord
  2
TEXTSTYLE_1
 70
0
 40
0.0
 41
0.8
 50
0.0
 71
0
 42
0.2
  3
gdt
  4

  0
ENDTAB
  0
TABLE
  2
VIEW
  5
6
100
AcDbSymbolTable
 70
0
  0
ENDTAB
  0
TABLE
  2
UCS
  5
7
100
AcDbSymbolTable
 70
0
  0
ENDTAB
  0
TABLE
  2
APPID
  5
9
100
AcDbSymbolTable
 70
1
  0
APPID
  5
20F
100
AcDbSymbolTableRecord
100
AcDbRegAppTableRecord
  2
ACAD
 70
0
  0
ENDTAB
  0
TABLE
  2
BLOCK_RECORD
  5
1
100
AcDbSymbolTable
 70
0
  0
BLOCK_RECORD
  5
210
100
AcDbSymbolTableRecord
100
AcDbBlockTableRecord
  2
*Model_Space
  0
BLOCK_RECORD
  5
211
100
AcDbSymbolTableRecord
100
AcDbBlockTableRecord
  2
*Paper_Space
  0
BLOCK_RECORD
  5
212
100
AcDbSymbolTableRecord
100
AcDbBlockTableRecord
  2
_FILLED
  0
ENDTAB
  0
TABLE
  2
DIMSTYLE
  5
A
100
AcDbSymbolTable
 70
1
100
AcDbDimStyleTable
 71
0
  0
DIMSTYLE
105
213
100
AcDbSymbolTableRecord
100
AcDbDimStyleTableRecord
  2
STANDARD
 70
0
  3

  4

 40
1.0
 41
1.1982725355
 42
1.0
 43
0.38
 44
1.0
 45
0.0
 46
0.0
 47
0.01
 48
0.01
140
1.6775815497
141
0.09
142
0.0
143
25.4
144
1.0
145
0.0
146
1.0
147
0.625
 71
1
 72
0
 73
0
 74
0
 75
0
 76
0
 77
1
 78
8
 79
2
170
0
171
1
172
0
173
0
174
0
175
0
176
0
177
0
178
0
270
2
179
2
271
2
272
2
273
2
274
2
275
0
280
0
281
0
282
0
283
1
284
8
285
0
286
0
287
3
288
0
340
11
278
46
341
212
342
212
343
212
344
212
  0
ENDTAB
  0
ENDSEC
  0
SECTION
  2
BLOCKS
  0
BLOCK
  5
20
100
AcDbEntity
  8
0
100
AcDbBlockBegin
  2
*Model_Space
 70
0
 10
0.0
 20
0.0
 30
0.0
  3
*Model_Space
  1

  0
ENDBLK
  5
21
100
AcDbEntity
  8
0
100
AcDbBlockEnd
  0
BLOCK
  5
1C
100
AcDbEntity
  8
0
100
AcDbBlockBegin
  2
*Paper_Space
 70
0
 10
0.0
 20
0.0
 30
0.0
  3
*Paper_Space
  1

  0
ENDBLK
  5
1D
100
AcDbEntity
  8
0
100
AcDbBlockEnd
  0
BLOCK
  5
214
100
AcDbEntity
  8
0
100
AcDbBlockBegin
  2
_FILLED
 70
64
 10
0.0
 20
0.0
  3
_FILLED
  1

  0
SOLID
  5
215
100
AcDbEntity
  8
0
  6
BYBLOCK
 62
0
100
AcDbTrace
 10
0.0
 20
0.0
 11
-1.0
 21
0.25
 12
-1.0
 22
-0.25
 13
-1.0
 23
-0.25
  0
ENDBLK
  5
216
100
AcDbEntity
  8
0
  6
BYBLOCK
 62
0
100
AcDbBlockEnd
  0
ENDSEC
  0
SECTION
  2
ENTITIES
  0
LINE
  5
217
100
AcDbEntity
  8
0
100
AcDbLine
 62
7
  6
BYLAYER
 10
12.0101379589
 20
53.22968846
 11
11.9479951115
 21
53.3670322226
  0
LWPOLYLINE
  5
218
100
AcDbEntity
  8
0
100
AcDbPolyline
 62
7
  6
BYLAYER
 90
3
 70
0
 10
11.670843787
 20
53.7658231133
 10
11.7623324732
 20
53.459065737
 10
12.0101977557
 20
53.2296528269
  0
LINE
  5
219
100
AcDbEntity
  8
0
100
AcDbLine
 62
7
  6
BYLAYER
 10
11.6670825118
 20
53.771958643
 11
11.666914957
 21
53.765899833
  0
LINE
  5
21A
100
AcDbEntity
  8
0
100
AcDbLine
 62
7
  6
BYLAYER
 10
12.2254479721
 20
68.6329749477
 11
11.6670825118
 21
53.771958643
  0
LINE
  5
21B
100
AcDbEntity
  8
0
100
AcDbLine
 62
7
  6
BYLAYER
 10
12.5055073588
 20
68.2086877847
 11
11.9480233627
 21
53.371328287
  0
LWPOLYLINE
  5
21C
100
AcDbEntity
  8
0
100
AcDbPolyline
 62
7
  6
BYLAYER
 90
4
 70
0
 10
39.5715129964
 20
37.317476168
 10
40.0550690594
 20
37.1670553882
 10
40.3462219021
 20
37.1562702954
 10
40.8319974766
 20
37.2725873773
  0
LINE
  5
21D
100
AcDbEntity
  8
0
100
AcDbLine
 62
7
  6
BYLAYER
 10
25.5516520276
 20
45.15414009
 11
39.5717356973
 21
37.3173512973
  0
LINE
  5
21E
100
AcDbEntity
  8
0
100
AcDbLine
 62
7
  6
BYLAYER
 10
25.4883434571
 20
45.2964456317
 11
39.5097509922
 21
37.4589174076
  0
LINE
  5
21F
100
AcDbEntity
  8
0
100
AcDbLine
 62
7
  6
BYLAYER
 10
25.5516536337
 20
45.1541391327
 11
25.5492246757
 21
45.155541902
  0
LINE
  5
220
100
AcDbEntity
  8
0
100
AcDbLine
 62
7
  6
BYLAYER
 10
12.0101379589
 20
53.22968846
 11
25.549223975
 21
45.1555423199
  0
LINE
  5
221
100
AcDbEntity
  8
0
100
AcDbLine
 62
7
  6
BYLAYER
 10
11.9480233627
 20
53.371328287
 11
25.4883431508
 21
45.2964458084
  0
LINE
  5
222
100
AcDbEntity
  8
0
100
AcDbLine
 62
7
  6
BYLAYER
 10
18.8531513832
 20
51.7739918714
 11
19.0937175638
 21
51.357321337
  0
LINE
  5
223
100
AcDbEntity
  8
0
100
AcDbLine
 62
7
  6
BYLAYER
 10
19.6937200618
 20
51.7037428452
 11
19.4531538812
 21
52.1204133796
  0
LINE
  5
224
100
AcDbEntity
  8
0
100
AcDbLine
 62
7
  6
BYLAYER
 10
42.4388496651
 20
39.8634114086
 11
42.297524627
 21
39.9407303681
  0
LINE
  5
225
100
AcDbEntity
  8
0
100
AcDbLine
 62
7
  6
BYLAYER
 10
42.0703852199
 20
40.4097741634
 11
42.2117425548
 21
40.3324375344
  0
LINE
  5
226
100
AcDbEntity
  8
0
100
AcDbLine
 62
7
  6
BYLAYER
 10
42.7652725113
 20
39.6006727288
 11
42.6238505663
 21
39.6823208797
  0
LINE
  5
227
100
AcDbEntity
  8
0
100
AcDbLine
 62
7
  6
BYLAYER
 10
25.5492246757
 20
45.155541902
 11
25.4883108908
 21
45.2921527029
  0
LINE
  5
228
100
AcDbEntity
  8
0
100
AcDbLine
 62
7
  6
BYLAYER
 10
16.6240188979
 20
56.8516527977
 11
16.610670506
 21
56.799918398
  0
LINE
  5
229
100
AcDbEntity
  8
0
100
AcDbLine
 62
7
  6
BYLAYER
 10
18.3917932108
 20
55.8310509114
 11
18.3784448189
 21
55.7793165117
  0
LINE
  5
22A
100
AcDbEntity
  8
0
100
AcDbLine
 62
7
  6
BYLAYER
 10
25.6022550999
 20
52.899294289
 11
25.4883434571
 21
45.2964456317
  0
LINE
  5
22B
100
AcDbEntity
  8
0
100
AcDbLine
 62
7
  6
BYLAYER
 10
25.9418125021
 20
75.5512916626
 11
25.8093906918
 21
66.7156895723
  0
LINE
  5
22C
100
AcDbEntity
  8
0
100
AcDbLine
 62
7
  6
BYLAYER
 10
22.2321922321
 20
53.6360528904
 11
21.9901445527
 21
52.2607921345
  0
LINE
  5
22D
100
AcDbEntity
  8
0
100
AcDbLine
 62
7
  6
BYLAYER
 10
22.1029800882
 20
52.5367548531
 11
22.3357182415
 21
53.8591209645
  0
LINE
  5
22E
100
AcDbEntity
  8
0
100
AcDbLine
 62
7
  6
BYLAYER
 10
18.3917932108
 20
53.7897948686
 11
18.3784448189
 21
53.7380604688
  0
LINE
  5
22F
100
AcDbEntity
  8
0
100
AcDbLine
 62
7
  6
BYLAYER
 10
17.603129299
 20
56.6730886752
 11
17.7066852808
 21
56.901981646
  0
LINE
  5
230
100
AcDbEntity
  8
0
100
AcDbLine
 62
7
  6
BYLAYER
 10
39.509714472
 20
37.4546261172
 11
39.5714568079
 21
37.3175077964
  0
LINE
  5
231
100
AcDbEntity
  8
0
100
AcDbLine
 62
7
  6
BYLAYER
 10
19.3709036119
 20
55.6524867889
 11
19.4744595937
 21
55.8813797597
  0
LINE
  5
232
100
AcDbEntity
  8
0
100
AcDbLine
 62
7
  6
BYLAYER
 10
19.3709036119
 20
53.6112307461
 11
19.4744595937
 21
53.8401237169
  0
LINE
  5
233
100
AcDbEntity
  8
0
100
AcDbLine
 62
7
  6
BYLAYER
 10
16.624004208
 20
56.8516705625
 11
17.044021229
 21
57.4827296156
  0
LINE
  5
234
100
AcDbEntity
  8
0
100
AcDbLine
 62
7
  6
BYLAYER
 10
53.0671775866
 20
98.7782492239
 11
16.7011528083
 21
77.7822510913
  0
LINE
  5
235
100
AcDbEntity
  8
0
100
AcDbLine
 62
7
  6
BYLAYER
 10
58.5918462655
 20
100.1450207682
 11
57.6069893885
 21
99.5764167793
  0
LINE
  5
236
100
AcDbEntity
  8
0
100
AcDbLine
 62
7
  6
BYLAYER
 10
53.0671775866
 20
98.7782492239
 11
53.0899934327
 21
98.791361892
  0
LINE
  5
237
100
AcDbEntity
  8
0
100
AcDbLine
 62
7
  6
BYLAYER
 10
41.9618578961
 20
51.4957106445
 11
41.8205005612
 21
51.5730472736
  0
LINE
  5
238
100
AcDbEntity
  8
0
100
AcDbLine
 62
7
  6
BYLAYER
 10
18.3917785208
 20
55.8310686762
 11
18.8117955418
 21
56.4621277293
  0
LINE
  5
239
100
AcDbEntity
  8
0
100
AcDbLine
 62
7
  6
BYLAYER
 10
18.3917785208
 20
53.7898126334
 11
18.8117955418
 21
54.4208716865
  0
LINE
  5
23A
100
AcDbEntity
  8
0
100
AcDbLine
 62
7
  6
BYLAYER
 10
16.7682167245
 20
56.6018892838
 11
16.8228034235
 21
56.6774461716
  0
LINE
  5
23B
100
AcDbEntity
  8
0
100
AcDbLine
 62
7
  6
BYLAYER
 10
18.5359910374
 20
55.5812873975
 11
18.5905777364
 21
55.6568442853
  0
LINE
  5
23C
100
AcDbEntity
  8
0
100
AcDbLine
 62
7
  6
BYLAYER
 10
67.0566080737
 20
101.0890817242
 11
65.6579859071
 21
100.2815916599
  0
LINE
  5
23D
100
AcDbEntity
  8
0
100
AcDbLine
 62
7
  6
BYLAYER
 10
42.6504517585
 20
52.7308639177
 11
42.5090944237
 21
52.8082005467
  0
LINE
  5
23E
100
AcDbEntity
  8
0
100
AcDbLine
 62
7
  6
BYLAYER
 10
18.5359910374
 20
53.5400313547
 11
18.5905777364
 21
53.6155882425
  0
LINE
  5
23F
100
AcDbEntity
  8
0
100
AcDbLine
 62
7
  6
BYLAYER
 10
14.5248906493
 20
59.1477827482
 11
15.118970359
 21
59.7191895242
  0
LINE
  5
240
100
AcDbEntity
  8
0
100
AcDbLine
 62
7
  6
BYLAYER
 10
17.1031315375
 20
57.5391153713
 11
17.044021229
 21
57.4827296156
  0
LINE
  5
241
100
AcDbEntity
  8
0
100
AcDbLine
 62
7
  6
BYLAYER
 10
66.7631603264
 20
99.9215828362
 11
69.101784958
 21
101.2717803372
  0
LINE
  5
242
100
AcDbEntity
  8
0
100
AcDbLine
 62
7
  6
BYLAYER
 10
76.6920790957
 20
105.0525783732
 11
69.7206971907
 21
101.0276731792
  0
LINE
  5
243
100
AcDbEntity
  8
0
100
AcDbLine
 62
7
  6
BYLAYER
 10
18.5359949109
 20
53.5400210275
 11
19.2925168419
 21
53.5882330003
  0
LINE
  5
244
100
AcDbEntity
  8
0
100
AcDbLine
 62
7
  6
BYLAYER
 10
18.5359949109
 20
55.5812770703
 11
19.2925168419
 21
55.6294890432
  0
LINE
  5
245
100
AcDbEntity
  8
0
100
AcDbLine
 62
7
  6
BYLAYER
 10
39.5097509922
 20
37.4589174076
 11
39.3911636501
 21
52.6865980652
  0
LINE
  5
246
100
AcDbEntity
  8
0
100
AcDbLine
 62
7
  6
BYLAYER
 10
40.7925719314
 20
52.7008688275
 11
40.9115218411
 21
37.4257050711
  0
LINE
  5
247
100
AcDbEntity
  8
0
100
AcDbLine
 62
7
  6
BYLAYER
 10
18.8709058503
 20
56.518513485
 11
18.8117955418
 21
56.4621277293
  0
LINE
  5
248
100
AcDbEntity
  8
0
100
AcDbLine
 62
7
  6
BYLAYER
 10
18.8709058503
 20
54.4772574422
 11
18.8117955418
 21
54.4208716865
  0
LINE
  5
249
100
AcDbEntity
  8
0
100
AcDbLine
 62
7
  6
BYLAYER
 10
15.4602606152
 20
59.9764727261
 11
15.118970359
 21
59.7191895242
  0
LINE
  5
24A
100
AcDbEntity
  8
0
100
AcDbLine
 62
7
  6
BYLAYER
 10
21.6423158225
 20
66.7720002319
 11
21.3463891584
 21
66.6011479126
  0
LINE
  5
24B
100
AcDbEntity
  8
0
100
AcDbLine
 62
7
  6
BYLAYER
 10
21.7225753588
 20
66.8165110326
 11
21.6423073193
 21
66.7719953226
  0
LINE
  5
24C
100
AcDbEntity
  8
0
100
AcDbLine
 62
7
  6
BYLAYER
 10
16.768220598
 20
56.6018789566
 11
17.524742529
 21
56.6500909295
  0
LINE
  5
24D
100
AcDbEntity
  8
0
100
AcDbLine
 62
7
  6
BYLAYER
 10
41.7805190532
 20
51.596065364
 11
42.0396586993
 21
40.0193376942
  0
LINE
  5
24E
100
AcDbEntity
  8
0
100
AcDbLine
 62
7
  6
BYLAYER
 10
41.8205005612
 20
51.5730472736
 11
42.0703852199
 21
40.4097741634
  0
LINE
  5
24F
100
AcDbEntity
  8
0
100
AcDbLine
 62
7
  6
BYLAYER
 10
42.2117425548
 20
40.3324375344
 11
41.9618578961
 21
51.4957106445
  0
LINE
  5
250
100
AcDbEntity
  8
0
100
AcDbLine
 62
7
  6
BYLAYER
 10
76.1728822094
 20
97.189372792
 11
72.950875663
 21
95.3291575491
  0
LINE
  5
251
100
AcDbEntity
  8
0
100
AcDbLine
 62
7
  6
BYLAYER
 10
21.4241969409
 20
64.3434914679
 11
17.322994685
 21
61.9756753754
  0
LINE
  5
252
100
AcDbEntity
  8
0
100
AcDbLine
 62
7
  6
BYLAYER
 10
15.9552333012
 20
60.2622436338
 11
15.4602606152
 21
59.9764727261
  0
LINE
  5
253
100
AcDbEntity
  8
0
100
AcDbLine
 62
7
  6
BYLAYER
 10
17.1158886094
 20
60.7014045254
 11
16.6529198605
 21
60.4341109891
  0
LINE
  5
254
100
AcDbEntity
  8
0
100
AcDbLine
 62
7
  6
BYLAYER
 10
74.9960525473
 20
92.7849455113
 11
78.2180590937
 21
94.6451607542
  0
LINE
  5
255
100
AcDbEntity
  8
0
100
AcDbLine
 62
7
  6
BYLAYER
 10
17.1031315375
 20
57.5391153713
 11
17.9305508544
 21
58.0168232852
  0
LINE
  5
256
100
AcDbEntity
  8
0
100
AcDbLine
 62
7
  6
BYLAYER
 10
17.603129299
 20
56.6730886752
 11
18.7139008704
 21
57.3143891129
  0
LINE
  5
257
100
AcDbEntity
  8
0
100
AcDbLine
 62
7
  6
BYLAYER
 10
18.8709058503
 20
56.518513485
 11
19.1476880226
 21
56.6783127929
  0
LINE
  5
258
100
AcDbEntity
  8
0
100
AcDbLine
 62
7
  6
BYLAYER
 10
57.6199140902
 20
61.5323842725
 11
57.7612565716
 21
61.4550557699
  0
LINE
  5
259
100
AcDbEntity
  8
0
100
AcDbLine
 62
7
  6
BYLAYER
 10
19.3709036119
 20
55.6524867889
 11
19.598616612
 21
55.783956166
  0
LINE
  5
25A
100
AcDbEntity
  8
0
100
AcDbLine
 62
7
  6
BYLAYER
 10
18.8709058503
 20
54.4772574422
 11
19.9406287085
 21
55.0948585358
  0
LINE
  5
25B
100
AcDbEntity
  8
0
100
AcDbLine
 62
7
  6
BYLAYER
 10
19.3709036119
 20
53.6112307461
 11
20.1485663037
 21
54.0602118305
  0
LINE
  5
25C
100
AcDbEntity
  8
0
100
AcDbLine
 62
7
  6
BYLAYER
 10
18.8531539752
 20
52.4668186432
 11
20.2600048994
 21
53.2790595545
  0
LINE
  5
25D
100
AcDbEntity
  8
0
100
AcDbLine
 62
7
  6
BYLAYER
 10
19.4531538812
 20
52.1204133796
 11
20.1385274364
 21
52.5161116241
  0
LINE
  5
25E
100
AcDbEntity
  8
0
100
AcDbLine
 62
7
  6
BYLAYER
 10
22.115866225
 20
52.041137564
 11
21.6437604534
 21
51.7685687967
  0
LINE
  5
25F
100
AcDbEntity
  8
0
100
AcDbLine
 62
7
  6
BYLAYER
 10
21.1552100215
 20
51.2555659939
 11
20.6602373354
 21
50.9697950862
  0
LINE
  5
260
100
AcDbEntity
  8
0
100
AcDbLine
 62
7
  6
BYLAYER
 10
81.7536077194
 20
85.5328386268
 11
78.5796379109
 21
83.7003572419
  0
LINE
  5
261
100
AcDbEntity
  8
0
100
AcDbLine
 62
7
  6
BYLAYER
 10
27.4241700796
 20
53.9511711141
 11
23.3229678237
 21
51.5833550217
  0
LINE
  5
262
100
AcDbEntity
  8
0
100
AcDbLine
 62
7
  6
BYLAYER
 10
75.8577309153
 20
58.8697961117
 11
75.9991528603
 21
58.7881479608
  0
LINE
  5
263
100
AcDbEntity
  8
0
100
AcDbLine
 62
7
  6
BYLAYER
 10
76.6877467228
 20
60.0233012339
 11
76.5463247778
 21
60.1049493848
  0
LINE
  5
264
100
AcDbEntity
  8
0
100
AcDbLine
 62
7
  6
BYLAYER
 10
57.6188953273
 20
61.577896188
 11
57.6199140902
 21
61.5323842725
  0
LINE
  5
265
100
AcDbEntity
  8
0
100
AcDbLine
 62
7
  6
BYLAYER
 10
57.7612565716
 20
61.4550557699
 11
57.7567095833
 21
61.6574627843
  0
LINE
  5
266
100
AcDbEntity
  8
0
100
AcDbLine
 62
7
  6
BYLAYER
 10
40.832053507
 20
37.2726150907
 11
40.9115218411
 21
37.4257050711
  0
LINE
  5
267
100
AcDbEntity
  8
0
100
AcDbLine
 62
7
  6
BYLAYER
 10
29.4933416116
 20
52.8432228167
 11
29.3404478388
 21
52.7549494695
  0
LINE
  5
268
100
AcDbEntity
  8
0
100
AcDbLine
 62
7
  6
BYLAYER
 10
78.9540218359
 20
81.1895959608
 11
81.7536077194
 21
82.8059279761
  0
LINE
  5
269
100
AcDbEntity
  8
0
100
AcDbLine
 62
7
  6
BYLAYER
 10
88.1920276116
 20
85.1339643619
 11
80.5013555003
 21
80.6937792526
  0
LINE
  5
26A
100
AcDbEntity
  8
0
100
AcDbLine
 62
7
  6
BYLAYER
 10
20.2667775556
 20
50.8028726892
 11
20.6602373354
 21
50.9697950862
  0
LINE
  5
26B
100
AcDbEntity
  8
0
100
AcDbLine
 62
7
  6
BYLAYER
 10
17.524742529
 20
56.6500909295
 11
17.603129299
 21
56.6730886752
  0
LINE
  5
26C
100
AcDbEntity
  8
0
100
AcDbLine
 62
7
  6
BYLAYER
 10
19.2925168419
 20
55.6294890432
 11
19.3709036119
 21
55.6524867889
  0
LINE
  5
26D
100
AcDbEntity
  8
0
100
AcDbLine
 62
7
  6
BYLAYER
 10
19.2925168419
 20
53.5882330003
 11
19.3709036119
 21
53.6112307461
  0
LINE
  5
26E
100
AcDbEntity
  8
0
100
AcDbLine
 62
7
  6
BYLAYER
 10
77.2937328746
 20
73.7746982849
 11
40.7925719314
 21
52.7008688275
  0
LINE
  5
26F
100
AcDbEntity
  8
0
100
AcDbLine
 62
7
  6
BYLAYER
 10
57.7567095833
 20
61.6574628
 11
42.4691129157
 21
52.8312186372
  0
LINE
  5
270
100
AcDbEntity
  8
0
100
AcDbLine
 62
7
  6
BYLAYER
 10
75.7029932648
 20
72.0186938691
 11
69.0703709787
 21
68.189369262
  0
LINE
  5
271
100
AcDbEntity
  8
0
100
AcDbLine
 62
7
  6
BYLAYER
 10
42.5090944237
 20
52.8082005467
 11
57.6199140902
 21
61.5323842725
  0
LINE
  5
272
100
AcDbEntity
  8
0
100
AcDbLine
 62
7
  6
BYLAYER
 10
69.0713887263
 20
68.1438567711
 11
75.3894228541
 21
71.7915537017
  0
LINE
  5
273
100
AcDbEntity
  8
0
100
AcDbLine
 62
7
  6
BYLAYER
 10
69.0749179671
 20
67.9869622318
 11
75.530780189
 21
71.7142170727
  0
LINE
  5
274
100
AcDbEntity
  8
0
100
AcDbLine
 62
7
  6
BYLAYER
 10
42.6504517585
 20
52.7308639177
 11
57.7612565716
 21
61.4550557699
  0
LINE
  5
275
100
AcDbEntity
  8
0
100
AcDbLine
 62
7
  6
BYLAYER
 10
19.4748837342
 20
50.5740920504
 11
20.2667775556
 21
50.8028726892
  0
LINE
  5
276
100
AcDbEntity
  8
0
100
AcDbLine
 62
7
  6
BYLAYER
 10
75.3894228541
 20
71.7915537017
 11
75.530780189
 21
71.7142170727
  0
LINE
  5
277
100
AcDbEntity
  8
0
100
AcDbLine
 62
7
  6
BYLAYER
 10
76.029222297
 20
71.7646135722
 11
75.8878972589
 21
71.8419325317
  0
LINE
  5
278
100
AcDbEntity
  8
0
100
AcDbLine
 62
7
  6
BYLAYER
 10
76.2871851317
 20
71.6816770546
 11
76.4286070767
 21
71.6000289037
  0
LINE
  5
279
100
AcDbEntity
  8
0
100
AcDbLine
 62
7
  6
BYLAYER
 10
69.0749005238
 20
67.986971775
 11
69.0703699381
 21
68.1893698156
  0
LINE
  5
27A
100
AcDbEntity
  8
0
100
AcDbLine
 62
7
  6
BYLAYER
 10
78.2455843837
 20
76.4048937506
 11
77.8535413113
 21
75.4460710575
  0
LINE
  5
27B
100
AcDbEntity
  8
0
100
AcDbLine
 62
7
  6
BYLAYER
 10
75.8176847972
 20
58.897125724
 11
42.9373563668
 21
39.913772569
  0
LINE
  5
27C
100
AcDbEntity
  8
0
100
AcDbLine
 62
7
  6
BYLAYER
 10
75.8577309153
 20
58.8697961117
 11
42.6238505663
 21
39.6823208797
  0
LINE
  5
27D
100
AcDbEntity
  8
0
100
AcDbLine
 62
7
  6
BYLAYER
 10
42.7652725113
 20
39.6006727288
 11
75.9991528603
 21
58.7881479608
  0
LWPOLYLINE
  5
27E
100
AcDbEntity
  8
0
100
AcDbPolyline
 62
7
  6
BYLAYER
 90
3
 70
0
 10
78.682097867
 20
83.4933788214
 10
78.9060903008
 20
79.2245459792
 10
78.2455843837
 20
76.4048937506
  0
LINE
  5
27F
100
AcDbEntity
  8
0
100
AcDbLine
 62
7
  6
BYLAYER
 10
77.9691355458
 20
55.6333123829
 11
77.2937328746
 21
73.7746982849
  0
LINE
  5
280
100
AcDbEntity
  8
0
100
AcDbLine
 62
7
  6
BYLAYER
 10
78.2627621319
 20
56.0253792918
 11
77.586172724
 21
74.1986293874
  0
LINE
  5
281
100
AcDbEntity
  8
0
100
AcDbLine
 62
7
  6
BYLAYER
 10
76.2563940009
 20
71.2955521073
 11
76.5062786597
 21
60.1322789971
  0
LINE
  5
282
100
AcDbEntity
  8
0
100
AcDbLine
 62
7
  6
BYLAYER
 10
76.2871851317
 20
71.6816770546
 11
76.5463247778
 21
60.1049493848
  0
LINE
  5
283
100
AcDbEntity
  8
0
100
AcDbLine
 62
7
  6
BYLAYER
 10
76.6877467228
 20
60.0233012339
 11
76.4286070767
 21
71.6000289037
  0
LINE
  5
284
100
AcDbEntity
  8
0
100
AcDbLine
 62
7
  6
BYLAYER
 10
78.2676982988
 20
79.3744613223
 11
77.670374218
 21
75.4904236067
  0
LINE
  5
285
100
AcDbEntity
  8
0
100
AcDbLine
 62
7
  6
BYLAYER
 10
40.9115218411
 20
37.4257050711
 11
77.9691355458
 21
55.6333123829
  0
LINE
  5
286
100
AcDbEntity
  8
0
100
AcDbLine
 62
7
  6
BYLAYER
 10
77.8894258096
 20
55.4801032739
 11
40.8317554162
 21
37.2724680895
  0
LINE
  5
287
100
AcDbEntity
  8
0
100
AcDbLine
 62
7
  6
BYLAYER
 10
77.9691355458
 20
55.6333123829
 11
77.8894258096
 21
55.4801032739
  0
LWPOLYLINE
  5
288
100
AcDbEntity
  8
0
100
AcDbPolyline
 62
7
  6
BYLAYER
 90
4
 70
0
 10
77.8893529489
 20
55.4800674571
 10
78.1531606878
 20
55.6911503683
 10
78.2482492719
 20
55.8987458356
 10
78.2586993747
 20
56.0296712844
  0
LINE
  5
289
100
AcDbEntity
  8
0
100
AcDbLine
 62
7
  6
BYLAYER
 10
64.1592386143
 20
100.8033059541
 11
63.1328529914
 21
100.9432033464
  0
LINE
  5
28A
100
AcDbEntity
  8
0
100
AcDbLine
 62
7
  6
BYLAYER
 10
64.1592386143
 20
100.8033059541
 11
64.7195055318
 21
100.7069699892
  0
LWPOLYLINE
  5
28B
100
AcDbEntity
  8
0
100
AcDbPolyline
 62
7
  6
BYLAYER
 90
3
 70
0
 10
59.4812396353
 20
99.5435790109
 10
59.3331064992
 20
99.5714418797
 10
59.3030788252
 20
99.5775879392
  0
LINE
  5
28C
100
AcDbEntity
  8
0
100
AcDbLine
 62
7
  6
BYLAYER
 10
59.5037089273
 20
99.5391057027
 11
59.4835137493
 21
99.5430826329
  0
LWPOLYLINE
  5
28D
100
AcDbEntity
  8
0
100
AcDbPolyline
 62
7
  6
BYLAYER
 90
4
 70
0
 10
63.6869100525
 20
97.911306725
 10
62.3756813844
 20
98.5711968697
 10
60.8348150313
 20
99.1722934595
 10
59.501341738
 20
99.5396244492
  0
LINE
  5
28E
100
AcDbEntity
  8
0
100
AcDbLine
 62
7
  6
BYLAYER
 10
63.6965281056
 20
97.9057316432
 11
63.6879991689
 21
97.9106562337
  0
LWPOLYLINE
  5
28F
100
AcDbEntity
  8
0
100
AcDbPolyline
 62
7
  6
BYLAYER
 90
4
 70
0
 10
67.6290190981
 20
94.8675785405
 10
66.4149110128
 20
95.9519434275
 10
65.0135911865
 20
97.0400541551
 10
63.6954411376
 20
97.9063812358
  0
LWPOLYLINE
  5
290
100
AcDbEntity
  8
0
100
AcDbPolyline
 62
7
  6
BYLAYER
 90
3
 70
0
 10
67.7980584249
 20
94.6994399343
 10
67.7723812404
 20
94.722800632
 10
67.6308727991
 20
94.8656232295
  0
LINE
  5
291
100
AcDbEntity
  8
0
100
AcDbLine
 62
7
  6
BYLAYER
 10
76.1933753865
 20
90.6292834274
 11
73.4526172563
 21
94.6805885389
  0
LWPOLYLINE
  5
292
100
AcDbEntity
  8
0
100
AcDbPolyline
 62
7
  6
BYLAYER
 90
3
 70
0
 10
74.9343643315
 20
92.4903151859
 10
76.4550854426
 20
90.1409541692
 10
77.2714515977
 20
88.0418590518
  0
LINE
  5
293
100
AcDbEntity
  8
0
100
AcDbLine
 62
7
  6
BYLAYER
 10
78.1630479128
 20
85.9019936003
 11
76.1933753865
 21
90.6292834274
  0
LINE
  5
294
100
AcDbEntity
  8
0
100
AcDbLine
 62
7
  6
BYLAYER
 10
78.1316264713
 20
85.7926301124
 11
78.682097867
 21
83.4933788214
  0
LINE
  5
295
100
AcDbEntity
  8
0
100
AcDbLine
 62
7
  6
BYLAYER
 10
64.7195055318
 20
100.7069699892
 11
68.1733902477
 21
99.2955949586
  0
ARC
  5
296
100
AcDbEntity
  8
0
100
AcDbCircle
 62
7
  6
BYLAYER
 10
47.7778913037
 20
74.1657132709
 40
28.2969335698
100
AcDbArc
 50
45.8175275186
 51
46.3310224701
  0
ARC
  5
297
100
AcDbEntity
  8
0
100
AcDbCircle
 62
7
  6
BYLAYER
 10
56.2023281828
 20
79.2697391697
 40
22.8788598858
100
AcDbArc
 50
16.5651605616
 51
16.7920482669
  0
ARC
  5
298
100
AcDbEntity
  8
0
100
AcDbCircle
 62
7
  6
BYLAYER
 10
56.647750849
 20
79.5019055164
 40
22.4470295411
100
AcDbArc
 50
15.767966466
 51
16.5659977836
  0
ARC
  5
299
100
AcDbEntity
  8
0
100
AcDbCircle
 62
7
  6
BYLAYER
 10
57.5181079085
 20
79.7398710741
 40
21.5447599678
100
AcDbArc
 50
12.972063311
 51
15.7879167459
  0
ARC
  5
29A
100
AcDbEntity
  8
0
100
AcDbCircle
 62
7
  6
BYLAYER
 10
54.035214816
 20
82.5357322743
 40
17.8505690577
100
AcDbArc
 50
57.8926421056
 51
59.1415994781
  0
ARC
  5
29B
100
AcDbEntity
  8
0
100
AcDbCircle
 62
7
  6
BYLAYER
 10
60.2969470342
 20
85.9765230736
 40
15.4898484234
100
AcDbArc
 50
55.7334819241
 51
59.435882511
  0
ARC
  5
29C
100
AcDbEntity
  8
0
100
AcDbCircle
 62
7
  6
BYLAYER
 10
56.4227111656
 20
87.3523572972
 40
12.3988067909
100
AcDbArc
 50
75.8768934698
 51
77.5421625656
  0
ARC
  5
29D
100
AcDbEntity
  8
0
100
AcDbCircle
 62
7
  6
BYLAYER
 10
79.314771721
 20
90.3953816384
 40
11.259019003
100
AcDbArc
 50
0.0163537839
 51
2.0685566727
  0
ARC
  5
29E
100
AcDbEntity
  8
0
100
AcDbCircle
 62
7
  6
BYLAYER
 10
76.9043541595
 20
94.8932476379
 40
11.0738613719
100
AcDbArc
 50
58.0736303666
 51
59.9954085332
  0
ARC
  5
29F
100
AcDbEntity
  8
0
100
AcDbCircle
 62
7
  6
BYLAYER
 10
69.4522494819
 20
78.3543623125
 40
8.7028569497
100
AcDbArc
 50
337.7057147989
 51
340.7870375293
  0
ARC
  5
2A0
100
AcDbEntity
  8
0
100
AcDbCircle
 62
7
  6
BYLAYER
 10
69.9896840835
 20
78.6506938906
 40
8.4917523517
100
AcDbArc
 50
332.3033987024
 51
337.8284732032
  0
ARC
  5
2A1
100
AcDbEntity
  8
0
100
AcDbCircle
 62
7
  6
BYLAYER
 10
12.9469061119
 20
52.6180216726
 40
7.9208284494
100
AcDbArc
 50
38.5706013075
 51
42.0260593858
  0
ARC
  5
2A2
100
AcDbEntity
  8
0
100
AcDbCircle
 62
7
  6
BYLAYER
 10
13.31661776
 20
52.5728164234
 40
7.6182101522
100
AcDbArc
 50
15.4887163753
 51
21.3177477525
  0
ARC
  5
2A3
100
AcDbEntity
  8
0
100
AcDbCircle
 62
7
  6
BYLAYER
 10
60.4321980855
 20
106.9179551746
 40
7.5772203995
100
AcDbArc
 50
258.2502410464
 51
259.8537728681
  0
ARC
  5
2A4
100
AcDbEntity
  8
0
100
AcDbCircle
 62
7
  6
BYLAYER
 10
13.2640797455
 20
52.8993464794
 40
7.496881702
100
AcDbArc
 50
42.0517258276
 51
44.2361645396
  0
ARC
  5
2A5
100
AcDbEntity
  8
0
100
AcDbCircle
 62
7
  6
BYLAYER
 10
71.7743061056
 20
99.3034366171
 40
6.4555209416
100
AcDbArc
 50
223.9357597002
 51
226.3290229985
  0
ARC
  5
2A6
100
AcDbEntity
  8
0
100
AcDbCircle
 62
7
  6
BYLAYER
 10
14.2254168547
 20
53.0675991995
 40
6.0742104155
100
AcDbArc
 50
15.9096928737
 51
16.3919469979
  0
ARC
  5
2A7
100
AcDbEntity
  8
0
100
AcDbCircle
 62
7
  6
BYLAYER
 10
14.3771651541
 20
53.1103777466
 40
5.9165483228
100
AcDbArc
 50
13.6460909665
 51
15.9141244771
  0
ARC
  5
2A8
100
AcDbEntity
  8
0
100
AcDbCircle
 62
7
  6
BYLAYER
 10
14.1967616017
 20
53.488987383
 40
5.882333853
100
AcDbArc
 50
43.9060944405
 51
46.3424522376
  0
ARC
  5
2A9
100
AcDbEntity
  8
0
100
AcDbCircle
 62
7
  6
BYLAYER
 10
22.4397411125
 20
55.1955280113
 40
3.9168921285
100
AcDbArc
 50
252.0463877837
 51
253.2912025488
  0
ARC
  5
2AA
100
AcDbEntity
  8
0
100
AcDbCircle
 62
7
  6
BYLAYER
 10
28.3481657004
 20
55.3153902101
 40
3.0143649509
100
AcDbArc
 50
290.9309025254
 51
294.0222129616
  0
ARC
  5
2AB
100
AcDbEntity
  8
0
100
AcDbCircle
 62
7
  6
BYLAYER
 10
23.1646605515
 20
64.6529618402
 40
2.8890431972
100
AcDbArc
 50
126.3763381054
 51
132.7028362309
  0
ARC
  5
2AC
100
AcDbEntity
  8
0
100
AcDbCircle
 62
7
  6
BYLAYER
 10
23.1170756627
 20
64.7148930626
 40
2.8109584604
100
AcDbArc
 50
124.6371358559
 51
126.3440947904
  0
ARC
  5
2AD
100
AcDbEntity
  8
0
100
AcDbCircle
 62
7
  6
BYLAYER
 10
22.6998550845
 20
64.2473691819
 40
2.7153892021
100
AcDbArc
 50
111.5742002103
 51
113.3685722891
  0
ARC
  5
2AE
100
AcDbEntity
  8
0
100
AcDbCircle
 62
7
  6
BYLAYER
 10
22.6845130626
 20
64.2822064365
 40
2.677324252
100
AcDbArc
 50
113.3628894441
 51
119.986700865
  0
ARC
  5
2AF
100
AcDbEntity
  8
0
100
AcDbCircle
 62
7
  6
BYLAYER
 10
28.0084432374
 20
55.0619206847
 40
2.6638979793
100
AcDbArc
 50
300.0013811548
 51
303.3850384292
  0
ARC
  5
2B0
100
AcDbEntity
  8
0
100
AcDbCircle
 62
7
  6
BYLAYER
 10
16.8441766123
 20
58.7091417128
 40
1.7899419252
100
AcDbArc
 50
108.2569462755
 51
110.1453633497
  0
ARC
  5
2B1
100
AcDbEntity
  8
0
100
AcDbCircle
 62
7
  6
BYLAYER
 10
20.2767244436
 20
52.7752436383
 40
1.7552929607
100
AcDbArc
 50
300.0310750901
 51
310.481165033
  0
ARC
  5
2B2
100
AcDbEntity
  8
0
100
AcDbCircle
 62
7
  6
BYLAYER
 10
16.8313032281
 20
58.7431678112
 40
1.7535638849
100
AcDbArc
 50
110.1333680815
 51
119.9725833563
  0
ARC
  5
2B3
100
AcDbEntity
  8
0
100
AcDbCircle
 62
7
  6
BYLAYER
 10
21.2687484726
 20
53.5058573159
 40
1.692015468
100
AcDbArc
 50
300.0428569135
 51
311.6415617174
  0
ARC
  5
2B4
100
AcDbEntity
  8
0
100
AcDbCircle
 62
7
  6
BYLAYER
 10
59.1965502173
 20
99.0628288704
 40
0.5253910317
100
AcDbArc
 50
75.8011467729
 51
78.3169114188
  0
ARC
  5
2B5
100
AcDbEntity
  8
0
100
AcDbCircle
 62
7
  6
BYLAYER
 10
59.4015859548
 20
99.0743040768
 40
0.4758852146
100
AcDbArc
 50
78.9700438291
 51
80.0858982569
  0
ARC
  5
2B6
100
AcDbEntity
  8
0
100
AcDbCircle
 62
7
  6
BYLAYER
 10
77.9579303401
 20
56.014525882
 40
0.3049801704
100
AcDbArc
 50
347.0751538857
 51
2.0391998225
  0
SPLINE
  5
2B7
100
AcDbEntity
  8
0
100
AcDbSpline
 62
7
  6
BYLAYER
 70
0
 71
3
 72
18
 73
14
 74
0
 42
0.0000001
 43
0.0000001
 44
0.0000000001
 40
0.0
 40
0.0
 40
0.0
 40
0.0
 40
0.1256698775
 40
0.2635738299
 40
0.4075088918
 40
0.5502529939
 40
0.6847820976
 40
0.7472027485
 40
0.8056575269
 40
0.8599123382
 40
0.9100250141
 40
0.9564340902
 40
1.0
 40
1.0
 40
1.0
 40
1.0
 10
13.817469033
 20
57.1061671235
 30
0.0
 10
13.817469033
 20
56.7058125005
 30
0.0
 10
13.9224817928
 20
55.8651581295
 30
0.0
 10
14.3192259184
 20
54.6231808353
 30
0.0
 10
14.935509442
 20
53.4124859281
 30
0.0
 10
15.7265985843
 20
52.3220032767
 30
0.0
 10
16.5037019181
 20
51.5590766083
 30
0.0
 10
17.1655185489
 20
51.0833257529
 30
0.0
 10
17.6537720824
 20
50.810486004
 30
0.0
 10
18.1372098288
 20
50.6178367094
 30
0.0
 10
18.6075063217
 20
50.5096594358
 30
0.0
 10
19.0559312414
 20
50.4887051165
 30
0.0
 10
19.3415323304
 20
50.5356068736
 30
0.0
 10
19.4748755544
 20
50.5741094702
 30
0.0
  0
SPLINE
  5
2B8
100
AcDbEntity
  8
0
100
AcDbSpline
 62
7
  6
BYLAYER
 70
0
 71
3
 72
11
 73
7
 74
0
 42
0.0000001
 43
0.0000001
 44
0.0000000001
 40
0.0
 40
0.0
 40
0.0
 40
0.0
 40
0.2838468286
 40
0.5434700441
 40
0.7805350635
 40
1.0
 40
1.0
 40
1.0
 40
1.0
 10
20.2699727543
 20
53.3808966399
 30
0.0
 10
20.2699727543
 20
53.2089381879
 30
0.0
 10
20.2482230363
 20
52.8790176259
 30
0.0
 10
20.1407061471
 20
52.4159897938
 30
0.0
 10
19.9606585844
 20
52.0178032044
 30
0.0
 10
19.7888962819
 20
51.7965788031
 30
0.0
 10
19.6937200618
 20
51.7037428452
 30
0.0
  0
SPLINE
  5
2B9
100
AcDbEntity
  8
0
100
AcDbSpline
 62
7
  6
BYLAYER
 70
0
 71
3
 72
9
 73
5
 74
0
 42
0.0000001
 43
0.0000001
 44
0.0000000001
 40
0.0
 40
0.0
 40
0.0
 40
0.0
 40
0.4744352541
 40
1.0
 40
1.0
 40
1.0
 40
1.0
 10
18.7288867971
 20
52.1921470782
 30
0.0
 10
18.7288867971
 20
52.1226016144
 30
0.0
 10
18.7549395061
 20
51.9759658778
 30
0.0
 10
18.8146310625
 20
51.8407106535
 30
0.0
 10
18.8531513832
 20
51.7739918714
 30
0.0
  0
SPLINE
  5
2BA
100
AcDbEntity
  8
0
100
AcDbSpline
 62
7
  6
BYLAYER
 70
0
 71
3
 72
14
 73
10
 74
0
 42
0.0000001
 43
0.0000001
 44
0.0000000001
 40
0.0
 40
0.0
 40
0.0
 40
0.0
 40
0.2892707581
 40
0.4225382064
 40
0.5484970858
 40
0.667894278
 40
0.7818682188
 40
0.8919523669
 40
1.0
 40
1.0
 40
1.0
 40
1.0
 10
90.5737902654
 20
90.3985952706
 30
0.0
 10
90.5737944628
 20
89.8157020861
 30
0.0
 10
90.5057197968
 20
88.9600910417
 30
0.0
 10
90.2427570203
 20
87.8846376333
 30
0.0
 10
89.9750994819
 20
87.1680181605
 30
0.0
 10
89.634060359
 20
86.5267028076
 30
0.0
 10
89.2220667649
 20
85.9672253529
 30
0.0
 10
88.7430971133
 20
85.4957874546
 30
0.0
 10
88.3805591302
 20
85.2428595692
 30
0.0
 10
88.192016873
 20
85.1339829605
 30
0.0
  0
SPLINE
  5
2BB
100
AcDbEntity
  8
0
100
AcDbSpline
 62
7
  6
BYLAYER
 70
0
 71
3
 72
14
 73
10
 74
0
 42
0.0000001
 43
0.0000001
 44
0.0000000001
 40
0.0
 40
0.0
 40
0.0
 40
0.0
 40
0.1080471755
 40
0.2181321576
 40
0.3321109185
 40
0.4515063581
 40
0.5774514793
 40
0.7107236082
 40
1.0
 40
1.0
 40
1.0
 40
1.0
 10
76.6920898343
 20
105.0525597746
 30
0.0
 10
76.8806235856
 20
105.1614314713
 30
0.0
 10
77.2809510495
 20
105.3488623387
 30
0.0
 10
77.9286727546
 20
105.5280194983
 30
0.0
 10
78.6191841786
 20
105.6049676249
 30
0.0
 10
79.3450476113
 20
105.5797746792
 30
0.0
 10
80.0994305636
 20
105.4532267911
 30
0.0
 10
81.1622588951
 20
105.1433537824
 30
0.0
 10
81.9372609985
 20
104.7744845735
 30
0.0
 10
82.4420533536
 20
104.4830491645
 30
0.0
  0
SPLINE
  5
2BC
100
AcDbEntity
  8
0
100
AcDbSpline
 62
7
  6
BYLAYER
 70
0
 71
3
 72
11
 73
7
 74
0
 42
0.0000001
 43
0.0000001
 44
0.0000000001
 40
0.0
 40
0.0
 40
0.0
 40
0.0
 40
0.288094897
 40
0.5473332511
 40
0.7810768076
 40
1.0
 40
1.0
 40
1.0
 40
1.0
 10
76.2563617041
 20
71.2955697769
 30
0.0
 10
76.2551920396
 20
71.3478230223
 30
0.0
 10
76.2448180268
 20
71.4472511896
 30
0.0
 10
76.2009005347
 20
71.5833126391
 30
0.0
 10
76.1296553362
 20
71.6931683997
 30
0.0
 10
76.0640364336
 20
71.745497369
 30
0.0
 10
76.0291956649
 20
71.7645649889
 30
0.0
  0
SPLINE
  5
2BD
100
AcDbEntity
  8
0
100
AcDbSpline
 62
7
  6
BYLAYER
 70
0
 71
3
 72
11
 73
7
 74
0
 42
0.0000001
 43
0.0000001
 44
0.0000000001
 40
0.0
 40
0.0
 40
0.0
 40
0.0
 40
0.2364352153
 40
0.4983524089
 40
0.7611676684
 40
1.0
 40
1.0
 40
1.0
 40
1.0
 10
75.8176525004
 20
58.8971433936
 30
0.0
 10
75.917874464
 20
58.9550062258
 30
0.0
 10
76.1070016081
 20
59.1156660075
 30
0.0
 10
76.3249169568
 20
59.4214479051
 30
0.0
 10
76.4707481094
 20
59.7687341647
 30
0.0
 10
76.5088624479
 20
60.0154264617
 30
0.0
 10
76.5062463629
 20
60.1322966667
 30
0.0
  0
SPLINE
  5
2BE
100
AcDbEntity
  8
0
100
AcDbSpline
 62
7
  6
BYLAYER
 70
0
 71
3
 72
11
 73
7
 74
0
 42
0.0000001
 43
0.0000001
 44
0.0000000001
 40
0.0
 40
0.0
 40
0.0
 40
0.0
 40
0.2391462975
 40
0.5016497367
 40
0.7632433668
 40
1.0
 40
1.0
 40
1.0
 40
1.0
 10
41.7805190532
 20
51.596065364
 30
0.0
 10
41.7779001454
 20
51.7130616757
 30
0.0
 10
41.8173804822
 20
51.9594036668
 30
0.0
 10
41.9612219247
 20
52.3072600077
 30
0.0
 10
42.1806700166
 20
52.6116424905
 30
0.0
 10
42.3687783159
 20
52.7732907747
 30
0.0
 10
42.4691129157
 20
52.8312186371
 30
0.0
  0
SPLINE
  5
2BF
100
AcDbEntity
  8
0
100
AcDbSpline
 62
7
  6
BYLAYER
 70
0
 71
3
 72
11
 73
7
 74
0
 42
0.0000001
 43
0.0000001
 44
0.0000000001
 40
0.0
 40
0.0
 40
0.0
 40
0.0
 40
0.287004093
 40
0.5452919299
 40
0.7797739574
 40
1.0
 40
1.0
 40
1.0
 40
1.0
 10
75.7029932648
 20
72.0186938691
 30
0.0
 10
75.7468822013
 20
72.0440330072
 30
0.0
 10
75.8347437337
 20
72.0851296925
 30
0.0
 10
75.9701320003
 20
72.1161561839
 30
0.0
 10
76.0975751148
 20
72.112330808
 30
0.0
 10
76.1748169511
 20
72.0845667118
 30
0.0
 10
76.2084939805
 20
72.0651230517
 30
0.0
  0
SPLINE
  5
2C0
100
AcDbEntity
  8
0
100
AcDbSpline
 62
7
  6
BYLAYER
 70
0
 71
3
 72
11
 73
7
 74
0
 42
0.0000001
 43
0.0000001
 44
0.0000000001
 40
0.0
 40
0.0
 40
0.0
 40
0.0
 40
0.2176967831
 40
0.4508589589
 40
0.7105480504
 40
1.0
 40
1.0
 40
1.0
 40
1.0
 10
18.8531694237
 20
52.4667916478
 30
0.0
 10
18.8333798075
 20
52.4553801746
 30
0.0
 10
18.7963360316
 20
52.4242761816
 30
0.0
 10
18.7568869353
 20
52.3597956481
 30
0.0
 10
18.7335460248
 20
52.2803324932
 30
0.0
 10
18.7288867971
 20
52.2225207694
 30
0.0
 10
18.7288867971
 20
52.1921470782
 30
0.0
  0
SPLINE
  5
2C1
100
AcDbEntity
  8
0
100
AcDbSpline
 62
7
  6
BYLAYER
 70
0
 71
3
 72
11
 73
7
 74
0
 42
0.0000001
 43
0.0000001
 44
0.0000000001
 40
0.0
 40
0.0
 40
0.0
 40
0.0
 40
0.2187315374
 40
0.4532920959
 40
0.7123429707
 40
1.0
 40
1.0
 40
1.0
 40
1.0
 10
42.2597717956
 20
39.5542435463
 30
0.0
 10
42.2259410435
 20
39.5737759593
 30
0.0
 10
42.1628118392
 20
39.6272320466
 30
0.0
 10
42.0944506761
 20
39.736328892
 30
0.0
 10
42.0512429207
 20
39.8702106024
 30
0.0
 10
42.0408084008
 20
39.9679762713
 30
0.0
 10
42.0396586993
 20
40.0193376942
 30
0.0
  0
SPLINE
  5
2C2
100
AcDbEntity
  8
0
100
AcDbSpline
 62
7
  6
BYLAYER
 70
0
 71
3
 72
11
 73
7
 74
0
 42
0.0000001
 43
0.0000001
 44
0.0000000001
 40
0.0
 40
0.0
 40
0.0
 40
0.0
 40
0.2203342705
 40
0.4546949937
 40
0.7134126805
 40
1.0
 40
1.0
 40
1.0
 40
1.0
 10
42.4388762973
 20
39.8634599919
 30
0.0
 10
42.4725257079
 20
39.8450443773
 30
0.0
 10
42.5488507382
 20
39.8185547668
 30
0.0
 10
42.6746509444
 20
39.8158241489
 30
0.0
 10
42.8077548554
 20
39.8479249171
 30
0.0
 10
42.8941150729
 20
39.8888436614
 30
0.0
 10
42.93732407
 20
39.9137902385
 30
0.0
  0
SPLINE
  5
2C3
100
AcDbEntity
  8
0
100
AcDbSpline
 62
7
  6
BYLAYER
 70
0
 71
3
 72
11
 73
7
 74
0
 42
0.0000001
 43
0.0000001
 44
0.0000000001
 40
0.0
 40
0.0
 40
0.0
 40
0.0
 40
0.2177822878
 40
0.4509146108
 40
0.7103059136
 40
1.0
 40
1.0
 40
1.0
 40
1.0
 10
33.1466857847
 20
79.0699281592
 30
0.0
 10
33.1466727814
 20
79.1651495812
 30
0.0
 10
33.1115040939
 20
79.363623592
 30
0.0
 10
32.9610316602
 20
79.6401624243
 30
0.0
 10
32.7231705849
 20
79.8901323005
 30
0.0
 10
32.5241513648
 20
80.0272078594
 30
0.0
 10
32.4144568707
 20
80.0905385723
 30
0.0
  0
SPLINE
  5
2C4
100
AcDbEntity
  8
0
100
AcDbSpline
 62
7
  6
BYLAYER
 70
0
 71
3
 72
10
 73
6
 74
0
 42
0.0000001
 43
0.0000001
 44
0.0000000001
 40
0.0
 40
0.0
 40
0.0
 40
0.0
 40
0.2337148584
 40
0.6041306592
 40
1.0
 40
1.0
 40
1.0
 40
1.0
 10
78.2455843837
 20
76.4048937506
 30
0.0
 10
78.3780770439
 20
76.728932047
 30
0.0
 10
78.668043512
 20
77.5886136287
 30
0.0
 10
78.946139948
 20
79.0665280819
 30
0.0
 10
78.9978283587
 20
80.2168770667
 30
0.0
 10
78.9896819603
 20
80.8097891349
 30
0.0
  0
SPLINE
  5
2C5
100
AcDbEntity
  8
0
100
AcDbSpline
 62
7
  6
BYLAYER
 70
0
 71
3
 72
9
 73
5
 74
0
 42
0.0000001
 43
0.0000001
 44
0.0000000001
 40
0.0
 40
0.0
 40
0.0
 40
0.0
 40
0.4868724072
 40
1.0
 40
1.0
 40
1.0
 40
1.0
 10
78.9896819603
 20
80.8097891349
 30
0.0
 10
78.9812056176
 20
81.4267152504
 30
0.0
 10
78.886149636
 20
82.6934709311
 30
0.0
 10
78.6589205464
 20
83.9424707263
 30
0.0
 10
78.513037678
 20
84.5761512606
 30
0.0
  0
SPLINE
  5
2C6
100
AcDbEntity
  8
0
100
AcDbSpline
 62
7
  6
BYLAYER
 70
0
 71
3
 72
9
 73
5
 74
0
 42
0.0000001
 43
0.0000001
 44
0.0000000001
 40
0.0
 40
0.0
 40
0.0
 40
0.0
 40
0.2560596738
 40
1.0
 40
1.0
 40
1.0
 40
1.0
 10
73.4685421792
 20
94.7034617404
 30
0.0
 10
73.2620902619
 20
94.9557411108
 30
0.0
 10
72.4362137127
 20
95.9246351544
 30
0.0
 10
71.5314252417
 20
96.8272820525
 30
0.0
 10
70.8152405766
 20
97.4470250953
 30
0.0
  0
SPLINE
  5
2C7
100
AcDbEntity
  8
0
100
AcDbSpline
 62
7
  6
BYLAYER
 70
0
 71
3
 72
11
 73
7
 74
0
 42
0.0000001
 43
0.0000001
 44
0.0000000001
 40
0.0
 40
0.0
 40
0.0
 40
0.0
 40
0.2754800843
 40
0.4072296377
 40
0.5346872138
 40
1.0
 40
1.0
 40
1.0
 40
1.0
 10
70.8152405766
 20
97.4470250953
 30
0.0
 10
70.2918137725
 20
97.8999671032
 30
0.0
 10
69.4822282456
 20
98.5302322474
 30
0.0
 10
68.3497166064
 20
99.2553149503
 30
0.0
 10
66.7576543952
 20
100.1349467349
 30
0.0
 10
65.317709882
 20
100.6454051556
 30
0.0
 10
64.1592386143
 20
100.8033059541
 30
0.0
  0
SPLINE
  5
2C8
100
AcDbEntity
  8
0
100
AcDbSpline
 62
7
  6
BYLAYER
 70
0
 71
3
 72
9
 73
5
 74
0
 42
0.0000001
 43
0.0000001
 44
0.0000000001
 40
0.0
 40
0.0
 40
0.0
 40
0.0
 40
0.5082524157
 40
1.0
 40
1.0
 40
1.0
 40
1.0
 10
63.1328529914
 20
100.9432033464
 30
0.0
 10
62.6957735326
 20
101.0027777161
 30
0.0
 10
61.825527793
 20
101.0568828353
 30
0.0
 10
60.9573550828
 20
100.9633668129
 30
0.0
 10
60.5391552755
 20
100.8781393036
 30
0.0
  0
SPLINE
  5
2C9
100
AcDbEntity
  8
0
100
AcDbSpline
 62
7
  6
BYLAYER
 70
0
 71
3
 72
9
 73
5
 74
0
 42
0.0000001
 43
0.0000001
 44
0.0000000001
 40
0.0
 40
0.0
 40
0.0
 40
0.0
 40
0.5022452471
 40
1.0
 40
1.0
 40
1.0
 40
1.0
 10
60.5391552755
 20
100.8781393036
 30
0.0
 10
60.1967044244
 20
100.8083491396
 30
0.0
 10
59.5243687312
 20
100.6166412895
 30
0.0
 10
58.891807823
 20
100.3182026204
 30
0.0
 10
58.5918462655
 20
100.1450207682
 30
0.0
  0
SPLINE
  5
2CA
100
AcDbEntity
  8
0
100
AcDbSpline
 62
7
  6
BYLAYER
 70
0
 71
3
 72
15
 73
11
 74
0
 42
0.0000001
 43
0.0000001
 44
0.0000000001
 40
0.0
 40
0.0
 40
0.0
 40
0.0
 40
0.1240856547
 40
0.2523048277
 40
0.382766539
 40
0.513447597
 40
0.6423122295
 40
0.7674308113
 40
0.8871048382
 40
1.0
 40
1.0
 40
1.0
 40
1.0
 10
67.7980584249
 20
94.6994399342
 30
0.0
 10
68.491827511
 20
94.0353438194
 30
0.0
 10
69.8336273951
 20
92.6116030698
 30
0.0
 10
71.6601587405
 20
90.2744732216
 30
0.0
 10
73.3028827031
 20
87.7434655661
 30
0.0
 10
74.7244629626
 20
85.076402085
 30
0.0
 10
75.8925631576
 20
82.3337191495
 30
0.0
 10
76.7802910009
 20
79.576724747
 30
0.0
 10
77.3666954251
 20
76.8664913773
 30
0.0
 10
77.5525839346
 20
75.0710212591
 30
0.0
 10
77.5855448078
 20
74.1978692263
 30
0.0
  0
SPLINE
  5
2CB
100
AcDbEntity
  8
0
100
AcDbSpline
 62
7
  6
BYLAYER
 70
0
 71
3
 72
11
 73
7
 74
0
 42
0.0000001
 43
0.0000001
 44
0.0000000001
 40
0.0
 40
0.0
 40
0.0
 40
0.0
 40
0.2383742106
 40
0.481860941
 40
0.7346229123
 40
1.0
 40
1.0
 40
1.0
 40
1.0
 10
53.0917638052
 20
98.7878299479
 30
0.0
 10
53.5326475008
 20
99.0402893171
 30
0.0
 10
54.4802018378
 20
99.4580606647
 30
0.0
 10
56.0192742866
 20
99.7927818909
 30
0.0
 10
57.6499090012
 20
99.8411301931
 30
0.0
 10
58.7492404426
 20
99.6927516372
 30
0.0
 10
59.3031527653
 20
99.5783597933
 30
0.0
  0
SPLINE
  5
2CC
100
AcDbEntity
  8
0
100
AcDbSpline
 62
7
  6
BYLAYER
 70
0
 71
3
 72
14
 73
10
 74
0
 42
0.0000001
 43
0.0000001
 44
0.0000000001
 40
0.0
 40
0.0
 40
0.0
 40
0.0
 40
0.1124382481
 40
0.2262949859
 40
0.3428991552
 40
0.4634979768
 40
0.5890139577
 40
0.7200901267
 40
1.0
 40
1.0
 40
1.0
 40
1.0
 10
16.7015512268
 20
77.7815815963
 30
0.0
 10
16.3583895432
 20
77.5801574991
 30
0.0
 10
15.6997477787
 20
77.1174071164
 30
0.0
 10
14.8263360252
 20
76.2683361507
 30
0.0
 10
14.072671136
 20
75.2751081549
 30
0.0
 10
13.444138255
 20
74.1516479373
 30
0.0
 10
12.9423706202
 20
72.9111586951
 30
0.0
 10
12.4331571553
 20
71.078961714
 30
0.0
 10
12.2637911087
 20
69.6232017027
 30
0.0
 10
12.2269956309
 20
68.6333089738
 30
0.0
  0
SPLINE
  5
2CD
100
AcDbEntity
  8
0
100
AcDbSpline
 62
7
  6
BYLAYER
 70
0
 71
3
 72
12
 73
8
 74
0
 42
0.0000001
 43
0.0000001
 44
0.0000000001
 40
0.0
 40
0.0
 40
0.0
 40
0.0
 40
0.2781014837
 40
0.5335149677
 40
0.7712561317
 40
0.8861930913
 40
1.0
 40
1.0
 40
1.0
 40
1.0
 10
25.712592723
 20
52.8637438886
 30
0.0
 10
26.0286679013
 20
52.714759463
 30
0.0
 10
26.6596601577
 20
52.475960152
 30
0.0
 10
27.6234196438
 20
52.3190817072
 30
0.0
 10
28.3948889221
 20
52.3842260622
 30
0.0
 10
28.9564074952
 20
52.5583772355
 30
0.0
 10
29.2166097575
 20
52.6834519467
 30
0.0
 10
29.3404478388
 20
52.7549494695
 30
0.0
  0
SPLINE
  5
2CE
100
AcDbEntity
  8
0
100
AcDbSpline
 62
7
  6
BYLAYER
 70
0
 71
3
 72
12
 73
8
 74
0
 42
0.0000001
 43
0.0000001
 44
0.0000000001
 40
0.0
 40
0.0
 40
0.0
 40
0.0
 40
0.1137856762
 40
0.2286990522
 40
0.4664027935
 40
0.7217592245
 40
1.0
 40
1.0
 40
1.0
 40
1.0
 10
21.3463891584
 20
66.6011479126
 30
0.0
 10
21.2224870286
 20
66.5296134116
 30
0.0
 10
20.983950863
 20
66.3667192341
 30
0.0
 10
20.5521812288
 20
65.9672484629
 30
0.0
 10
20.1099841265
 20
65.3312611671
 30
0.0
 10
19.7638057681
 20
64.4174389662
 30
0.0
 10
19.6554079013
 20
63.7509375103
 30
0.0
 10
19.6264854334
 20
63.4022860601
 30
0.0
  0
SPLINE
  5
2CF
100
AcDbEntity
  8
0
100
AcDbSpline
 62
7
  6
BYLAYER
 70
0
 71
3
 72
11
 73
7
 74
0
 42
0.0000001
 43
0.0000001
 44
0.0000000001
 40
0.0
 40
0.0
 40
0.0
 40
0.0
 40
0.2328883185
 40
0.4732629366
 40
0.7274371996
 40
1.0
 40
1.0
 40
1.0
 40
1.0
 10
17.3230019124
 20
61.9756628582
 30
0.0
 10
17.1934359946
 20
61.9008392131
 30
0.0
 10
16.9465531503
 20
61.7183015134
 30
0.0
 10
16.6381989248
 20
61.3627611089
 30
0.0
 10
16.393560166
 20
60.9317123785
 30
0.0
 10
16.2795232931
 20
60.6112937503
 30
0.0
 10
16.2328027462
 20
60.4425334682
 30
0.0
  0
SPLINE
  5
2D0
100
AcDbEntity
  8
0
100
AcDbSpline
 62
7
  6
BYLAYER
 70
0
 71
3
 72
11
 73
7
 74
0
 42
0.0000001
 43
0.0000001
 44
0.0000000001
 40
0.0
 40
0.0
 40
0.0
 40
0.0
 40
0.2728854189
 40
0.5271498655
 40
0.7673721591
 40
1.0
 40
1.0
 40
1.0
 40
1.0
 10
21.4313460612
 20
51.4107418266
 30
0.0
 10
21.6025167032
 20
51.3653958345
 30
0.0
 10
21.9403472449
 20
51.3016265763
 30
0.0
 10
22.4411321825
 20
51.2956269684
 30
0.0
 10
22.9079184828
 20
51.3845964551
 30
0.0
 10
23.1922403988
 20
51.5078773032
 30
0.0
 10
23.3229605963
 20
51.5833675389
 30
0.0
  0
SPLINE
  5
2D1
100
AcDbEntity
  8
0
100
AcDbSpline
 62
7
  6
BYLAYER
 70
0
 71
3
 72
9
 73
5
 74
0
 42
0.0000001
 43
0.0000001
 44
0.0000000001
 40
0.0
 40
0.0
 40
0.0
 40
0.0
 40
0.5171299421
 40
1.0
 40
1.0
 40
1.0
 40
1.0
 10
21.9901438809
 20
52.2607928186
 30
0.0
 10
21.9243458006
 20
52.0998640753
 30
0.0
 10
21.7661090644
 20
51.7998170948
 30
0.0
 10
21.5397680892
 20
51.5454904459
 30
0.0
 10
21.4162571991
 20
51.4401337264
 30
0.0
  0
SPLINE
  5
2D2
100
AcDbEntity
  8
0
100
AcDbSpline
 62
7
  6
BYLAYER
 70
0
 71
3
 72
9
 73
5
 74
0
 42
0.0000001
 43
0.0000001
 44
0.0000000001
 40
0.0
 40
0.0
 40
0.0
 40
0.0
 40
0.4832504738
 40
1.0
 40
1.0
 40
1.0
 40
1.0
 10
16.283425501
 20
60.4089800248
 30
0.0
 10
16.4316474737
 20
60.4578813165
 30
0.0
 10
16.7525612164
 20
60.5189888213
 30
0.0
 10
17.0778914172
 20
60.5052234955
 30
0.0
 10
17.2432606409
 20
60.4826711953
 30
0.0
  0
SPLINE
  5
2D3
100
AcDbEntity
  8
0
100
AcDbSpline
 62
7
  6
BYLAYER
 70
0
 71
3
 72
17
 73
13
 74
0
 42
0.0000001
 43
0.0000001
 44
0.0000000001
 40
0.0
 40
0.0
 40
0.0
 40
0.0
 40
0.1286930255
 40
0.2702801155
 40
0.4174389234
 40
0.5617808058
 40
0.6954504305
 40
0.8127136056
 40
0.8646759876
 40
0.9125114232
 40
0.9571388406
 40
1.0
 40
1.0
 40
1.0
 40
1.0
 10
32.4144568707
 20
80.0905385723
 30
0.0
 10
32.2293916998
 20
80.1973835814
 30
0.0
 10
31.8103874767
 20
80.3702690205
 30
0.0
 10
31.127485118
 20
80.5068687623
 30
0.0
 10
30.4052066503
 20
80.5268703505
 30
0.0
 10
29.702484175
 20
80.4281130055
 30
0.0
 10
29.0763009499
 20
80.2189535568
 30
0.0
 10
28.6407767451
 20
79.9538668398
 30
0.0
 10
28.3852074127
 20
79.6973479178
 30
0.0
 10
28.2494023772
 20
79.4976561132
 30
0.0
 10
28.1657866447
 20
79.2869843198
 30
0.0
 10
28.1466990517
 20
79.141098796
 30
0.0
 10
28.1467087707
 20
79.0699282162
 30
0.0
  0
SPLINE
  5
2D4
100
AcDbEntity
  8
0
100
AcDbSpline
 62
7
  6
BYLAYER
 70
0
 71
3
 72
11
 73
7
 74
0
 42
0.0000001
 43
0.0000001
 44
0.0000000001
 40
0.0
 40
0.0
 40
0.0
 40
0.0
 40
0.2194002709
 40
0.4562905327
 40
0.7159843783
 40
1.0
 40
1.0
 40
1.0
 40
1.0
 10
14.524903548
 20
59.147764386
 30
0.0
 10
14.4081558291
 20
59.0354287796
 30
0.0
 10
14.1971891557
 20
58.7671434127
 30
0.0
 10
13.9762102864
 20
58.2825051323
 30
0.0
 10
13.8441438264
 20
57.7182483842
 30
0.0
 10
13.817469033
 20
57.3158988266
 30
0.0
 10
13.817469033
 20
57.1061671235
 30
0.0
  0
SPLINE
  5
2D5
100
AcDbEntity
  8
0
100
AcDbSpline
 62
7
  6
BYLAYER
 70
0
 71
3
 72
14
 73
10
 74
0
 42
0.0000001
 43
0.0000001
 44
0.0000000001
 40
0.0
 40
0.0
 40
0.0
 40
0.0
 40
0.0994943359
 40
0.2027103196
 40
0.3125803666
 40
0.4311032771
 40
0.559313162
 40
0.6973664855
 40
1.0
 40
1.0
 40
1.0
 40
1.0
 10
15.3034351745
 20
58.6445060233
 30
0.0
 10
15.3985136367
 20
58.6980540435
 30
0.0
 10
15.6061707598
 20
58.7840702461
 30
0.0
 10
15.9471060874
 20
58.8396960639
 30
0.0
 10
16.312706298
 20
58.8233627472
 30
0.0
 10
16.6958454623
 20
58.7365984037
 30
0.0
 10
17.0899205201
 20
58.5816617136
 30
0.0
 10
17.637255334
 20
58.2795039584
 30
0.0
 10
18.0174543571
 20
57.9738424576
 30
0.0
 10
18.2576104977
 20
57.744731478
 30
0.0
  0
SPLINE
  5
2D6
100
AcDbEntity
  8
0
100
AcDbSpline
 62
7
  6
BYLAYER
 70
0
 71
3
 72
11
 73
7
 74
0
 42
0.0000001
 43
0.0000001
 44
0.0000000001
 40
0.0
 40
0.0
 40
0.0
 40
0.0
 40
0.246439655
 40
0.4997161253
 40
0.7531483249
 40
1.0
 40
1.0
 40
1.0
 40
1.0
 10
18.4348499185
 20
57.5682592515
 30
0.0
 10
18.6200485752
 20
57.3759613327
 30
0.0
 10
18.9702573198
 20
56.9610087916
 30
0.0
 10
19.420599133
 20
56.2785629073
 30
0.0
 10
19.7901808281
 20
55.5487160105
 30
0.0
 10
19.977265795
 20
55.03833627
 30
0.0
 10
20.0527327788
 20
54.7817815969
 30
0.0
  0
SPLINE
  5
2D7
100
AcDbEntity
  8
0
100
AcDbSpline
 62
7
  6
BYLAYER
 70
0
 71
3
 72
9
 73
5
 74
0
 42
0.0000001
 43
0.0000001
 44
0.0000000001
 40
0.0
 40
0.0
 40
0.0
 40
0.0
 40
0.2620303047
 40
1.0
 40
1.0
 40
1.0
 40
1.0
 10
20.1266983617
 20
54.506233022
 30
0.0
 10
20.1500785014
 20
54.4098172273
 30
0.0
 10
20.2296859735
 20
54.0397026078
 30
0.0
 10
20.2699727543
 20
53.6603071429
 30
0.0
 10
20.2699727543
 20
53.3808966399
 30
0.0
  0
SPLINE
  5
2D8
100
AcDbEntity
  8
0
100
AcDbSpline
 62
7
  6
BYLAYER
 70
0
 71
3
 72
11
 73
7
 74
0
 42
0.0000001
 43
0.0000001
 44
0.0000000001
 40
0.0
 40
0.0
 40
0.0
 40
0.0
 40
0.2576430144
 40
0.5399606796
 40
0.798641509
 40
1.0
 40
1.0
 40
1.0
 40
1.0
 10
16.610670506
 20
56.799918398
 30
0.0
 10
16.610670506
 20
56.7764888926
 30
0.0
 10
16.6221501663
 20
56.7274229097
 30
0.0
 10
16.6588939277
 20
56.6637680025
 30
0.0
 10
16.707948084
 20
56.6162619851
 30
0.0
 10
16.749941058
 20
56.6007500014
 30
0.0
 10
16.7682166864
 20
56.6018893852
 30
0.0
  0
SPLINE
  5
2D9
100
AcDbEntity
  8
0
100
AcDbSpline
 62
7
  6
BYLAYER
 70
0
 71
3
 72
11
 73
7
 74
0
 42
0.0000001
 43
0.0000001
 44
0.0000000001
 40
0.0
 40
0.0
 40
0.0
 40
0.0
 40
0.2576430144
 40
0.5399606796
 40
0.798641509
 40
1.0
 40
1.0
 40
1.0
 40
1.0
 10
18.3784448189
 20
53.7380604688
 30
0.0
 10
18.3784448189
 20
53.7146309634
 30
0.0
 10
18.3899244791
 20
53.6655649805
 30
0.0
 10
18.4266682406
 20
53.6019100734
 30
0.0
 10
18.4757223968
 20
53.554404056
 30
0.0
 10
18.5177153709
 20
53.5388920723
 30
0.0
 10
18.5359909993
 20
53.5400314561
 30
0.0
  0
SPLINE
  5
2DA
100
AcDbEntity
  8
0
100
AcDbSpline
 62
7
  6
BYLAYER
 70
0
 71
3
 72
11
 73
7
 74
0
 42
0.0000001
 43
0.0000001
 44
0.0000000001
 40
0.0
 40
0.0
 40
0.0
 40
0.0
 40
0.2576430144
 40
0.5399606796
 40
0.798641509
 40
1.0
 40
1.0
 40
1.0
 40
1.0
 10
18.3784448189
 20
55.7793165117
 30
0.0
 10
18.3784448189
 20
55.7558870063
 30
0.0
 10
18.3899244791
 20
55.7068210234
 30
0.0
 10
18.4266682406
 20
55.6431661162
 30
0.0
 10
18.4757223968
 20
55.5956600988
 30
0.0
 10
18.5177153709
 20
55.5801481151
 30
0.0
 10
18.5359909993
 20
55.5812874989
 30
0.0
  0
SPLINE
  5
2DB
100
AcDbEntity
  8
0
100
AcDbSpline
 62
7
  6
BYLAYER
 70
0
 71
3
 72
9
 73
5
 74
0
 42
0.0000001
 43
0.0000001
 44
0.0000000001
 40
0.0
 40
0.0
 40
0.0
 40
0.0
 40
0.2587542411
 40
1.0
 40
1.0
 40
1.0
 40
1.0
 10
69.101784958
 20
101.2717803372
 30
0.0
 10
69.4531543452
 20
101.1426439354
 30
0.0
 10
70.802896107
 20
100.6225192358
 30
0.0
 10
72.1168624778
 20
100.0024596875
 30
0.0
 10
73.0455801474
 20
99.4662764211
 30
0.0
  0
SPLINE
  5
2DC
100
AcDbEntity
  8
0
100
AcDbSpline
 62
7
  6
BYLAYER
 70
0
 71
3
 72
9
 73
5
 74
0
 42
0.0000001
 43
0.0000001
 44
0.0000000001
 40
0.0
 40
0.0
 40
0.0
 40
0.0
 40
0.485918899
 40
1.0
 40
1.0
 40
1.0
 40
1.0
 10
67.0566080737
 20
101.0890817242
 30
0.0
 10
67.3762761423
 20
101.1865377937
 30
0.0
 10
68.0578561834
 20
101.3144552843
 30
0.0
 10
68.7498477372
 20
101.30564041
 30
0.0
 10
69.101784958
 20
101.2717803372
 30
0.0
  0
SPLINE
  5
2DD
100
AcDbEntity
  8
0
100
AcDbSpline
 62
7
  6
BYLAYER
 70
0
 71
3
 72
10
 73
6
 74
0
 42
0.0000001
 43
0.0000001
 44
0.0000000001
 40
0.0
 40
0.0
 40
0.0
 40
0.0
 40
0.4345513797
 40
0.7020017919
 40
1.0
 40
1.0
 40
1.0
 40
1.0
 10
81.7536077194
 20
82.8059279761
 30
0.0
 10
81.4149250752
 20
82.095366352
 30
0.0
 10
80.7535161088
 20
81.0016371931
 30
0.0
 10
79.6813335892
 20
79.5417963105
 30
0.0
 10
79.0361999101
 20
78.7455743518
 30
0.0
 10
78.6897189404
 20
78.3316534709
 30
0.0
  0
SPLINE
  5
2DE
100
AcDbEntity
  8
0
100
AcDbSpline
 62
7
  6
BYLAYER
 70
0
 71
3
 72
9
 73
5
 74
0
 42
0.0000001
 43
0.0000001
 44
0.0000000001
 40
0.0
 40
0.0
 40
0.0
 40
0.0
 40
0.5160729224
 40
1.0
 40
1.0
 40
1.0
 40
1.0
 10
81.7536077195
 20
85.5328386268
 30
0.0
 10
81.8028310793
 20
85.0655974882
 30
0.0
 10
81.8550190734
 20
84.1549360077
 30
0.0
 10
81.8060721105
 20
83.2433545485
 30
0.0
 10
81.7536077195
 20
82.8059279761
 30
0.0
  0
SPLINE
  5
2DF
100
AcDbEntity
  8
0
100
AcDbSpline
 62
7
  6
BYLAYER
 70
0
 71
3
 72
11
 73
7
 74
0
 42
0.0000001
 43
0.0000001
 44
0.0000000001
 40
0.0
 40
0.0
 40
0.0
 40
0.0
 40
0.2441439711
 40
0.492725034
 40
0.7451257951
 40
1.0
 40
1.0
 40
1.0
 40
1.0
 10
78.2180590937
 20
94.6451607542
 30
0.0
 10
78.6406309398
 20
93.9660150022
 30
0.0
 10
79.4392911373
 20
92.5603502185
 30
0.0
 10
80.4374057633
 20
90.3280079841
 30
0.0
 10
81.2153764182
 20
87.9728932154
 30
0.0
 10
81.5928652957
 20
86.3522549818
 30
0.0
 10
81.7536077194
 20
85.5328386268
 30
0.0
  0
SPLINE
  5
2E0
100
AcDbEntity
  8
0
100
AcDbSpline
 62
7
  6
BYLAYER
 70
0
 71
3
 72
9
 73
5
 74
0
 42
0.0000001
 43
0.0000001
 44
0.0000000001
 40
0.0
 40
0.0
 40
0.0
 40
0.0
 40
0.2455487301
 40
1.0
 40
1.0
 40
1.0
 40
1.0
 10
76.1728822094
 20
97.189372792
 30
0.0
 10
76.3564749637
 20
96.9950464951
 30
0.0
 10
77.0876814726
 20
96.1881926393
 30
0.0
 10
77.7537980881
 20
95.3227686648
 30
0.0
 10
78.2180590937
 20
94.6451607542
 30
0.0
  0
SPLINE
  5
2E1
100
AcDbEntity
  8
0
100
AcDbSpline
 62
7
  6
BYLAYER
 70
0
 71
3
 72
9
 73
5
 74
0
 42
0.0000001
 43
0.0000001
 44
0.0000000001
 40
0.0
 40
0.0
 40
0.0
 40
0.0
 40
0.5150944596
 40
1.0
 40
1.0
 40
1.0
 40
1.0
 10
73.0455801474
 20
99.4662764211
 30
0.0
 10
73.6216284592
 20
99.133702297
 30
0.0
 10
74.7076860083
 20
98.429636229
 30
0.0
 10
75.7090512025
 20
97.6100348702
 30
0.0
 10
76.1728822094
 20
97.189372792
 30
0.0
  0
SPLINE
  5
2E2
100
AcDbEntity
  8
0
100
AcDbSpline
 62
7
  6
BYLAYER
 70
0
 71
3
 72
15
 73
11
 74
0
 42
0.0000001
 43
0.0000001
 44
0.0000000001
 40
0.0
 40
0.0
 40
0.0
 40
0.0
 40
0.114155761
 40
0.2373238464
 40
0.3669740887
 40
0.4999961395
 40
0.6330220952
 40
0.7626730816
 40
0.8858453005
 40
1.0
 40
1.0
 40
1.0
 40
1.0
 10
82.7956052722
 20
104.2789200329
 30
0.0
 10
83.3280873877
 20
103.971498295
 30
0.0
 10
84.3798236893
 20
103.234266879
 30
0.0
 10
85.8269380234
 20
101.8803617288
 30
0.0
 10
87.160558763
 20
100.2799912456
 30
0.0
 10
88.3304150017
 20
98.4930973328
 30
0.0
 10
89.292993352
 20
96.5865273983
 30
0.0
 10
90.0121944414
 20
94.6313596984
 30
0.0
 10
90.4611506123
 20
92.701147573
 30
0.0
 10
90.5737727503
 20
91.421688652
 30
0.0
 10
90.57377672
 20
90.8068404613
 30
0.0
  0
SPLINE
  5
2E3
100
AcDbEntity
  8
0
100
AcDbSpline
 62
7
  6
BYLAYER
 70
0
 71
3
 72
11
 73
7
 74
0
 42
0.0000001
 43
0.0000001
 44
0.0000000001
 40
0.0
 40
0.0
 40
0.0
 40
0.0
 40
0.2177822878
 40
0.4509146108
 40
0.7103059136
 40
1.0
 40
1.0
 40
1.0
 40
1.0
 10
28.1467087707
 20
79.0699282162
 30
0.0
 10
28.146721774
 20
78.9747067941
 30
0.0
 10
28.1818904615
 20
78.7762327833
 30
0.0
 10
28.3323628953
 20
78.4996939511
 30
0.0
 10
28.5702239705
 20
78.2497240749
 30
0.0
 10
28.7692431907
 20
78.1126485159
 30
0.0
 10
28.8789376847
 20
78.049317803
 30
0.0
  0
SPLINE
  5
2E4
100
AcDbEntity
  8
0
100
AcDbSpline
 62
7
  6
BYLAYER
 70
0
 71
3
 72
11
 73
7
 74
0
 42
0.0000001
 43
0.0000001
 44
0.0000000001
 40
0.0
 40
0.0
 40
0.0
 40
0.0
 40
0.2079524855
 40
0.4367209362
 40
0.6995603231
 40
1.0
 40
1.0
 40
1.0
 40
1.0
 10
28.146697314
 20
79.006002715
 30
0.0
 10
28.1467039667
 20
78.9188980462
 30
0.0
 10
28.1831255152
 20
78.7347101618
 30
0.0
 10
28.3353576283
 20
78.4795313362
 30
0.0
 10
28.5731873163
 20
78.2446079395
 30
0.0
 10
28.7699524425
 20
78.1122390384
 30
0.0
 10
28.8789376847
 20
78.049317803
 30
0.0
  0
SPLINE
  5
2E5
100
AcDbEntity
  8
0
100
AcDbSpline
 62
7
  6
BYLAYER
 70
0
 71
3
 72
11
 73
7
 74
0
 42
0.0000001
 43
0.0000001
 44
0.0000000001
 40
0.0
 40
0.0
 40
0.0
 40
0.0
 40
0.2360146373
 40
0.4982221672
 40
0.7613472156
 40
1.0
 40
1.0
 40
1.0
 40
1.0
 10
25.5962337129
 20
66.3507536832
 30
0.0
 10
25.6266499865
 20
66.3673871603
 30
0.0
 10
25.6841734639
 20
66.4147175654
 30
0.0
 10
25.7514691197
 20
66.5050072712
 30
0.0
 10
25.7981735454
 20
66.6080107467
 30
0.0
 10
25.8114132245
 20
66.6817857345
 30
0.0
 10
25.8114723352
 20
66.7168405005
 30
0.0
  0
SPLINE
  5
2E6
100
AcDbEntity
  8
0
100
AcDbSpline
 62
7
  6
BYLAYER
 70
0
 71
3
 72
23
 73
19
 74
0
 42
0.0000001
 43
0.0000001
 44
0.0000000001
 40
0.0
 40
0.0
 40
0.0
 40
0.0
 40
0.073934631
 40
0.1441070017
 40
0.2104686221
 40
0.2732556836
 40
0.3328542296
 40
0.3898307071
 40
0.444945848
 40
0.4991093111
 40
0.5533135686
 40
0.6085473576
 40
0.6657102745
 40
0.7255489363
 40
0.7886140858
 40
0.8552765757
 40
0.9257587899
 40
1.0
 40
1.0
 40
1.0
 40
1.0
 10
25.9417849675
 20
75.5513077319
 30
0.0
 10
25.527371075
 20
75.7989597302
 30
0.0
 10
24.6996262518
 20
76.2494317946
 30
0.0
 10
23.4345703293
 20
76.7919825068
 30
0.0
 10
22.1884491166
 20
77.176888765
 30
0.0
 10
20.9733783721
 20
77.4011504257
 30
0.0
 10
19.8000674169
 20
77.4620912686
 30
0.0
 10
18.6795614106
 20
77.3575817845
 30
0.0
 10
17.6231357105
 20
77.0877362618
 30
0.0
 10
16.6419681338
 20
76.6545758908
 30
0.0
 10
15.7469101908
 20
76.0622710035
 30
0.0
 10
14.9472921503
 20
75.317743413
 30
0.0
 10
14.2508183872
 20
74.4293147049
 30
0.0
 10
13.6636753073
 20
73.4063979711
 30
0.0
 10
13.1900819869
 20
72.2594281424
 30
0.0
 10
12.8336385885
 20
70.9988750841
 30
0.0
 10
12.5984383099
 20
69.6365781163
 30
0.0
 10
12.5242026796
 20
68.6931026784
 30
0.0
 10
12.5055073588
 20
68.2086877847
 30
0.0
  0
SPLINE
  5
2E7
100
AcDbEntity
  8
0
100
AcDbSpline
 62
7
  6
BYLAYER
 70
0
 71
3
 72
14
 73
10
 74
0
 42
0.0000001
 43
0.0000001
 44
0.0000000001
 40
0.0
 40
0.0
 40
0.0
 40
0.0
 40
0.1094784349
 40
0.2198536512
 40
0.3333812582
 40
0.4519984117
 40
0.577194928
 40
0.7100386154
 40
1.0
 40
1.0
 40
1.0
 40
1.0
 10
21.5193911441
 20
67.0276601597
 30
0.0
 10
21.6558148746
 20
67.1218989096
 30
0.0
 10
21.9474769084
 20
67.2869357733
 30
0.0
 10
22.4269392071
 20
67.4532183464
 30
0.0
 10
22.9415700188
 20
67.5359822403
 30
0.0
 10
23.4848687323
 20
67.5350552756
 30
0.0
 10
24.0509940254
 20
67.4511732246
 30
0.0
 10
24.851041991
 20
67.2237571012
 30
0.0
 10
25.4319441154
 20
66.9402055401
 30
0.0
 10
25.8093718111
 20
66.7156941755
 30
0.0
  0
SPLINE
  5
2E8
100
AcDbEntity
  8
0
100
AcDbSpline
 62
7
  6
BYLAYER
 70
0
 71
3
 72
22
 73
18
 74
0
 42
0.0000001
 43
0.0000001
 44
0.0000000001
 40
0.0
 40
0.0
 40
0.0
 40
0.0
 40
0.1295154934
 40
0.1994868136
 40
0.2717398649
 40
0.3452666524
 40
0.4190022336
 40
0.4918691561
 40
0.5628318391
 40
0.6309501565
 40
0.6954374075
 40
0.7557289853
 40
0.8115585494
 40
0.8630468905
 40
0.91079181
 40
0.9559174405
 40
1.0
 40
1.0
 40
1.0
 40
1.0
 10
25.8093906918
 20
66.7156895723
 30
0.0
 10
26.4486006402
 20
66.3574909087
 30
0.0
 10
27.3604841757
 20
65.6701457592
 30
0.0
 10
28.4349564059
 20
64.5692799831
 30
0.0
 10
29.2014440737
 20
63.6166238604
 30
0.0
 10
29.8888689717
 20
62.5803973333
 30
0.0
 10
30.4823797584
 20
61.4836074066
 30
0.0
 10
30.9685555861
 20
60.3509366158
 30
0.0
 10
31.3365080412
 20
59.2077203146
 30
0.0
 10
31.5779457835
 20
58.0794601662
 30
0.0
 10
31.6873416743
 20
56.9911384244
 30
0.0
 10
31.6619721959
 20
55.9666169859
 30
0.0
 10
31.5015754546
 20
55.0281187071
 30
0.0
 10
31.2080554641
 20
54.1961696215
 30
0.0
 10
30.7850197967
 20
53.4900247405
 30
0.0
 10
30.2398965738
 20
52.929105583
 30
0.0
 10
29.8030744984
 20
52.6636487833
 30
0.0
 10
29.5752858925
 20
52.562106336
 30
0.0
  0
SPLINE
  5
2E9
100
AcDbEntity
  8
0
100
AcDbSpline
 62
7
  6
BYLAYER
 70
0
 71
3
 72
10
 73
6
 74
0
 42
0.0000001
 43
0.0000001
 44
0.0000000001
 40
0.0
 40
0.0
 40
0.0
 40
0.0
 40
0.2385358243
 40
0.4833239598
 40
1.0
 40
1.0
 40
1.0
 40
1.0
 10
29.4250228956
 20
52.49993738
 30
0.0
 10
29.290250536
 20
52.4483805124
 30
0.0
 10
29.0092788322
 20
52.3633526523
 30
0.0
 10
28.410476853
 20
52.2684762439
 30
0.0
 10
27.9443658224
 20
52.2862357374
 30
0.0
 10
27.6349654072
 20
52.3305117743
 30
0.0
  0
SPLINE
  5
2EA
100
AcDbEntity
  8
0
100
AcDbSpline
 62
7
  6
BYLAYER
 70
0
 71
3
 72
17
 73
13
 74
0
 42
0.0000001
 43
0.0000001
 44
0.0000000001
 40
0.0
 40
0.0
 40
0.0
 40
0.0
 40
0.1155508423
 40
0.1765882648
 40
0.2394140479
 40
0.3690467099
 40
0.5016033614
 40
0.6339369734
 40
0.7629179434
 40
0.8252732671
 40
0.8857564839
 40
1.0
 40
1.0
 40
1.0
 40
1.0
 10
39.3911636501
 20
52.6865980652
 30
0.0
 10
39.3818244345
 20
53.7491683951
 30
0.0
 10
39.2313832276
 20
55.374280661
 30
0.0
 10
38.8006024841
 20
57.5343199712
 30
0.0
 10
38.1941827165
 20
59.786899615
 30
0.0
 10
37.1444493177
 20
62.5938180938
 30
0.0
 10
35.483181697
 20
65.8279593937
 30
0.0
 10
33.4672744488
 20
68.8466098503
 30
0.0
 10
31.5304263216
 20
71.117331171
 30
0.0
 10
29.8640492203
 20
72.7277942867
 30
0.0
 10
28.1973769207
 20
74.1347660326
 30
0.0
 10
26.8593270391
 20
75.0395255017
 30
0.0
 10
25.9418125021
 20
75.5512916626
 30
0.0
  0
SPLINE
  5
2EB
100
AcDbEntity
  8
0
100
AcDbSpline
 62
7
  6
BYLAYER
 70
0
 71
3
 72
12
 73
8
 74
0
 42
0.0000001
 43
0.0000001
 44
0.0000000001
 40
0.0
 40
0.0
 40
0.0
 40
0.0
 40
0.2366449419
 40
0.4988743521
 40
0.7616867931
 40
0.8853514694
 40
1.0
 40
1.0
 40
1.0
 40
1.0
 10
26.6489022528
 20
76.7620523364
 30
0.0
 10
26.5501552935
 20
76.7044125682
 30
0.0
 10
26.3636828684
 20
76.5455530284
 30
0.0
 10
26.1448417511
 20
76.2468013649
 30
0.0
 10
26.0157999132
 20
75.9579132739
 30
0.0
 10
25.956812933
 20
75.7226246835
 30
0.0
 10
25.944168835
 20
75.6075718324
 30
0.0
 10
25.9433560974
 20
75.5521836375
 30
0.0
  0
SPLINE
  5
2EC
100
AcDbEntity
  8
0
100
AcDbSpline
 62
7
  6
BYLAYER
 70
0
 71
3
 72
11
 73
7
 74
0
 42
0.0000001
 43
0.0000001
 44
0.0000000001
 40
0.0
 40
0.0
 40
0.0
 40
0.0
 40
0.2373216466
 40
0.5005649702
 40
0.7635023093
 40
1.0
 40
1.0
 40
1.0
 40
1.0
 10
39.391171164
 20
52.6865937236
 30
0.0
 10
39.49242396
 20
52.6331686191
 30
0.0
 10
39.7251620999
 20
52.5565680634
 30
0.0
 10
40.0943244976
 20
52.5225174692
 30
0.0
 10
40.4623248373
 20
52.5639828804
 30
0.0
 10
40.69291409
 20
52.6453369502
 30
0.0
 10
40.7925721082
 20
52.7008689229
 30
0.0
  0
SPLINE
  5
2ED
100
AcDbEntity
  8
0
100
AcDbSpline
 62
7
  6
BYLAYER
 70
0
 71
3
 72
9
 73
5
 74
0
 42
0.0000001
 43
0.0000001
 44
0.0000000001
 40
0.0
 40
0.0
 40
0.0
 40
0.0
 40
0.4819214688
 40
1.0
 40
1.0
 40
1.0
 40
1.0
 10
20.8888212432
 20
53.0236123811
 30
0.0
 10
20.8888212432
 20
53.2812687562
 30
0.0
 10
20.8453125839
 20
53.8163040427
 30
0.0
 10
20.7319962184
 20
54.3402843629
 30
0.0
 10
20.6581578577
 20
54.607248756
 30
0.0
  0
SPLINE
  5
2EE
100
AcDbEntity
  8
0
100
AcDbSpline
 62
7
  6
BYLAYER
 70
0
 71
3
 72
9
 73
5
 74
0
 42
0.0000001
 43
0.0000001
 44
0.0000000001
 40
0.0
 40
0.0
 40
0.0
 40
0.0
 40
0.499892887
 40
1.0
 40
1.0
 40
1.0
 40
1.0
 10
20.4135797909
 20
55.3423390996
 30
0.0
 10
20.2589532366
 20
55.7401906535
 30
0.0
 10
19.8869468813
 20
56.5127636343
 30
0.0
 10
19.4060246409
 20
57.2226634642
 30
0.0
 10
19.1397304654
 20
57.5564880186
 30
0.0
  0
SPLINE
  5
2EF
100
AcDbEntity
  8
0
100
AcDbSpline
 62
7
  6
BYLAYER
 70
0
 71
3
 72
15
 73
11
 74
0
 42
0.0000001
 43
0.0000001
 44
0.0000000001
 40
0.0
 40
0.0
 40
0.0
 40
0.0
 40
0.1596866738
 40
0.3098301736
 40
0.4488352251
 40
0.5760185232
 40
0.6919034428
 40
0.7985327666
 40
0.8995941911
 40
1.0
 40
1.0
 40
1.0
 40
1.0
 10
18.635373735
 20
58.1293021325
 30
0.0
 10
18.4616269914
 20
58.3076709814
 30
0.0
 10
18.1065732889
 20
58.6369784671
 30
0.0
 10
17.5404785993
 20
59.0514363573
 30
0.0
 10
16.9685199451
 20
59.3632751127
 30
0.0
 10
16.40451336
 20
59.5641343759
 30
0.0
 10
15.861682052
 20
59.6476508716
 30
0.0
 10
15.353327955
 20
59.6085932758
 30
0.0
 10
14.8953345256
 20
59.4445803117
 30
0.0
 10
14.6377238416
 20
59.2563209918
 30
0.0
 10
14.524903548
 20
59.147764386
 30
0.0
  0
SPLINE
  5
2F0
100
AcDbEntity
  8
0
100
AcDbSpline
 62
7
  6
BYLAYER
 70
0
 71
3
 72
12
 73
8
 74
0
 42
0.0000001
 43
0.0000001
 44
0.0000000001
 40
0.0
 40
0.0
 40
0.0
 40
0.0
 40
0.2897550681
 40
0.5487888449
 40
0.7816008078
 40
0.891778154
 40
1.0
 40
1.0
 40
1.0
 40
1.0
 10
14.4363175219
 20
56.7488828647
 30
0.0
 10
14.4363175219
 20
56.9594942884
 30
0.0
 10
14.4684849349
 20
57.3598304751
 30
0.0
 10
14.6316377551
 20
57.9090810849
 30
0.0
 10
14.8663761019
 20
58.2868667335
 30
0.0
 10
15.1030183874
 20
58.515871531
 30
0.0
 10
15.2348956258
 20
58.6059046718
 30
0.0
 10
15.3034351745
 20
58.6445060233
 30
0.0
  0
SPLINE
  5
2F1
100
AcDbEntity
  8
0
100
AcDbSpline
 62
7
  6
BYLAYER
 70
0
 71
3
 72
17
 73
13
 74
0
 42
0.0000001
 43
0.0000001
 44
0.0000000001
 40
0.0
 40
0.0
 40
0.0
 40
0.0
 40
0.0435985116
 40
0.0901034394
 40
0.140295465
 40
0.1946252941
 40
0.3154197895
 40
0.4499877542
 40
0.5927045309
 40
0.7365710469
 40
0.8743927154
 40
1.0
 40
1.0
 40
1.0
 40
1.0
 10
19.0937175638
 20
51.357321337
 30
0.0
 10
18.9835795258
 20
51.3263328628
 30
0.0
 10
18.7477426689
 20
51.289276088
 30
0.0
 10
18.3779306853
 20
51.3083676418
 30
0.0
 10
17.9902681104
 20
51.3993182656
 30
0.0
 10
17.4400680254
 20
51.6208291021
 30
0.0
 10
16.7543031207
 20
52.0716584267
 30
0.0
 10
16.006303723
 20
52.8081133615
 30
0.0
 10
15.3553752453
 20
53.7072674184
 30
0.0
 10
14.8487547618
 20
54.7044316196
 30
0.0
 10
14.5226066974
 20
55.7271511314
 30
0.0
 10
14.4363175219
 20
56.4192548232
 30
0.0
 10
14.4363175219
 20
56.7488828647
 30
0.0
  0
SPLINE
  5
2F2
100
AcDbEntity
  8
0
100
AcDbSpline
 62
7
  6
BYLAYER
 70
0
 71
3
 72
13
 73
9
 74
0
 42
0.0000001
 43
0.0000001
 44
0.0000000001
 40
0.0
 40
0.0
 40
0.0
 40
0.0
 40
0.3063627845
 40
0.5827953498
 40
0.7037141188
 40
0.811861176
 40
0.9091433849
 40
1.0
 40
1.0
 40
1.0
 40
1.0
 10
19.4531538812
 20
52.1204133796
 30
0.0
 10
19.4146262949
 20
52.187144746
 30
0.0
 10
19.3272805776
 20
52.3064766711
 30
0.0
 10
19.1898582566
 20
52.4221898269
 30
0.0
 10
19.0744735059
 20
52.4772383452
 30
0.0
 10
18.9939418907
 20
52.4966195302
 30
0.0
 10
18.9184226653
 20
52.4947683725
 30
0.0
 10
18.872965759
 20
52.4782069954
 30
0.0
 10
18.8531694237
 20
52.4667916478
 30
0.0
  0
SPLINE
  5
2F3
100
AcDbEntity
  8
0
100
AcDbSpline
 62
7
  6
BYLAYER
 70
0
 71
3
 72
13
 73
9
 74
0
 42
0.0000001
 43
0.0000001
 44
0.0000000001
 40
0.0
 40
0.0
 40
0.0
 40
0.0
 40
0.1114478511
 40
0.2304356392
 40
0.3553519092
 40
0.4844526032
 40
0.7465735083
 40
1.0
 40
1.0
 40
1.0
 40
1.0
 10
21.7372195461
 20
53.3502819827
 30
0.0
 10
21.7372195461
 20
53.5816898226
 30
0.0
 10
21.7034711362
 20
54.0605051317
 30
0.0
 10
21.5659056483
 20
54.7867961846
 30
0.0
 10
21.3426717733
 20
55.5298520508
 30
0.0
 10
20.9363605993
 20
56.5230201253
 30
0.0
 10
20.2615845984
 20
57.6875159526
 30
0.0
 10
19.5625940729
 20
58.5085568728
 30
0.0
 10
19.180474719
 20
58.8703314581
 30
0.0
  0
SPLINE
  5
2F4
100
AcDbEntity
  8
0
100
AcDbSpline
 62
7
  6
BYLAYER
 70
0
 71
3
 72
14
 73
10
 74
0
 42
0.0000001
 43
0.0000001
 44
0.0000000001
 40
0.0
 40
0.0
 40
0.0
 40
0.0
 40
0.3027232884
 40
0.4407199072
 40
0.5688350846
 40
0.6872609464
 40
0.7970743011
 40
0.9003277569
 40
1.0
 40
1.0
 40
1.0
 40
1.0
 10
19.180474719
 20
58.8703314581
 30
0.0
 10
18.8772066263
 20
59.1574529748
 30
0.0
 10
18.3973154409
 20
59.5400354333
 30
0.0
 10
17.7069437657
 20
59.9165116
 30
0.0
 10
17.2103795017
 20
60.1082774688
 30
0.0
 10
16.727978573
 20
60.2138980313
 30
0.0
 10
16.2680698561
 20
60.2305156061
 30
0.0
 10
15.8396682645
 20
60.1563275175
 30
0.0
 10
15.5793577742
 20
60.0451978471
 30
0.0
 10
15.460275381
 20
59.9764471506
 30
0.0
  0
SPLINE
  5
2F5
100
AcDbEntity
  8
0
100
AcDbSpline
 62
7
  6
BYLAYER
 70
0
 71
3
 72
15
 73
11
 74
0
 42
0.0000001
 43
0.0000001
 44
0.0000000001
 40
0.0
 40
0.0
 40
0.0
 40
0.0
 40
0.1140005624
 40
0.2338597689
 40
0.3584005741
 40
0.4862480545
 40
0.6159026673
 40
0.7457817554
 40
0.8743354918
 40
1.0
 40
1.0
 40
1.0
 40
1.0
 10
69.0184009485
 20
98.7777591781
 30
0.0
 10
69.5229641741
 20
98.4346676949
 30
0.0
 10
70.5197562267
 20
97.6733836442
 30
0.0
 10
71.9277889141
 20
96.366999331
 30
0.0
 10
73.2657633811
 20
94.8874597118
 30
0.0
 10
74.5094179157
 20
93.261585791
 30
0.0
 10
75.6363208128
 20
91.5186942449
 30
0.0
 10
76.6262907592
 20
89.6902069747
 30
0.0
 10
77.4611568465
 20
87.8093399307
 30
0.0
 10
77.9113153518
 20
86.5233272356
 30
0.0
 10
78.1056243608
 20
85.8794173928
 30
0.0
  0
SPLINE
  5
2F6
100
AcDbEntity
  8
0
100
AcDbSpline
 62
7
  6
BYLAYER
 70
0
 71
3
 72
16
 73
12
 74
0
 42
0.0000001
 43
0.0000001
 44
0.0000000001
 40
0.0
 40
0.0
 40
0.0
 40
0.0
 40
0.119987408
 40
0.2508349302
 40
0.3882024496
 40
0.5268919091
 40
0.661561381
 40
0.7873556557
 40
0.845788374
 40
0.9007861715
 40
1.0
 40
1.0
 40
1.0
 40
1.0
 10
22.3357182415
 20
53.8591209645
 30
0.0
 10
22.3357182415
 20
54.2067097675
 30
0.0
 10
22.2564882911
 20
54.9341467389
 30
0.0
 10
21.9499811649
 20
56.0203064481
 30
0.0
 10
21.4670509108
 20
57.0999706493
 30
0.0
 10
20.8345674599
 20
58.1122588443
 30
0.0
 10
20.0881620769
 20
59.0004879457
 30
0.0
 10
19.3885628594
 20
59.6111981586
 30
0.0
 10
18.8062202396
 20
59.9892560773
 30
0.0
 10
18.2571002763
 20
60.2691600152
 30
0.0
 10
17.8234429719
 20
60.4035715716
 30
0.0
 10
17.5386686346
 20
60.4424077963
 30
0.0
  0
SPLINE
  5
2F7
100
AcDbEntity
  8
0
100
AcDbSpline
 62
7
  6
BYLAYER
 70
0
 71
3
 72
9
 73
5
 74
0
 42
0.0000001
 43
0.0000001
 44
0.0000000001
 40
0.0
 40
0.0
 40
0.0
 40
0.0
 40
0.2453541365
 40
1.0
 40
1.0
 40
1.0
 40
1.0
 10
77.8535206146
 20
75.4460921345
 30
0.0
 10
77.8836486024
 20
75.5197808925
 30
0.0
 10
78.0021107075
 20
75.8218772182
 30
0.0
 10
78.103456022
 20
76.1306276973
 30
0.0
 10
78.1708888028
 20
76.3660186598
 30
0.0
  0
SPLINE
  5
2F8
100
AcDbEntity
  8
0
100
AcDbSpline
 62
7
  6
BYLAYER
 70
0
 71
3
 72
11
 73
7
 74
0
 42
0.0000001
 43
0.0000001
 44
0.0000000001
 40
0.0
 40
0.0
 40
0.0
 40
0.0
 40
0.2202106472
 40
0.4614765147
 40
0.7224222125
 40
1.0
 40
1.0
 40
1.0
 40
1.0
 10
78.1708888028
 20
76.3660186598
 30
0.0
 10
78.3530024972
 20
77.0017319931
 30
0.0
 10
78.5983677397
 20
78.3746351923
 30
0.0
 10
78.6328482731
 20
80.5508718034
 30
0.0
 10
78.3531601477
 20
82.8819773621
 30
0.0
 10
77.9721014429
 20
84.4575998742
 30
0.0
 10
77.7344515958
 20
85.2565601137
 30
0.0
  0
SPLINE
  5
2F9
100
AcDbEntity
  8
0
100
AcDbSpline
 62
7
  6
BYLAYER
 70
0
 71
3
 72
11
 73
7
 74
0
 42
0.0000001
 43
0.0000001
 44
0.0000000001
 40
0.0
 40
0.0
 40
0.0
 40
0.0
 40
0.288183936
 40
0.5492067029
 40
0.7841740142
 40
1.0
 40
1.0
 40
1.0
 40
1.0
 10
77.9691355458
 20
55.6333123829
 30
0.0
 10
78.006307745
 20
55.6526827057
 30
0.0
 10
78.0747538679
 20
55.6945739188
 30
0.0
 10
78.1611156814
 20
55.7701045223
 30
0.0
 10
78.2235125724
 20
55.8538467236
 30
0.0
 10
78.2481656263
 20
55.9157127436
 30
0.0
 10
78.2551836216
 20
55.9463101144
 30
0.0
  0
SPLINE
  5
2FA
100
AcDbEntity
  8
0
100
AcDbSpline
 62
7
  6
BYLAYER
 70
0
 71
3
 72
11
 73
7
 74
0
 42
0.0000001
 43
0.0000001
 44
0.0000000001
 40
0.0
 40
0.0
 40
0.0
 40
0.0
 40
0.288094897
 40
0.5473332511
 40
0.7810768076
 40
1.0
 40
1.0
 40
1.0
 40
1.0
 10
42.211710258
 20
40.3324552039
 30
0.0
 10
42.2128799226
 20
40.2802019585
 30
0.0
 10
42.2232539354
 20
40.1807737912
 30
0.0
 10
42.2671714275
 20
40.0447123418
 30
0.0
 10
42.338416626
 20
39.9348565812
 30
0.0
 10
42.4040355286
 20
39.8825276118
 30
0.0
 10
42.4388762973
 20
39.8634599919
 30
0.0
  0
SPLINE
  5
2FB
100
AcDbEntity
  8
0
100
AcDbSpline
 62
7
  6
BYLAYER
 70
0
 71
3
 72
11
 73
7
 74
0
 42
0.0000001
 43
0.0000001
 44
0.0000000001
 40
0.0
 40
0.0
 40
0.0
 40
0.0
 40
0.2176111673
 40
0.4509776898
 40
0.7108820233
 40
1.0
 40
1.0
 40
1.0
 40
1.0
 10
63.6880504839
 20
97.9106112066
 30
0.0
 10
63.6550521772
 20
97.9290179813
 30
0.0
 10
63.579521877
 20
97.955399103
 30
0.0
 10
63.4544828695
 20
97.9576946056
 30
0.0
 10
63.3213418901
 20
97.9254113064
 30
0.0
 10
63.2345711413
 20
97.8844299468
 30
0.0
 10
63.1910950409
 20
97.8593308396
 30
0.0
  0
SPLINE
  5
2FC
100
AcDbEntity
  8
0
100
AcDbSpline
 62
7
  6
BYLAYER
 70
0
 71
3
 72
11
 73
7
 74
0
 42
0.0000001
 43
0.0000001
 44
0.0000000001
 40
0.0
 40
0.0
 40
0.0
 40
0.0
 40
0.2364352153
 40
0.4983524089
 40
0.7611676684
 40
1.0
 40
1.0
 40
1.0
 40
1.0
 10
42.6504194618
 20
52.7308815873
 30
0.0
 10
42.5501974982
 20
52.673018755
 30
0.0
 10
42.3610703541
 20
52.5123589733
 30
0.0
 10
42.1431550054
 20
52.2065770758
 30
0.0
 10
41.9973238528
 20
51.8592908161
 30
0.0
 10
41.9592095143
 20
51.6125985191
 30
0.0
 10
41.9618255993
 20
51.4957283141
 30
0.0
  0
SPLINE
  5
2FD
100
AcDbEntity
  8
0
100
AcDbSpline
 62
7
  6
BYLAYER
 70
0
 71
3
 72
11
 73
7
 74
0
 42
0.0000001
 43
0.0000001
 44
0.0000000001
 40
0.0
 40
0.0
 40
0.0
 40
0.0
 40
0.1826618054
 40
0.4023326778
 40
0.6748641156
 40
1.0
 40
1.0
 40
1.0
 40
1.0
 10
67.630908949
 20
94.8655880536
 30
0.0
 10
67.6073686484
 20
94.8880338795
 30
0.0
 10
67.5402967738
 20
94.921973033
 30
0.0
 10
67.4180466771
 20
94.9260631475
 30
0.0
 10
67.2752477483
 20
94.8931492611
 30
0.0
 10
67.177083899
 20
94.8506841694
 30
0.0
 10
67.1255671882
 20
94.8242639539
 30
0.0
  0
SPLINE
  5
2FE
100
AcDbEntity
  8
0
100
AcDbSpline
 62
7
  6
BYLAYER
 70
0
 71
3
 72
11
 73
7
 74
0
 42
0.0000001
 43
0.0000001
 44
0.0000000001
 40
0.0
 40
0.0
 40
0.0
 40
0.0
 40
0.287004093
 40
0.5452919299
 40
0.7797739574
 40
1.0
 40
1.0
 40
1.0
 40
1.0
 10
42.7652725113
 20
39.6006727288
 30
0.0
 10
42.7213835748
 20
39.5753335907
 30
0.0
 10
42.6335220424
 20
39.5342369054
 30
0.0
 10
42.4981337758
 20
39.503210414
 30
0.0
 10
42.3706906612
 20
39.5070357899
 30
0.0
 10
42.2934488249
 20
39.5347998861
 30
0.0
 10
42.2597717956
 20
39.5542435463
 30
0.0
  0
SPLINE
  5
2FF
100
AcDbEntity
  8
0
100
AcDbSpline
 62
7
  6
BYLAYER
 70
0
 71
3
 72
11
 73
7
 74
0
 42
0.0000001
 43
0.0000001
 44
0.0000000001
 40
0.0
 40
0.0
 40
0.0
 40
0.0
 40
0.2391462975
 40
0.5016497367
 40
0.7632433668
 40
1.0
 40
1.0
 40
1.0
 40
1.0
 10
76.6877467228
 20
60.0233012339
 30
0.0
 10
76.6903656307
 20
59.9063049222
 30
0.0
 10
76.6508852938
 20
59.6599629312
 30
0.0
 10
76.5070438513
 20
59.3121065902
 30
0.0
 10
76.2875957594
 20
59.0077241074
 30
0.0
 10
76.0994874601
 20
58.8460758232
 30
0.0
 10
75.9991528603
 20
58.7881479608
 30
0.0
  0
SPLINE
  5
300
100
AcDbEntity
  8
0
100
AcDbSpline
 62
7
  6
BYLAYER
 70
0
 71
3
 72
9
 73
5
 74
0
 42
0.0000001
 43
0.0000001
 44
0.0000000001
 40
0.0
 40
0.0
 40
0.0
 40
0.0
 40
0.4944905894
 40
1.0
 40
1.0
 40
1.0
 40
1.0
 10
58.591849969
 20
100.1450143537
 30
0.0
 10
58.8831311248
 20
100.3132063263
 30
0.0
 10
59.5053969512
 20
100.5986690373
 30
0.0
 10
60.1687213229
 20
100.7661887792
 30
0.0
 10
60.5079761906
 20
100.8222021501
 30
0.0
  0
SPLINE
  5
301
100
AcDbEntity
  8
0
100
AcDbSpline
 62
7
  6
BYLAYER
 70
0
 71
3
 72
10
 73
6
 74
0
 42
0.0000001
 43
0.0000001
 44
0.0000000001
 40
0.0
 40
0.0
 40
0.0
 40
0.0
 40
0.2342485739
 40
0.4780473468
 40
1.0
 40
1.0
 40
1.0
 40
1.0
 10
60.5079761906
 20
100.8222021501
 30
0.0
 10
60.7833417467
 20
100.8676669451
 30
0.0
 10
61.3522336163
 20
100.9223810594
 30
0.0
 10
62.5453487554
 20
100.8888252769
 30
0.0
 10
63.447880482
 20
100.7040370142
 30
0.0
 10
64.0436382157
 20
100.5257033424
 30
0.0
  0
SPLINE
  5
302
100
AcDbEntity
  8
0
100
AcDbSpline
 62
7
  6
BYLAYER
 70
0
 71
3
 72
15
 73
11
 74
0
 42
0.0000001
 43
0.0000001
 44
0.0000000001
 40
0.0
 40
0.0
 40
0.0
 40
0.0
 40
0.1023792052
 40
0.2147341053
 40
0.3360684281
 40
0.4645878964
 40
0.5979561408
 40
0.7335119219
 40
0.8684441187
 40
1.0
 40
1.0
 40
1.0
 40
1.0
 10
64.0436382157
 20
100.5257033424
 30
0.0
 10
64.7370090832
 20
100.3181502286
 30
0.0
 10
66.1479351392
 20
99.7319912913
 30
0.0
 10
68.1741152789
 20
98.4766945271
 30
0.0
 10
70.1545161118
 20
96.8424575378
 30
0.0
 10
72.0293686752
 20
94.8789611476
 30
0.0
 10
73.7426981588
 20
92.6455983953
 30
0.0
 10
75.2422927285
 20
90.210231568
 30
0.0
 10
76.4823932763
 20
87.6476176147
 30
0.0
 10
77.1234399994
 20
85.8714286903
 30
0.0
 10
77.3885959757
 20
84.9799949909
 30
0.0
  0
SPLINE
  5
303
100
AcDbEntity
  8
0
100
AcDbSpline
 62
7
  6
BYLAYER
 70
0
 71
3
 72
9
 73
5
 74
0
 42
0.0000001
 43
0.0000001
 44
0.0000000001
 40
0.0
 40
0.0
 40
0.0
 40
0.0
 40
0.247504602
 40
1.0
 40
1.0
 40
1.0
 40
1.0
 10
59.4926333596
 20
99.5413984008
 30
0.0
 10
59.4785496271
 20
99.5441437027
 30
0.0
 10
59.4211643481
 20
99.5526727651
 30
0.0
 10
59.3623157373
 20
99.5506715796
 30
0.0
 10
59.3192376814
 20
99.5437846874
 30
0.0
  0
SPLINE
  5
304
100
AcDbEntity
  8
0
100
AcDbSpline
 62
7
  6
BYLAYER
 70
0
 71
3
 72
9
 73
5
 74
0
 42
0.0000001
 43
0.0000001
 44
0.0000000001
 40
0.0
 40
0.0
 40
0.0
 40
0.0
 40
0.2415309987
 40
1.0
 40
1.0
 40
1.0
 40
1.0
 10
59.3192376814
 20
99.5437846874
 30
0.0
 10
59.3002937196
 20
99.5407561147
 30
0.0
 10
59.222561038
 20
99.5239582293
 30
0.0
 10
59.1486955667
 20
99.4908204518
 30
0.0
 10
59.0973954849
 20
99.4592344185
 30
0.0
  0
SPLINE
  5
305
100
AcDbEntity
  8
0
100
AcDbSpline
 62
7
  6
BYLAYER
 70
0
 71
3
 72
11
 73
7
 74
0
 42
0.0000001
 43
0.0000001
 44
0.0000000001
 40
0.0
 40
0.0
 40
0.0
 40
0.0
 40
0.233730993
 40
0.4748633291
 40
0.7289834385
 40
1.0
 40
1.0
 40
1.0
 40
1.0
 10
53.0900098083
 20
98.7913326721
 30
0.0
 10
53.4934626963
 20
99.0221949442
 30
0.0
 10
54.3652967738
 20
99.4054787522
 30
0.0
 10
55.7913094659
 20
99.7116212004
 30
0.0
 10
57.3222747987
 20
99.7524736452
 30
0.0
 10
58.3615280272
 20
99.6094120592
 30
0.0
 10
58.8891903995
 20
99.4995050847
 30
0.0
  0
SPLINE
  5
306
100
AcDbEntity
  8
0
100
AcDbSpline
 62
7
  6
BYLAYER
 70
0
 71
3
 72
9
 73
5
 74
0
 42
0.0000001
 43
0.0000001
 44
0.0000000001
 40
0.0
 40
0.0
 40
0.0
 40
0.0
 40
0.2451135621
 40
1.0
 40
1.0
 40
1.0
 40
1.0
 10
39.5097511056
 20
37.4589173429
 30
0.0
 10
39.5160557303
 20
37.4553202659
 30
0.0
 10
39.541940491
 20
37.4409327882
 30
0.0
 10
39.5684471869
 20
37.4276709357
 30
0.0
 10
39.5887199291
 20
37.4182505083
 30
0.0
  0
SPLINE
  5
307
100
AcDbEntity
  8
0
100
AcDbSpline
 62
7
  6
BYLAYER
 70
0
 71
3
 72
11
 73
7
 74
0
 42
0.0000001
 43
0.0000001
 44
0.0000000001
 40
0.0
 40
0.0
 40
0.0
 40
0.0
 40
0.2424812345
 40
0.5024940659
 40
0.7613382862
 40
1.0
 40
1.0
 40
1.0
 40
1.0
 10
39.5887199291
 20
37.4182505083
 30
0.0
 10
39.6810383225
 20
37.3753515897
 30
0.0
 10
39.8840524491
 20
37.3109616593
 30
0.0
 10
40.2032399919
 20
37.2745283074
 30
0.0
 10
40.5222019992
 20
37.2946991489
 30
0.0
 10
40.7263239381
 20
37.3472086319
 30
0.0
 10
40.8194651386
 20
37.3841385479
 30
0.0
  0
SPLINE
  5
308
100
AcDbEntity
  8
0
100
AcDbSpline
 62
7
  6
BYLAYER
 70
0
 71
3
 72
9
 73
5
 74
0
 42
0.0000001
 43
0.0000001
 44
0.0000000001
 40
0.0
 40
0.0
 40
0.0
 40
0.0
 40
0.256455493
 40
1.0
 40
1.0
 40
1.0
 40
1.0
 10
40.8194651386
 20
37.3841385479
 30
0.0
 10
40.8274934741
 20
37.3873217338
 30
0.0
 10
40.8586575797
 20
37.4000841437
 30
0.0
 10
40.889245324
 20
37.4142711494
 30
0.0
 10
40.9115218411
 20
37.4257050711
 30
0.0
  0
SPLINE
  5
309
100
AcDbEntity
  8
0
100
AcDbSpline
 62
7
  6
BYLAYER
 70
0
 71
3
 72
15
 73
11
 74
0
 42
0.0000001
 43
0.0000001
 44
0.0000000001
 40
0.0
 40
0.0
 40
0.0
 40
0.0
 40
0.1086275217
 40
0.2189859634
 40
0.3329854033
 40
0.4522308806
 40
0.5779248693
 40
0.7108835727
 40
0.8515869297
 40
1.0
 40
1.0
 40
1.0
 40
1.0
 10
16.7415599368
 20
77.8057659011
 30
0.0
 10
17.0689540118
 20
77.9948012165
 30
0.0
 10
17.7630926778
 20
78.319882692
 30
0.0
 10
18.8851717065
 20
78.6290715574
 30
0.0
 10
20.0788065431
 20
78.7587962164
 30
0.0
 10
21.3311136175
 20
78.7087707032
 30
0.0
 10
22.6299704919
 20
78.4809985706
 30
0.0
 10
23.9633175838
 20
78.0783151483
 30
0.0
 10
25.3184747252
 20
77.5053352594
 30
0.0
 10
26.2051401366
 20
77.0262843979
 30
0.0
 10
26.6488312049
 20
76.7618544978
 30
0.0
  0
SPLINE
  5
30A
100
AcDbEntity
  8
0
100
AcDbSpline
 62
7
  6
BYLAYER
 70
0
 71
3
 72
15
 73
11
 74
0
 42
0.0000001
 43
0.0000001
 44
0.0000000001
 40
0.0
 40
0.0
 40
0.0
 40
0.0
 40
0.1142522945
 40
0.2370460013
 40
0.3660688335
 40
0.4984454945
 40
0.6310382428
 40
0.7606924494
 40
0.8844807698
 40
1.0
 40
1.0
 40
1.0
 40
1.0
 10
26.6488312049
 20
76.7618544978
 30
0.0
 10
27.6132284464
 20
76.2224970799
 30
0.0
 10
29.5176082522
 20
74.9262708399
 30
0.0
 10
32.1398675399
 20
72.5334777782
 30
0.0
 10
34.5545638318
 20
69.6971961069
 30
0.0
 10
36.6737724825
 20
66.5204130492
 30
0.0
 10
38.4211590585
 20
63.1180549873
 30
0.0
 10
39.7333351603
 20
59.6129944789
 30
0.0
 10
40.5627698408
 20
56.1328073471
 30
0.0
 10
40.7823812263
 20
53.8180497484
 30
0.0
 10
40.7925717912
 20
52.700868824
 30
0.0
  0
SPLINE
  5
30B
100
AcDbEntity
  8
0
100
AcDbSpline
 62
7
  6
BYLAYER
 70
0
 71
3
 72
21
 73
17
 74
0
 42
0.0000001
 43
0.0000001
 44
0.0000000001
 40
0.0
 40
0.0
 40
0.0
 40
0.0
 40
0.0623959824
 40
0.1287858117
 40
0.19840041
 40
0.2704090013
 40
0.4174481707
 40
0.561680109
 40
0.630306914
 40
0.69542376
 40
0.7563977367
 40
0.8128593245
 40
0.864783637
 40
0.9125799898
 40
0.9571738813
 40
1.0
 40
1.0
 40
1.0
 40
1.0
 10
24.5656396053
 20
54.3300706714
 30
0.0
 10
24.5656396053
 20
54.5789296926
 30
0.0
 10
24.5318562094
 20
55.0929158009
 30
0.0
 10
24.393185028
 20
55.8732953828
 30
0.0
 10
24.1675335969
 20
56.6730201115
 30
0.0
 10
23.7545867897
 20
57.7491058903
 30
0.0
 10
23.0614492262
 20
59.0296946909
 30
0.0
 10
22.1730969107
 20
60.1673550071
 30
0.0
 10
21.3734875583
 20
60.9376116277
 30
0.0
 10
20.7607733819
 20
61.4173073476
 30
0.0
 10
20.1381251959
 20
61.7982193253
 30
0.0
 10
19.5181677284
 20
62.0721929348
 30
0.0
 10
18.9132614002
 20
62.2329416958
 30
0.0
 10
18.3352508368
 20
62.2754969463
 30
0.0
 10
17.7970117622
 20
62.1965543543
 30
0.0
 10
17.4709157915
 20
62.0610823557
 30
0.0
 10
17.3230019124
 20
61.9756628582
 30
0.0
  0
SPLINE
  5
30C
100
AcDbEntity
  8
0
100
AcDbSpline
 62
7
  6
BYLAYER
 70
0
 71
3
 72
9
 73
5
 74
0
 42
0.0000001
 43
0.0000001
 44
0.0000000001
 40
0.0
 40
0.0
 40
0.0
 40
0.0
 40
0.5157434393
 40
1.0
 40
1.0
 40
1.0
 40
1.0
 10
63.1910950662
 20
97.8593315283
 30
0.0
 10
62.5835175177
 20
98.1984084678
 30
0.0
 10
61.3657700774
 20
98.7875536082
 30
0.0
 10
60.0816696598
 20
99.2170213159
 30
0.0
 10
59.448095988
 20
99.376393912
 30
0.0
  0
SPLINE
  5
30D
100
AcDbEntity
  8
0
100
AcDbSpline
 62
7
  6
BYLAYER
 70
0
 71
3
 72
9
 73
5
 74
0
 42
0.0000001
 43
0.0000001
 44
0.0000000001
 40
0.0
 40
0.0
 40
0.0
 40
0.0
 40
0.5140321073
 40
1.0
 40
1.0
 40
1.0
 40
1.0
 10
67.125575374
 20
94.8242665507
 30
0.0
 10
66.5549329343
 20
95.364948514
 30
0.0
 10
65.3995731931
 20
96.370242963
 30
0.0
 10
64.1524677534
 20
97.2611433352
 30
0.0
 10
63.5229236877
 20
97.6561223502
 30
0.0
  0
SPLINE
  5
30E
100
AcDbEntity
  8
0
100
AcDbSpline
 62
7
  6
BYLAYER
 70
0
 71
3
 72
11
 73
7
 74
0
 42
0.0000001
 43
0.0000001
 44
0.0000000001
 40
0.0
 40
0.0
 40
0.0
 40
0.0
 40
0.285108001
 40
0.5448516783
 40
0.7811300361
 40
1.0
 40
1.0
 40
1.0
 40
1.0
 10
23.1514260429
 20
54.3300672721
 30
0.0
 10
23.1514260429
 20
54.1129842925
 30
0.0
 10
23.1229276839
 20
53.6971769188
 30
0.0
 10
22.9811631271
 20
53.1159832551
 30
0.0
 10
22.7438132767
 20
52.6211507713
 30
0.0
 10
22.5176231219
 20
52.3520697847
 30
0.0
 10
22.3930394226
 20
52.2413865952
 30
0.0
  0
SPLINE
  5
30F
100
AcDbEntity
  8
0
100
AcDbSpline
 62
7
  6
BYLAYER
 70
0
 71
3
 72
11
 73
7
 74
0
 42
0.0000001
 43
0.0000001
 44
0.0000000001
 40
0.0
 40
0.0
 40
0.0
 40
0.0
 40
0.2148628519
 40
0.4468459598
 40
0.7074076757
 40
1.0
 40
1.0
 40
1.0
 40
1.0
 10
11.6669562689
 20
53.7658938806
 30
0.0
 10
11.6663127772
 20
53.7296413455
 30
0.0
 10
11.6788705514
 20
53.6534762239
 30
0.0
 10
11.7363668179
 20
53.5469337863
 30
0.0
 10
11.8282792223
 20
53.4498983843
 30
0.0
 10
11.9053931515
 20
53.3962397766
 30
0.0
 10
11.948023255
 20
53.3713283499
 30
0.0
  0
SPLINE
  5
310
100
AcDbEntity
  8
0
100
AcDbSpline
 62
7
  6
BYLAYER
 70
0
 71
3
 72
11
 73
7
 74
0
 42
0.0000001
 43
0.0000001
 44
0.0000000001
 40
0.0
 40
0.0
 40
0.0
 40
0.0
 40
0.2181954165
 40
0.4515644641
 40
0.7109761397
 40
1.0
 40
1.0
 40
1.0
 40
1.0
 10
12.2254925195
 20
68.6329732761
 30
0.0
 10
12.2240483487
 20
68.59438913
 30
0.0
 10
12.2351293112
 20
68.5134614794
 30
0.0
 10
12.2917052036
 20
68.3991459018
 30
0.0
 10
12.3839493749
 20
68.2943992913
 30
0.0
 10
12.4622044218
 20
68.2359183978
 30
0.0
 10
12.5055000274
 20
68.2086920347
 30
0.0
  0
SPLINE
  5
311
100
AcDbEntity
  8
0
100
AcDbSpline
 62
7
  6
BYLAYER
 70
0
 71
3
 72
10
 73
6
 74
0
 42
0.0000001
 43
0.0000001
 44
0.0000000001
 40
0.0
 40
0.0
 40
0.0
 40
0.0
 40
0.4974261147
 40
0.7475703077
 40
1.0
 40
1.0
 40
1.0
 40
1.0
 10
58.8892032023
 20
99.4995023444
 30
0.0
 10
58.9539056328
 20
99.5374255001
 30
0.0
 10
59.0615382007
 20
99.580231308
 30
0.0
 10
59.2127488307
 20
99.5921598146
 30
0.0
 10
59.288526195
 20
99.5815051633
 30
0.0
 10
59.3254223235
 20
99.5721693424
 30
0.0
  0
SPLINE
  5
312
100
AcDbEntity
  8
0
100
AcDbSpline
 62
7
  6
BYLAYER
 70
0
 71
3
 72
13
 73
9
 74
0
 42
0.0000001
 43
0.0000001
 44
0.0000000001
 40
0.0
 40
0.0
 40
0.0
 40
0.0
 40
0.1095375517
 40
0.2208544353
 40
0.3356846532
 40
0.4554951488
 40
0.7135297873
 40
1.0
 40
1.0
 40
1.0
 40
1.0
 10
29.4933202794
 20
52.8432532171
 30
0.0
 10
29.6287435256
 20
52.92156491
 30
0.0
 10
29.889250108
 20
53.1023518937
 30
0.0
 10
30.2348617912
 20
53.4373707751
 30
0.0
 10
30.5335524855
 20
53.8332971782
 30
0.0
 10
30.8737437708
 20
54.4515742419
 30
0.0
 10
31.1602854705
 20
55.3661605856
 30
0.0
 10
31.2332485775
 20
56.1453602525
 30
0.0
 10
31.2384633839
 20
56.5544489301
 30
0.0
  0
SPLINE
  5
313
100
AcDbEntity
  8
0
100
AcDbSpline
 62
7
  6
BYLAYER
 70
0
 71
3
 72
12
 73
8
 74
0
 42
0.0000001
 43
0.0000001
 44
0.0000000001
 40
0.0
 40
0.0
 40
0.0
 40
0.0
 40
0.2895690011
 40
0.5486383023
 40
0.7816332149
 40
0.8918370573
 40
1.0
 40
1.0
 40
1.0
 40
1.0
 10
28.6668418611
 20
56.6978867639
 30
0.0
 10
28.6668418611
 20
56.3937838678
 30
0.0
 10
28.6207474072
 20
55.8155498448
 30
0.0
 10
28.386984011
 20
55.0215329186
 30
0.0
 10
28.0509619557
 20
54.4737118053
 30
0.0
 10
27.7116759332
 20
54.139984671
 30
0.0
 10
27.5225300797
 20
54.0079901947
 30
0.0
 10
27.4241628522
 20
53.9511836314
 30
0.0
  0
SPLINE
  5
314
100
AcDbEntity
  8
0
100
AcDbSpline
 62
7
  6
BYLAYER
 70
0
 71
3
 72
12
 73
8
 74
0
 42
0.0000001
 43
0.0000001
 44
0.0000000001
 40
0.0
 40
0.0
 40
0.0
 40
0.0
 40
0.1079116299
 40
0.218324157
 40
0.4522578707
 40
0.7115880621
 40
1.0
 40
1.0
 40
1.0
 40
1.0
 10
29.4742869815
 20
52.8375882991
 30
0.0
 10
29.5956792815
 20
52.9175821311
 30
0.0
 10
29.8284103622
 20
53.0999223526
 30
0.0
 10
30.2442614106
 20
53.5481439869
 30
0.0
 10
30.6539007407
 20
54.2639878241
 30
0.0
 10
30.9394803131
 20
55.2856766221
 30
0.0
 10
30.9961204276
 20
56.0259827711
 30
0.0
 10
30.9961204413
 20
56.4145330022
 30
0.0
  0
SPLINE
  5
315
100
AcDbEntity
  8
0
100
AcDbSpline
 62
7
  6
BYLAYER
 70
0
 71
3
 72
11
 73
7
 74
0
 42
0.0000001
 43
0.0000001
 44
0.0000000001
 40
0.0
 40
0.0
 40
0.0
 40
0.0
 40
0.2415913137
 40
0.4911229183
 40
0.745152929
 40
1.0
 40
1.0
 40
1.0
 40
1.0
 10
67.4993191203
 20
94.4581190999
 30
0.0
 10
68.1583041851
 20
93.8176905734
 30
0.0
 10
69.4360428228
 20
92.4508342225
 30
0.0
 10
71.1864134203
 20
90.2175792861
 30
0.0
 10
72.7742378919
 20
87.8055078183
 30
0.0
 10
73.7054704499
 20
86.1058139518
 30
0.0
 10
74.1359786802
 20
85.2373222299
 30
0.0
  0
SPLINE
  5
316
100
AcDbEntity
  8
0
100
AcDbSpline
 62
7
  6
BYLAYER
 70
0
 71
3
 72
21
 73
17
 74
0
 42
0.0000001
 43
0.0000001
 44
0.0000000001
 40
0.0
 40
0.0
 40
0.0
 40
0.0
 40
0.0428261187
 40
0.0874200102
 40
0.135216363
 40
0.1871406755
 40
0.2436022633
 40
0.30457624
 40
0.369693086
 40
0.438319891
 40
0.5825518293
 40
0.7295909987
 40
0.80159959
 40
0.8712141883
 40
0.9376040176
 40
1.0
 40
1.0
 40
1.0
 40
1.0
 10
21.4242041683
 20
64.3434789506
 30
0.0
 10
21.5721180473
 20
64.4288984482
 30
0.0
 10
21.8982140181
 20
64.5643704468
 30
0.0
 10
22.4364530926
 20
64.6433130387
 30
0.0
 10
23.014463656
 20
64.6007577883
 30
0.0
 10
23.6193699843
 20
64.4400090273
 30
0.0
 10
24.2393274517
 20
64.1660354178
 30
0.0
 10
24.8619756377
 20
63.78512344
 30
0.0
 10
25.4746898142
 20
63.3054277202
 30
0.0
 10
26.2742991665
 20
62.5351710995
 30
0.0
 10
27.1626514821
 20
61.3975107834
 30
0.0
 10
27.8557890456
 20
60.1169219828
 30
0.0
 10
28.2687358527
 20
59.040836204
 30
0.0
 10
28.4943872839
 20
58.2411114753
 30
0.0
 10
28.6330584652
 20
57.4607318933
 30
0.0
 10
28.6668418611
 20
56.946745785
 30
0.0
 10
28.6668418611
 20
56.6978867639
 30
0.0
  0
SPLINE
  5
317
100
AcDbEntity
  8
0
100
AcDbSpline
 62
7
  6
BYLAYER
 70
0
 71
3
 72
9
 73
5
 74
0
 42
0.0000001
 43
0.0000001
 44
0.0000000001
 40
0.0
 40
0.0
 40
0.0
 40
0.0
 40
0.5501792253
 40
1.0
 40
1.0
 40
1.0
 40
1.0
 10
67.3167541182
 20
94.6339639889
 30
0.0
 10
67.3777206363
 20
94.6681650252
 30
0.0
 10
67.4926138196
 20
94.7228605255
 30
0.0
 10
67.6205452416
 20
94.7493502293
 30
0.0
 10
67.6775825546
 20
94.7457137766
 30
0.0
  0
SPLINE
  5
318
100
AcDbEntity
  8
0
100
AcDbSpline
 62
7
  6
BYLAYER
 70
0
 71
3
 72
9
 73
5
 74
0
 42
0.0000001
 43
0.0000001
 44
0.0000000001
 40
0.0
 40
0.0
 40
0.0
 40
0.0
 40
0.5294595958
 40
1.0
 40
1.0
 40
1.0
 40
1.0
 10
67.6775825546
 20
94.7457137766
 30
0.0
 10
67.7005606256
 20
94.744248794
 30
0.0
 10
67.744172549
 20
94.7365840295
 30
0.0
 10
67.7823342787
 20
94.7130054554
 30
0.0
 10
67.7970530542
 20
94.6987902789
 30
0.0
  0
SPLINE
  5
319
100
AcDbEntity
  8
0
100
AcDbSpline
 62
7
  6
BYLAYER
 70
0
 71
3
 72
12
 73
8
 74
0
 42
0.0000001
 43
0.0000001
 44
0.0000000001
 40
0.0
 40
0.0
 40
0.0
 40
0.0
 40
0.1081629427
 40
0.2183667851
 40
0.4513616977
 40
0.7104309989
 40
1.0
 40
1.0
 40
1.0
 40
1.0
 10
23.3229605963
 20
51.5833675389
 30
0.0
 10
23.4213278238
 20
51.6401741022
 30
0.0
 10
23.6104736773
 20
51.7721685785
 30
0.0
 10
23.9497596999
 20
52.1058957128
 30
0.0
 10
24.2857817552
 20
52.6537168262
 30
0.0
 10
24.5195451513
 20
53.4477337523
 30
0.0
 10
24.5656396053
 20
54.0259677753
 30
0.0
 10
24.5656396053
 20
54.3300706714
 30
0.0
  0
SPLINE
  5
31A
100
AcDbEntity
  8
0
100
AcDbSpline
 62
7
  6
BYLAYER
 70
0
 71
3
 72
11
 73
7
 74
0
 42
0.0000001
 43
0.0000001
 44
0.0000000001
 40
0.0
 40
0.0
 40
0.0
 40
0.0
 40
0.2915730689
 40
0.551817572
 40
0.7841494897
 40
1.0
 40
1.0
 40
1.0
 40
1.0
 10
77.2937324557
 20
73.7746978814
 30
0.0
 10
77.3386171637
 20
73.801515937
 30
0.0
 10
77.4197851569
 20
73.8592450133
 30
0.0
 10
77.5160443444
 20
73.9634725268
 30
0.0
 10
77.57552767
 20
74.0777963998
 30
0.0
 10
77.5874988641
 20
74.1592080242
 30
0.0
 10
77.5861573493
 20
74.1978920476
 30
0.0
  0
SPLINE
  5
31B
100
AcDbEntity
  8
0
100
AcDbSpline
 62
7
  6
BYLAYER
 70
0
 71
3
 72
11
 73
7
 74
0
 42
0.0000001
 43
0.0000001
 44
0.0000000001
 40
0.0
 40
0.0
 40
0.0
 40
0.0
 40
0.2660455083
 40
0.5240785671
 40
0.769893285
 40
1.0
 40
1.0
 40
1.0
 40
1.0
 10
74.1359786802
 20
85.2373222299
 30
0.0
 10
74.6074623554
 20
84.2862297591
 30
0.0
 10
75.4525353534
 20
82.3696893161
 30
0.0
 10
76.4233124609
 20
79.4501246106
 30
0.0
 10
77.0611346642
 20
76.5865351764
 30
0.0
 10
77.2605282179
 20
74.6922427306
 30
0.0
 10
77.2937342392
 20
73.7746989953
 30
0.0
  0
SPLINE
  5
31C
100
AcDbEntity
  8
0
100
AcDbSpline
 62
7
  6
BYLAYER
 70
0
 71
3
 72
20
 73
16
 74
0
 42
0.0000001
 43
0.0000001
 44
0.0000000001
 40
0.0
 40
0.0
 40
0.0
 40
0.0
 40
0.0428321483
 40
0.0874336011
 40
0.1352374039
 40
0.1871676014
 40
0.2436390629
 40
0.3046228983
 40
0.3697475838
 40
0.4383858077
 40
0.5826388603
 40
0.7297013021
 40
0.8711936089
 40
0.9376009104
 40
1.0
 40
1.0
 40
1.0
 40
1.0
 10
17.1159028073
 20
60.7013799336
 30
0.0
 10
17.2391715682
 20
60.7725475759
 30
0.0
 10
17.5108872596
 20
60.8855119066
 30
0.0
 10
17.9594422159
 20
60.9512446742
 30
0.0
 10
18.4411033882
 20
60.9157546742
 30
0.0
 10
18.945209877
 20
60.781866737
 30
0.0
 10
19.4618330761
 20
60.5535226563
 30
0.0
 10
19.9806820977
 20
60.2360665129
 30
0.0
 10
20.4913206184
 20
59.8363663407
 30
0.0
 10
21.1576109627
 20
59.1944880256
 30
0.0
 10
21.898101006
 20
58.246218406
 30
0.0
 10
22.5854281444
 20
56.9759856066
 30
0.0
 10
22.9658057064
 20
55.8514748421
 30
0.0
 10
23.123263721
 20
54.9657766914
 30
0.0
 10
23.1514260429
 20
54.5374288734
 30
0.0
 10
23.1514260429
 20
54.3300672721
 30
0.0
  0
SPLINE
  5
31D
100
AcDbEntity
  8
0
100
AcDbSpline
 62
7
  6
BYLAYER
 70
0
 71
3
 72
9
 73
5
 74
0
 42
0.0000001
 43
0.0000001
 44
0.0000000001
 40
0.0
 40
0.0
 40
0.0
 40
0.0
 40
0.5190106378
 40
1.0
 40
1.0
 40
1.0
 40
1.0
 10
77.3885959757
 20
84.9799949909
 30
0.0
 10
77.6691812784
 20
84.0366891
 30
0.0
 10
78.1005847246
 20
82.1842444188
 30
0.0
 10
78.2676982988
 20
80.2865165932
 30
0.0
 10
78.2676982988
 20
79.3744613223
 30
0.0
  0
SPLINE
  5
31E
100
AcDbEntity
  8
0
100
AcDbSpline
 62
7
  6
BYLAYER
 70
0
 71
3
 72
16
 73
12
 74
0
 42
0.0000001
 43
0.0000001
 44
0.0000000001
 40
0.0
 40
0.0
 40
0.0
 40
0.0
 40
0.0992138285
 40
0.154211626
 40
0.2126443443
 40
0.338438619
 40
0.4731080909
 40
0.6117975504
 40
0.7491650698
 40
0.880012592
 40
1.0
 40
1.0
 40
1.0
 40
1.0
 10
17.2432606409
 20
60.4826711953
 30
0.0
 10
17.5394259517
 20
60.4422815217
 30
0.0
 10
17.9904295482
 20
60.3024935031
 30
0.0
 10
18.5615143101
 20
60.0113934077
 30
0.0
 10
19.1671506347
 20
59.6182131721
 30
0.0
 10
19.8947338209
 20
58.9830745508
 30
0.0
 10
20.6709954192
 20
58.0593162853
 30
0.0
 10
21.3287782082
 20
57.0065365625
 30
0.0
 10
21.8310256724
 20
55.8836857932
 30
0.0
 10
22.1497930837
 20
54.7540796957
 30
0.0
 10
22.2321922321
 20
53.9975452454
 30
0.0
 10
22.2321922321
 20
53.6360528904
 30
0.0
  0
SPLINE
  5
31F
100
AcDbEntity
  8
0
100
AcDbSpline
 62
7
  6
BYLAYER
 70
0
 71
3
 72
13
 73
9
 74
0
 42
0.0000001
 43
0.0000001
 44
0.0000000001
 40
0.0
 40
0.0
 40
0.0
 40
0.0
 40
0.2821701936
 40
0.538141908
 40
0.6581967787
 40
0.7742430545
 40
0.8876618318
 40
1.0
 40
1.0
 40
1.0
 40
1.0
 10
25.8413017818
 20
52.9171688776
 30
0.0
 10
26.133572134
 20
52.7928371636
 30
0.0
 10
26.7116810205
 20
52.5996461719
 30
0.0
 10
27.4545131772
 20
52.5125984988
 30
0.0
 10
28.0083509085
 20
52.5535220009
 30
0.0
 10
28.3945286292
 20
52.6352478176
 30
0.0
 10
28.7569753139
 20
52.7681134875
 30
0.0
 10
28.9810580671
 20
52.8902803001
 30
0.0
 10
29.0872817945
 20
52.9588818172
 30
0.0
  0
SPLINE
  5
320
100
AcDbEntity
  8
0
100
AcDbSpline
 62
7
  6
BYLAYER
 70
0
 71
3
 72
12
 73
8
 74
0
 42
0.0000001
 43
0.0000001
 44
0.0000000001
 40
0.0
 40
0.0
 40
0.0
 40
0.0
 40
0.1079370346
 40
0.2183090579
 40
0.4520979228
 40
0.7113958095
 40
1.0
 40
1.0
 40
1.0
 40
1.0
 10
29.0872817945
 20
52.9588818172
 30
0.0
 10
29.2055619243
 20
53.0352696125
 30
0.0
 10
29.4324271562
 20
53.2098873695
 30
0.0
 10
29.8380515061
 20
53.6409023176
 30
0.0
 10
30.237937241
 20
54.3321205759
 30
0.0
 10
30.5166333193
 20
55.3209744919
 30
0.0
 10
30.5718563726
 20
56.0380525542
 30
0.0
 10
30.5718563726
 20
56.4145325135
 30
0.0
  0
SPLINE
  5
321
100
AcDbEntity
  8
0
100
AcDbSpline
 62
7
  6
BYLAYER
 70
0
 71
3
 72
15
 73
11
 74
0
 42
0.0000001
 43
0.0000001
 44
0.0000000001
 40
0.0
 40
0.0
 40
0.0
 40
0.0
 40
0.1324508053
 40
0.2683155582
 40
0.4046620592
 40
0.5385052606
 40
0.6670407344
 40
0.787844067
 40
0.8991199633
 40
1.0
 40
1.0
 40
1.0
 40
1.0
 10
77.7344515958
 20
85.2565601137
 30
0.0
 10
77.464644457
 20
86.1636306587
 30
0.0
 10
76.8093209783
 20
87.9702512927
 30
0.0
 10
75.5364153959
 20
90.5717894173
 30
0.0
 10
73.9949271405
 20
93.0359198665
 30
0.0
 10
72.2344910208
 20
95.2828026524
 30
0.0
 10
70.3116955777
 20
97.2404220471
 30
0.0
 10
68.2869135072
 20
98.8463254638
 30
0.0
 10
66.2243692813
 20
100.0490269182
 30
0.0
 10
64.793176156
 20
100.5815798783
 30
0.0
 10
64.0939730594
 20
100.7566082311
 30
0.0
  0
SPLINE
  5
322
100
AcDbEntity
  8
0
100
AcDbSpline
 62
7
  6
BYLAYER
 70
0
 71
3
 72
9
 73
5
 74
0
 42
0.0000001
 43
0.0000001
 44
0.0000000001
 40
0.0
 40
0.0
 40
0.0
 40
0.0
 40
0.2548426261
 40
1.0
 40
1.0
 40
1.0
 40
1.0
 10
64.0939730594
 20
100.7566082311
 30
0.0
 10
64.0132715563
 20
100.7768098739
 30
0.0
 10
63.695593994
 20
100.8519788385
 30
0.0
 10
63.3738832524
 20
100.9103382722
 30
0.0
 10
63.1328592094
 20
100.9431809599
 30
0.0
  0
SPLINE
  5
323
100
AcDbEntity
  8
0
100
AcDbSpline
 62
7
  6
BYLAYER
 70
0
 71
3
 72
9
 73
5
 74
0
 42
0.0000001
 43
0.0000001
 44
0.0000000001
 40
0.0
 40
0.0
 40
0.0
 40
0.0
 40
0.247920718
 40
1.0
 40
1.0
 40
1.0
 40
1.0
 10
20.6602225695
 20
50.9698206617
 30
0.0
 10
20.6989461139
 20
50.9921772048
 30
0.0
 10
20.8516457355
 20
51.088321982
 30
0.0
 10
20.9890148259
 20
51.2084368196
 30
0.0
 10
21.0808663083
 20
51.3082463458
 30
0.0
  0
SPLINE
  5
324
100
AcDbEntity
  8
0
100
AcDbSpline
 62
7
  6
BYLAYER
 70
0
 71
3
 72
11
 73
7
 74
0
 42
0.0000001
 43
0.0000001
 44
0.0000000001
 40
0.0
 40
0.0
 40
0.0
 40
0.0
 40
0.220407959
 40
0.45823578
 40
0.717760423
 40
1.0
 40
1.0
 40
1.0
 40
1.0
 10
21.0808663083
 20
51.3082463458
 30
0.0
 10
21.1898751404
 20
51.4266997403
 30
0.0
 10
21.3855037557
 20
51.702722071
 30
0.0
 10
21.5900276782
 20
52.1889602494
 30
0.0
 10
21.7123370513
 20
52.7477329503
 30
0.0
 10
21.7372195461
 20
53.1441435479
 30
0.0
 10
21.7372195461
 20
53.3502819827
 30
0.0
  0
SPLINE
  5
325
100
AcDbEntity
  8
0
100
AcDbSpline
 62
7
  6
BYLAYER
 70
0
 71
3
 72
18
 73
14
 74
0
 42
0.0000001
 43
0.0000001
 44
0.0000000001
 40
0.0
 40
0.0
 40
0.0
 40
0.0
 40
0.1281176142
 40
0.2692605392
 40
0.4149343153
 40
0.5567141463
 40
0.6877754079
 40
0.7480436496
 40
0.8044711928
 40
0.8572251762
 40
0.9068072048
 40
0.9540319812
 40
1.0
 40
1.0
 40
1.0
 40
1.0
 10
28.8789376847
 20
78.049317803
 30
0.0
 10
29.0653902722
 20
77.9416717867
 30
0.0
 10
29.483827093
 20
77.7607493318
 30
0.0
 10
30.1637309273
 20
77.5946755769
 30
0.0
 10
30.884990247
 20
77.536281398
 30
0.0
 10
31.5890630029
 20
77.6004086296
 30
0.0
 10
32.1301817785
 20
77.7647801945
 30
0.0
 10
32.4976465844
 20
77.9632229155
 30
0.0
 10
32.7261953845
 20
78.1351187045
 30
0.0
 10
32.9101793413
 20
78.3303176758
 30
0.0
 10
33.0453251435
 20
78.544315125
 30
0.0
 10
33.1279869924
 20
78.7715715606
 30
0.0
 10
33.14670218
 20
78.9287564543
 30
0.0
 10
33.1466972414
 20
79.0060035695
 30
0.0
  0
SPLINE
  5
326
100
AcDbEntity
  8
0
100
AcDbSpline
 62
7
  6
BYLAYER
 70
0
 71
3
 72
26
 73
22
 74
0
 42
0.0000001
 43
0.0000001
 44
0.0000000001
 40
0.0
 40
0.0
 40
0.0
 40
0.0
 40
0.0663863273
 40
0.1378615311
 40
0.2130845238
 40
0.290420154
 40
0.3680752779
 40
0.4442329618
 40
0.5171839024
 40
0.5854697676
 40
0.6480444789
 40
0.7044742936
 40
0.7551836973
 40
0.7788854145
 40
0.8018227751
 40
0.8243522637
 40
0.8468629919
 40
0.8697467808
 40
0.8933653576
 40
0.9438345637
 40
1.0
 40
1.0
 40
1.0
 40
1.0
 10
30.5718563726
 20
56.4145325135
 30
0.0
 10
30.5718563726
 20
56.8259236687
 30
0.0
 10
30.49979575
 20
57.6810046613
 30
0.0
 10
30.211025479
 20
58.9728215893
 30
0.0
 10
29.7471396294
 20
60.2846808618
 30
0.0
 10
29.1241781536
 20
61.5712007866
 30
0.0
 10
28.363532458
 20
62.7882538035
 30
0.0
 10
27.4914348943
 20
63.8938839774
 30
0.0
 10
26.5377434791
 20
64.8501154909
 30
0.0
 10
25.5347770106
 20
65.6243346414
 30
0.0
 10
24.5152297508
 20
66.1900323899
 30
0.0
 10
23.51184162
 20
66.5272051474
 30
0.0
 10
22.6947947813
 20
66.6052509023
 30
0.0
 10
22.0938752727
 20
66.5325005948
 30
0.0
 10
21.6794179374
 20
66.4163746838
 30
0.0
 10
21.2954801358
 20
66.238547265
 30
0.0
 10
20.9461152305
 20
66.000430591
 30
0.0
 10
20.6346440012
 20
65.7047495641
 30
0.0
 10
20.2660283979
 20
65.2275205491
 30
0.0
 10
19.9176586225
 20
64.4884725023
 30
0.0
 10
19.7797703394
 20
63.8369877138
 30
0.0
 10
19.7375257456
 20
63.4915078732
 30
0.0
  0
SPLINE
  5
327
100
AcDbEntity
  8
0
100
AcDbSpline
 62
7
  6
BYLAYER
 70
0
 71
3
 72
17
 73
13
 74
0
 42
0.0000001
 43
0.0000001
 44
0.0000000001
 40
0.0
 40
0.0
 40
0.0
 40
0.0
 40
0.1286930255
 40
0.2702801155
 40
0.4174389234
 40
0.5617808058
 40
0.6954504305
 40
0.8127136056
 40
0.8646759876
 40
0.9125114232
 40
0.9571388406
 40
1.0
 40
1.0
 40
1.0
 40
1.0
 10
28.8789376847
 20
78.049317803
 30
0.0
 10
29.0640028556
 20
77.9424727939
 30
0.0
 10
29.4830070787
 20
77.7695873548
 30
0.0
 10
30.1659094374
 20
77.632987613
 30
0.0
 10
30.8881879052
 20
77.6129860249
 30
0.0
 10
31.5909103804
 20
77.7117433699
 30
0.0
 10
32.2170936055
 20
77.9209028185
 30
0.0
 10
32.6526178103
 20
78.1859895355
 30
0.0
 10
32.9081871427
 20
78.4425084575
 30
0.0
 10
33.0439921782
 20
78.6422002621
 30
0.0
 10
33.1276079107
 20
78.8528720555
 30
0.0
 10
33.1466955037
 20
78.9987575794
 30
0.0
 10
33.1466857847
 20
79.0699281592
 30
0.0
  0
SPLINE
  5
328
100
AcDbEntity
  8
0
100
AcDbSpline
 62
7
  6
BYLAYER
 70
0
 71
3
 72
15
 73
11
 74
0
 42
0.0000001
 43
0.0000001
 44
0.0000000001
 40
0.0
 40
0.0
 40
0.0
 40
0.0
 40
0.1505323421
 40
0.2881177115
 40
0.4136296866
 40
0.529874452
 40
0.6412839735
 40
0.7534126836
 40
0.8716340941
 40
1.0
 40
1.0
 40
1.0
 40
1.0
 10
30.0810554235
 20
56.6978901632
 30
0.0
 10
30.0810554235
 20
56.4038450452
 30
0.0
 10
30.0436283426
 20
55.8398319514
 30
0.0
 10
29.858281962
 20
55.0490633935
 30
0.0
 10
29.5477029096
 20
54.3698395348
 30
0.0
 10
29.1162823686
 20
53.8218084782
 30
0.0
 10
28.5730538478
 20
53.4252412608
 30
0.0
 10
27.9367166772
 20
53.1962611652
 30
0.0
 10
27.2313005467
 20
53.1398828787
 30
0.0
 10
26.7509303316
 20
53.2116854
 30
0.0
 10
26.507289213
 20
53.270951857
 30
0.0
  0
SPLINE
  5
329
100
AcDbEntity
  8
0
100
AcDbSpline
 62
7
  6
BYLAYER
 70
0
 71
3
 72
14
 73
10
 74
0
 42
0.0000001
 43
0.0000001
 44
0.0000000001
 40
0.0
 40
0.0
 40
0.0
 40
0.0
 40
0.1108210182
 40
0.2209891587
 40
0.3334192044
 40
0.4507197236
 40
0.5749640064
 40
0.7076183583
 40
1.0
 40
1.0
 40
1.0
 40
1.0
 10
19.4748755544
 20
50.5741094702
 30
0.0
 10
19.582708014
 20
50.6052458833
 30
0.0
 10
19.7923903538
 20
50.6883526889
 30
0.0
 10
20.0767603681
 20
50.8745350754
 30
0.0
 10
20.3231057949
 20
51.1181123089
 30
0.0
 10
20.5281060858
 20
51.4144737202
 30
0.0
 10
20.6892835878
 20
51.7592563488
 30
0.0
 10
20.8487462885
 20
52.2937796246
 30
0.0
 10
20.8888212432
 20
52.7274929076
 30
0.0
 10
20.8888212432
 20
53.0236123811
 30
0.0
  0
SPLINE
  5
32A
100
AcDbEntity
  8
0
100
AcDbSpline
 62
7
  6
BYLAYER
 70
0
 71
3
 72
25
 73
21
 74
0
 42
0.0000001
 43
0.0000001
 44
0.0000000001
 40
0.0
 40
0.0
 40
0.0
 40
0.0
 40
0.0520616126
 40
0.0995477721
 40
0.122251063
 40
0.1446562775
 40
0.1671225759
 40
0.1900047311
 40
0.2381438403
 40
0.2911164319
 40
0.3498368399
 40
0.4143427792
 40
0.4840094434
 40
0.5577419934
 40
0.6341313561
 40
0.7115808339
 40
0.7884306329
 40
0.8630485381
 40
0.9339809179
 40
1.0
 40
1.0
 40
1.0
 40
1.0
 10
20.3483531218
 20
63.7883588301
 30
0.0
 10
20.420898731
 20
64.0608657303
 30
0.0
 10
20.6112011195
 20
64.5709775784
 30
0.0
 10
20.9973766589
 20
65.1203014984
 30
0.0
 10
21.3723094714
 20
65.456159771
 30
0.0
 10
21.6805707429
 20
65.6563140586
 30
0.0
 10
22.0172661692
 20
65.80608278
 30
0.0
 10
22.5076082266
 20
65.9394079356
 30
0.0
 10
23.1877722817
 20
65.9683129948
 30
0.0
 10
24.0420860084
 20
65.791349646
 30
0.0
 10
24.9250701214
 20
65.4158563292
 30
0.0
 10
25.8112018937
 20
64.8551943561
 30
0.0
 10
26.6745025366
 20
64.1273679154
 30
0.0
 10
27.4885043787
 20
63.2551176159
 30
0.0
 10
28.2277870852
 20
62.2658630857
 30
0.0
 10
28.8690835649
 20
61.1908344089
 30
0.0
 10
29.3920083662
 20
60.0640577124
 30
0.0
 10
29.7802316567
 20
58.9209858484
 30
0.0
 10
30.0211967161
 20
57.7979330763
 30
0.0
 10
30.0810554235
 20
57.0554904886
 30
0.0
 10
30.0810554235
 20
56.6978901632
 30
0.0
  0
SPLINE
  5
32B
100
AcDbEntity
  8
0
100
AcDbSpline
 62
7
  6
BYLAYER
 70
0
 71
3
 72
11
 73
7
 74
0
 42
0.0000001
 43
0.0000001
 44
0.0000000001
 40
0.0
 40
0.0
 40
0.0
 40
0.0
 40
0.2388325776
 40
0.5016479252
 40
0.7635650289
 40
1.0
 40
1.0
 40
1.0
 40
1.0
 10
41.8205005612
 20
51.5730472736
 30
0.0
 10
41.8178844735
 20
51.6899175989
 30
0.0
 10
41.8559988796
 20
51.9366100612
 30
0.0
 10
42.0018301671
 20
52.283896394
 30
0.0
 10
42.2197455245
 20
52.5896781375
 30
0.0
 10
42.4088725636
 20
52.7503377742
 30
0.0
 10
42.5090944237
 20
52.8082005467
 30
0.0
  0
SPLINE
  5
32C
100
AcDbEntity
  8
0
100
AcDbSpline
 62
7
  6
BYLAYER
 70
0
 71
3
 72
11
 73
7
 74
0
 42
0.0000001
 43
0.0000001
 44
0.0000000001
 40
0.0
 40
0.0
 40
0.0
 40
0.0
 40
0.2865872795
 40
0.5453051624
 40
0.7796658685
 40
1.0
 40
1.0
 40
1.0
 40
1.0
 10
75.3894228541
 20
71.7915537017
 30
0.0
 10
75.4326318444
 20
71.816500275
 30
0.0
 10
75.5189921058
 20
71.8574189744
 30
0.0
 10
75.6520960254
 20
71.8895198208
 30
0.0
 10
75.7778962326
 20
71.8867891363
 30
0.0
 10
75.8542212487
 20
71.8602995722
 30
0.0
 10
75.8878706281
 20
71.8418839523
 30
0.0
  0
SPLINE
  5
32D
100
AcDbEntity
  8
0
100
AcDbSpline
 62
7
  6
BYLAYER
 70
0
 71
3
 72
9
 73
5
 74
0
 42
0.0000001
 43
0.0000001
 44
0.0000000001
 40
0.0
 40
0.0
 40
0.0
 40
0.0
 40
0.2610913226
 40
1.0
 40
1.0
 40
1.0
 40
1.0
 10
76.2871851317
 20
71.6816770546
 30
0.0
 10
76.2868262404
 20
71.6977100584
 30
0.0
 10
76.2838792449
 20
71.759058211
 30
0.0
 10
76.2744823903
 20
71.820205407
 30
0.0
 10
76.263103653
 20
71.8641418864
 30
0.0
  0
SPLINE
  5
32E
100
AcDbEntity
  8
0
100
AcDbSpline
 62
7
  6
BYLAYER
 70
0
 71
3
 72
9
 73
5
 74
0
 42
0.0000001
 43
0.0000001
 44
0.0000000001
 40
0.0
 40
0.0
 40
0.0
 40
0.0
 40
0.2673739759
 40
1.0
 40
1.0
 40
1.0
 40
1.0
 10
76.263103653
 20
71.8641418864
 30
0.0
 10
76.258194127
 20
71.8830989358
 30
0.0
 10
76.236782462
 20
71.9530959446
 30
0.0
 10
76.2014801878
 20
72.0194338769
 30
0.0
 10
76.167425862
 20
72.0608999316
 30
0.0
  0
SPLINE
  5
32F
100
AcDbEntity
  8
0
100
AcDbSpline
 62
7
  6
BYLAYER
 70
0
 71
3
 72
11
 73
7
 74
0
 42
0.0000001
 43
0.0000001
 44
0.0000000001
 40
0.0
 40
0.0
 40
0.0
 40
0.0
 40
0.2364360539
 40
0.4983524507
 40
0.7611668888
 40
1.0
 40
1.0
 40
1.0
 40
1.0
 10
75.8577309153
 20
58.8697961117
 30
0.0
 10
75.957952987
 20
58.9276590064
 30
0.0
 10
76.1470755499
 20
59.0883235506
 30
0.0
 10
76.3649908926
 20
59.3941031885
 30
0.0
 10
76.5108201621
 20
59.7413882469
 30
0.0
 10
76.5489408649
 20
59.9880790868
 30
0.0
 10
76.5463247778
 20
60.1049493848
 30
0.0
  0
SPLINE
  5
330
100
AcDbEntity
  8
0
100
AcDbSpline
 62
7
  6
BYLAYER
 70
0
 71
3
 72
21
 73
17
 74
0
 42
0.0000001
 43
0.0000001
 44
0.0000000001
 40
0.0
 40
0.0
 40
0.0
 40
0.0
 40
0.0615857752
 40
0.1269907082
 40
0.1955258516
 40
0.2664371612
 40
0.411605565
 40
0.5549670696
 40
0.6236941072
 40
0.689314935
 40
0.7511834445
 40
0.8088585591
 40
0.8621751889
 40
0.9113185192
 40
0.9568999637
 40
1.0
 40
1.0
 40
1.0
 40
1.0
 10
30.9961204413
 20
56.4145330022
 30
0.0
 10
30.9961204526
 20
56.7337422026
 30
0.0
 10
30.9544441303
 20
57.3923708779
 30
0.0
 10
30.7827062777
 20
58.3927590432
 30
0.0
 10
30.5028919648
 20
59.4186468887
 30
0.0
 10
29.9895076733
 20
60.8033237554
 30
0.0
 10
29.123404497
 20
62.4626879981
 30
0.0
 10
28.0096365249
 20
63.9536763928
 30
0.0
 10
27.0014990819
 20
64.9836062587
 30
0.0
 10
26.2225878557
 20
65.6402541445
 30
0.0
 10
25.4257626557
 20
66.1788174393
 30
0.0
 10
24.6261619996
 20
66.588579437
 30
0.0
 10
23.8388497124
 20
66.8611784606
 30
0.0
 10
23.0781861163
 20
66.9901251711
 30
0.0
 10
22.359107351
 20
66.9707769737
 30
0.0
 10
21.9091328649
 20
66.8546720384
 30
0.0
 10
21.7013906031
 20
66.7725240679
 30
0.0
  0
SPLINE
  5
331
100
AcDbEntity
  8
0
100
AcDbSpline
 62
7
  6
BYLAYER
 70
0
 71
3
 72
9
 73
5
 74
0
 42
0.0000001
 43
0.0000001
 44
0.0000000001
 40
0.0
 40
0.0
 40
0.0
 40
0.0
 40
0.2539679017
 40
1.0
 40
1.0
 40
1.0
 40
1.0
 10
74.9960525473
 20
92.7849455113
 30
0.0
 10
74.8397722338
 20
93.0130430157
 30
0.0
 10
74.2076485083
 20
93.8995171322
 30
0.0
 10
73.5086644604
 20
94.7387582609
 30
0.0
 10
72.950875663
 20
95.3291575491
 30
0.0
  0
SPLINE
  5
332
100
AcDbEntity
  8
0
100
AcDbSpline
 62
7
  6
BYLAYER
 70
0
 71
3
 72
12
 73
8
 74
0
 42
0.0000001
 43
0.0000001
 44
0.0000000001
 40
0.0
 40
0.0
 40
0.0
 40
0.0
 40
0.2884848366
 40
0.5471613888
 40
0.780644171
 40
0.8913136749
 40
1.0
 40
1.0
 40
1.0
 40
1.0
 10
25.588066497
 20
66.3564813643
 30
0.0
 10
25.2526636169
 20
66.5566005907
 30
0.0
 10
24.5840796215
 20
66.8868238414
 30
0.0
 10
23.5529727957
 20
67.1551547187
 30
0.0
 10
22.7242482878
 20
67.1511574471
 30
0.0
 10
22.1268532113
 20
67.0034384305
 30
0.0
 10
21.8524753002
 20
66.8856330703
 30
0.0
 10
21.7225771308
 20
66.8165075204
 30
0.0
  0
SPLINE
  5
333
100
AcDbEntity
  8
0
100
AcDbSpline
 62
7
  6
BYLAYER
 70
0
 71
3
 72
15
 73
11
 74
0
 42
0.0000001
 43
0.0000001
 44
0.0000000001
 40
0.0
 40
0.0
 40
0.0
 40
0.0
 40
0.114571842
 40
0.2378315548
 40
0.3673585277
 40
0.5001376019
 40
0.6328686457
 40
0.7622939249
 40
0.8854516321
 40
1.0
 40
1.0
 40
1.0
 40
1.0
 10
31.2384642845
 20
56.5544494501
 30
0.0
 10
31.2445262057
 20
57.004292821
 30
0.0
 10
31.1736705329
 20
57.9401665977
 30
0.0
 10
30.858457327
 20
59.3518289123
 30
0.0
 10
30.3439330791
 20
60.7797387554
 30
0.0
 10
29.6484718429
 20
62.1701900168
 30
0.0
 10
28.7966671065
 20
63.470289892
 30
0.0
 10
27.8209793484
 20
64.6317291815
 30
0.0
 10
26.7573117209
 20
65.6108096163
 30
0.0
 10
25.9814010494
 20
66.1383052713
 30
0.0
 10
25.588066497
 20
66.3564813643
 30
0.0
  0
SPLINE
  5
334
100
AcDbEntity
  8
0
100
AcDbSpline
 62
7
  6
BYLAYER
 70
0
 71
3
 72
15
 73
11
 74
0
 42
0.0000001
 43
0.0000001
 44
0.0000000001
 40
0.0
 40
0.0
 40
0.0
 40
0.0
 40
0.1287465248
 40
0.2706115193
 40
0.4178719491
 40
0.5623918971
 40
0.6962071465
 40
0.8135885781
 40
0.9130602404
 40
1.0
 40
1.0
 40
1.0
 40
1.0
 10
17.7066852808
 20
56.901981646
 30
0.0
 10
17.7066852808
 20
56.9446910783
 30
0.0
 10
17.6946769808
 20
57.0345544594
 30
0.0
 10
17.6501372226
 20
57.1665150378
 30
0.0
 10
17.5813006399
 20
57.2936211211
 30
0.0
 10
17.4940003731
 20
57.4054561228
 30
0.0
 10
17.3950407893
 20
57.4930548084
 30
0.0
 10
17.2918594873
 20
57.5494047836
 30
0.0
 10
17.1908633461
 20
57.5696353205
 30
0.0
 10
17.1281163299
 20
57.553521955
 30
0.0
 10
17.1031315382
 20
57.5391153702
 30
0.0
  0
SPLINE
  5
335
100
AcDbEntity
  8
0
100
AcDbSpline
 62
7
  6
BYLAYER
 70
0
 71
3
 72
13
 73
9
 74
0
 42
0.0000001
 43
0.0000001
 44
0.0000000001
 40
0.0
 40
0.0
 40
0.0
 40
0.0
 40
0.2815213433
 40
0.5788118793
 40
0.7090122145
 40
0.8184219674
 40
0.9105621106
 40
1.0
 40
1.0
 40
1.0
 40
1.0
 10
16.8228034235
 20
56.6774461716
 30
0.0
 10
16.8228034235
 20
56.7076369317
 30
0.0
 10
16.8045986192
 20
56.7693637847
 30
0.0
 10
16.7590191696
 20
56.8324051653
 30
0.0
 10
16.7116403264
 20
56.8661030505
 30
0.0
 10
16.6771734302
 20
56.8776457666
 30
0.0
 10
16.6447208931
 20
56.8735823958
 30
0.0
 10
16.6293003402
 20
56.8596633789
 30
0.0
 10
16.6240113447
 20
56.8516619767
 30
0.0
  0
SPLINE
  5
336
100
AcDbEntity
  8
0
100
AcDbSpline
 62
7
  6
BYLAYER
 70
0
 71
3
 72
15
 73
11
 74
0
 42
0.0000001
 43
0.0000001
 44
0.0000000001
 40
0.0
 40
0.0
 40
0.0
 40
0.0
 40
0.1287465248
 40
0.2706115193
 40
0.4178719491
 40
0.5623918971
 40
0.6962071465
 40
0.8135885781
 40
0.9130602404
 40
1.0
 40
1.0
 40
1.0
 40
1.0
 10
19.4744595937
 20
53.8401237169
 30
0.0
 10
19.4744595937
 20
53.8828331492
 30
0.0
 10
19.4624512936
 20
53.9726965303
 30
0.0
 10
19.4179115355
 20
54.1046571087
 30
0.0
 10
19.3490749528
 20
54.2317631919
 30
0.0
 10
19.261774686
 20
54.3435981937
 30
0.0
 10
19.1628151022
 20
54.4311968793
 30
0.0
 10
19.0596338002
 20
54.4875468545
 30
0.0
 10
18.958637659
 20
54.5077773914
 30
0.0
 10
18.8958906428
 20
54.4916640259
 30
0.0
 10
18.870905851
 20
54.477257441
 30
0.0
  0
SPLINE
  5
337
100
AcDbEntity
  8
0
100
AcDbSpline
 62
7
  6
BYLAYER
 70
0
 71
3
 72
13
 73
9
 74
0
 42
0.0000001
 43
0.0000001
 44
0.0000000001
 40
0.0
 40
0.0
 40
0.0
 40
0.0
 40
0.2815213433
 40
0.5788118793
 40
0.7090122145
 40
0.8184219674
 40
0.9105621106
 40
1.0
 40
1.0
 40
1.0
 40
1.0
 10
18.5905777364
 20
53.6155882425
 30
0.0
 10
18.5905777364
 20
53.6457790025
 30
0.0
 10
18.5723729321
 20
53.7075058556
 30
0.0
 10
18.5267934825
 20
53.7705472362
 30
0.0
 10
18.4794146393
 20
53.8042451213
 30
0.0
 10
18.444947743
 20
53.8157878375
 30
0.0
 10
18.412495206
 20
53.8117244667
 30
0.0
 10
18.3970746531
 20
53.7978054498
 30
0.0
 10
18.3917856576
 20
53.7898040476
 30
0.0
  0
SPLINE
  5
338
100
AcDbEntity
  8
0
100
AcDbSpline
 62
7
  6
BYLAYER
 70
0
 71
3
 72
15
 73
11
 74
0
 42
0.0000001
 43
0.0000001
 44
0.0000000001
 40
0.0
 40
0.0
 40
0.0
 40
0.0
 40
0.1287465248
 40
0.2706115193
 40
0.4178719491
 40
0.5623918971
 40
0.6962071465
 40
0.8135885781
 40
0.9130602404
 40
1.0
 40
1.0
 40
1.0
 40
1.0
 10
19.4744595937
 20
55.8813797597
 30
0.0
 10
19.4744595937
 20
55.924089192
 30
0.0
 10
19.4624512936
 20
56.0139525731
 30
0.0
 10
19.4179115355
 20
56.1459131515
 30
0.0
 10
19.3490749528
 20
56.2730192348
 30
0.0
 10
19.261774686
 20
56.3848542365
 30
0.0
 10
19.1628151022
 20
56.4724529221
 30
0.0
 10
19.0596338002
 20
56.5288028973
 30
0.0
 10
18.958637659
 20
56.5490334342
 30
0.0
 10
18.8958906428
 20
56.5329200687
 30
0.0
 10
18.870905851
 20
56.5185134839
 30
0.0
  0
SPLINE
  5
339
100
AcDbEntity
  8
0
100
AcDbSpline
 62
7
  6
BYLAYER
 70
0
 71
3
 72
13
 73
9
 74
0
 42
0.0000001
 43
0.0000001
 44
0.0000000001
 40
0.0
 40
0.0
 40
0.0
 40
0.0
 40
0.2815213433
 40
0.5788118793
 40
0.7090122145
 40
0.8184219674
 40
0.9105621106
 40
1.0
 40
1.0
 40
1.0
 40
1.0
 10
18.5905777364
 20
55.6568442853
 30
0.0
 10
18.5905777364
 20
55.6870350454
 30
0.0
 10
18.5723729321
 20
55.7487618984
 30
0.0
 10
18.5267934825
 20
55.811803279
 30
0.0
 10
18.4794146393
 20
55.8455011642
 30
0.0
 10
18.444947743
 20
55.8570438803
 30
0.0
 10
18.412495206
 20
55.8529805095
 30
0.0
 10
18.3970746531
 20
55.8390614926
 30
0.0
 10
18.3917856576
 20
55.8310600904
 30
0.0
  0
SPLINE
  5
33A
100
AcDbEntity
  8
0
100
AcDbSpline
 62
7
  6
BYLAYER
 70
0
 71
3
 72
11
 73
7
 74
0
 42
0.0000001
 43
0.0000001
 44
0.0000000001
 40
0.0
 40
0.0
 40
0.0
 40
0.0
 40
0.2187315374
 40
0.4532920959
 40
0.7123429707
 40
1.0
 40
1.0
 40
1.0
 40
1.0
 10
76.2084939805
 20
72.0651230517
 30
0.0
 10
76.2423247326
 20
72.0455906386
 30
0.0
 10
76.3054539368
 20
71.9921345514
 30
0.0
 10
76.3738151
 20
71.8830377059
 30
0.0
 10
76.4170228554
 20
71.7491559955
 30
0.0
 10
76.4274573752
 20
71.6513903267
 30
0.0
 10
76.4286070767
 20
71.6000289037
 30
0.0
  0
SPLINE
  5
33B
100
AcDbEntity
  8
0
100
AcDbSpline
 62
7
  6
BYLAYER
 70
0
 71
3
 72
9
 73
5
 74
0
 42
0.0000001
 43
0.0000001
 44
0.0000000001
 40
0.0
 40
0.0
 40
0.0
 40
0.0
 40
0.4624533588
 40
1.0
 40
1.0
 40
1.0
 40
1.0
 10
42.2425073681
 20
39.5922432262
 30
0.0
 10
42.3030047167
 20
39.5825046812
 30
0.0
 10
42.4391335066
 20
39.592777867
 30
0.0
 10
42.5621667728
 20
39.6467079375
 30
0.0
 10
42.6238505663
 20
39.6823208797
 30
0.0
  0
SPLINE
  5
33C
100
AcDbEntity
  8
0
100
AcDbSpline
 62
7
  6
BYLAYER
 70
0
 71
3
 72
11
 73
7
 74
0
 42
0.0000001
 43
0.0000001
 44
0.0000000001
 40
0.0
 40
0.0
 40
0.0
 40
0.0
 40
0.2203342705
 40
0.4546949937
 40
0.7134126805
 40
1.0
 40
1.0
 40
1.0
 40
1.0
 10
76.0291956649
 20
71.7645649889
 30
0.0
 10
75.9955462543
 20
71.7829806035
 30
0.0
 10
75.919221224
 20
71.809470214
 30
0.0
 10
75.7934210178
 20
71.8122008319
 30
0.0
 10
75.6603171068
 20
71.7801000637
 30
0.0
 10
75.5739568892
 20
71.7391813194
 30
0.0
 10
75.5307478922
 20
71.7142347423
 30
0.0
  0
SPLINE
  5
33D
100
AcDbEntity
  8
0
100
AcDbSpline
 62
7
  6
BYLAYER
 70
0
 71
3
 72
15
 73
11
 74
0
 42
0.0000001
 43
0.0000001
 44
0.0000000001
 40
0.0
 40
0.0
 40
0.0
 40
0.0
 40
0.1151509888
 40
0.2384563323
 40
0.3676136568
 40
0.4998129198
 40
0.6320399734
 40
0.761274967
 40
0.8847137601
 40
1.0
 40
1.0
 40
1.0
 40
1.0
 10
82.7605332709
 20
104.291948181
 30
0.0
 10
83.2857675902
 20
103.9648736975
 30
0.0
 10
84.3202229201
 20
103.2000068648
 30
0.0
 10
85.7449342261
 20
101.8252095834
 30
0.0
 10
87.0582057273
 20
100.2233671442
 30
0.0
 10
88.2154186581
 20
98.4483782468
 30
0.0
 10
89.1777545057
 20
96.5601578647
 30
0.0
 10
89.9127012554
 20
94.6221819906
 30
0.0
 10
90.3954597439
 20
92.7001800742
 30
0.0
 10
90.5441494882
 20
91.4208519673
 30
0.0
 10
90.5664538178
 20
90.8017791066
 30
0.0
  0
SPLINE
  5
33E
100
AcDbEntity
  8
0
100
AcDbSpline
 62
7
  6
BYLAYER
 70
0
 71
3
 72
9
 73
5
 74
0
 42
0.0000001
 43
0.0000001
 44
0.0000000001
 40
0.0
 40
0.0
 40
0.0
 40
0.0
 40
0.245590602
 40
1.0
 40
1.0
 40
1.0
 40
1.0
 10
42.2975512579
 20
39.9407789474
 30
0.0
 10
42.2855503857
 20
39.9473467803
 30
0.0
 10
42.2382305666
 20
39.9768897606
 30
0.0
 10
42.1982876047
 20
40.0177193628
 30
0.0
 10
42.1737751435
 20
40.0518539103
 30
0.0
  0
SPLINE
  5
33F
100
AcDbEntity
  8
0
100
AcDbSpline
 62
7
  6
BYLAYER
 70
0
 71
3
 72
9
 73
5
 74
0
 42
0.0000001
 43
0.0000001
 44
0.0000000001
 40
0.0
 40
0.0
 40
0.0
 40
0.0
 40
0.2258062492
 40
1.0
 40
1.0
 40
1.0
 40
1.0
 10
42.1737751435
 20
40.0518539103
 30
0.0
 10
42.1572721529
 20
40.0748349611
 30
0.0
 10
42.0943337649
 20
40.1839955094
 30
0.0
 10
42.0725560584
 20
40.3127947704
 30
0.0
 10
42.0703852199
 20
40.4097741634
 30
0.0
  0
ENDSEC
  0
SECTION
  2
OBJECTS
  0
DICTIONARY
  5
C
100
AcDbDictionary
280
0
281
1
  3
ACAD_GROUP
350
D
  3
ACAD_MLINESTYLE
350
17
  3
ACAD_LAYOUT
350
1A
  3
ACAD_PLOTSETTINGS
350
19
  3
ACAD_PLOTSTYLENAME
350
E
  0
DICTIONARY
  5
D
102
{ACAD_REACTORS
330
C
102
}
100
AcDbDictionary
280
0
281
1
  0
ACDBDICTIONARYWDFLT
  5
E
102
{ACAD_REACTORS
330
C
102
}
100
AcDbDictionary
281
1
  3
Normal
350
F
100
AcDbDictionaryWithDefault
340
F
  0
DICTIONARY
  5
17
102
{ACAD_REACTORS
330
C
102
}
100
AcDbDictionary
280
0
281
1
  3
Standard
350
18
  0
DICTIONARY
  5
19
102
{ACAD_REACTORS
330
C
102
}
100
AcDbDictionary
281
1
  0
DICTIONARY
  5
1A
102
{ACAD_REACTORS
330
C
102
}
100
AcDbDictionary
281
1
  3
Model
350
340
  3
Layout1
350
341
  0
ACDBPLACEHOLDER
  5
F
102
{ACAD_REACTORS
330
E
102
}
  0
MLINESTYLE
  5
18
102
{ACAD_REACTORS
330
17
102
}
100
AcDbMlineStyle
  2
STANDARD
 70
0
  3

 62
256
 51
90.0
 52
90.0
 71
2
 49
0.5
 62
256
  6
BYLAYER
 49
-0.5
 62
256
  6
BYLAYER
  0
LAYOUT
  5
340
102
{ACAD_REACTORS
330
1A
102
}
100
AcDbPlotSettings
  1

  2
none_device
  4

  6

 40
0.0
 41
0.0
 42
0.0
 43
0.0
 44
210.0
 45
297.0
 46
0.0
 47
0.0
 48
0.0
 49
0.0
140
0.0
141
0.0
142
1.0
143
1.0
 70
1024
 72
1
 73
0
 74
0
  7

 75
0
147
1.0
148
0.0
149
0.0
100
AcDbLayout
  1
Model
 70
0
 71
0
 10
0.0
 20
0.0
 11
210.0
 21
297.0
 12
0.0
 22
0.0
 32
0.0
 14
0.0
 24
0.0
 34
0.0
 15
0.0
 25
0.0
 35
0.0
146
0.0
 13
0.0
 23
0.0
 33
0.0
 16
1.0
 26
0.0
 36
0.0
 17
0.0
 27
1.0
 37
0.0
 76
0
330
210
345
0
346
0
  0
LAYOUT
  5
341
102
{ACAD_REACTORS
330
1A
102
}
100
AcDbPlotSettings
  1

  2
none_device
  4

  6

 40
0.0
 41
0.0
 42
0.0
 43
0.0
 44
210.0
 45
297.0
 46
0.0
 47
0.0
 48
0.0
 49
0.0
140
0.0
141
0.0
142
1.0
143
1.0
 70
0
 72
1
 73
0
 74
0
  7

 75
0
147
1.0
148
0.0
149
0.0
100
AcDbLayout
  1
Layout1
 70
0
 71
1
 10
0.0
 20
0.0
 11
210.0
 21
297.0
 12
0.0
 22
0.0
 32
0.0
 14
0.0
 24
0.0
 34
0.0
 15
0.0
 25
0.0
 35
0.0
146
0.0
 13
0.0
 23
0.0
 33
0.0
 16
1.0
 26
0.0
 36
0.0
 17
0.0
 27
1.0
 37
0.0
 76
0
330
211
345
0
346
0
  0
ENDSEC
  0
EOF
