999
DXF file: C:\Users\sesa63760\Dev\_Creo\CAD\MCADID0000493_3D-CAD\drw0001_3.dxf
999
Pro/ENGINEER 2019471 by Parametric Technology Corporation
  0
SECTION
  2
HEADER
  9
$ACADVER
  1
AC1024
  9
$DWGCODEPAGE
  3
ANSI_1252
  9
$EXTMAX
 10
23771.5487307475
 20
33619.7617763429
 30
0.0
  9
$EXTMIN
 10
0.0
 20
0.0
 30
0.0
  9
$LIMMIN
 10
0.0
 20
0.0
  9
$LIMMAX
 10
23771.5487307475
 20
33619.7617763429
  9
$VIEWCTR
 10
11885.7743653738
 20
16809.8808881715
  9
$VIEWSIZE
 40
33619.7617763429
  9
$CLAYER
  8
0
  9
$LTSCALE
 40
2191.5103972727
  9
$CELTYPE
  6
BYLAYER
  9
$DIMSCALE
 40
1.0
  9
$DIMASZ
 40
282.994627747
  9
$DIMEXO
 40
1.0
  9
$DIMDLI
 40
1514.1344562975
  9
$DIMEXE
 40
1.0
  9
$DIMCEN
 40
358.610792281
  9
$DIMLFAC
 40
1.0
  9
$DIMBLK
  1
_FILLED
  9
$DIMALT
 70
0
  9
$DIMALTF
 40
0.0393700787
  9
$DIMTXT
 40
396.1924788458
  9
$DIMTOL
 70
1
  9
$DIMLIM
 70
0
  9
$DIMTFAC
 40
1.0
  9
$DIMTP
 40
0.01
  9
$DIMTM
 40
0.01
  9
$DIMGAP
 40
0.625
  9
$DIMDSEP
 70
46
  9
$AUNITS
 70
0
  9
$PDMODE
 70
3
  9
$PDSIZE
 40
0.3125
  9
$HANDSEED
  5
3AB
  9
$TILEMODE
 70
1
  9
$MEASUREMENT
 70
1
  9
$INSUNITS
 70
4
  0
ENDSEC
  0
SECTION
  2
CLASSES
  0
CLASS
  1
ACDBDICTIONARYWDFLT
  2
AcDbDictionaryWithDefault
  3
AutoCAD 2000
 90
0
 91
1
280
0
281
0
  0
CLASS
  1
ACDBPLACEHOLDER
  2
AcDbPlaceHolder
  3
AutoCAD 2000
 90
0
 91
1
280
0
281
0
  0
CLASS
  1
LAYOUT
  2
AcDbLayout
  3
AutoCAD 2000
 90
0
 91
0
280
0
281
0
  0
ENDSEC
  0
SECTION
  2
TABLES
  0
TABLE
  2
VPORT
  5
8
100
AcDbSymbolTable
 70
2
  0
VPORT
  5
1F4
100
AcDbSymbolTableRecord
100
AcDbViewportTableRecord
  2
*ACTIVE
 70
0
 10
0.0
 20
0.0
 11
1.0
 21
1.0
 12
11885.7743653738
 22
16809.8808881715
 13
0.0
 23
0.0
 14
1.0
 24
1.0
 15
0.0
 25
0.0
 16
0.0
 26
0.0
 36
1.0
 17
0.0
 27
0.0
 37
0.0
 40
33619.7617763429
 41
0.7070707071
 42
50.0
 43
0.0
 44
0.0
 50
0.0
 51
0.0
 71
0
 72
100
 73
1
 74
1
 75
0
 76
0
 77
0
 78
0
  0
ENDTAB
  0
TABLE
  2
LTYPE
  5
5
100
AcDbSymbolTable
 70
6
  0
LTYPE
  5
14
100
AcDbSymbolTableRecord
100
AcDbLinetypeTableRecord
  2
BYBLOCK
 70
0
  3

 72
65
 73
0
 40
0.0
  0
LTYPE
  5
15
100
AcDbSymbolTableRecord
100
AcDbLinetypeTableRecord
  2
BYLAYER
 70
0
  3

 72
65
 73
0
 40
0.0
  0
LTYPE
  5
16
100
AcDbSymbolTableRecord
100
AcDbLinetypeTableRecord
  2
CONTINUOUS
 70
64
  3
Solid line
 72
65
 73
0
 40
0.0
  0
LTYPE
  5
1F5
100
AcDbSymbolTableRecord
100
AcDbLinetypeTableRecord
  2
CENTER
 70
64
  3
____ _ ____ _ ____ _ ____ _ ____ _ ____ _ ____
 72
65
 73
4
 40
0.6
 49
0.375
 74
0
 49
-0.075
 74
0
 49
0.075
 74
0
 49
-0.075
 74
0
  0
LTYPE
  5
1F6
100
AcDbSymbolTableRecord
100
AcDbLinetypeTableRecord
  2
HIDDEN
 70
64
  3
- - - - - - - - - - - - - - - - - - - -
 72
65
 73
2
 40
0.2
 49
0.1
 74
0
 49
-0.1
 74
0
  0
LTYPE
  5
1F7
100
AcDbSymbolTableRecord
100
AcDbLinetypeTableRecord
  2
PHANTOM
 70
64
  3
_____ _ _ _____ _ _ _____ _ _ _____
 72
65
 73
6
 40
0.8
 49
0.45
 74
0
 49
-0.05
 74
0
 49
0.1
 74
0
 49
-0.05
 74
0
 49
0.1
 74
0
 49
-0.05
 74
0
  0
LTYPE
  5
1F8
100
AcDbSymbolTableRecord
100
AcDbLinetypeTableRecord
  2
DOT
 70
64
  3
. . . . . . . . . . . . . . . . . . . .
 72
65
 73
2
 40
0.2
 49
0.1
 74
0
 49
-0.1
 74
0
  0
LTYPE
  5
1F9
100
AcDbSymbolTableRecord
100
AcDbLinetypeTableRecord
  2
DASHED
 70
64
  3
- - - - - - - - - - - - - - - - - - - -
 72
65
 73
2
 40
0.2
 49
0.1
 74
0
 49
-0.1
 74
0
  0
ENDTAB
  0
TABLE
  2
LAYER
  5
2
100
AcDbSymbolTable
 70
36
  0
LAYER
  5
10
100
AcDbSymbolTableRecord
100
AcDbLayerTableRecord
  2
0
 70
0
 62
7
  6
CONTINUOUS
370
-3
390
F
  0
LAYER
  5
1FA
100
AcDbSymbolTableRecord
100
AcDbLayerTableRecord
  2
DEFAULT_1
 70
0
 62
7
  6
CENTER
370
-3
390
F
  0
LAYER
  5
1FB
100
AcDbSymbolTableRecord
100
AcDbLayerTableRecord
  2
DEFAULT_2
 70
0
 62
8
  6
HIDDEN
370
-3
390
F
  0
LAYER
  5
1FC
100
AcDbSymbolTableRecord
100
AcDbLayerTableRecord
  2
DEFAULT_3
 70
0
 62
7
  6
PHANTOM
370
-3
390
F
  0
LAYER
  5
1FD
100
AcDbSymbolTableRecord
100
AcDbLayerTableRecord
  2
00_COMPONENTS
 70
0
 62
7
  6
CONTINUOUS
370
-3
390
F
  0
LAYER
  5
1FE
100
AcDbSymbolTableRecord
100
AcDbLayerTableRecord
  2
01_1_DEFAULT_DATUMS
 70
0
 62
7
  6
CONTINUOUS
370
-3
390
F
  0
LAYER
  5
1FF
100
AcDbSymbolTableRecord
100
AcDbLayerTableRecord
  2
01_PLANES
 70
0
 62
7
  6
CONTINUOUS
370
-3
390
F
  0
LAYER
  5
200
100
AcDbSymbolTableRecord
100
AcDbLayerTableRecord
  2
02_COORD_SYS
 70
0
 62
7
  6
CONTINUOUS
370
-3
390
F
  0
LAYER
  5
201
100
AcDbSymbolTableRecord
100
AcDbLayerTableRecord
  2
03_AXES
 70
0
 62
7
  6
CONTINUOUS
370
-3
390
F
  0
LAYER
  5
202
100
AcDbSymbolTableRecord
100
AcDbLayerTableRecord
  2
04_POINTS
 70
0
 62
7
  6
CONTINUOUS
370
-3
390
F
  0
LAYER
  5
203
100
AcDbSymbolTableRecord
100
AcDbLayerTableRecord
  2
05_CURVES
 70
0
 62
7
  6
CONTINUOUS
370
-3
390
F
  0
LAYER
  5
204
100
AcDbSymbolTableRecord
100
AcDbLayerTableRecord
  2
06_SURFS
 70
0
 62
7
  6
CONTINUOUS
370
-3
390
F
  0
LAYER
  5
205
100
AcDbSymbolTableRecord
100
AcDbLayerTableRecord
  2
07_COSMETICS
 70
0
 62
7
  6
CONTINUOUS
370
-3
390
F
  0
LAYER
  5
206
100
AcDbSymbolTableRecord
100
AcDbLayerTableRecord
  2
10_NOTES
 70
0
 62
7
  6
CONTINUOUS
370
-3
390
F
  0
LAYER
  5
207
100
AcDbSymbolTableRecord
100
AcDbLayerTableRecord
  2
11_NOTES_PUB
 70
0
 62
7
  6
CONTINUOUS
370
-3
390
F
  0
LAYER
  5
208
100
AcDbSymbolTableRecord
100
AcDbLayerTableRecord
  2
13_REF_GTOL
 70
0
 62
7
  6
CONTINUOUS
370
-3
390
F
  0
LAYER
  5
209
100
AcDbSymbolTableRecord
100
AcDbLayerTableRecord
  2
16_MISC
 70
0
 62
7
  6
CONTINUOUS
370
-3
390
F
  0
LAYER
  5
20A
100
AcDbSymbolTableRecord
100
AcDbLayerTableRecord
  2
17_NO_PRINT
 70
0
 62
7
  6
CONTINUOUS
370
-3
390
F
  0
LAYER
  5
20B
100
AcDbSymbolTableRecord
100
AcDbLayerTableRecord
  2
18_DATUM_CAMS_JOINTS
 70
0
 62
7
  6
CONTINUOUS
370
-3
390
F
  0
LAYER
  5
20C
100
AcDbSymbolTableRecord
100
AcDbLayerTableRecord
  2
19_DATUM_FUNCTIONAL
 70
0
 62
7
  6
CONTINUOUS
370
-3
390
F
  0
LAYER
  5
20D
100
AcDbSymbolTableRecord
100
AcDbLayerTableRecord
  2
20_DATUM_KINEMATIC_SCHEME
 70
0
 62
7
  6
CONTINUOUS
370
-3
390
F
  0
ENDTAB
  0
TABLE
  2
STYLE
  5
3
100
AcDbSymbolTable
 70
1
  0
STYLE
  5
11
100
AcDbSymbolTableRecord
100
AcDbTextStyleTableRecord
  2
STANDARD
 70
0
 40
0.0
 41
0.8
 50
0.0
 71
0
 42
0.2
  3
txt
  4

  0
STYLE
  5
20E
100
AcDbSymbolTableRecord
100
AcDbTextStyleTableRecord
  2
TEXTSTYLE_1
 70
0
 40
0.0
 41
0.8
 50
0.0
 71
0
 42
0.2
  3
gdt
  4

  0
ENDTAB
  0
TABLE
  2
VIEW
  5
6
100
AcDbSymbolTable
 70
0
  0
ENDTAB
  0
TABLE
  2
UCS
  5
7
100
AcDbSymbolTable
 70
0
  0
ENDTAB
  0
TABLE
  2
APPID
  5
9
100
AcDbSymbolTable
 70
1
  0
APPID
  5
20F
100
AcDbSymbolTableRecord
100
AcDbRegAppTableRecord
  2
ACAD
 70
0
  0
ENDTAB
  0
TABLE
  2
BLOCK_RECORD
  5
1
100
AcDbSymbolTable
 70
0
  0
BLOCK_RECORD
  5
210
100
AcDbSymbolTableRecord
100
AcDbBlockTableRecord
  2
*Model_Space
  0
BLOCK_RECORD
  5
211
100
AcDbSymbolTableRecord
100
AcDbBlockTableRecord
  2
*Paper_Space
  0
BLOCK_RECORD
  5
212
100
AcDbSymbolTableRecord
100
AcDbBlockTableRecord
  2
_FILLED
  0
ENDTAB
  0
TABLE
  2
DIMSTYLE
  5
A
100
AcDbSymbolTable
 70
1
100
AcDbDimStyleTable
 71
0
  0
DIMSTYLE
105
213
100
AcDbSymbolTableRecord
100
AcDbDimStyleTableRecord
  2
STANDARD
 70
0
  3

  4

 40
1.0
 41
282.994627747
 42
1.0
 43
0.38
 44
1.0
 45
0.0
 46
0.0
 47
0.01
 48
0.01
140
396.1924788458
141
0.09
142
0.0
143
25.4
144
1.0
145
0.0
146
1.0
147
0.625
 71
1
 72
0
 73
0
 74
0
 75
0
 76
0
 77
1
 78
8
 79
2
170
0
171
1
172
0
173
0
174
0
175
0
176
0
177
0
178
0
270
2
179
2
271
2
272
2
273
2
274
2
275
0
280
0
281
0
282
0
283
1
284
8
285
0
286
0
287
3
288
0
340
11
278
46
341
212
342
212
343
212
344
212
  0
ENDTAB
  0
ENDSEC
  0
SECTION
  2
BLOCKS
  0
BLOCK
  5
20
100
AcDbEntity
  8
0
100
AcDbBlockBegin
  2
*Model_Space
 70
0
 10
0.0
 20
0.0
 30
0.0
  3
*Model_Space
  1

  0
ENDBLK
  5
21
100
AcDbEntity
  8
0
100
AcDbBlockEnd
  0
BLOCK
  5
1C
100
AcDbEntity
  8
0
100
AcDbBlockBegin
  2
*Paper_Space
 70
0
 10
0.0
 20
0.0
 30
0.0
  3
*Paper_Space
  1

  0
ENDBLK
  5
1D
100
AcDbEntity
  8
0
100
AcDbBlockEnd
  0
BLOCK
  5
214
100
AcDbEntity
  8
0
100
AcDbBlockBegin
  2
_FILLED
 70
64
 10
0.0
 20
0.0
  3
_FILLED
  1

  0
SOLID
  5
215
100
AcDbEntity
  8
0
  6
BYBLOCK
 62
0
100
AcDbTrace
 10
0.0
 20
0.0
 11
-1.0
 21
0.25
 12
-1.0
 22
-0.25
 13
-1.0
 23
-0.25
  0
ENDBLK
  5
216
100
AcDbEntity
  8
0
  6
BYBLOCK
 62
0
100
AcDbBlockEnd
  0
ENDSEC
  0
SECTION
  2
ENTITIES
  0
LINE
  5
217
100
AcDbEntity
  8
0
100
AcDbLine
 62
7
  6
CONTINUOUS
 10
2812.142209092
 20
19994.7814065929
 11
2812.142209092
 21
10944.7814065929
  0
LINE
  5
218
100
AcDbEntity
  8
0
100
AcDbLine
 62
7
  6
CONTINUOUS
 10
2817.8106690563
 20
19989.6115720293
 11
2817.8106690563
 21
10939.6115720256
  0
LINE
  5
219
100
AcDbEntity
  8
0
100
AcDbLine
 62
7
  6
CONTINUOUS
 10
2869.6071322907
 20
19942.5238781732
 11
2869.6071322907
 21
10986.6992658728
  0
LINE
  5
21A
100
AcDbEntity
  8
0
100
AcDbLine
 62
7
  6
CONTINUOUS
 10
2969.552289212
 20
11086.6448757429
 11
2969.552289212
 21
19842.5782683329
  0
LINE
  5
21B
100
AcDbEntity
  8
0
100
AcDbLine
 62
7
  6
CONTINUOUS
 10
4066.125547962
 20
11641.3575808804
 11
4098.313147782
 21
11609.1693275388
  0
LINE
  5
21C
100
AcDbEntity
  8
0
100
AcDbLine
 62
7
  6
CONTINUOUS
 10
4166.0646019088
 20
11741.2966931199
 11
4198.2528471161
 21
11709.105479046
  0
LINE
  5
21D
100
AcDbEntity
  8
0
100
AcDbLine
 62
7
  6
CONTINUOUS
 10
3569.495790152
 20
12337.8654945902
 11
3537.307746246
 21
12370.0536005092
  0
LINE
  5
21E
100
AcDbEntity
  8
0
100
AcDbLine
 62
7
  6
CONTINUOUS
 10
3469.5567741522
 20
12237.9264509342
 11
3437.3686048616
 21
12270.1176652117
  0
LINE
  5
21F
100
AcDbEntity
  8
0
100
AcDbLine
 62
7
  6
CONTINUOUS
 10
3165.8844525675
 20
13034.5080286229
 11
3164.9084695364
 21
13649.6115719929
  0
LINE
  5
220
100
AcDbEntity
  8
0
100
AcDbLine
 62
7
  6
CONTINUOUS
 10
3867.9540721215
 20
13649.6115719929
 11
3867.9948383955
 21
13339.6119451431
  0
LINE
  5
221
100
AcDbEntity
  8
0
100
AcDbLine
 62
7
  6
CONTINUOUS
 10
3437.3684541474
 20
11709.1354796275
 11
3437.3686048579
 21
12270.096260947
  0
LINE
  5
222
100
AcDbEntity
  8
0
100
AcDbLine
 62
7
  6
CONTINUOUS
 10
3469.5566410159
 20
11741.2966931229
 11
3469.5567741522
 21
12237.9264509342
  0
LINE
  5
223
100
AcDbEntity
  8
0
100
AcDbLine
 62
7
  6
CONTINUOUS
 10
3867.9540721213
 20
13649.6115719929
 11
3867.9948853854
 21
16439.611098647
  0
LINE
  5
224
100
AcDbEntity
  8
0
100
AcDbLine
 62
7
  6
CONTINUOUS
 10
4166.0646591286
 20
12237.9264509329
 11
4166.0646019088
 21
11741.2966931199
  0
LINE
  5
225
100
AcDbEntity
  8
0
100
AcDbLine
 62
7
  6
CONTINUOUS
 10
4198.2529118981
 20
12270.0874630545
 11
4198.2528471255
 21
11709.1289272622
  0
LINE
  5
226
100
AcDbEntity
  8
0
100
AcDbLine
 62
7
  6
CONTINUOUS
 10
4652.840451282
 20
13089.7035211364
 11
4652.840451282
 21
13034.5080286229
  0
LINE
  5
227
100
AcDbEntity
  8
0
100
AcDbLine
 62
7
  6
CONTINUOUS
 10
5302.3088961735
 20
22643.5315269629
 11
5299.922048492
 21
23189.2929573529
  0
LINE
  5
228
100
AcDbEntity
  8
0
100
AcDbLine
 62
7
  6
CONTINUOUS
 10
5351.8722242504
 20
22594.9514732949
 11
5352.2129937923
 21
22491.0975132339
  0
LINE
  5
229
100
AcDbEntity
  8
0
100
AcDbLine
 62
7
  6
CONTINUOUS
 10
5367.9649794587
 20
12189.6114958646
 11
5367.8327371579
 21
12939.5633722804
  0
LINE
  5
22A
100
AcDbEntity
  8
0
100
AcDbLine
 62
7
  6
CONTINUOUS
 10
4812.142209132
 20
11086.6448757429
 11
4812.142209132
 21
10939.5814065929
  0
LINE
  5
22B
100
AcDbEntity
  8
0
100
AcDbLine
 62
7
  6
CONTINUOUS
 10
4812.142209092
 20
19842.5782683328
 11
4812.142209112
 21
23438.9272110029
  0
LINE
  5
22C
100
AcDbEntity
  8
0
100
AcDbLine
 62
7
  6
CONTINUOUS
 10
4862.142209092
 20
10939.5814065929
 11
4862.142209092
 21
10344.7814065929
  0
LINE
  5
22D
100
AcDbEntity
  8
0
100
AcDbLine
 62
7
  6
CONTINUOUS
 10
4862.1422239253
 20
23439.6115719058
 11
4862.1422239372
 21
23444.7814065912
  0
LINE
  5
22E
100
AcDbEntity
  8
0
100
AcDbLine
 62
7
  6
CONTINUOUS
 10
4867.8103200155
 20
20002.161651527
 11
4867.8106828685
 21
21552.161651527
  0
LINE
  5
22F
100
AcDbEntity
  8
0
100
AcDbLine
 62
7
  6
CONTINUOUS
 10
4867.810669052
 20
10939.5814065929
 11
4867.810669052
 21
10339.6115720242
  0
LINE
  5
230
100
AcDbEntity
  8
0
100
AcDbLine
 62
7
  6
CONTINUOUS
 10
4877.810669052
 20
22014.6113580283
 11
4877.810669052
 21
22484.6114447067
  0
LINE
  5
231
100
AcDbEntity
  8
0
100
AcDbLine
 62
7
  6
CONTINUOUS
 10
4914.888964409
 20
20002.1616405024
 11
4914.8893272619
 21
21552.1616405052
  0
LINE
  5
232
100
AcDbEntity
  8
0
100
AcDbLine
 62
7
  6
CONTINUOUS
 10
4914.8893043377
 20
10939.5814065929
 11
4914.8893043377
 21
10391.3980708385
  0
LINE
  5
233
100
AcDbEntity
  8
0
100
AcDbLine
 62
7
  6
CONTINUOUS
 10
5014.8436332955
 20
20002.1616171069
 11
5014.8439961485
 21
21552.1616171029
  0
LINE
  5
234
100
AcDbEntity
  8
0
100
AcDbLine
 62
7
  6
CONTINUOUS
 10
5014.843972752
 20
10491.3531921829
 11
5014.843972752
 21
10939.5814065929
  0
LINE
  5
235
100
AcDbEntity
  8
0
100
AcDbLine
 62
7
  6
CONTINUOUS
 10
5094.352816732
 20
20665.9844467531
 11
5094.352816732
 21
21228.4027147681
  0
LINE
  5
236
100
AcDbEntity
  8
0
100
AcDbLine
 62
7
  6
CONTINUOUS
 10
5117.810669052
 20
19989.6115720229
 11
5117.810669052
 21
20389.6115720229
  0
LINE
  5
237
100
AcDbEntity
  8
0
100
AcDbLine
 62
7
  6
CONTINUOUS
 10
5172.604371032
 20
21369.6115720229
 11
5172.604371032
 21
21325.8769894639
  0
LINE
  5
238
100
AcDbEntity
  8
0
100
AcDbLine
 62
7
  6
CONTINUOUS
 10
5172.604371032
 20
20568.517731411
 11
5172.604371032
 21
20389.6115720229
  0
LINE
  5
239
100
AcDbEntity
  8
0
100
AcDbLine
 62
7
  6
CONTINUOUS
 10
5216.357281112
 20
20389.6115720229
 11
5216.357281112
 21
20568.9161321696
  0
LINE
  5
23A
100
AcDbEntity
  8
0
100
AcDbLine
 62
7
  6
CONTINUOUS
 10
5216.357281112
 20
21328.1281577567
 11
5216.357281112
 21
21369.6115720229
  0
LINE
  5
23B
100
AcDbEntity
  8
0
100
AcDbLine
 62
7
  6
CONTINUOUS
 10
5368.016520882
 20
21369.6115720229
 11
5368.016520882
 21
21319.5818096933
  0
LINE
  5
23C
100
AcDbEntity
  8
0
100
AcDbLine
 62
7
  6
CONTINUOUS
 10
5368.0165208815
 20
20389.6115720229
 11
5368.0165208815
 21
20576.6299506429
  0
LINE
  5
23D
100
AcDbEntity
  8
0
100
AcDbLine
 62
7
  6
CONTINUOUS
 10
5367.8158233637
 20
16839.6260292732
 11
5368.0165209589
 21
19989.6115720229
  0
LINE
  5
23E
100
AcDbEntity
  8
0
100
AcDbLine
 62
7
  6
CONTINUOUS
 10
5352.2129937923
 20
22491.0975132339
 11
5352.0048029122
 21
22344.4630103955
  0
LINE
  5
23F
100
AcDbEntity
  8
0
100
AcDbLine
 62
7
  6
CONTINUOUS
 10
5351.7536148152
 20
22167.5443981855
 11
5351.0216809482
 21
21652.0234557183
  0
LINE
  5
240
100
AcDbEntity
  8
0
100
AcDbLine
 62
7
  6
CONTINUOUS
 10
5499.332183392
 20
23390.7620975449
 11
5499.332183392
 21
23438.9272110006
  0
LINE
  5
241
100
AcDbEntity
  8
0
100
AcDbLine
 62
7
  6
CONTINUOUS
 10
5980.792290442
 20
20676.5708267829
 11
5980.792290442
 21
21217.8280498529
  0
LINE
  5
242
100
AcDbEntity
  8
0
100
AcDbLine
 62
7
  6
CONTINUOUS
 10
6012.142209092
 20
23439.6115719058
 11
6012.142209092
 21
23444.7814065929
  0
LINE
  5
243
100
AcDbEntity
  8
0
100
AcDbLine
 62
7
  6
CONTINUOUS
 10
16912.2240808545
 20
10847.6750204162
 11
16671.0943495231
 21
10839.2652803897
  0
LINE
  5
244
100
AcDbEntity
  8
0
100
AcDbLine
 62
7
  6
CONTINUOUS
 10
17079.124235062
 20
10894.7814065934
 11
17937.6011481722
 21
10909.7661768512
  0
LINE
  5
245
100
AcDbEntity
  8
0
100
AcDbLine
 62
7
  6
CONTINUOUS
 10
17078.5714009893
 20
10926.4532492665
 11
17906.0178937444
 21
10940.8963815222
  0
LINE
  5
246
100
AcDbEntity
  8
0
100
AcDbLine
 62
7
  6
CONTINUOUS
 10
19567.810669052
 20
10339.5814065929
 11
4867.810669052
 21
10339.5814065929
  0
LINE
  5
247
100
AcDbEntity
  8
0
100
AcDbLine
 62
7
  6
CONTINUOUS
 10
4867.810669052
 20
10344.7814065929
 11
4862.1422090921
 21
10344.7814065929
  0
LINE
  5
248
100
AcDbEntity
  8
0
100
AcDbLine
 62
7
  6
CONTINUOUS
 10
4914.8983631626
 20
10391.4080355534
 11
19520.7229749361
 21
10391.4080355534
  0
LINE
  5
249
100
AcDbEntity
  8
0
100
AcDbLine
 62
7
  6
CONTINUOUS
 10
19420.777365362
 20
10491.3531921829
 11
5014.843972752
 21
10491.3531921829
  0
LINE
  5
24A
100
AcDbEntity
  8
0
100
AcDbLine
 62
7
  6
CONTINUOUS
 10
18117.810669052
 20
10829.6115719629
 11
15417.810669052
 21
10829.6115719629
  0
LINE
  5
24B
100
AcDbEntity
  8
0
100
AcDbLine
 62
7
  6
CONTINUOUS
 10
8217.810669052
 20
10829.6115719629
 11
6317.810669052
 21
10829.6115719629
  0
LINE
  5
24C
100
AcDbEntity
  8
0
100
AcDbLine
 62
7
  6
CONTINUOUS
 10
15978.2517801701
 20
10832.1911890731
 11
16321.5896228586
 21
10832.1911890731
  0
LINE
  5
24D
100
AcDbEntity
  8
0
100
AcDbLine
 62
7
  6
CONTINUOUS
 10
6482.1422090387
 20
11294.781406593
 11
6489.124235002
 21
10894.7814065929
  0
LINE
  5
24E
100
AcDbEntity
  8
0
100
AcDbLine
 62
7
  6
CONTINUOUS
 10
6882.2031402476
 20
11294.7814065929
 11
6889.1851662109
 21
10894.7814065929
  0
LINE
  5
24F
100
AcDbEntity
  8
0
100
AcDbLine
 62
7
  6
CONTINUOUS
 10
6317.810669052
 20
10829.6115719629
 11
6317.810669052
 21
11349.6115720729
  0
LINE
  5
250
100
AcDbEntity
  8
0
100
AcDbLine
 62
7
  6
CONTINUOUS
 10
16612.1422090919
 20
11104.3276866992
 11
16321.3546102586
 21
11094.1731599893
  0
LINE
  5
251
100
AcDbEntity
  8
0
100
AcDbLine
 62
7
  6
CONTINUOUS
 10
16662.3747838425
 20
11088.9609718799
 11
16752.2359156794
 21
11092.0947298603
  0
LINE
  5
252
100
AcDbEntity
  8
0
100
AcDbLine
 62
7
  6
CONTINUOUS
 10
15968.6614101129
 20
11081.8868805597
 11
16321.3546101932
 21
11094.1731599834
  0
LINE
  5
253
100
AcDbEntity
  8
0
100
AcDbLine
 62
7
  6
CONTINUOUS
 10
17176.5443973567
 20
11094.781406596
 11
17075.6639582546
 21
11093.0205319815
  0
LINE
  5
254
100
AcDbEntity
  8
0
100
AcDbLine
 62
7
  6
CONTINUOUS
 10
7805.160183122
 20
10894.7814065929
 11
6489.124235002
 21
10894.7814065929
  0
LINE
  5
255
100
AcDbEntity
  8
0
100
AcDbLine
 62
7
  6
CONTINUOUS
 10
5014.8439727521
 20
10939.5814065929
 11
4812.1422091311
 21
10939.5814065929
  0
LINE
  5
256
100
AcDbEntity
  8
0
100
AcDbLine
 62
7
  6
CONTINUOUS
 10
19420.777365362
 20
10939.5814065929
 11
19582.142209092
 21
10939.5814065929
  0
LINE
  5
257
100
AcDbEntity
  8
0
100
AcDbLine
 62
7
  6
CONTINUOUS
 10
4812.142209092
 20
10939.6115720229
 11
2817.810669052
 21
10939.6115720229
  0
LINE
  5
258
100
AcDbEntity
  8
0
100
AcDbLine
 62
7
  6
CONTINUOUS
 10
19582.142209092
 20
10939.611572021
 11
21617.8106686616
 21
10939.611572021
  0
LINE
  5
259
100
AcDbEntity
  8
0
100
AcDbLine
 62
7
  6
CONTINUOUS
 10
2817.810669052
 20
10944.7814065881
 11
2812.1422090902
 21
10944.7814065881
  0
LINE
  5
25A
100
AcDbEntity
  8
0
100
AcDbLine
 62
7
  6
CONTINUOUS
 10
2869.5971675762
 20
10986.6902070469
 11
4812.1422091243
 21
10986.6902070469
  0
LINE
  5
25B
100
AcDbEntity
  8
0
100
AcDbLine
 62
7
  6
CONTINUOUS
 10
19582.142209092
 20
10986.6902070454
 11
21566.0241705561
 21
10986.6902070454
  0
LINE
  5
25C
100
AcDbEntity
  8
0
100
AcDbLine
 62
7
  6
CONTINUOUS
 10
16312.870057173
 20
11081.8868805632
 11
15968.6614101175
 21
11081.8868805632
  0
LINE
  5
25D
100
AcDbEntity
  8
0
100
AcDbLine
 62
7
  6
CONTINUOUS
 10
21466.069048902
 20
11086.6448757229
 11
19582.142209092
 21
11086.6448757229
  0
LINE
  5
25E
100
AcDbEntity
  8
0
100
AcDbLine
 62
7
  6
CONTINUOUS
 10
4812.142209132
 20
11086.6448757429
 11
2969.552289212
 21
11086.6448757429
  0
LINE
  5
25F
100
AcDbEntity
  8
0
100
AcDbLine
 62
7
  6
CONTINUOUS
 10
17942.1421650861
 20
11094.7814065929
 11
17898.0365268167
 21
11094.7814065929
  0
LINE
  5
260
100
AcDbEntity
  8
0
100
AcDbLine
 62
7
  6
CONTINUOUS
 10
17603.9595664772
 20
11094.7814065929
 11
16612.142209092
 21
11094.7814065929
  0
LINE
  5
261
100
AcDbEntity
  8
0
100
AcDbLine
 62
7
  6
CONTINUOUS
 10
15417.810669052
 20
11129.6115719629
 11
16217.810669052
 21
11129.6115719629
  0
LINE
  5
262
100
AcDbEntity
  8
0
100
AcDbLine
 62
7
  6
CONTINUOUS
 10
6482.142209032
 20
11294.7814065929
 11
7812.142209092
 21
11294.7814065929
  0
LINE
  5
263
100
AcDbEntity
  8
0
100
AcDbLine
 62
7
  6
CONTINUOUS
 10
16612.142209092
 20
11294.7814065929
 11
17942.0601083191
 21
11294.7814065929
  0
LINE
  5
264
100
AcDbEntity
  8
0
100
AcDbLine
 62
7
  6
CONTINUOUS
 10
6317.810669052
 20
11349.6115720729
 11
8217.810669052
 21
11349.6115720729
  0
LINE
  5
265
100
AcDbEntity
  8
0
100
AcDbLine
 62
7
  6
CONTINUOUS
 10
16217.810669052
 20
11349.6115720729
 11
18117.810669052
 21
11349.6115720729
  0
LINE
  5
266
100
AcDbEntity
  8
0
100
AcDbLine
 62
7
  6
CONTINUOUS
 10
4098.2865448621
 20
11609.1693275423
 11
3537.3280722624
 21
11609.169394744
  0
LINE
  5
267
100
AcDbEntity
  8
0
100
AcDbLine
 62
7
  6
CONTINUOUS
 10
19898.2882649132
 20
11609.169566457
 11
19337.3273970301
 21
11609.1695659889
  0
LINE
  5
268
100
AcDbEntity
  8
0
100
AcDbLine
 62
7
  6
CONTINUOUS
 10
19867.871586302
 20
11639.6115722355
 11
19367.749751807
 21
11639.611571819
  0
LINE
  5
269
100
AcDbEntity
  8
0
100
AcDbLine
 62
7
  6
CONTINUOUS
 10
4066.125547962
 20
11641.3575808804
 11
3569.495790152
 21
11641.357640246
  0
LINE
  5
26A
100
AcDbEntity
  8
0
100
AcDbLine
 62
7
  6
CONTINUOUS
 10
7505.1144847031
 20
10894.7814065929
 11
7512.0965106744
 21
11294.7814065929
  0
LINE
  5
26B
100
AcDbEntity
  8
0
100
AcDbLine
 62
7
  6
CONTINUOUS
 10
16055.114504872
 20
11689.6115720229
 11
15857.810669092
 21
11689.6115720229
  0
LINE
  5
26C
100
AcDbEntity
  8
0
100
AcDbLine
 62
7
  6
CONTINUOUS
 10
14977.810669022
 20
11689.6115720229
 11
14780.506833232
 21
11689.6115720229
  0
LINE
  5
26D
100
AcDbEntity
  8
0
100
AcDbLine
 62
7
  6
CONTINUOUS
 10
15808.0009341396
 20
11839.6115720229
 11
15027.6194685115
 21
11839.6115720229
  0
LINE
  5
26E
100
AcDbEntity
  8
0
100
AcDbLine
 62
7
  6
CONTINUOUS
 10
15667.142209162
 20
11899.7814066629
 11
15627.142209132
 21
11899.7814066629
  0
LINE
  5
26F
100
AcDbEntity
  8
0
100
AcDbLine
 62
7
  6
CONTINUOUS
 10
15197.142209052
 20
11899.7814066629
 11
15157.142209022
 21
11899.7814066629
  0
LINE
  5
270
100
AcDbEntity
  8
0
100
AcDbLine
 62
7
  6
CONTINUOUS
 10
12648.2867129251
 20
11909.169357589
 11
12087.3279236987
 21
11909.1695073577
  0
LINE
  5
271
100
AcDbEntity
  8
0
100
AcDbLine
 62
7
  6
CONTINUOUS
 10
15607.142209022
 20
11919.7814065929
 11
15217.142209162
 21
11919.7814065929
  0
LINE
  5
272
100
AcDbEntity
  8
0
100
AcDbLine
 62
7
  6
CONTINUOUS
 10
12617.871586305
 20
11939.6115053957
 11
12117.7497518039
 21
11939.6116386598
  0
LINE
  5
273
100
AcDbEntity
  8
0
100
AcDbLine
 62
7
  6
CONTINUOUS
 10
10717.8103900516
 20
11939.8010549619
 11
5617.8110535773
 21
11939.8011040552
  0
LINE
  5
274
100
AcDbEntity
  8
0
100
AcDbLine
 62
7
  6
CONTINUOUS
 10
15592.142209162
 20
12044.7814065929
 11
15302.1422091279
 21
12044.7814065929
  0
LINE
  5
275
100
AcDbEntity
  8
0
100
AcDbLine
 62
7
  6
CONTINUOUS
 10
15802.142209092
 20
12174.7814066629
 11
15737.142209092
 21
12174.7814066629
  0
LINE
  5
276
100
AcDbEntity
  8
0
100
AcDbLine
 62
7
  6
CONTINUOUS
 10
15087.142209092
 20
12174.7814066629
 11
15022.142209052
 21
12174.7814066629
  0
LINE
  5
277
100
AcDbEntity
  8
0
100
AcDbLine
 62
7
  6
CONTINUOUS
 10
3569.495790152
 20
12337.8654945902
 11
4066.1255479589
 21
12337.8655723974
  0
LINE
  5
278
100
AcDbEntity
  8
0
100
AcDbLine
 62
7
  6
CONTINUOUS
 10
19367.7497518027
 20
12339.6115719211
 11
19867.8715863093
 21
12339.6115721408
  0
LINE
  5
279
100
AcDbEntity
  8
0
100
AcDbLine
 62
7
  6
CONTINUOUS
 10
19337.3327074947
 20
12370.0535773495
 11
19898.2937091319
 21
12370.0535775964
  0
LINE
  5
27A
100
AcDbEntity
  8
0
100
AcDbLine
 62
7
  6
CONTINUOUS
 10
3537.3327751173
 20
12370.0536005141
 11
4098.2935396538
 21
12370.053688592
  0
LINE
  5
27B
100
AcDbEntity
  8
0
100
AcDbLine
 62
7
  6
CONTINUOUS
 10
15494.641408262
 20
12379.7813881135
 11
15329.643009922
 21
12379.7813806629
  0
LINE
  5
27C
100
AcDbEntity
  8
0
100
AcDbLine
 62
7
  6
CONTINUOUS
 10
8217.810669052
 20
11349.6115720729
 11
8217.810669052
 21
10829.6115719629
  0
LINE
  5
27D
100
AcDbEntity
  8
0
100
AcDbLine
 62
7
  6
CONTINUOUS
 10
7805.160183122
 20
10894.7814065929
 11
7812.1422090933
 21
11294.7814065929
  0
LINE
  5
27E
100
AcDbEntity
  8
0
100
AcDbLine
 62
7
  6
CONTINUOUS
 10
15022.142209092
 20
12437.2814065929
 11
15157.142209022
 21
12437.2814065929
  0
LINE
  5
27F
100
AcDbEntity
  8
0
100
AcDbLine
 62
7
  6
CONTINUOUS
 10
15667.142209162
 20
12437.2814065929
 11
15802.142209132
 21
12437.2814065929
  0
LINE
  5
280
100
AcDbEntity
  8
0
100
AcDbLine
 62
7
  6
CONTINUOUS
 10
12117.7497518041
 20
12639.6115329395
 11
12617.8715863049
 21
12639.6116111232
  0
LINE
  5
281
100
AcDbEntity
  8
0
100
AcDbLine
 62
7
  6
CONTINUOUS
 10
12087.3300429535
 20
12670.0536008792
 11
12648.2935414844
 21
12670.0536887465
  0
LINE
  5
282
100
AcDbEntity
  8
0
100
AcDbLine
 62
7
  6
CONTINUOUS
 10
4652.840451282
 20
13034.5080286229
 11
3165.8844525675
 21
13034.5080286229
  0
LINE
  5
283
100
AcDbEntity
  8
0
100
AcDbLine
 62
7
  6
CONTINUOUS
 10
4117.810669052
 20
13089.7763391329
 11
5217.2284185048
 21
13089.6267074695
  0
LINE
  5
284
100
AcDbEntity
  8
0
100
AcDbLine
 62
7
  6
CONTINUOUS
 10
2869.6071322907
 20
19942.5238781732
 11
2817.8106690563
 21
19989.6115720293
  0
LWPOLYLINE
  5
285
100
AcDbEntity
  8
0
100
AcDbPolyline
 62
7
  6
CONTINUOUS
 90
4
 70
0
 10
2909.552289243
 20
19902.578268304
 10
2927.3764300477
 20
19884.7354334174
 10
2947.5292731721
 20
19864.5924108127
 10
2969.552289212
 20
19842.5782683329
  0
LINE
  5
286
100
AcDbEntity
  8
0
100
AcDbLine
 62
7
  6
CONTINUOUS
 10
3164.9084695364
 20
13649.6115719929
 11
3867.9540721213
 21
13649.6115719929
  0
LINE
  5
287
100
AcDbEntity
  8
0
100
AcDbLine
 62
7
  6
CONTINUOUS
 10
12617.871586305
 20
11939.6115053957
 11
12648.313147825
 21
11909.1693575871
  0
LINE
  5
288
100
AcDbEntity
  8
0
100
AcDbLine
 62
7
  6
CONTINUOUS
 10
12117.7497518041
 20
12639.6115329395
 11
12087.3081902698
 21
12670.0536008773
  0
LINE
  5
289
100
AcDbEntity
  8
0
100
AcDbLine
 62
7
  6
CONTINUOUS
 10
12017.8106313925
 20
12539.6724892772
 11
11987.3685510594
 21
12570.1176659287
  0
LINE
  5
28A
100
AcDbEntity
  8
0
100
AcDbLine
 62
7
  6
CONTINUOUS
 10
12717.810639954
 20
12039.5506547794
 11
12748.2528459576
 21
12009.1054781865
  0
LWPOLYLINE
  5
28B
100
AcDbEntity
  8
0
100
AcDbPolyline
 62
7
  6
CONTINUOUS
 90
5
 70
0
 10
2969.5510000926
 20
11086.6448757383
 10
2965.7996818846
 20
11082.7945943308
 10
2957.2581429956
 20
11074.501146293
 10
2947.6072378812
 20
11064.6526984013
 10
2930.170300707
 20
11047.2814834646
  0
LINE
  5
28C
100
AcDbEntity
  8
0
100
AcDbLine
 62
7
  6
CONTINUOUS
 10
3469.5566410159
 20
11741.2966931229
 11
3437.3684541383
 21
11709.1090932529
  0
LINE
  5
28D
100
AcDbEntity
  8
0
100
AcDbLine
 62
7
  6
CONTINUOUS
 10
4166.0646591286
 20
12237.9264509329
 11
4198.2529118945
 21
12270.1140507929
  0
LINE
  5
28E
100
AcDbEntity
  8
0
100
AcDbLine
 62
7
  6
CONTINUOUS
 10
3569.495790152
 20
11641.357640246
 11
3537.304575212
 21
11609.1693947465
  0
LINE
  5
28F
100
AcDbEntity
  8
0
100
AcDbLine
 62
7
  6
CONTINUOUS
 10
4066.1255479589
 20
12337.8655723974
 11
4098.316762945
 21
12370.0536885947
  0
LINE
  5
290
100
AcDbEntity
  8
0
100
AcDbLine
 62
7
  6
CONTINUOUS
 10
2930.170300707
 20
11047.2814834646
 11
2909.5522893166
 21
11026.64487578
  0
LINE
  5
291
100
AcDbEntity
  8
0
100
AcDbLine
 62
7
  6
CONTINUOUS
 10
2869.5971675762
 20
10986.6902070469
 11
2817.8106690549
 21
10939.6115720243
  0
LINE
  5
292
100
AcDbEntity
  8
0
100
AcDbLine
 62
7
  6
CONTINUOUS
 10
19262.810668982
 20
14981.6430946829
 11
21555.3719043893
 21
14981.6430946829
  0
LINE
  5
293
100
AcDbEntity
  8
0
100
AcDbLine
 62
7
  6
CONTINUOUS
 10
20212.810668982
 20
15189.6115720229
 11
20423.332141412
 21
15189.6115720229
  0
LINE
  5
294
100
AcDbEntity
  8
0
100
AcDbLine
 62
7
  6
CONTINUOUS
 10
19262.810668982
 20
15339.6115720229
 11
20212.810668982
 21
15339.6115720229
  0
LINE
  5
295
100
AcDbEntity
  8
0
100
AcDbLine
 62
7
  6
CONTINUOUS
 10
17882.5835156938
 20
10972.8361570345
 11
17811.5762065749
 21
11022.3166419499
  0
LINE
  5
296
100
AcDbEntity
  8
0
100
AcDbLine
 62
7
  6
CONTINUOUS
 10
10967.6172826954
 20
21189.5978372757
 11
10967.7413971328
 21
12189.8382871644
  0
LINE
  5
297
100
AcDbEntity
  8
0
100
AcDbLine
 62
7
  6
CONTINUOUS
 10
4914.8983631626
 20
10391.4080355534
 11
4867.8106389781
 21
10339.6115389504
  0
LINE
  5
298
100
AcDbEntity
  8
0
100
AcDbLine
 62
7
  6
CONTINUOUS
 10
15657.142209022
 20
15604.7814065529
 11
15667.142209162
 21
15604.7814065529
  0
LINE
  5
299
100
AcDbEntity
  8
0
100
AcDbLine
 62
7
  6
CONTINUOUS
 10
15667.142209162
 20
15704.7814065529
 11
15657.142209022
 21
15704.7814065529
  0
LINE
  5
29A
100
AcDbEntity
  8
0
100
AcDbLine
 62
7
  6
CONTINUOUS
 10
15802.142209092
 20
15752.2814065229
 11
15667.142209162
 21
15752.2814065229
  0
LINE
  5
29B
100
AcDbEntity
  8
0
100
AcDbLine
 62
7
  6
CONTINUOUS
 10
15157.142209022
 20
15752.2814065229
 11
15022.142209052
 21
15752.2814065229
  0
LINE
  5
29C
100
AcDbEntity
  8
0
100
AcDbLine
 62
7
  6
CONTINUOUS
 10
15767.142209162
 20
15797.2814066329
 11
15667.142209162
 21
15797.2814066329
  0
LINE
  5
29D
100
AcDbEntity
  8
0
100
AcDbLine
 62
7
  6
CONTINUOUS
 10
15157.142209022
 20
15797.2814066329
 11
15057.142209022
 21
15797.2814066329
  0
LINE
  5
29E
100
AcDbEntity
  8
0
100
AcDbLine
 62
7
  6
CONTINUOUS
 10
15329.643009922
 20
15809.7814310328
 11
15494.641408262
 21
15809.7814325229
  0
LINE
  5
29F
100
AcDbEntity
  8
0
100
AcDbLine
 62
7
  6
CONTINUOUS
 10
15057.142209022
 20
15969.7814065929
 11
15157.142209022
 21
15969.7814065929
  0
LINE
  5
2A0
100
AcDbEntity
  8
0
100
AcDbLine
 62
7
  6
CONTINUOUS
 10
15667.142209162
 20
15969.7814065929
 11
15767.142209162
 21
15969.7814065929
  0
LINE
  5
2A1
100
AcDbEntity
  8
0
100
AcDbLine
 62
7
  6
CONTINUOUS
 10
15022.142209092
 20
16014.7814065179
 11
15087.142209092
 21
16014.7814065179
  0
LINE
  5
2A2
100
AcDbEntity
  8
0
100
AcDbLine
 62
7
  6
CONTINUOUS
 10
15737.142209092
 20
16014.7814065179
 11
15802.142209132
 21
16014.7814065179
  0
LINE
  5
2A3
100
AcDbEntity
  8
0
100
AcDbLine
 62
7
  6
CONTINUOUS
 10
15302.1422091279
 20
16144.7814065929
 11
15592.142209162
 21
16144.7814065929
  0
LINE
  5
2A4
100
AcDbEntity
  8
0
100
AcDbLine
 62
7
  6
CONTINUOUS
 10
5302.3088961727
 20
22643.5315269636
 11
5351.8722242504
 21
22594.9514732949
  0
LINE
  5
2A5
100
AcDbEntity
  8
0
100
AcDbLine
 62
7
  6
CONTINUOUS
 10
15087.1422090951
 20
12174.7814066629
 11
15157.142209022
 21
12104.7814065498
  0
LINE
  5
2A6
100
AcDbEntity
  8
0
100
AcDbLine
 62
7
  6
CONTINUOUS
 10
15607.1422090188
 20
11919.7814065929
 11
15627.1422091351
 21
11899.7814066629
  0
LINE
  5
2A7
100
AcDbEntity
  8
0
100
AcDbLine
 62
7
  6
CONTINUOUS
 10
6049.1081781668
 20
23400.0114508176
 11
6017.8106690559
 21
23439.6115719058
  0
LINE
  5
2A8
100
AcDbEntity
  8
0
100
AcDbLine
 62
7
  6
CONTINUOUS
 10
11917.810669055
 20
17119.6115720968
 11
11917.810669055
 21
18919.6115721065
  0
LINE
  5
2A9
100
AcDbEntity
  8
0
100
AcDbLine
 62
7
  6
CONTINUOUS
 10
11987.3686357159
 20
12009.1362838726
 11
11987.368551063
 21
12570.0966195516
  0
LINE
  5
2AA
100
AcDbEntity
  8
0
100
AcDbLine
 62
7
  6
CONTINUOUS
 10
12017.8107067164
 20
12039.5506547729
 11
12017.8106313925
 21
12539.6724892772
  0
LWPOLYLINE
  5
2AB
100
AcDbEntity
  8
0
100
AcDbPolyline
 62
7
  6
CONTINUOUS
 90
4
 70
0
 10
4914.8893043427
 20
10391.3538431389
 10
4934.1126310307
 20
10410.5664756961
 10
4955.3162695302
 20
10431.812883888
 10
5014.843972752
 20
10491.3531921829
  0
LINE
  5
2AC
100
AcDbEntity
  8
0
100
AcDbLine
 62
7
  6
CONTINUOUS
 10
4117.8105843504
 20
16689.4468203364
 11
5218.2588239709
 21
16689.5959293414
  0
LINE
  5
2AD
100
AcDbEntity
  8
0
100
AcDbLine
 62
7
  6
CONTINUOUS
 10
15217.142209162
 20
16269.7814065929
 11
15607.142209022
 21
16269.7814065929
  0
LINE
  5
2AE
100
AcDbEntity
  8
0
100
AcDbLine
 62
7
  6
CONTINUOUS
 10
15157.142209022
 20
16289.7814065179
 11
15197.142209052
 21
16289.7814065179
  0
LINE
  5
2AF
100
AcDbEntity
  8
0
100
AcDbLine
 62
7
  6
CONTINUOUS
 10
15627.142209132
 20
16289.7814065179
 11
15667.142209162
 21
16289.7814065179
  0
LINE
  5
2B0
100
AcDbEntity
  8
0
100
AcDbLine
 62
7
  6
CONTINUOUS
 10
15033.3751343717
 20
16339.5417248218
 11
15808.0009341496
 21
16339.611572032
  0
LINE
  5
2B1
100
AcDbEntity
  8
0
100
AcDbLine
 62
7
  6
CONTINUOUS
 10
14780.506833232
 20
16489.6115720269
 11
14977.810669022
 21
16489.6115720269
  0
LINE
  5
2B2
100
AcDbEntity
  8
0
100
AcDbLine
 62
7
  6
CONTINUOUS
 10
15857.810669092
 20
16489.6115720269
 11
16055.114504872
 21
16489.6115720269
  0
LINE
  5
2B3
100
AcDbEntity
  8
0
100
AcDbLine
 62
7
  6
CONTINUOUS
 10
19277.810669022
 20
16989.6115720268
 11
12047.8106691254
 21
16989.6115720268
  0
LINE
  5
2B4
100
AcDbEntity
  8
0
100
AcDbLine
 62
7
  6
CONTINUOUS
 10
6016.4496554654
 20
23439.6115719058
 11
6012.142209092
 21
23444.7814065987
  0
LINE
  5
2B5
100
AcDbEntity
  8
0
100
AcDbLine
 62
7
  6
CONTINUOUS
 10
15302.1422091279
 20
12044.7814065929
 11
15232.142209022
 21
12144.7814065845
  0
LINE
  5
2B6
100
AcDbEntity
  8
0
100
AcDbLine
 62
7
  6
CONTINUOUS
 10
12717.8106981553
 20
12539.6724892729
 11
12717.810639954
 21
12039.5506547794
  0
LINE
  5
2B7
100
AcDbEntity
  8
0
100
AcDbLine
 62
7
  6
CONTINUOUS
 10
12748.2529113695
 20
12570.0874662713
 11
12748.25284596
 21
12009.1289275732
  0
LWPOLYLINE
  5
2B8
100
AcDbEntity
  8
0
100
AcDbPolyline
 62
7
  6
CONTINUOUS
 90
4
 70
0
 10
19520.7225219919
 20
10391.408035549
 10
19501.5640818517
 20
10410.6218504626
 10
19480.3176736613
 20
10431.825488964
 10
19420.777365362
 20
10491.3531921829
  0
LWPOLYLINE
  5
2B9
100
AcDbEntity
  8
0
100
AcDbPolyline
 62
7
  6
CONTINUOUS
 90
4
 70
0
 10
12531.4095622928
 20
12233.4297607537
 10
12537.4373600403
 20
12253.8961637723
 10
12540.9621591453
 20
12274.2042714808
 10
12542.142209092
 20
12294.7814065929
  0
LINE
  5
2BA
100
AcDbEntity
  8
0
100
AcDbLine
 62
7
  6
CONTINUOUS
 10
19683.9622834691
 20
23000.6773041052
 11
19717.8106689791
 21
23039.6115720207
  0
LINE
  5
2BB
100
AcDbEntity
  8
0
100
AcDbLine
 62
7
  6
CONTINUOUS
 10
19520.7320334136
 20
10391.3980712335
 11
19567.8106690503
 21
10339.6115720331
  0
LINE
  5
2BC
100
AcDbEntity
  8
0
100
AcDbLine
 62
7
  6
CONTINUOUS
 10
19674.1044111669
 20
22999.1281098317
 11
19712.1422091242
 21
23044.7814065929
  0
LINE
  5
2BD
100
AcDbEntity
  8
0
100
AcDbLine
 62
7
  6
CONTINUOUS
 10
21093.7491139241
 20
22594.9514729574
 11
21143.9131195335
 21
22644.9343395016
  0
LINE
  5
2BE
100
AcDbEntity
  8
0
100
AcDbLine
 62
7
  6
CONTINUOUS
 10
12047.81066915
 20
19049.6115719929
 11
19347.8106691104
 21
19049.6115719929
  0
LINE
  5
2BF
100
AcDbEntity
  8
0
100
AcDbLine
 62
7
  6
CONTINUOUS
 10
21566.0142058459
 20
10986.6992658756
 11
21617.8106686648
 21
10939.6115720235
  0
LWPOLYLINE
  5
2C0
100
AcDbEntity
  8
0
100
AcDbPolyline
 62
7
  6
CONTINUOUS
 90
4
 70
0
 10
21466.0742139649
 20
11086.6448757229
 10
21485.1136497647
 20
11067.8203506693
 10
21505.1589026101
 20
11047.5103498711
 10
21526.0690489732
 20
11026.6448757229
  0
LINE
  5
2C1
100
AcDbEntity
  8
0
100
AcDbLine
 62
7
  6
CONTINUOUS
 10
15217.1422091681
 20
16269.7814065929
 11
15197.1422090568
 21
16289.7814065179
  0
LINE
  5
2C2
100
AcDbEntity
  8
0
100
AcDbLine
 62
7
  6
CONTINUOUS
 10
19867.871586302
 20
11639.6115722355
 11
19898.313369862
 21
11609.1695664526
  0
LINE
  5
2C3
100
AcDbEntity
  8
0
100
AcDbLine
 62
7
  6
CONTINUOUS
 10
19367.7497518027
 20
12339.6115719211
 11
19337.3081902413
 21
12370.0535773515
  0
LINE
  5
2C4
100
AcDbEntity
  8
0
100
AcDbLine
 62
7
  6
CONTINUOUS
 10
15737.1422090949
 20
16014.7814065179
 11
15667.142209162
 21
16084.781406637
  0
LINE
  5
2C5
100
AcDbEntity
  8
0
100
AcDbLine
 62
7
  6
CONTINUOUS
 10
19267.8106689503
 20
12239.6724892787
 11
19237.368663494
 21
12270.1178698672
  0
LINE
  5
2C6
100
AcDbEntity
  8
0
100
AcDbLine
 62
7
  6
CONTINUOUS
 10
19967.8106690411
 20
11739.5506547779
 11
19998.25267433
 21
11709.105478848
  0
LINE
  5
2C7
100
AcDbEntity
  8
0
100
AcDbLine
 62
7
  6
CONTINUOUS
 10
17906.0178937444
 20
10940.8963815222
 11
17893.0404543076
 21
10964.709292787
  0
LINE
  5
2C8
100
AcDbEntity
  8
0
100
AcDbLine
 62
7
  6
CONTINUOUS
 10
14780.506833232
 20
11689.6115720229
 11
14780.506833232
 21
16489.6115720269
  0
LINE
  5
2C9
100
AcDbEntity
  8
0
100
AcDbLine
 62
7
  6
CONTINUOUS
 10
14977.810669022
 20
16489.6115720269
 11
14977.810669022
 21
11689.6115720229
  0
LINE
  5
2CA
100
AcDbEntity
  8
0
100
AcDbLine
 62
7
  6
CONTINUOUS
 10
15022.142209092
 20
12174.7814066629
 11
15022.142209092
 21
12437.2814066629
  0
LINE
  5
2CB
100
AcDbEntity
  8
0
100
AcDbLine
 62
7
  6
CONTINUOUS
 10
15022.142209092
 20
15752.2814065229
 11
15022.142209092
 21
16014.7814065179
  0
LINE
  5
2CC
100
AcDbEntity
  8
0
100
AcDbLine
 62
7
  6
CONTINUOUS
 10
15057.142209022
 20
15797.2814066329
 11
15057.142209022
 21
15969.7814065929
  0
LINE
  5
2CD
100
AcDbEntity
  8
0
100
AcDbLine
 62
7
  6
CONTINUOUS
 10
15157.142209022
 20
15969.7814065929
 11
15157.142209022
 21
15797.2814066329
  0
LINE
  5
2CE
100
AcDbEntity
  8
0
100
AcDbLine
 62
7
  6
CONTINUOUS
 10
15157.142209022
 20
11899.7814066629
 11
15157.142209022
 21
12104.7814065529
  0
LINE
  5
2CF
100
AcDbEntity
  8
0
100
AcDbLine
 62
7
  6
CONTINUOUS
 10
15157.142209022
 20
12437.2814065929
 11
15157.142209022
 21
15752.2814065229
  0
LINE
  5
2D0
100
AcDbEntity
  8
0
100
AcDbLine
 62
7
  6
CONTINUOUS
 10
15157.142209022
 20
16084.7814066299
 11
15157.142209022
 21
16289.7814065179
  0
LINE
  5
2D1
100
AcDbEntity
  8
0
100
AcDbLine
 62
7
  6
CONTINUOUS
 10
15232.142209022
 20
12144.7814065845
 11
15232.142209022
 21
16044.7814066013
  0
LINE
  5
2D2
100
AcDbEntity
  8
0
100
AcDbLine
 62
7
  6
CONTINUOUS
 10
15329.643009922
 20
12379.7813806629
 11
15329.643009922
 21
15809.7814310329
  0
LINE
  5
2D3
100
AcDbEntity
  8
0
100
AcDbLine
 62
7
  6
CONTINUOUS
 10
14977.8106690492
 20
11889.4211197629
 11
14983.6356907276
 21
16289.7977960498
  0
LINE
  5
2D4
100
AcDbEntity
  8
0
100
AcDbLine
 62
7
  6
CONTINUOUS
 10
15232.142209022
 20
16044.7814066013
 11
15302.1422091279
 21
16144.7814065929
  0
LINE
  5
2D5
100
AcDbEntity
  8
0
100
AcDbLine
 62
7
  6
CONTINUOUS
 10
15157.142209022
 20
16084.781406637
 11
15087.1422090891
 21
16014.7814065179
  0
LINE
  5
2D6
100
AcDbEntity
  8
0
100
AcDbLine
 62
7
  6
CONTINUOUS
 10
15627.1422091271
 20
16289.7814065179
 11
15607.1422090158
 21
16269.7814065929
  0
LINE
  5
2D7
100
AcDbEntity
  8
0
100
AcDbLine
 62
7
  6
CONTINUOUS
 10
2969.552289212
 20
19842.5782683329
 11
4812.142209132
 21
19842.5782683329
  0
LINE
  5
2D8
100
AcDbEntity
  8
0
100
AcDbLine
 62
7
  6
CONTINUOUS
 10
4812.1422091306
 20
19942.5329367454
 11
2869.5971678708
 21
19942.5329367454
  0
LINE
  5
2D9
100
AcDbEntity
  8
0
100
AcDbLine
 62
7
  6
CONTINUOUS
 10
5368.0165209589
 20
19989.6115720229
 11
5117.810669052
 21
19989.6115720229
  0
LINE
  5
2DA
100
AcDbEntity
  8
0
100
AcDbLine
 62
7
  6
CONTINUOUS
 10
4812.1422091134
 20
19989.6115720329
 11
2817.8106690533
 21
19989.6115720329
  0
LINE
  5
2DB
100
AcDbEntity
  8
0
100
AcDbLine
 62
7
  6
CONTINUOUS
 10
4812.142209112
 20
19994.7814065929
 11
2812.142209092
 21
19994.7814065929
  0
LINE
  5
2DC
100
AcDbEntity
  8
0
100
AcDbLine
 62
7
  6
CONTINUOUS
 10
5014.8436332955
 20
20002.1616171069
 11
4812.142209132
 21
20002.161664559
  0
LINE
  5
2DD
100
AcDbEntity
  8
0
100
AcDbLine
 62
7
  6
CONTINUOUS
 10
15978.251780167
 20
10832.1911890751
 11
15976.5101716319
 21
10857.1277606403
  0
LINE
  5
2DE
100
AcDbEntity
  8
0
100
AcDbLine
 62
7
  6
CONTINUOUS
 10
15976.5101715306
 20
10857.1277606438
 11
15968.6614101129
 21
11081.8868805597
  0
LINE
  5
2DF
100
AcDbEntity
  8
0
100
AcDbLine
 62
7
  6
CONTINUOUS
 10
16321.5896228586
 20
10832.1911890731
 11
16312.870057173
 21
11081.8868805632
  0
LINE
  5
2E0
100
AcDbEntity
  8
0
100
AcDbLine
 62
7
  6
CONTINUOUS
 10
15417.810669052
 20
10829.6115719629
 11
15417.810669052
 21
11129.6115719629
  0
LINE
  5
2E1
100
AcDbEntity
  8
0
100
AcDbLine
 62
7
  6
CONTINUOUS
 10
15494.641408262
 20
15809.7814325229
 11
15494.641408262
 21
12379.7813881129
  0
LINE
  5
2E2
100
AcDbEntity
  8
0
100
AcDbLine
 62
7
  6
CONTINUOUS
 10
15592.142209162
 20
16144.7814065929
 11
15592.142209162
 21
12044.7814065929
  0
LINE
  5
2E3
100
AcDbEntity
  8
0
100
AcDbLine
 62
7
  6
CONTINUOUS
 10
15657.142209022
 20
15704.7814065529
 11
15657.142209022
 21
15604.7814065529
  0
LINE
  5
2E4
100
AcDbEntity
  8
0
100
AcDbLine
 62
7
  6
CONTINUOUS
 10
15667.142209162
 20
16289.7814065179
 11
15667.142209162
 21
16084.7814066299
  0
LINE
  5
2E5
100
AcDbEntity
  8
0
100
AcDbLine
 62
7
  6
CONTINUOUS
 10
15667.142209162
 20
15752.2814065229
 11
15667.142209162
 21
12437.2814066629
  0
LINE
  5
2E6
100
AcDbEntity
  8
0
100
AcDbLine
 62
7
  6
CONTINUOUS
 10
15667.142209162
 20
12104.7814065529
 11
15667.142209162
 21
11899.7814066629
  0
LINE
  5
2E7
100
AcDbEntity
  8
0
100
AcDbLine
 62
7
  6
CONTINUOUS
 10
15667.142209162
 20
15797.2814066329
 11
15667.142209162
 21
15969.7814065929
  0
LINE
  5
2E8
100
AcDbEntity
  8
0
100
AcDbLine
 62
7
  6
CONTINUOUS
 10
15767.142209162
 20
15969.7814065929
 11
15767.142209162
 21
15797.2814066329
  0
LINE
  5
2E9
100
AcDbEntity
  8
0
100
AcDbLine
 62
7
  6
CONTINUOUS
 10
15802.142209092
 20
16014.7814065179
 11
15802.142209092
 21
15752.2814065229
  0
LINE
  5
2EA
100
AcDbEntity
  8
0
100
AcDbLine
 62
7
  6
CONTINUOUS
 10
15802.142209092
 20
12437.2814065929
 11
15802.142209092
 21
12174.7814066629
  0
LINE
  5
2EB
100
AcDbEntity
  8
0
100
AcDbLine
 62
7
  6
CONTINUOUS
 10
15857.810669052
 20
11689.6115720229
 11
15857.810669052
 21
16489.6115720269
  0
LINE
  5
2EC
100
AcDbEntity
  8
0
100
AcDbLine
 62
7
  6
CONTINUOUS
 10
16055.114504872
 20
16489.6115720269
 11
16055.114504872
 21
11689.6115720229
  0
LINE
  5
2ED
100
AcDbEntity
  8
0
100
AcDbLine
 62
7
  6
CONTINUOUS
 10
12017.8107067164
 20
12039.5506547729
 11
11987.3686357196
 21
12009.1088712229
  0
LINE
  5
2EE
100
AcDbEntity
  8
0
100
AcDbLine
 62
7
  6
CONTINUOUS
 10
12717.8106981553
 20
12539.6724892729
 11
12748.2529113729
 21
12570.1140507629
  0
LINE
  5
2EF
100
AcDbEntity
  8
0
100
AcDbLine
 62
7
  6
CONTINUOUS
 10
12617.8715863049
 20
12639.6116111232
 11
12648.316762957
 21
12670.0536887516
  0
LINE
  5
2F0
100
AcDbEntity
  8
0
100
AcDbLine
 62
7
  6
CONTINUOUS
 10
12117.7497518039
 20
11939.6116386598
 11
12087.304577262
 21
11909.169507369
  0
LINE
  5
2F1
100
AcDbEntity
  8
0
100
AcDbLine
 62
7
  6
CONTINUOUS
 10
5368.0165208081
 20
20389.6115720229
 11
5117.810669052
 21
20389.6115720229
  0
LINE
  5
2F2
100
AcDbEntity
  8
0
100
AcDbLine
 62
7
  6
CONTINUOUS
 10
5338.532945032
 20
20576.6299506429
 11
5880.858521072
 21
20576.6299506429
  0
LINE
  5
2F3
100
AcDbEntity
  8
0
100
AcDbLine
 62
7
  6
CONTINUOUS
 10
16662.374783839
 20
11088.9609718812
 11
16671.0943495247
 21
10839.2652803914
  0
LINE
  5
2F4
100
AcDbEntity
  8
0
100
AcDbLine
 62
7
  6
CONTINUOUS
 10
16674.6434481645
 20
10839.3886268346
 11
16665.9238824789
 21
11089.0843183245
  0
LINE
  5
2F5
100
AcDbEntity
  8
0
100
AcDbLine
 62
7
  6
CONTINUOUS
 10
16912.2240808549
 20
10847.6750204144
 11
16903.5045151693
 21
11097.3707119046
  0
LINE
  5
2F6
100
AcDbEntity
  8
0
100
AcDbLine
 62
7
  6
CONTINUOUS
 10
17043.4776866579
 20
11094.7814065929
 11
17051.8198442078
 21
10855.8932700683
  0
LINE
  5
2F7
100
AcDbEntity
  8
0
100
AcDbLine
 62
7
  6
CONTINUOUS
 10
16217.810669052
 20
11129.6115719629
 11
16217.810669052
 21
11349.6115720729
  0
LINE
  5
2F8
100
AcDbEntity
  8
0
100
AcDbLine
 62
7
  6
CONTINUOUS
 10
16612.142209092
 20
11294.7814065929
 11
16612.142209092
 21
11094.7814065929
  0
LINE
  5
2F9
100
AcDbEntity
  8
0
100
AcDbLine
 62
7
  6
CONTINUOUS
 10
5195.753593082
 20
20567.6152746929
 11
5338.5329450315
 21
20576.629951451
  0
LINE
  5
2FA
100
AcDbEntity
  8
0
100
AcDbLine
 62
7
  6
CONTINUOUS
 10
20212.810668982
 20
21039.6115720229
 11
19262.810668982
 21
21039.6115720229
  0
LINE
  5
2FB
100
AcDbEntity
  8
0
100
AcDbLine
 62
7
  6
CONTINUOUS
 10
20423.332141412
 20
21189.6115720229
 11
20212.810668982
 21
21189.6115720229
  0
LINE
  5
2FC
100
AcDbEntity
  8
0
100
AcDbLine
 62
7
  6
CONTINUOUS
 10
5880.851414292
 20
21317.7618184229
 11
5402.698829812
 21
21317.7618184229
  0
LINE
  5
2FD
100
AcDbEntity
  8
0
100
AcDbLine
 62
7
  6
CONTINUOUS
 10
5194.286586192
 20
21328.2380500729
 11
5214.6541636407
 21
21328.2380500729
  0
LINE
  5
2FE
100
AcDbEntity
  8
0
100
AcDbLine
 62
7
  6
CONTINUOUS
 10
5444.603882932
 20
21369.6115720228
 11
5172.6043153719
 21
21369.6115720228
  0
LINE
  5
2FF
100
AcDbEntity
  8
0
100
AcDbLine
 62
7
  6
CONTINUOUS
 10
19262.810668982
 20
21397.5800493729
 11
21555.3719043893
 21
21397.5800493729
  0
LINE
  5
300
100
AcDbEntity
  8
0
100
AcDbLine
 62
7
  6
CONTINUOUS
 10
5617.8110614664
 20
21439.4175740615
 11
10717.8103465859
 21
21439.4220301013
  0
LINE
  5
301
100
AcDbEntity
  8
0
100
AcDbLine
 62
7
  6
CONTINUOUS
 10
21466.069048902
 20
21550.8865947329
 11
21193.2362596549
 21
21550.8865947329
  0
LINE
  5
302
100
AcDbEntity
  8
0
100
AcDbLine
 62
7
  6
CONTINUOUS
 10
21516.024583772
 20
21552.1525461829
 11
21617.8106686579
 21
21552.1525461829
  0
LINE
  5
303
100
AcDbEntity
  8
0
100
AcDbLine
 62
7
  6
CONTINUOUS
 10
5251.1604666744
 20
21552.1616171029
 11
4812.142209112
 21
21552.1616645517
  0
LINE
  5
304
100
AcDbEntity
  8
0
100
AcDbLine
 62
7
  6
CONTINUOUS
 10
5229.7430328951
 20
21327.335322415
 11
5216.357281112
 21
21328.1281577567
  0
LINE
  5
305
100
AcDbEntity
  8
0
100
AcDbLine
 62
7
  6
CONTINUOUS
 10
17079.1242350591
 20
10894.7814065931
 11
17075.6639582541
 21
11093.0205319828
  0
LINE
  5
306
100
AcDbEntity
  8
0
100
AcDbLine
 62
7
  6
CONTINUOUS
 10
17012.142209092
 20
11094.7814065929
 11
17012.142209092
 21
11294.7814065929
  0
LINE
  5
307
100
AcDbEntity
  8
0
100
AcDbLine
 62
7
  6
CONTINUOUS
 10
17483.915388902
 20
11294.7814065929
 11
17483.915388902
 21
11094.7814065929
  0
LINE
  5
308
100
AcDbEntity
  8
0
100
AcDbLine
 62
7
  6
CONTINUOUS
 10
19477.810669022
 20
17189.6115720268
 11
19277.810669022
 21
16989.6115720268
  0
LINE
  5
309
100
AcDbEntity
  8
0
100
AcDbLine
 62
7
  6
CONTINUOUS
 10
20842.1318557817
 20
21639.6115720229
 11
20017.7285797428
 21
21639.6115720229
  0
LINE
  5
30A
100
AcDbEntity
  8
0
100
AcDbLine
 62
7
  6
CONTINUOUS
 10
21093.325456112
 20
22014.6114845931
 11
21567.810669052
 21
22014.6115720272
  0
LINE
  5
30B
100
AcDbEntity
  8
0
100
AcDbLine
 62
7
  6
CONTINUOUS
 10
21567.8106564825
 20
22129.5931508754
 11
21093.3454431267
 21
22129.5930634449
  0
LINE
  5
30C
100
AcDbEntity
  8
0
100
AcDbLine
 62
7
  6
CONTINUOUS
 10
21567.810669052
 20
22154.0867062295
 11
21093.349700796
 21
22154.0866187998
  0
LINE
  5
30D
100
AcDbEntity
  8
0
100
AcDbLine
 62
7
  6
CONTINUOUS
 10
4877.810669052
 20
22014.6113580333
 11
5351.5355263717
 21
22013.9387660237
  0
LINE
  5
30E
100
AcDbEntity
  8
0
100
AcDbLine
 62
7
  6
CONTINUOUS
 10
4877.810669052
 20
22112.0834414435
 11
5351.673916427
 21
22111.4106529484
  0
LINE
  5
30F
100
AcDbEntity
  8
0
100
AcDbLine
 62
7
  6
CONTINUOUS
 10
4877.810669052
 20
22168.2172998359
 11
5351.7536148152
 21
22167.5443981855
  0
LINE
  5
310
100
AcDbEntity
  8
0
100
AcDbLine
 62
7
  6
CONTINUOUS
 10
4877.810669052
 20
22345.1362686814
 11
5352.0048029122
 21
22344.4630103955
  0
LINE
  5
311
100
AcDbEntity
  8
0
100
AcDbLine
 62
7
  6
CONTINUOUS
 10
17811.576206552
 20
11022.3166419624
 11
17811.576206552
 21
11294.7814065929
  0
LINE
  5
312
100
AcDbEntity
  8
0
100
AcDbLine
 62
7
  6
CONTINUOUS
 10
17882.5835158454
 20
11294.7814065929
 11
17882.5835158454
 21
10972.8361569254
  0
LINE
  5
313
100
AcDbEntity
  8
0
100
AcDbLine
 62
7
  6
CONTINUOUS
 10
17911.396832702
 20
11094.7814065929
 11
17911.396832702
 21
11294.7814065929
  0
LINE
  5
314
100
AcDbEntity
  8
0
100
AcDbLine
 62
7
  6
CONTINUOUS
 10
17940.3031404443
 20
11294.7814065929
 11
17940.3031404443
 21
11094.7814065929
  0
LINE
  5
315
100
AcDbEntity
  8
0
100
AcDbLine
 62
7
  6
CONTINUOUS
 10
17942.1422090772
 20
11294.7814065929
 11
17942.1422090772
 21
11094.7814065929
  0
LINE
  5
316
100
AcDbEntity
  8
0
100
AcDbLine
 62
7
  6
CONTINUOUS
 10
18117.810669052
 20
11349.6115720729
 11
18117.810669052
 21
10829.6115719629
  0
LINE
  5
317
100
AcDbEntity
  8
0
100
AcDbLine
 62
7
  6
CONTINUOUS
 10
15197.1422090488
 20
11899.7814066629
 11
15217.1422091651
 21
11919.7814065929
  0
LINE
  5
318
100
AcDbEntity
  8
0
100
AcDbLine
 62
7
  6
CONTINUOUS
 10
15667.142209162
 20
12104.7814065498
 11
15737.1422090889
 21
12174.7814066629
  0
LINE
  5
319
100
AcDbEntity
  8
0
100
AcDbLine
 62
7
  6
CONTINUOUS
 10
21567.810669052
 20
22345.1364379395
 11
21093.3829105727
 21
22345.1363505159
  0
LINE
  5
31A
100
AcDbEntity
  8
0
100
AcDbLine
 62
7
  6
CONTINUOUS
 10
21567.8106668624
 20
22369.6299932875
 11
21093.3871682404
 21
22369.6299058648
  0
LINE
  5
31B
100
AcDbEntity
  8
0
100
AcDbLine
 62
7
  6
CONTINUOUS
 10
20017.728579689
 20
22389.6115720229
 11
20842.1318556306
 21
22389.6115720229
  0
LINE
  5
31C
100
AcDbEntity
  8
0
100
AcDbLine
 62
7
  6
CONTINUOUS
 10
21567.810669052
 20
22484.6115719572
 11
21093.407155252
 21
22484.6114845381
  0
LINE
  5
31D
100
AcDbEntity
  8
0
100
AcDbLine
 62
7
  6
CONTINUOUS
 10
5316.5105949995
 20
22629.6115720728
 11
21128.5348220393
 21
22629.6115720728
  0
LINE
  5
31E
100
AcDbEntity
  8
0
100
AcDbLine
 62
7
  6
CONTINUOUS
 10
21069.8199857024
 20
22948.8392952128
 11
19522.142209092
 21
22948.8392952128
  0
LINE
  5
31F
100
AcDbEntity
  8
0
100
AcDbLine
 62
7
  6
CONTINUOUS
 10
20944.974812172
 20
22992.8735700182
 11
19522.142209092
 21
22992.8735700182
  0
LINE
  5
320
100
AcDbEntity
  8
0
100
AcDbLine
 62
7
  6
CONTINUOUS
 10
19522.142209092
 20
22997.7441021529
 11
19583.996550922
 21
22997.7441021529
  0
LINE
  5
321
100
AcDbEntity
  8
0
100
AcDbLine
 62
7
  6
CONTINUOUS
 10
19717.810668982
 20
23039.6115720329
 11
20944.974812172
 21
23039.6115720329
  0
LINE
  5
322
100
AcDbEntity
  8
0
100
AcDbLine
 62
7
  6
CONTINUOUS
 10
19712.1422091242
 20
23044.7814065929
 11
21112.3889650846
 21
23044.7814065929
  0
LINE
  5
323
100
AcDbEntity
  8
0
100
AcDbLine
 62
7
  6
CONTINUOUS
 10
4877.810669052
 20
22369.6298202696
 11
5352.0395786538
 21
22368.9565126092
  0
LINE
  5
324
100
AcDbEntity
  8
0
100
AcDbLine
 62
7
  6
CONTINUOUS
 10
4877.810669052
 20
22484.6114447047
 11
5352.2028286202
 21
22483.9379052629
  0
LWPOLYLINE
  5
325
100
AcDbEntity
  8
0
100
AcDbPolyline
 62
7
  6
CONTINUOUS
 90
4
 70
0
 10
20431.4095622928
 20
21983.4297607537
 10
20437.4373600403
 20
22003.8961637723
 10
20440.9621591453
 20
22024.2042714808
 10
20442.142209092
 20
22044.7814065929
  0
LINE
  5
326
100
AcDbEntity
  8
0
100
AcDbLine
 62
7
  6
CONTINUOUS
 10
5367.7960265291
 20
23340.1723949329
 11
19522.142209092
 21
23340.1723949329
  0
LINE
  5
327
100
AcDbEntity
  8
0
100
AcDbLine
 62
7
  6
CONTINUOUS
 10
19522.142209092
 20
23389.1723905888
 11
5483.244917862
 21
23389.1723905888
  0
LINE
  5
328
100
AcDbEntity
  8
0
100
AcDbLine
 62
7
  6
CONTINUOUS
 10
6249.040474252
 20
23393.5573550506
 11
19522.142209092
 21
23393.5573550552
  0
LINE
  5
329
100
AcDbEntity
  8
0
100
AcDbLine
 62
7
  6
CONTINUOUS
 10
6247.5268626004
 20
23396.0671208838
 11
19522.142209092
 21
23396.0671208793
  0
LINE
  5
32A
100
AcDbEntity
  8
0
100
AcDbLine
 62
7
  6
CONTINUOUS
 10
4812.1422091121
 20
23438.927211001
 11
5499.332183392
 21
23438.927211001
  0
LINE
  5
32B
100
AcDbEntity
  8
0
100
AcDbLine
 62
7
  6
CONTINUOUS
 10
6017.8106690559
 20
23439.6115719058
 11
4812.1422091119
 21
23439.6115719058
  0
LINE
  5
32C
100
AcDbEntity
  8
0
100
AcDbLine
 62
7
  6
CONTINUOUS
 10
6012.142209092
 20
23444.7814065929
 11
4862.1422239414
 21
23444.7814065929
  0
LINE
  5
32D
100
AcDbEntity
  8
0
100
AcDbLine
 62
7
  6
CONTINUOUS
 10
19237.3686636993
 20
11709.1361422522
 11
19237.3686634957
 21
12270.0967980826
  0
LINE
  5
32E
100
AcDbEntity
  8
0
100
AcDbLine
 62
7
  6
CONTINUOUS
 10
19262.810668982
 20
14981.6430946829
 11
19262.810668982
 21
15339.6115720229
  0
LINE
  5
32F
100
AcDbEntity
  8
0
100
AcDbLine
 62
7
  6
CONTINUOUS
 10
19262.810668982
 20
21039.6115720229
 11
19262.810668982
 21
21397.5800493729
  0
LINE
  5
330
100
AcDbEntity
  8
0
100
AcDbLine
 62
7
  6
CONTINUOUS
 10
19267.8106690198
 20
11739.5506547729
 11
19267.8106689503
 21
12239.6724892787
  0
LINE
  5
331
100
AcDbEntity
  8
0
100
AcDbLine
 62
7
  6
CONTINUOUS
 10
19420.777365362
 20
10939.5814065929
 11
19420.777365362
 21
10491.3531921829
  0
LINE
  5
332
100
AcDbEntity
  8
0
100
AcDbLine
 62
7
  6
CONTINUOUS
 10
19477.810669022
 20
18919.5577901222
 11
19477.810669022
 21
17189.6115720268
  0
LINE
  5
333
100
AcDbEntity
  8
0
100
AcDbLine
 62
7
  6
CONTINUOUS
 10
19520.7320334136
 20
10391.3980712335
 11
19520.7320334136
 21
10939.5814065929
  0
LINE
  5
334
100
AcDbEntity
  8
0
100
AcDbLine
 62
7
  6
CONTINUOUS
 10
19522.142209092
 20
23389.1534997987
 11
19522.142209092
 21
22948.8392952147
  0
LINE
  5
335
100
AcDbEntity
  8
0
100
AcDbLine
 62
7
  6
CONTINUOUS
 10
19522.142209092
 20
23389.1723905888
 11
19522.142209092
 21
23389.8429085529
  0
LINE
  5
336
100
AcDbEntity
  8
0
100
AcDbLine
 62
7
  6
CONTINUOUS
 10
19522.142209092
 20
23391.6812960457
 11
19522.142209092
 21
23396.0671208821
  0
LINE
  5
337
100
AcDbEntity
  8
0
100
AcDbLine
 62
7
  6
CONTINUOUS
 10
19567.810669052
 20
10939.5814065929
 11
19567.810669052
 21
10339.5814065929
  0
LINE
  5
338
100
AcDbEntity
  8
0
100
AcDbLine
 62
7
  6
CONTINUOUS
 10
19582.142209092
 20
11086.6448757232
 11
19582.142209092
 21
10939.5814065929
  0
LINE
  5
339
100
AcDbEntity
  8
0
100
AcDbLine
 62
7
  6
CONTINUOUS
 10
19712.1422091268
 20
23033.0913988653
 11
19712.1422091268
 21
23044.7814065949
  0
LINE
  5
33A
100
AcDbEntity
  8
0
100
AcDbLine
 62
7
  6
CONTINUOUS
 10
19917.810669052
 20
21739.5294827138
 11
19917.810669052
 21
22289.6936613461
  0
LINE
  5
33B
100
AcDbEntity
  8
0
100
AcDbLine
 62
7
  6
CONTINUOUS
 10
19967.810669072
 20
12239.6724892729
 11
19967.8106690411
 21
11739.5506547779
  0
LINE
  5
33C
100
AcDbEntity
  8
0
100
AcDbLine
 62
7
  6
CONTINUOUS
 10
19998.2526743593
 20
12270.0870333574
 11
19998.2526743246
 21
11709.1266619047
  0
LINE
  5
33D
100
AcDbEntity
  8
0
100
AcDbLine
 62
7
  6
CONTINUOUS
 10
20212.810668982
 20
21189.6115720229
 11
20212.810668982
 21
21039.6115720229
  0
LINE
  5
33E
100
AcDbEntity
  8
0
100
AcDbLine
 62
7
  6
CONTINUOUS
 10
20212.810668982
 20
15339.6115720229
 11
20212.810668982
 21
15189.6115720229
  0
LINE
  5
33F
100
AcDbEntity
  8
0
100
AcDbLine
 62
7
  6
CONTINUOUS
 10
20423.332141412
 20
15189.6115720229
 11
20423.332141412
 21
21189.6115720229
  0
LINE
  5
340
100
AcDbEntity
  8
0
100
AcDbLine
 62
7
  6
CONTINUOUS
 10
20942.049766222
 20
22289.6936614316
 11
20942.049766222
 21
21739.5294824631
  0
LINE
  5
341
100
AcDbEntity
  8
0
100
AcDbLine
 62
7
  6
CONTINUOUS
 10
20944.974812172
 20
23039.6115720283
 11
20944.974812172
 21
22996.0567111429
  0
LINE
  5
342
100
AcDbEntity
  8
0
100
AcDbLine
 62
7
  6
CONTINUOUS
 10
21093.3247891276
 20
21650.8039217335
 11
21093.3247228655
 21
22010.393216374
  0
LINE
  5
343
100
AcDbEntity
  8
0
100
AcDbLine
 62
7
  6
CONTINUOUS
 10
21466.069048902
 20
21550.8865947329
 11
21466.069048902
 21
21397.5800493729
  0
LINE
  5
344
100
AcDbEntity
  8
0
100
AcDbLine
 62
7
  6
CONTINUOUS
 10
21466.069048902
 20
14981.6430946829
 11
21466.069048902
 21
11086.6448757229
  0
LINE
  5
345
100
AcDbEntity
  8
0
100
AcDbLine
 62
7
  6
CONTINUOUS
 10
21093.3247228655
 20
22010.393216374
 11
21093.349700796
 21
22154.0866187998
  0
LINE
  5
346
100
AcDbEntity
  8
0
100
AcDbLine
 62
7
  6
CONTINUOUS
 10
21093.3829105727
 20
22345.1363505159
 11
21093.4082822317
 21
22491.0947997844
  0
LINE
  5
347
100
AcDbEntity
  8
0
100
AcDbLine
 62
7
  6
CONTINUOUS
 10
21093.4082822317
 20
22491.0947997844
 11
21093.7491139241
 21
22594.9514729574
  0
LINE
  5
348
100
AcDbEntity
  8
0
100
AcDbLine
 62
7
  6
CONTINUOUS
 10
21144.3969185089
 20
22792.3783843929
 11
21143.913119532
 21
22644.9343394929
  0
LINE
  5
349
100
AcDbEntity
  8
0
100
AcDbLine
 62
7
  6
CONTINUOUS
 10
19267.8106690198
 20
11739.5506547729
 11
19237.3686637034
 21
11709.1088712229
  0
LINE
  5
34A
100
AcDbEntity
  8
0
100
AcDbLine
 62
7
  6
CONTINUOUS
 10
19967.810669072
 20
12239.6724892729
 11
19998.2526743647
 21
12270.1142728329
  0
LINE
  5
34B
100
AcDbEntity
  8
0
100
AcDbLine
 62
7
  6
CONTINUOUS
 10
19867.8715863093
 20
12339.6115721408
 11
19898.3167631747
 21
12370.0535775984
  0
LINE
  5
34C
100
AcDbEntity
  8
0
100
AcDbLine
 62
7
  6
CONTINUOUS
 10
19367.749751807
 20
11639.611571819
 11
19337.3043968769
 21
11609.1695659845
  0
LINE
  5
34D
100
AcDbEntity
  8
0
100
AcDbLine
 62
7
  6
CONTINUOUS
 10
21555.37190439
 20
21397.5800493729
 11
21555.3719044739
 21
14981.6430946829
  0
LINE
  5
34E
100
AcDbEntity
  8
0
100
AcDbLine
 62
7
  6
CONTINUOUS
 10
21566.0142058459
 20
10986.6992658756
 11
21566.0142058459
 21
21552.1525461829
  0
LINE
  5
34F
100
AcDbEntity
  8
0
100
AcDbLine
 62
7
  6
CONTINUOUS
 10
21567.810669052
 20
22014.6115720229
 11
21567.810669052
 21
22484.6115719529
  0
LINE
  5
350
100
AcDbEntity
  8
0
100
AcDbLine
 62
7
  6
CONTINUOUS
 10
21612.142209092
 20
22545.0281625856
 11
21612.142209092
 21
21552.1525461829
  0
LINE
  5
351
100
AcDbEntity
  8
0
100
AcDbLine
 62
7
  6
CONTINUOUS
 10
21617.810669052
 20
21552.1525461829
 11
21617.810669052
 21
10939.6115720229
  0
CIRCLE
  5
352
100
AcDbEntity
  8
0
100
AcDbCircle
 62
7
  6
CONTINUOUS
 10
3812.142028622
 20
11994.7812261229
 40
280.000180471
  0
CIRCLE
  5
353
100
AcDbEntity
  8
0
100
AcDbCircle
 62
7
  6
CONTINUOUS
 10
12362.142209092
 20
12294.7814065929
 40
280.0
  0
CIRCLE
  5
354
100
AcDbEntity
  8
0
100
AcDbCircle
 62
7
  6
CONTINUOUS
 10
5612.142209092
 20
20944.7814065929
 40
280.0
  0
ARC
  5
355
100
AcDbEntity
  8
0
100
AcDbCircle
 62
7
  6
CONTINUOUS
 10
10717.703639252
 20
12189.8389575729
 40
250.037864399
100
AcDbArc
 50
270.024461771
 51
359.9998463769
  0
ARC
  5
356
100
AcDbEntity
  8
0
100
AcDbCircle
 62
7
  6
CONTINUOUS
 10
5617.856342162
 20
12189.6925368929
 40
249.891375844
100
AcDbArc
 50
180.0185813094
 51
269.9896161117
  0
ARC
  5
357
100
AcDbEntity
  8
0
100
AcDbCircle
 62
7
  6
CONTINUOUS
 10
4117.877492972
 20
13339.6589139229
 40
249.88258373
100
AcDbArc
 50
180.0107695063
 51
269.9846778866
  0
ARC
  5
358
100
AcDbEntity
  8
0
100
AcDbCircle
 62
7
  6
CONTINUOUS
 10
4117.877487422
 20
16439.5642980879
 40
249.882531205
100
AcDbArc
 50
90.0153402627
 51
179.9892690629
  0
ARC
  5
359
100
AcDbEntity
  8
0
100
AcDbCircle
 62
7
  6
CONTINUOUS
 10
5617.831729952
 20
21189.5766645329
 40
249.840859145
100
AcDbArc
 50
90.0047398842
 51
133.8960976759
  0
ARC
  5
35A
100
AcDbEntity
  8
0
100
AcDbCircle
 62
7
  6
CONTINUOUS
 10
10717.793139522
 20
21189.5978360829
 40
249.824143363
100
AcDbArc
 50
0.0000002736
 51
89.9960536563
  0
ARC
  5
35B
100
AcDbEntity
  8
0
100
AcDbCircle
 62
7
  6
CONTINUOUS
 10
5499.596992452
 20
23190.1662211129
 40
199.676853525
100
AcDbArc
 50
94.7626501429
 51
180.2505773026
  0
CIRCLE
  5
35C
100
AcDbEntity
  8
0
100
AcDbCircle
 62
7
  6
CONTINUOUS
 10
3812.142028622
 20
11994.7812261229
 40
180.000180471
  0
CIRCLE
  5
35D
100
AcDbEntity
  8
0
100
AcDbCircle
 62
7
  6
CONTINUOUS
 10
5612.142209092
 20
20944.7814065929
 40
180.0
  0
ARC
  5
35E
100
AcDbEntity
  8
0
100
AcDbCircle
 62
7
  6
CONTINUOUS
 10
12362.142209092
 20
12294.7814065929
 40
180.0
100
AcDbArc
 50
0.0
 51
180.0
  0
ARC
  5
35F
100
AcDbEntity
  8
0
100
AcDbCircle
 62
7
  6
CONTINUOUS
 10
5217.768269102
 20
12939.5631798029
 40
150.064498718
100
AcDbArc
 50
0.0000734894
 51
90.2061195537
  0
ARC
  5
360
100
AcDbEntity
  8
0
100
AcDbCircle
 62
7
  6
CONTINUOUS
 10
5217.779199292
 20
16839.6328719019
 40
150.037709169
100
AcDbArc
 50
270.1831573987
 51
0.2142443836
  0
ARC
  5
361
100
AcDbEntity
  8
0
100
AcDbCircle
 62
7
  6
CONTINUOUS
 10
12047.864521081
 20
17119.6654240529
 40
130.053863176
100
AcDbArc
 50
180.0237247077
 51
269.9762752925
  0
ARC
  5
362
100
AcDbEntity
  8
0
100
AcDbCircle
 62
7
  6
CONTINUOUS
 10
12047.864521081
 20
18919.5577199629
 40
130.053863176
100
AcDbArc
 50
90.0237246966
 51
179.9762752097
  0
ARC
  5
363
100
AcDbEntity
  8
0
100
AcDbCircle
 62
7
  6
CONTINUOUS
 10
5184.619548912
 20
20687.6692093329
 40
120.569125706
100
AcDbArc
 50
267.7220848542
 51
275.2985697587
  0
ARC
  5
364
100
AcDbEntity
  8
0
100
AcDbCircle
 62
7
  6
CONTINUOUS
 10
5251.160190902
 20
21652.0229504629
 40
99.8613886842
100
AcDbArc
 50
270.0001582254
 51
0.0002898915
  0
ARC
  5
365
100
AcDbEntity
  8
0
100
AcDbCircle
 62
7
  6
CONTINUOUS
 10
5194.188463312
 20
21228.4023967029
 40
99.835701231
100
AcDbArc
 50
89.9438081125
 51
179.9998174621
  0
ARC
  5
366
100
AcDbEntity
  8
0
100
AcDbCircle
 62
7
  6
CONTINUOUS
 10
5880.956637072
 20
21217.9261727329
 40
99.83570123
100
AcDbArc
 50
0.0001369132
 51
89.9998411166
  0
ARC
  5
367
100
AcDbEntity
  8
0
100
AcDbCircle
 62
7
  6
CONTINUOUS
 10
5880.956643952
 20
20676.4656040129
 40
99.8357012306
100
AcDbArc
 50
270.0001369149
 51
359.9998434034
  0
ARC
  5
368
100
AcDbEntity
  8
0
100
AcDbCircle
 62
7
  6
CONTINUOUS
 10
5194.179034412
 20
20665.9847522429
 40
99.8262701733
100
AcDbArc
 50
180.0001753375
 51
261.7330999334
  0
ARC
  5
369
100
AcDbEntity
  8
0
100
AcDbCircle
 62
7
  6
CONTINUOUS
 10
6650.647498322
 20
45430.4207260929
 40
24144.9310514
100
AcDbArc
 50
266.6262528104
 51
267.0373050442
  0
ARC
  5
36A
100
AcDbEntity
  8
0
100
AcDbCircle
 62
7
  6
CONTINUOUS
 10
16170.177495607
 20
25326.3153322871
 40
14245.8596565582
100
AcDbArc
 50
271.7769645645
 51
271.9799746474
  0
CIRCLE
  5
36B
100
AcDbEntity
  8
0
100
AcDbCircle
 62
7
  6
CONTINUOUS
 10
20262.142209092
 20
22044.7814065929
 40
280.0
  0
CIRCLE
  5
36C
100
AcDbEntity
  8
0
100
AcDbCircle
 62
7
  6
CONTINUOUS
 10
19612.142209092
 20
11994.7814065929
 40
280.0
  0
ARC
  5
36D
100
AcDbEntity
  8
0
100
AcDbCircle
 62
7
  6
CONTINUOUS
 10
20944.771945202
 20
22793.2458106929
 40
199.615492529
100
AcDbArc
 50
359.7510211657
 51
51.2117065518
  0
ARC
  5
36E
100
AcDbEntity
  8
0
100
AcDbCircle
 62
7
  6
CONTINUOUS
 10
20944.771945202
 20
22793.2458106929
 40
199.615492529
100
AcDbArc
 50
51.337236836
 51
89.9417709365
  0
CIRCLE
  5
36F
100
AcDbEntity
  8
0
100
AcDbCircle
 62
7
  6
CONTINUOUS
 10
19612.142209092
 20
11994.7814065929
 40
180.0
  0
ARC
  5
370
100
AcDbEntity
  8
0
100
AcDbCircle
 62
7
  6
CONTINUOUS
 10
20262.142209092
 20
22044.7814065929
 40
180.0
100
AcDbArc
 50
0.0
 51
180.0
  0
ARC
  5
371
100
AcDbEntity
  8
0
100
AcDbCircle
 62
7
  6
CONTINUOUS
 10
19347.756816992
 20
18919.5577199629
 40
130.053863176
100
AcDbArc
 50
0.000030909
 51
89.9762752208
  0
ARC
  5
372
100
AcDbEntity
  8
0
100
AcDbCircle
 62
7
  6
CONTINUOUS
 10
20017.728590902
 20
22289.6936501829
 40
99.9179240895
100
AcDbArc
 50
90.0000064298
 51
179.9999935987
  0
ARC
  5
373
100
AcDbEntity
  8
0
100
AcDbCircle
 62
7
  6
CONTINUOUS
 10
20017.728590902
 20
21739.5294938729
 40
99.9179240887
100
AcDbArc
 50
180.000006399
 51
269.999993601
  0
ARC
  5
374
100
AcDbEntity
  8
0
100
AcDbCircle
 62
7
  6
CONTINUOUS
 10
20842.131844462
 20
22289.6936502629
 40
99.9179240006
100
AcDbArc
 50
0.0000064044
 51
89.9999935956
  0
ARC
  5
375
100
AcDbEntity
  8
0
100
AcDbCircle
 62
7
  6
CONTINUOUS
 10
20842.131844652
 20
21739.5294935929
 40
99.9179238028
100
AcDbArc
 50
270.0000063821
 51
359.9999936179
  0
ARC
  5
376
100
AcDbEntity
  8
0
100
AcDbCircle
 62
7
  6
CONTINUOUS
 10
21193.237458932
 20
21650.7977947829
 40
99.9114406435
100
AcDbArc
 50
179.9964864475
 51
269.9993122541
  0
ARC
  5
377
100
AcDbEntity
  8
0
100
AcDbCircle
 62
7
  6
CONTINUOUS
 10
15808.000934902
 20
16289.8018378759
 40
49.8097341556
100
AcDbArc
 50
0.0000000321
 51
90.0000008655
  0
ARC
  5
378
100
AcDbEntity
  8
0
100
AcDbCircle
 62
7
  6
CONTINUOUS
 10
15033.379619732
 20
16289.7977960119
 40
49.7439290122
100
AcDbArc
 50
90.0051663031
 51
179.9999999563
  0
ARC
  5
379
100
AcDbEntity
  8
0
100
AcDbCircle
 62
7
  6
CONTINUOUS
 10
15027.554554502
 20
11889.3552710329
 40
49.7439290123
100
AcDbArc
 50
180.0757983023
 51
270.0747692017
  0
ARC
  5
37A
100
AcDbEntity
  8
0
100
AcDbCircle
 62
7
  6
CONTINUOUS
 10
15808.066783622
 20
11889.3554574529
 40
49.7439290123
100
AcDbArc
 50
269.9241535882
 51
359.9997499959
  0
SPLINE
  5
37B
100
AcDbEntity
  8
0
100
AcDbSpline
 62
7
  6
CONTINUOUS
 70
0
 71
3
 72
9
 73
5
 74
0
 42
0.0000001
 43
0.0000001
 44
0.0000000001
 40
0.0
 40
0.0
 40
0.0
 40
0.0
 40
0.1573047079
 40
1.0
 40
1.0
 40
1.0
 40
1.0
 10
17051.8202455678
 20
10855.8875373603
 30
0.0
 10
17045.083190297
 20
10855.038697006
 30
0.0
 10
17002.0929455667
 20
10851.0277348027
 30
0.0
 10
16958.9215512077
 20
10849.1223512894
 30
0.0
 10
16922.548574902
 20
10848.6271914214
 30
0.0
  0
SPLINE
  5
37C
100
AcDbEntity
  8
0
100
AcDbSpline
 62
7
  6
CONTINUOUS
 70
0
 71
3
 72
9
 73
5
 74
0
 42
0.0000001
 43
0.0000001
 44
0.0000000001
 40
0.0
 40
0.0
 40
0.0
 40
0.0
 40
0.7856720155
 40
1.0
 40
1.0
 40
1.0
 40
1.0
 10
16671.0943495231
 20
10839.2652803897
 30
0.0
 10
16579.5957709762
 20
10836.101973523
 30
0.0
 10
16463.0928870775
 20
10833.0329105993
 30
0.0
 10
16346.5649587387
 20
10832.1906656562
 30
0.0
 10
16321.5896232886
 20
10832.1911890768
 30
0.0
  0
SPLINE
  5
37D
100
AcDbEntity
  8
0
100
AcDbSpline
 62
7
  6
CONTINUOUS
 70
0
 71
3
 72
8
 73
4
 74
0
 42
0.0000001
 43
0.0000001
 44
0.0000000001
 40
0.0
 40
0.0
 40
0.0
 40
0.0
 40
1.0
 40
1.0
 40
1.0
 40
1.0
 10
17940.5594501962
 20
10909.9395845414
 30
0.0
 10
17941.0954982257
 20
10971.5335086309
 30
0.0
 10
17941.7098248087
 20
11033.1289456341
 30
0.0
 10
17941.6446707476
 20
11094.7251678168
 30
0.0
  0
SPLINE
  5
37E
100
AcDbEntity
  8
0
100
AcDbSpline
 62
7
  6
CONTINUOUS
 70
0
 71
3
 72
8
 73
4
 74
0
 42
0.0000001
 43
0.0000001
 44
0.0000000001
 40
0.0
 40
0.0
 40
0.0
 40
0.0
 40
1.0
 40
1.0
 40
1.0
 40
1.0
 10
21350.0580897235
 20
22984.6850431713
 30
0.0
 10
21282.9325821402
 20
23020.9593742032
 30
0.0
 10
21192.3956294962
 20
23055.2930457576
 30
0.0
 10
21124.101310095
 20
23021.2703063378
 30
0.0
  0
SPLINE
  5
37F
100
AcDbEntity
  8
0
100
AcDbSpline
 62
7
  6
CONTINUOUS
 70
0
 71
3
 72
8
 73
4
 74
0
 42
0.0000001
 43
0.0000001
 44
0.0000000001
 40
0.0
 40
0.0
 40
0.0
 40
0.0
 40
1.0
 40
1.0
 40
1.0
 40
1.0
 10
21612.142209092
 20
22545.0185683375
 30
0.0
 10
21612.142209092
 20
22621.3179582672
 30
0.0
 10
21599.3287763718
 20
22717.3062374148
 30
0.0
 10
21536.9225637199
 20
22761.2045463354
 30
0.0
  0
SPLINE
  5
380
100
AcDbEntity
  8
0
100
AcDbSpline
 62
7
  6
CONTINUOUS
 70
0
 71
3
 72
9
 73
5
 74
0
 42
0.0000001
 43
0.0000001
 44
0.0000000001
 40
0.0
 40
0.0
 40
0.0
 40
0.0
 40
0.5949984564
 40
1.0
 40
1.0
 40
1.0
 40
1.0
 10
21466.0690489033
 20
21550.8870098929
 30
0.0
 10
21480.2222275493
 20
21550.8868078642
 30
0.0
 10
21504.7871844582
 20
21551.160363759
 30
0.0
 10
21515.6613843404
 20
21551.8580018153
 30
0.0
 10
21516.0245837701
 20
21552.1525461814
 30
0.0
  0
SPLINE
  5
381
100
AcDbEntity
  8
0
100
AcDbSpline
 62
7
  6
CONTINUOUS
 70
0
 71
3
 72
9
 73
5
 74
0
 42
0.0000001
 43
0.0000001
 44
0.0000000001
 40
0.0
 40
0.0
 40
0.0
 40
0.0
 40
0.2917071571
 40
1.0
 40
1.0
 40
1.0
 40
1.0
 10
19683.9625891813
 20
23000.6776557601
 30
0.0
 10
19678.3044654029
 20
22994.1703352435
 30
0.0
 10
19642.3699985203
 20
23004.0618243191
 30
0.0
 10
19616.2996615499
 20
22997.8160505486
 30
0.0
 10
19595.3661160995
 20
22998.2457067577
 30
0.0
  0
SPLINE
  5
382
100
AcDbEntity
  8
0
100
AcDbSpline
 62
7
  6
CONTINUOUS
 70
0
 71
3
 72
9
 73
5
 74
0
 42
0.0000001
 43
0.0000001
 44
0.0000000001
 40
0.0
 40
0.0
 40
0.0
 40
0.0
 40
0.2993063901
 40
1.0
 40
1.0
 40
1.0
 40
1.0
 10
6049.1081781668
 20
23400.0114508176
 30
0.0
 10
6061.485611213
 20
23384.3505289563
 30
0.0
 10
6144.2700721588
 20
23408.9153367823
 30
0.0
 10
6202.2705280489
 20
23393.557355052
 30
0.0
 10
6249.0017818853
 20
23393.557355052
 30
0.0
  0
SPLINE
  5
383
100
AcDbEntity
  8
0
100
AcDbSpline
 62
7
  6
CONTINUOUS
 70
0
 71
3
 72
9
 73
5
 74
0
 42
0.0000001
 43
0.0000001
 44
0.0000000001
 40
0.0
 40
0.0
 40
0.0
 40
0.0
 40
0.2909229419
 40
1.0
 40
1.0
 40
1.0
 40
1.0
 10
6047.8155929042
 20
23402.0369432934
 30
0.0
 10
6051.1143995599
 20
23399.988220636
 30
0.0
 10
6065.4517144001
 20
23400.7663321004
 30
0.0
 10
6078.21270784
 20
23398.9641153485
 30
0.0
 10
6087.6694920569
 20
23398.5768391321
 30
0.0
  0
SPLINE
  5
384
100
AcDbEntity
  8
0
100
AcDbSpline
 62
7
  6
CONTINUOUS
 70
0
 71
3
 72
8
 73
4
 74
0
 42
0.0000001
 43
0.0000001
 44
0.0000000001
 40
0.0
 40
0.0
 40
0.0
 40
0.0
 40
1.0
 40
1.0
 40
1.0
 40
1.0
 10
6087.6694920569
 20
23398.5768391321
 30
0.0
 10
6140.917217082
 20
23396.3962270968
 30
0.0
 10
6194.2345058389
 20
23396.0671254223
 30
0.0
 10
6247.5268626004
 20
23396.0671208838
 30
0.0
  0
SPLINE
  5
385
100
AcDbEntity
  8
0
100
AcDbSpline
 62
7
  6
CONTINUOUS
 70
0
 71
3
 72
8
 73
4
 74
0
 42
0.0000001
 43
0.0000001
 44
0.0000000001
 40
0.0
 40
0.0
 40
0.0
 40
0.0
 40
1.0
 40
1.0
 40
1.0
 40
1.0
 10
21350.0580897235
 20
22984.6850431713
 30
0.0
 10
21433.8258307909
 20
22939.4173218733
 30
0.0
 10
21506.7751642777
 20
22866.4680717474
 30
0.0
 10
21552.043572187
 20
22782.7007017254
 30
0.0
  0
SPLINE
  5
386
100
AcDbEntity
  8
0
100
AcDbSpline
 62
7
  6
CONTINUOUS
 70
0
 71
3
 72
9
 73
5
 74
0
 42
0.0000001
 43
0.0000001
 44
0.0000000001
 40
0.0
 40
0.0
 40
0.0
 40
0.0
 40
0.7434476328
 40
1.0
 40
1.0
 40
1.0
 40
1.0
 10
4066.1023670952
 20
12337.8655723929
 30
0.0
 10
4101.2949851478
 20
12337.8732614309
 30
0.0
 10
4169.0424198501
 20
12312.644650879
 30
0.0
 10
4156.0869775619
 20
12259.4102708705
 30
0.0
 10
4149.2416823972
 20
12249.3788613096
 30
0.0
  0
SPLINE
  5
387
100
AcDbEntity
  8
0
100
AcDbSpline
 62
7
  6
CONTINUOUS
 70
0
 71
3
 72
9
 73
5
 74
0
 42
0.0000001
 43
0.0000001
 44
0.0000000001
 40
0.0
 40
0.0
 40
0.0
 40
0.0
 40
0.7434513232
 40
1.0
 40
1.0
 40
1.0
 40
1.0
 10
3469.5567741546
 20
12237.9058398995
 30
0.0
 10
3469.5485141372
 20
12273.0975433558
 30
0.0
 10
3494.7775353571
 20
12340.8420528111
 30
0.0
 10
3548.0102258544
 20
12327.8881876267
 30
0.0
 10
3558.0411880641
 20
12321.0432136171
 30
0.0
  0
SPLINE
  5
388
100
AcDbEntity
  8
0
100
AcDbSpline
 62
7
  6
CONTINUOUS
 70
0
 71
3
 72
9
 73
5
 74
0
 42
0.0000001
 43
0.0000001
 44
0.0000000001
 40
0.0
 40
0.0
 40
0.0
 40
0.0
 40
0.7434473891
 40
1.0
 40
1.0
 40
1.0
 40
1.0
 10
3569.5186191616
 20
11641.357640243
 30
0.0
 10
3534.3260851444
 20
11641.349952096
 30
0.0
 10
3466.5788113739
 20
11666.5787356093
 30
0.0
 10
3479.534408977
 20
11719.8129637244
 30
0.0
 10
3486.3797232835
 20
11729.8443439041
 30
0.0
  0
SPLINE
  5
389
100
AcDbEntity
  8
0
100
AcDbSpline
 62
7
  6
CONTINUOUS
 70
0
 71
3
 72
9
 73
5
 74
0
 42
0.0000001
 43
0.0000001
 44
0.0000000001
 40
0.0
 40
0.0
 40
0.0
 40
0.0
 40
0.7434501355
 40
1.0
 40
1.0
 40
1.0
 40
1.0
 10
4166.0646019145
 20
11741.3175822065
 30
0.0
 10
4166.0722927963
 20
11706.1257453774
 30
0.0
 10
4140.8435009767
 20
11638.3812063825
 30
0.0
 10
4087.6105205544
 20
11651.3349192322
 30
0.0
 10
4077.5793755295
 20
11658.1798410786
 30
0.0
  0
SPLINE
  5
38A
100
AcDbEntity
  8
0
100
AcDbSpline
 62
7
  6
CONTINUOUS
 70
0
 71
3
 72
9
 73
5
 74
0
 42
0.0000001
 43
0.0000001
 44
0.0000000001
 40
0.0
 40
0.0
 40
0.0
 40
0.0
 40
0.7434498968
 40
1.0
 40
1.0
 40
1.0
 40
1.0
 10
19367.7727311396
 20
11639.6115718147
 30
0.0
 10
19332.5802727197
 20
11639.6023829795
 30
0.0
 10
19264.8320775638
 20
11664.8317514891
 30
0.0
 10
19277.7887099133
 20
11718.0656883032
 30
0.0
 10
19284.6343022184
 20
11728.0966540359
 30
0.0
  0
SPLINE
  5
38B
100
AcDbEntity
  8
0
100
AcDbSpline
 62
7
  6
CONTINUOUS
 70
0
 71
3
 72
9
 73
5
 74
0
 42
0.0000001
 43
0.0000001
 44
0.0000000001
 40
0.0
 40
0.0
 40
0.0
 40
0.0
 40
0.7434524632
 40
1.0
 40
1.0
 40
1.0
 40
1.0
 10
19967.8106690365
 20
11739.5716876238
 30
0.0
 10
19967.8198633423
 20
11704.3799152048
 30
0.0
 10
19942.5904143928
 20
11636.6343881786
 30
0.0
 10
19889.3577099831
 20
11649.5892527296
 30
0.0
 10
19879.3269758473
 20
11656.4344745522
 30
0.0
  0
SPLINE
  5
38C
100
AcDbEntity
  8
0
100
AcDbSpline
 62
7
  6
CONTINUOUS
 70
0
 71
3
 72
9
 73
5
 74
0
 42
0.0000001
 43
0.0000001
 44
0.0000000001
 40
0.0
 40
0.0
 40
0.0
 40
0.0
 40
0.7434498378
 40
1.0
 40
1.0
 40
1.0
 40
1.0
 10
19867.8486004729
 20
12339.6115721328
 30
0.0
 10
19903.0410633601
 20
12339.6207188002
 30
0.0
 10
19970.7892265224
 20
12314.3913719987
 30
0.0
 10
19957.8326451987
 20
12261.1574225884
 30
0.0
 10
19950.9870644757
 20
12251.1264425444
 30
0.0
  0
SPLINE
  5
38D
100
AcDbEntity
  8
0
100
AcDbSpline
 62
7
  6
CONTINUOUS
 70
0
 71
3
 72
9
 73
5
 74
0
 42
0.0000001
 43
0.0000001
 44
0.0000000001
 40
0.0
 40
0.0
 40
0.0
 40
0.0
 40
0.7434525506
 40
1.0
 40
1.0
 40
1.0
 40
1.0
 10
19267.8106689486
 20
12239.651543021
 30
0.0
 10
19267.8014767209
 20
12274.8432920355
 30
0.0
 10
19293.0309086154
 20
12342.5887325513
 30
0.0
 10
19346.2635739454
 20
12329.6339360049
 30
0.0
 10
19356.2943014595
 20
12322.7887286829
 30
0.0
  0
SPLINE
  5
38E
100
AcDbEntity
  8
0
100
AcDbSpline
 62
7
  6
CONTINUOUS
 70
0
 71
3
 72
9
 73
5
 74
0
 42
0.0000001
 43
0.0000001
 44
0.0000000001
 40
0.0
 40
0.0
 40
0.0
 40
0.0
 40
0.3232225925
 40
1.0
 40
1.0
 40
1.0
 40
1.0
 10
2869.607132271
 20
10986.6997183113
 30
0.0
 10
2874.1118327779
 20
10990.7926169089
 30
0.0
 10
2887.0569672531
 20
11004.4977257464
 30
0.0
 10
2900.541130082
 20
11017.6333729395
 30
0.0
 10
2909.5522891424
 20
11026.6448756362
 30
0.0
  0
SPLINE
  5
38F
100
AcDbEntity
  8
0
100
AcDbSpline
 62
7
  6
CONTINUOUS
 70
0
 71
3
 72
9
 73
5
 74
0
 42
0.0000001
 43
0.0000001
 44
0.0000000001
 40
0.0
 40
0.0
 40
0.0
 40
0.0
 40
0.5408383359
 40
1.0
 40
1.0
 40
1.0
 40
1.0
 10
19337.3273970301
 20
11609.1695659889
 30
0.0
 10
19312.0423379841
 20
11609.1604741118
 30
0.0
 10
19259.7064769508
 20
11617.5932397623
 30
0.0
 10
19242.2903897812
 20
11679.7100284335
 30
0.0
 10
19254.4462629651
 20
11697.4031713579
 30
0.0
  0
SPLINE
  5
390
100
AcDbEntity
  8
0
100
AcDbSpline
 62
7
  6
CONTINUOUS
 70
0
 71
3
 72
9
 73
5
 74
0
 42
0.0000001
 43
0.0000001
 44
0.0000000001
 40
0.0
 40
0.0
 40
0.0
 40
0.0
 40
0.540837653
 40
1.0
 40
1.0
 40
1.0
 40
1.0
 10
19998.2526743246
 20
11709.1266619047
 30
0.0
 10
19998.2618028149
 20
11683.8421165352
 30
0.0
 10
19989.8282354104
 20
11631.5078941469
 30
0.0
 10
19927.7133728782
 20
11614.0910268271
 30
0.0
 10
19910.0203638445
 20
11626.2464290108
 30
0.0
  0
SPLINE
  5
391
100
AcDbEntity
  8
0
100
AcDbSpline
 62
7
  6
CONTINUOUS
 70
0
 71
3
 72
9
 73
5
 74
0
 42
0.0000001
 43
0.0000001
 44
0.0000000001
 40
0.0
 40
0.0
 40
0.0
 40
0.0
 40
0.5408382516
 40
1.0
 40
1.0
 40
1.0
 40
1.0
 10
19898.2937091319
 20
12370.0535775964
 30
0.0
 10
19923.5787837848
 20
12370.0626602843
 30
0.0
 10
19975.9146455937
 20
12361.6299028602
 30
0.0
 10
19993.330880702
 20
12299.5131444657
 30
0.0
 10
19981.1750480081
 20
12281.8199488132
 30
0.0
  0
SPLINE
  5
392
100
AcDbEntity
  8
0
100
AcDbSpline
 62
7
  6
CONTINUOUS
 70
0
 71
3
 72
9
 73
5
 74
0
 42
0.0000001
 43
0.0000001
 44
0.0000000001
 40
0.0
 40
0.0
 40
0.0
 40
0.0
 40
0.5408374823
 40
1.0
 40
1.0
 40
1.0
 40
1.0
 10
19237.3686634957
 20
12270.0967980826
 30
0.0
 10
19237.35957396
 20
12295.381254937
 30
0.0
 10
19245.7931816269
 20
12347.7152468434
 30
0.0
 10
19307.9077609771
 20
12365.1321462847
 30
0.0
 10
19325.600753128
 20
12352.9768261899
 30
0.0
  0
SPLINE
  5
393
100
AcDbEntity
  8
0
100
AcDbSpline
 62
7
  6
CONTINUOUS
 70
0
 71
3
 72
9
 73
5
 74
0
 42
0.0000001
 43
0.0000001
 44
0.0000000001
 40
0.0
 40
0.0
 40
0.0
 40
0.0
 40
0.3228642827
 40
1.0
 40
1.0
 40
1.0
 40
1.0
 10
21566.0676536506
 20
10986.6902069648
 30
0.0
 10
21561.5666798708
 20
10990.7843004526
 30
0.0
 10
21548.587631139
 20
11004.4759528891
 30
0.0
 10
21535.0924181135
 20
11017.6218244336
 30
0.0
 10
21526.0690489454
 20
11026.6448758072
 30
0.0
  0
SPLINE
  5
394
100
AcDbEntity
  8
0
100
AcDbSpline
 62
7
  6
CONTINUOUS
 70
0
 71
3
 72
9
 73
5
 74
0
 42
0.0000001
 43
0.0000001
 44
0.0000000001
 40
0.0
 40
0.0
 40
0.0
 40
0.0
 40
0.5408345307
 40
1.0
 40
1.0
 40
1.0
 40
1.0
 10
4098.2935396538
 20
12370.053688592
 30
0.0
 10
4123.5785138771
 20
12370.0616836165
 30
0.0
 10
4175.9135363418
 20
12361.6281518209
 30
0.0
 10
4193.330887909
 20
12299.5126417528
 30
0.0
 10
4181.1758908295
 20
12281.8185856267
 30
0.0
  0
SPLINE
  5
395
100
AcDbEntity
  8
0
100
AcDbSpline
 62
7
  6
CONTINUOUS
 70
0
 71
3
 72
9
 73
5
 74
0
 42
0.0000001
 43
0.0000001
 44
0.0000000001
 40
0.0
 40
0.0
 40
0.0
 40
0.0
 40
0.5408357015
 40
1.0
 40
1.0
 40
1.0
 40
1.0
 10
3437.3686048579
 20
12270.096260947
 30
0.0
 10
3437.3601484168
 20
12295.3808365031
 30
0.0
 10
3445.7936649405
 20
12347.714993269
 30
0.0
 10
3507.908238726
 20
12365.1322310363
 30
0.0
 10
3525.6017678648
 20
12352.9772430903
 30
0.0
  0
SPLINE
  5
396
100
AcDbEntity
  8
0
100
AcDbSpline
 62
7
  6
CONTINUOUS
 70
0
 71
3
 72
9
 73
5
 74
0
 42
0.0000001
 43
0.0000001
 44
0.0000000001
 40
0.0
 40
0.0
 40
0.0
 40
0.0
 40
0.5408346942
 40
1.0
 40
1.0
 40
1.0
 40
1.0
 10
3537.3280722624
 20
11609.169394744
 30
0.0
 10
3512.0430537507
 20
11609.1613999282
 30
0.0
 10
3459.7079905696
 20
11617.5948528095
 30
0.0
 10
3442.290405882
 20
11679.710385588
 30
0.0
 10
3454.4453715534
 20
11697.404491758
 30
0.0
  0
SPLINE
  5
397
100
AcDbEntity
  8
0
100
AcDbSpline
 62
7
  6
CONTINUOUS
 70
0
 71
3
 72
9
 73
5
 74
0
 42
0.0000001
 43
0.0000001
 44
0.0000000001
 40
0.0
 40
0.0
 40
0.0
 40
0.0
 40
0.54083463
 40
1.0
 40
1.0
 40
1.0
 40
1.0
 10
4198.2528471255
 20
11709.1289272622
 30
0.0
 10
4198.2608448534
 20
11683.8439029131
 30
0.0
 10
4189.8273680765
 20
11631.5087784231
 30
0.0
 10
4127.7117480379
 20
11614.0913444147
 30
0.0
 10
4110.0176581712
 20
11626.2463523869
 30
0.0
  0
SPLINE
  5
398
100
AcDbEntity
  8
0
100
AcDbSpline
 62
7
  6
CONTINUOUS
 70
0
 71
3
 72
9
 73
5
 74
0
 42
0.0000001
 43
0.0000001
 44
0.0000000001
 40
0.0
 40
0.0
 40
0.0
 40
0.0
 40
0.5408383562
 40
1.0
 40
1.0
 40
1.0
 40
1.0
 10
12087.3279236987
 20
11909.1695073577
 30
0.0
 10
12062.0427763416
 20
11909.1604238736
 30
0.0
 10
12009.7067344639
 20
11917.5931036367
 30
0.0
 10
11992.2904751517
 20
11979.7100665159
 30
0.0
 10
12004.4463453348
 20
11997.4033003306
 30
0.0
  0
SPLINE
  5
399
100
AcDbEntity
  8
0
100
AcDbSpline
 62
7
  6
CONTINUOUS
 70
0
 71
3
 72
9
 73
5
 74
0
 42
0.0000001
 43
0.0000001
 44
0.0000000001
 40
0.0
 40
0.0
 40
0.0
 40
0.0
 40
0.540836673
 40
1.0
 40
1.0
 40
1.0
 40
1.0
 10
12748.25284596
 20
12009.1289275732
 30
0.0
 10
12748.2615157973
 20
11983.8439307469
 30
0.0
 10
12739.8281158194
 20
11931.5087970834
 30
0.0
 10
12677.7123325726
 20
11914.091427804
 30
0.0
 10
12660.0187082645
 20
11926.2467606352
 30
0.0
  0
SPLINE
  5
39A
100
AcDbEntity
  8
0
100
AcDbSpline
 62
7
  6
CONTINUOUS
 70
0
 71
3
 72
9
 73
5
 74
0
 42
0.0000001
 43
0.0000001
 44
0.0000000001
 40
0.0
 40
0.0
 40
0.0
 40
0.0
 40
0.4477572374
 40
1.0
 40
1.0
 40
1.0
 40
1.0
 10
17940.5594501962
 20
10909.9395845414
 30
0.0
 10
17936.3421337828
 20
10910.2871713074
 30
0.0
 10
17927.1539899008
 20
10913.8930472026
 30
0.0
 10
17920.2843507099
 20
10920.5985395282
 30
0.0
 10
17916.9198332617
 20
10924.588374506
 30
0.0
  0
SPLINE
  5
39B
100
AcDbEntity
  8
0
100
AcDbSpline
 62
7
  6
CONTINUOUS
 70
0
 71
3
 72
9
 73
5
 74
0
 42
0.0000001
 43
0.0000001
 44
0.0000000001
 40
0.0
 40
0.0
 40
0.0
 40
0.0
 40
0.4723172814
 40
1.0
 40
1.0
 40
1.0
 40
1.0
 10
17916.9198332617
 20
10924.588374506
 30
0.0
 10
17914.9264340298
 20
10926.952259997
 30
0.0
 10
17911.0276802918
 20
10932.2311940064
 30
0.0
 10
17907.6709515485
 20
10937.8624186771
 30
0.0
 10
17906.0178180799
 20
10940.8958597788
 30
0.0
  0
SPLINE
  5
39C
100
AcDbEntity
  8
0
100
AcDbSpline
 62
7
  6
CONTINUOUS
 70
0
 71
3
 72
9
 73
5
 74
0
 42
0.0000001
 43
0.0000001
 44
0.0000000001
 40
0.0
 40
0.0
 40
0.0
 40
0.0
 40
0.5408365524
 40
1.0
 40
1.0
 40
1.0
 40
1.0
 10
12648.2935414844
 20
12670.0536887465
 30
0.0
 10
12673.5785002667
 20
12670.062358667
 30
0.0
 10
12725.9135943169
 20
12661.6289028939
 30
0.0
 10
12743.3307834918
 20
12599.5131473845
 30
0.0
 10
12731.1754289857
 20
12581.8195645046
 30
0.0
  0
SPLINE
  5
39D
100
AcDbEntity
  8
0
100
AcDbSpline
 62
7
  6
CONTINUOUS
 70
0
 71
3
 72
9
 73
5
 74
0
 42
0.0000001
 43
0.0000001
 44
0.0000000001
 40
0.0
 40
0.0
 40
0.0
 40
0.0
 40
0.5408359698
 40
1.0
 40
1.0
 40
1.0
 40
1.0
 10
11987.368551063
 20
12570.0966195516
 30
0.0
 10
11987.3598926952
 20
12595.3808076748
 30
0.0
 10
11995.7942972727
 20
12647.71314484
 30
0.0
 10
12057.9067003229
 20
12665.1324879697
 30
0.0
 10
12075.6002247731
 20
12652.978114974
 30
0.0
  0
SPLINE
  5
39E
100
AcDbEntity
  8
0
100
AcDbSpline
 62
7
  6
CONTINUOUS
 70
0
 71
3
 72
9
 73
5
 74
0
 42
0.0000001
 43
0.0000001
 44
0.0000000001
 40
0.0
 40
0.0
 40
0.0
 40
0.0
 40
0.2156377846
 40
1.0
 40
1.0
 40
1.0
 40
1.0
 10
16312.8700576107
 20
11081.8868805668
 30
0.0
 10
16334.3699893101
 20
11081.886429982
 30
0.0
 10
16434.0735837063
 20
11082.5117623596
 30
0.0
 10
16533.759703405
 20
11084.8815487236
 30
0.0
 10
16611.9260861252
 20
11087.3063942631
 30
0.0
  0
SPLINE
  5
39F
100
AcDbEntity
  8
0
100
AcDbSpline
 62
7
  6
CONTINUOUS
 70
0
 71
3
 72
9
 73
5
 74
0
 42
0.0000001
 43
0.0000001
 44
0.0000000001
 40
0.0
 40
0.0
 40
0.0
 40
0.0
 40
0.3228642855
 40
1.0
 40
1.0
 40
1.0
 40
1.0
 10
2869.5536823113
 20
19942.5329367422
 30
0.0
 10
2874.0568217907
 20
19938.4412249061
 30
0.0
 10
2887.0324132793
 20
19924.7456745644
 30
0.0
 10
2900.5292354008
 20
19911.6016358614
 30
0.0
 10
2909.552289243
 20
19902.578268304
 30
0.0
  0
SPLINE
  5
3A0
100
AcDbEntity
  8
0
100
AcDbSpline
 62
7
  6
CONTINUOUS
 70
0
 71
3
 72
9
 73
5
 74
0
 42
0.0000001
 43
0.0000001
 44
0.0000000001
 40
0.0
 40
0.0
 40
0.0
 40
0.0
 40
0.4999744805
 40
1.0
 40
1.0
 40
1.0
 40
1.0
 10
20082.142209092
 20
22044.7814065929
 30
0.0
 10
20082.142209092
 20
21967.6161105199
 30
0.0
 10
20218.2582560163
 20
21795.7992715188
 30
0.0
 10
20405.4037000402
 20
21910.7703235401
 30
0.0
 10
20431.4095622928
 20
21983.4297607537
 30
0.0
  0
SPLINE
  5
3A1
100
AcDbEntity
  8
0
100
AcDbSpline
 62
7
  6
CONTINUOUS
 70
0
 71
3
 72
9
 73
5
 74
0
 42
0.0000001
 43
0.0000001
 44
0.0000000001
 40
0.0
 40
0.0
 40
0.0
 40
0.0
 40
0.4999744805
 40
1.0
 40
1.0
 40
1.0
 40
1.0
 10
12182.142209092
 20
12294.7814065929
 30
0.0
 10
12182.142209092
 20
12217.6161105199
 30
0.0
 10
12318.2582560163
 20
12045.7992715188
 30
0.0
 10
12505.4037000402
 20
12160.7703235401
 30
0.0
 10
12531.4095622928
 20
12233.4297607537
 30
0.0
  0
SPLINE
  5
3A2
100
AcDbEntity
  8
0
100
AcDbSpline
 62
7
  6
CONTINUOUS
 70
0
 71
3
 72
9
 73
5
 74
0
 42
0.0000001
 43
0.0000001
 44
0.0000000001
 40
0.0
 40
0.0
 40
0.0
 40
0.0
 40
0.7434499644
 40
1.0
 40
1.0
 40
1.0
 40
1.0
 10
12117.7723950273
 20
11939.6116386489
 30
0.0
 10
12082.5800397619
 20
11939.6024908394
 30
0.0
 10
12014.832186815
 20
11964.8318776359
 30
0.0
 10
12027.7886704609
 20
12018.0656412387
 30
0.0
 10
12034.6342232731
 20
12028.0965856054
 30
0.0
  0
SPLINE
  5
3A3
100
AcDbEntity
  8
0
100
AcDbSpline
 62
7
  6
CONTINUOUS
 70
0
 71
3
 72
9
 73
5
 74
0
 42
0.0000001
 43
0.0000001
 44
0.0000000001
 40
0.0
 40
0.0
 40
0.0
 40
0.0
 40
0.7434513202
 40
1.0
 40
1.0
 40
1.0
 40
1.0
 10
12717.8106399567
 20
12039.5715413886
 30
0.0
 10
12717.8192663851
 20
12004.3797529993
 30
0.0
 10
12692.5899605056
 20
11936.6345241067
 30
0.0
 10
12639.3571709828
 20
11949.5891769959
 30
0.0
 10
12629.3262914035
 20
11956.434324483
 30
0.0
  0
SPLINE
  5
3A4
100
AcDbEntity
  8
0
100
AcDbSpline
 62
7
  6
CONTINUOUS
 70
0
 71
3
 72
9
 73
5
 74
0
 42
0.0000001
 43
0.0000001
 44
0.0000000001
 40
0.0
 40
0.0
 40
0.0
 40
0.0
 40
0.7434489987
 40
1.0
 40
1.0
 40
1.0
 40
1.0
 10
12617.8484044399
 20
12639.6116111111
 30
0.0
 10
12653.0409622786
 20
12639.6202384209
 30
0.0
 10
12720.7890156598
 20
12614.3911769384
 30
0.0
 10
12707.8327533129
 20
12561.1570050966
 30
0.0
 10
12700.9872547644
 20
12551.125864678
 30
0.0
  0
SPLINE
  5
3A5
100
AcDbEntity
  8
0
100
AcDbSpline
 62
7
  6
CONTINUOUS
 70
0
 71
3
 72
9
 73
5
 74
0
 42
0.0000001
 43
0.0000001
 44
0.0000000001
 40
0.0
 40
0.0
 40
0.0
 40
0.0
 40
0.7434518904
 40
1.0
 40
1.0
 40
1.0
 40
1.0
 10
12017.8106313962
 20
12539.6513541853
 30
0.0
 10
12017.8020466588
 20
12574.8431806322
 30
0.0
 10
12043.0310552881
 20
12642.5882816164
 30
0.0
 10
12096.2639274396
 20
12629.6341434821
 30
0.0
 10
12106.2948407217
 20
12622.7890865006
 30
0.0
  0
ELLIPSE
  5
3A6
100
AcDbEntity
  8
0
100
AcDbEllipse
 62
7
  6
CONTINUOUS
 10
17718.752533262
 20
10912.6012215188
 30
0.0
 11
199.9870864764
 21
4.6546985657
 31
0.0
 40
0.499949227
 41
0.5010364224
 42
0.5992289141
  0
ELLIPSE
  5
3A7
100
AcDbEntity
  8
0
100
AcDbEllipse
 62
7
  6
CONTINUOUS
 10
17483.914901672
 20
10901.846585902
 30
0.0
 11
399.9738577591
 21
9.3093897953
 31
0.0
 40
0.499949227
 41
0.5992306651
 42
1.2543515622
  0
ELLIPSE
  5
3A8
100
AcDbEntity
  8
0
100
AcDbEllipse
 62
7
  6
CONTINUOUS
 10
17718.752533262
 20
-163.2467555243
 30
0.0
 11
192.6485648879
 21
11458.0281270676
 31
0.0
 40
0.0046891811
 41
0.1871939268
 42
0.2406882385
  0
ENDSEC
  0
SECTION
  2
OBJECTS
  0
DICTIONARY
  5
C
100
AcDbDictionary
280
0
281
1
  3
ACAD_GROUP
350
D
  3
ACAD_MLINESTYLE
350
17
  3
ACAD_LAYOUT
350
1A
  3
ACAD_PLOTSETTINGS
350
19
  3
ACAD_PLOTSTYLENAME
350
E
  0
DICTIONARY
  5
D
102
{ACAD_REACTORS
330
C
102
}
100
AcDbDictionary
280
0
281
1
  0
ACDBDICTIONARYWDFLT
  5
E
102
{ACAD_REACTORS
330
C
102
}
100
AcDbDictionary
281
1
  3
Normal
350
F
100
AcDbDictionaryWithDefault
340
F
  0
DICTIONARY
  5
17
102
{ACAD_REACTORS
330
C
102
}
100
AcDbDictionary
280
0
281
1
  3
Standard
350
18
  0
DICTIONARY
  5
19
102
{ACAD_REACTORS
330
C
102
}
100
AcDbDictionary
281
1
  0
DICTIONARY
  5
1A
102
{ACAD_REACTORS
330
C
102
}
100
AcDbDictionary
281
1
  3
Model
350
3A9
  3
Layout1
350
3AA
  0
ACDBPLACEHOLDER
  5
F
102
{ACAD_REACTORS
330
E
102
}
  0
MLINESTYLE
  5
18
102
{ACAD_REACTORS
330
17
102
}
100
AcDbMlineStyle
  2
STANDARD
 70
0
  3

 62
256
 51
90.0
 52
90.0
 71
2
 49
0.5
 62
256
  6
BYLAYER
 49
-0.5
 62
256
  6
BYLAYER
  0
LAYOUT
  5
3A9
102
{ACAD_REACTORS
330
1A
102
}
100
AcDbPlotSettings
  1

  2
none_device
  4

  6

 40
0.0
 41
0.0
 42
0.0
 43
0.0
 44
210.0
 45
297.0
 46
0.0
 47
0.0
 48
0.0
 49
0.0
140
0.0
141
0.0
142
1.0
143
1.0
 70
1024
 72
1
 73
0
 74
0
  7

 75
0
147
1.0
148
0.0
149
0.0
100
AcDbLayout
  1
Model
 70
0
 71
0
 10
0.0
 20
0.0
 11
210.0
 21
297.0
 12
0.0
 22
0.0
 32
0.0
 14
0.0
 24
0.0
 34
0.0
 15
0.0
 25
0.0
 35
0.0
146
0.0
 13
0.0
 23
0.0
 33
0.0
 16
1.0
 26
0.0
 36
0.0
 17
0.0
 27
1.0
 37
0.0
 76
0
330
210
345
0
346
0
  0
LAYOUT
  5
3AA
102
{ACAD_REACTORS
330
1A
102
}
100
AcDbPlotSettings
  1

  2
none_device
  4

  6

 40
0.0
 41
0.0
 42
0.0
 43
0.0
 44
210.0
 45
297.0
 46
0.0
 47
0.0
 48
0.0
 49
0.0
140
0.0
141
0.0
142
1.0
143
1.0
 70
0
 72
1
 73
0
 74
0
  7

 75
0
147
1.0
148
0.0
149
0.0
100
AcDbLayout
  1
Layout1
 70
0
 71
1
 10
0.0
 20
0.0
 11
210.0
 21
297.0
 12
0.0
 22
0.0
 32
0.0
 14
0.0
 24
0.0
 34
0.0
 15
0.0
 25
0.0
 35
0.0
146
0.0
 13
0.0
 23
0.0
 33
0.0
 16
1.0
 26
0.0
 36
0.0
 17
0.0
 27
1.0
 37
0.0
 76
0
330
211
345
0
346
0
  0
ENDSEC
  0
EOF
