999
DXF file: C:\Users\sesa63760\Dev\_Creo\CAD\MCADID0000267_3D-CAD\drw0001_1.dxf
999
Pro/ENGINEER 2019471 by Parametric Technology Corporation
  0
SECTION
  2
HEADER
  9
$ACADVER
  1
AC1024
  9
$DWGCODEPAGE
  3
ANSI_1252
  9
$EXTMAX
 10
134.1983072091
 20
189.7947487672
 30
0.0
  9
$EXTMIN
 10
0.0
 20
0.0
 30
0.0
  9
$LIMMIN
 10
0.0
 20
0.0
  9
$LIMMAX
 10
134.1983072091
 20
189.7947487672
  9
$VIEWCTR
 10
67.0991536046
 20
94.8973743836
  9
$VIEWSIZE
 40
189.7947487672
  9
$CLAYER
  8
0
  9
$LTSCALE
 40
12.3718058456
  9
$CELTYPE
  6
BYLAYER
  9
$DIMSCALE
 40
1.0
  9
$DIMASZ
 40
1.5975988953
  9
$DIMEXO
 40
1.0
  9
$DIMDLI
 40
8.5477931297
  9
$DIMEXE
 40
1.0
  9
$DIMCEN
 40
2.0244773202
  9
$DIMLFAC
 40
1.0
  9
$DIMBLK
  1
_FILLED
  9
$DIMALT
 70
0
  9
$DIMALTF
 40
0.0393700787
  9
$DIMTXT
 40
2.2366384535
  9
$DIMTOL
 70
1
  9
$DIMLIM
 70
0
  9
$DIMTFAC
 40
1.0
  9
$DIMTP
 40
0.01
  9
$DIMTM
 40
0.01
  9
$DIMGAP
 40
0.625
  9
$DIMDSEP
 70
46
  9
$AUNITS
 70
0
  9
$PDMODE
 70
3
  9
$PDSIZE
 40
0.3125
  9
$HANDSEED
  5
4D4
  9
$TILEMODE
 70
1
  9
$MEASUREMENT
 70
1
  9
$INSUNITS
 70
4
  0
ENDSEC
  0
SECTION
  2
CLASSES
  0
CLASS
  1
ACDBDICTIONARYWDFLT
  2
AcDbDictionaryWithDefault
  3
AutoCAD 2000
 90
0
 91
1
280
0
281
0
  0
CLASS
  1
ACDBPLACEHOLDER
  2
AcDbPlaceHolder
  3
AutoCAD 2000
 90
0
 91
1
280
0
281
0
  0
CLASS
  1
LAYOUT
  2
AcDbLayout
  3
AutoCAD 2000
 90
0
 91
0
280
0
281
0
  0
ENDSEC
  0
SECTION
  2
TABLES
  0
TABLE
  2
VPORT
  5
8
100
AcDbSymbolTable
 70
2
  0
VPORT
  5
1F4
100
AcDbSymbolTableRecord
100
AcDbViewportTableRecord
  2
*ACTIVE
 70
0
 10
0.0
 20
0.0
 11
1.0
 21
1.0
 12
67.0991536046
 22
94.8973743836
 13
0.0
 23
0.0
 14
1.0
 24
1.0
 15
0.0
 25
0.0
 16
0.0
 26
0.0
 36
1.0
 17
0.0
 27
0.0
 37
0.0
 40
189.7947487672
 41
0.7070707071
 42
50.0
 43
0.0
 44
0.0
 50
0.0
 51
0.0
 71
0
 72
100
 73
1
 74
1
 75
0
 76
0
 77
0
 78
0
  0
ENDTAB
  0
TABLE
  2
LTYPE
  5
5
100
AcDbSymbolTable
 70
6
  0
LTYPE
  5
14
100
AcDbSymbolTableRecord
100
AcDbLinetypeTableRecord
  2
BYBLOCK
 70
0
  3

 72
65
 73
0
 40
0.0
  0
LTYPE
  5
15
100
AcDbSymbolTableRecord
100
AcDbLinetypeTableRecord
  2
BYLAYER
 70
0
  3

 72
65
 73
0
 40
0.0
  0
LTYPE
  5
16
100
AcDbSymbolTableRecord
100
AcDbLinetypeTableRecord
  2
CONTINUOUS
 70
64
  3
Solid line
 72
65
 73
0
 40
0.0
  0
LTYPE
  5
1F5
100
AcDbSymbolTableRecord
100
AcDbLinetypeTableRecord
  2
CENTER
 70
64
  3
____ _ ____ _ ____ _ ____ _ ____ _ ____ _ ____
 72
65
 73
4
 40
0.6
 49
0.375
 74
0
 49
-0.075
 74
0
 49
0.075
 74
0
 49
-0.075
 74
0
  0
LTYPE
  5
1F6
100
AcDbSymbolTableRecord
100
AcDbLinetypeTableRecord
  2
HIDDEN
 70
64
  3
- - - - - - - - - - - - - - - - - - - -
 72
65
 73
2
 40
0.2
 49
0.1
 74
0
 49
-0.1
 74
0
  0
LTYPE
  5
1F7
100
AcDbSymbolTableRecord
100
AcDbLinetypeTableRecord
  2
PHANTOM
 70
64
  3
_____ _ _ _____ _ _ _____ _ _ _____
 72
65
 73
6
 40
0.8
 49
0.45
 74
0
 49
-0.05
 74
0
 49
0.1
 74
0
 49
-0.05
 74
0
 49
0.1
 74
0
 49
-0.05
 74
0
  0
LTYPE
  5
1F8
100
AcDbSymbolTableRecord
100
AcDbLinetypeTableRecord
  2
DOT
 70
64
  3
. . . . . . . . . . . . . . . . . . . .
 72
65
 73
2
 40
0.2
 49
0.1
 74
0
 49
-0.1
 74
0
  0
LTYPE
  5
1F9
100
AcDbSymbolTableRecord
100
AcDbLinetypeTableRecord
  2
DASHED
 70
64
  3
- - - - - - - - - - - - - - - - - - - -
 72
65
 73
2
 40
0.2
 49
0.1
 74
0
 49
-0.1
 74
0
  0
ENDTAB
  0
TABLE
  2
LAYER
  5
2
100
AcDbSymbolTable
 70
36
  0
LAYER
  5
10
100
AcDbSymbolTableRecord
100
AcDbLayerTableRecord
  2
0
 70
0
 62
7
  6
CONTINUOUS
370
-3
390
F
  0
LAYER
  5
1FA
100
AcDbSymbolTableRecord
100
AcDbLayerTableRecord
  2
DEFAULT_1
 70
0
 62
7
  6
CENTER
370
-3
390
F
  0
LAYER
  5
1FB
100
AcDbSymbolTableRecord
100
AcDbLayerTableRecord
  2
DEFAULT_2
 70
0
 62
8
  6
HIDDEN
370
-3
390
F
  0
LAYER
  5
1FC
100
AcDbSymbolTableRecord
100
AcDbLayerTableRecord
  2
DEFAULT_3
 70
0
 62
7
  6
PHANTOM
370
-3
390
F
  0
LAYER
  5
1FD
100
AcDbSymbolTableRecord
100
AcDbLayerTableRecord
  2
00_COMPONENTS
 70
0
 62
7
  6
CONTINUOUS
370
-3
390
F
  0
LAYER
  5
1FE
100
AcDbSymbolTableRecord
100
AcDbLayerTableRecord
  2
01_1_DEFAULT_DATUMS
 70
0
 62
7
  6
CONTINUOUS
370
-3
390
F
  0
LAYER
  5
1FF
100
AcDbSymbolTableRecord
100
AcDbLayerTableRecord
  2
01_PLANES
 70
0
 62
7
  6
CONTINUOUS
370
-3
390
F
  0
LAYER
  5
200
100
AcDbSymbolTableRecord
100
AcDbLayerTableRecord
  2
02_COORD_SYS
 70
0
 62
7
  6
CONTINUOUS
370
-3
390
F
  0
LAYER
  5
201
100
AcDbSymbolTableRecord
100
AcDbLayerTableRecord
  2
03_AXES
 70
0
 62
7
  6
CONTINUOUS
370
-3
390
F
  0
LAYER
  5
202
100
AcDbSymbolTableRecord
100
AcDbLayerTableRecord
  2
04_POINTS
 70
0
 62
7
  6
CONTINUOUS
370
-3
390
F
  0
LAYER
  5
203
100
AcDbSymbolTableRecord
100
AcDbLayerTableRecord
  2
05_CURVES
 70
0
 62
7
  6
CONTINUOUS
370
-3
390
F
  0
LAYER
  5
204
100
AcDbSymbolTableRecord
100
AcDbLayerTableRecord
  2
06_SURFS
 70
0
 62
7
  6
CONTINUOUS
370
-3
390
F
  0
LAYER
  5
205
100
AcDbSymbolTableRecord
100
AcDbLayerTableRecord
  2
07_COSMETICS
 70
0
 62
7
  6
CONTINUOUS
370
-3
390
F
  0
LAYER
  5
206
100
AcDbSymbolTableRecord
100
AcDbLayerTableRecord
  2
10_NOTES
 70
0
 62
7
  6
CONTINUOUS
370
-3
390
F
  0
LAYER
  5
207
100
AcDbSymbolTableRecord
100
AcDbLayerTableRecord
  2
11_NOTES_PUB
 70
0
 62
7
  6
CONTINUOUS
370
-3
390
F
  0
LAYER
  5
208
100
AcDbSymbolTableRecord
100
AcDbLayerTableRecord
  2
13_REF_GTOL
 70
0
 62
7
  6
CONTINUOUS
370
-3
390
F
  0
LAYER
  5
209
100
AcDbSymbolTableRecord
100
AcDbLayerTableRecord
  2
16_MISC
 70
0
 62
7
  6
CONTINUOUS
370
-3
390
F
  0
LAYER
  5
20A
100
AcDbSymbolTableRecord
100
AcDbLayerTableRecord
  2
17_NO_PRINT
 70
0
 62
7
  6
CONTINUOUS
370
-3
390
F
  0
LAYER
  5
20B
100
AcDbSymbolTableRecord
100
AcDbLayerTableRecord
  2
18_DATUM_CAMS_JOINTS
 70
0
 62
7
  6
CONTINUOUS
370
-3
390
F
  0
LAYER
  5
20C
100
AcDbSymbolTableRecord
100
AcDbLayerTableRecord
  2
19_DATUM_FUNCTIONAL
 70
0
 62
7
  6
CONTINUOUS
370
-3
390
F
  0
LAYER
  5
20D
100
AcDbSymbolTableRecord
100
AcDbLayerTableRecord
  2
20_DATUM_KINEMATIC_SCHEME
 70
0
 62
7
  6
CONTINUOUS
370
-3
390
F
  0
LAYER
  5
20E
100
AcDbSymbolTableRecord
100
AcDbLayerTableRecord
  2
_1
 70
0
 62
7
  6
CONTINUOUS
370
-3
390
F
  0
ENDTAB
  0
TABLE
  2
STYLE
  5
3
100
AcDbSymbolTable
 70
1
  0
STYLE
  5
11
100
AcDbSymbolTableRecord
100
AcDbTextStyleTableRecord
  2
STANDARD
 70
0
 40
0.0
 41
0.8
 50
0.0
 71
0
 42
0.2
  3
txt
  4

  0
STYLE
  5
20F
100
AcDbSymbolTableRecord
100
AcDbTextStyleTableRecord
  2
TEXTSTYLE_1
 70
0
 40
0.0
 41
0.8
 50
0.0
 71
0
 42
0.2
  3
gdt
  4

  0
ENDTAB
  0
TABLE
  2
VIEW
  5
6
100
AcDbSymbolTable
 70
0
  0
ENDTAB
  0
TABLE
  2
UCS
  5
7
100
AcDbSymbolTable
 70
0
  0
ENDTAB
  0
TABLE
  2
APPID
  5
9
100
AcDbSymbolTable
 70
1
  0
APPID
  5
210
100
AcDbSymbolTableRecord
100
AcDbRegAppTableRecord
  2
ACAD
 70
0
  0
ENDTAB
  0
TABLE
  2
BLOCK_RECORD
  5
1
100
AcDbSymbolTable
 70
0
  0
BLOCK_RECORD
  5
211
100
AcDbSymbolTableRecord
100
AcDbBlockTableRecord
  2
*Model_Space
  0
BLOCK_RECORD
  5
212
100
AcDbSymbolTableRecord
100
AcDbBlockTableRecord
  2
*Paper_Space
  0
BLOCK_RECORD
  5
213
100
AcDbSymbolTableRecord
100
AcDbBlockTableRecord
  2
_FILLED
  0
ENDTAB
  0
TABLE
  2
DIMSTYLE
  5
A
100
AcDbSymbolTable
 70
1
100
AcDbDimStyleTable
 71
0
  0
DIMSTYLE
105
214
100
AcDbSymbolTableRecord
100
AcDbDimStyleTableRecord
  2
STANDARD
 70
0
  3

  4

 40
1.0
 41
1.5975988953
 42
1.0
 43
0.38
 44
1.0
 45
0.0
 46
0.0
 47
0.01
 48
0.01
140
2.2366384535
141
0.09
142
0.0
143
25.4
144
1.0
145
0.0
146
1.0
147
0.625
 71
1
 72
0
 73
0
 74
0
 75
0
 76
0
 77
1
 78
8
 79
2
170
0
171
1
172
0
173
0
174
0
175
0
176
0
177
0
178
0
270
2
179
2
271
2
272
2
273
2
274
2
275
0
280
0
281
0
282
0
283
1
284
8
285
0
286
0
287
3
288
0
340
11
278
46
341
213
342
213
343
213
344
213
  0
ENDTAB
  0
ENDSEC
  0
SECTION
  2
BLOCKS
  0
BLOCK
  5
20
100
AcDbEntity
  8
0
100
AcDbBlockBegin
  2
*Model_Space
 70
0
 10
0.0
 20
0.0
 30
0.0
  3
*Model_Space
  1

  0
ENDBLK
  5
21
100
AcDbEntity
  8
0
100
AcDbBlockEnd
  0
BLOCK
  5
1C
100
AcDbEntity
  8
0
100
AcDbBlockBegin
  2
*Paper_Space
 70
0
 10
0.0
 20
0.0
 30
0.0
  3
*Paper_Space
  1

  0
ENDBLK
  5
1D
100
AcDbEntity
  8
0
100
AcDbBlockEnd
  0
BLOCK
  5
215
100
AcDbEntity
  8
0
100
AcDbBlockBegin
  2
_FILLED
 70
64
 10
0.0
 20
0.0
  3
_FILLED
  1

  0
SOLID
  5
216
100
AcDbEntity
  8
0
  6
BYBLOCK
 62
0
100
AcDbTrace
 10
0.0
 20
0.0
 11
-1.0
 21
0.25
 12
-1.0
 22
-0.25
 13
-1.0
 23
-0.25
  0
ENDBLK
  5
217
100
AcDbEntity
  8
0
  6
BYBLOCK
 62
0
100
AcDbBlockEnd
  0
ENDSEC
  0
SECTION
  2
ENTITIES
  0
LINE
  5
218
100
AcDbEntity
  8
_1
100
AcDbLine
 62
7
  6
CONTINUOUS
 10
18.0433712311
 20
52.7945949433
 11
18.3969140961
 21
52.5904710388
  0
LINE
  5
219
100
AcDbEntity
  8
_1
100
AcDbLine
 62
7
  6
CONTINUOUS
 10
47.5317477416
 20
42.7096058212
 11
25.578642864
 21
55.3839500998
  0
LINE
  5
21A
100
AcDbEntity
  8
_1
100
AcDbLine
 62
7
  6
CONTINUOUS
 10
15.5685476245
 20
57.4894019084
 11
15.5685505684
 21
57.0811594542
  0
LINE
  5
21B
100
AcDbEntity
  8
_1
100
AcDbLine
 62
7
  6
CONTINUOUS
 10
21.5788360338
 20
74.0232357506
 11
21.7528277599
 21
62.4127184263
  0
LINE
  5
21C
100
AcDbEntity
  8
_1
100
AcDbLine
 62
7
  6
CONTINUOUS
 10
21.7893072453
 20
87.8250137763
 11
21.5788360338
 21
74.0232357506
  0
LINE
  5
21D
100
AcDbEntity
  8
_1
100
AcDbLine
 62
7
  6
CONTINUOUS
 10
19.9694309184
 20
54.7036637817
 11
19.85195585
 21
54.0361967283
  0
LINE
  5
21E
100
AcDbEntity
  8
_1
100
AcDbLine
 62
7
  6
CONTINUOUS
 10
88.9914721578
 20
143.9934249232
 11
90.4227506554
 21
144.4087965957
  0
LINE
  5
21F
100
AcDbEntity
  8
_1
100
AcDbLine
 62
7
  6
CONTINUOUS
 10
34.4349290129
 20
86.1111218233
 11
34.3912684655
 21
85.7044329795
  0
LINE
  5
220
100
AcDbEntity
  8
_1
100
AcDbLine
 62
7
  6
CONTINUOUS
 10
67.5731816284
 20
131.6278666347
 11
88.9913753038
 21
143.9935927054
  0
LINE
  5
221
100
AcDbEntity
  8
_1
100
AcDbLine
 62
7
  6
CONTINUOUS
 10
88.4370856808
 20
143.6677770051
 11
70.7594897504
 21
133.4616731583
  0
LINE
  5
222
100
AcDbEntity
  8
_1
100
AcDbLine
 62
7
  6
CONTINUOUS
 10
71.07172716
 20
133.5972217486
 11
88.7493230903
 21
143.8033255954
  0
LINE
  5
223
100
AcDbEntity
  8
_1
100
AcDbLine
 62
7
  6
CONTINUOUS
 10
90.4227506554
 20
144.4087965957
 11
66.1336860739
 21
130.3855823286
  0
LINE
  5
224
100
AcDbEntity
  8
_1
100
AcDbLine
 62
7
  6
CONTINUOUS
 10
64.8240540227
 20
129.1907453691
 11
91.7249950644
 21
144.7219182124
  0
LINE
  5
225
100
AcDbEntity
  8
_1
100
AcDbLine
 62
7
  6
CONTINUOUS
 10
97.3609386212
 20
147.4599092388
 11
92.2337390741
 21
144.49973687
  0
LINE
  5
226
100
AcDbEntity
  8
_1
100
AcDbLine
 62
7
  6
CONTINUOUS
 10
43.3577402028
 20
88.6387268899
 11
43.3577408249
 21
88.2304857762
  0
LINE
  5
227
100
AcDbEntity
  8
_1
100
AcDbLine
 62
7
  6
CONTINUOUS
 10
43.7112774016
 20
90.8840612378
 11
43.7112780237
 21
90.4758201241
  0
LINE
  5
228
100
AcDbEntity
  8
_1
100
AcDbLine
 62
7
  6
CONTINUOUS
 10
43.7112862335
 20
89.6593338752
 11
43.7112868556
 21
89.2510927615
  0
LINE
  5
229
100
AcDbEntity
  8
_1
100
AcDbLine
 62
7
  6
CONTINUOUS
 10
96.1076417107
 20
143.9969314248
 11
97.2703065037
 21
144.6681922491
  0
LINE
  5
22A
100
AcDbEntity
  8
_1
100
AcDbLine
 62
7
  6
CONTINUOUS
 10
95.1639999336
 20
142.8291727195
 11
96.62383181
 21
143.6720020154
  0
LINE
  5
22B
100
AcDbEntity
  8
_1
100
AcDbLine
 62
7
  6
CONTINUOUS
 10
97.3517165766
 20
143.9570424708
 11
96.9210941322
 21
143.7084239707
  0
LINE
  5
22C
100
AcDbEntity
  8
_1
100
AcDbLine
 62
7
  6
CONTINUOUS
 10
96.62383181
 20
143.2619722024
 11
95.4805529135
 21
142.6019037638
  0
LINE
  5
22D
100
AcDbEntity
  8
_1
100
AcDbLine
 62
7
  6
CONTINUOUS
 10
95.8234030314
 20
142.3557547992
 11
63.8464738557
 21
123.8939763337
  0
LINE
  5
22E
100
AcDbEntity
  8
_1
100
AcDbLine
 62
7
  6
CONTINUOUS
 10
82.710192159
 20
134.0896049461
 11
63.9838693996
 21
123.2780208276
  0
LINE
  5
22F
100
AcDbEntity
  8
_1
100
AcDbLine
 62
7
  6
CONTINUOUS
 10
64.1049278518
 20
123.21263615
 11
82.9467051026
 21
134.0908763834
  0
LINE
  5
230
100
AcDbEntity
  8
_1
100
AcDbLine
 62
7
  6
CONTINUOUS
 10
84.7561611976
 20
133.3974812967
 11
97.1256474404
 21
140.5389648798
  0
LINE
  5
231
100
AcDbEntity
  8
_1
100
AcDbLine
 62
7
  6
CONTINUOUS
 10
72.0492264917
 20
60.8057726987
 11
72.6312180938
 21
60.4697672921
  0
LINE
  5
232
100
AcDbEntity
  8
_1
100
AcDbLine
 62
7
  6
CONTINUOUS
 10
23.910313332
 20
89.0072354992
 11
47.5317477416
 21
75.3697025064
  0
LINE
  5
233
100
AcDbEntity
  8
_1
100
AcDbLine
 62
7
  6
CONTINUOUS
 10
53.2073173294
 20
72.508797531
 11
54.3100434543
 21
71.8721527088
  0
LINE
  5
234
100
AcDbEntity
  8
_1
100
AcDbLine
 62
7
  6
CONTINUOUS
 10
46.3276293105
 20
82.5967369521
 11
46.2966972681
 21
83.0228463797
  0
LINE
  5
235
100
AcDbEntity
  8
_1
100
AcDbLine
 62
7
  6
CONTINUOUS
 10
46.7164937335
 20
89.1490380311
 11
46.7164943556
 21
88.7407969174
  0
LINE
  5
236
100
AcDbEntity
  8
_1
100
AcDbLine
 62
7
  6
CONTINUOUS
 10
63.2658758895
 20
116.8368160578
 11
62.9459223699
 21
116.6203237549
  0
LINE
  5
237
100
AcDbEntity
  8
_1
100
AcDbLine
 62
7
  6
CONTINUOUS
 10
100.4917202402
 20
139.9503699108
 11
100.7265146404
 21
140.0859277118
  0
LINE
  5
238
100
AcDbEntity
  8
_1
100
AcDbLine
 62
7
  6
CONTINUOUS
 10
100.8664852739
 20
139.2250334442
 11
100.4917202402
 21
139.0086640426
  0
LINE
  5
239
100
AcDbEntity
  8
_1
100
AcDbLine
 62
7
  6
CONTINUOUS
 10
99.1048705556
 20
137.4335571435
 11
88.7022831753
 21
131.4276563696
  0
LINE
  5
23A
100
AcDbEntity
  8
_1
100
AcDbLine
 62
7
  6
CONTINUOUS
 10
99.5661056111
 20
136.8561455015
 11
89.299269532
 21
130.92862031
  0
LINE
  5
23B
100
AcDbEntity
  8
_1
100
AcDbLine
 62
7
  6
CONTINUOUS
 10
27.4458325181
 20
91.0484562685
 11
31.1420633555
 21
88.9144846764
  0
LINE
  5
23C
100
AcDbEntity
  8
_1
100
AcDbLine
 62
7
  6
CONTINUOUS
 10
47.3710360902
 20
79.5448948678
 11
51.0672669276
 21
77.4109232757
  0
LINE
  5
23D
100
AcDbEntity
  8
_1
100
AcDbLine
 62
7
  6
CONTINUOUS
 10
50.2412655389
 20
79.5906218996
 11
50.2798813578
 21
77.8655102623
  0
LINE
  5
23E
100
AcDbEntity
  8
_1
100
AcDbLine
 62
7
  6
CONTINUOUS
 10
49.8632250397
 20
57.6936055698
 11
49.6527538283
 21
71.7384093187
  0
LINE
  5
23F
100
AcDbEntity
  8
_1
100
AcDbLine
 62
7
  6
CONTINUOUS
 10
53.1882730144
 20
73.779630088
 11
53.3233895827
 21
64.7632630865
  0
LINE
  5
240
100
AcDbEntity
  8
_1
100
AcDbLine
 62
7
  6
CONTINUOUS
 10
49.6863298498
 20
90.8636634774
 11
49.6863304719
 21
90.4554196827
  0
LINE
  5
241
100
AcDbEntity
  8
_1
100
AcDbLine
 62
7
  6
CONTINUOUS
 10
49.6527538283
 20
43.891827544
 11
49.8632250397
 21
57.6936055698
  0
LINE
  5
242
100
AcDbEntity
  8
_1
100
AcDbLine
 62
7
  6
CONTINUOUS
 10
47.070048596
 20
88.9449176539
 11
46.9206223685
 21
88.6229462204
  0
LINE
  5
243
100
AcDbEntity
  8
_1
100
AcDbLine
 62
7
  6
CONTINUOUS
 10
32.8122651004
 20
90.2177745556
 11
40.317406773
 21
95.2026416004
  0
LINE
  5
244
100
AcDbEntity
  8
_1
100
AcDbLine
 62
7
  6
CONTINUOUS
 10
40.8538799116
 20
95.1749856646
 11
33.3301168174
 21
90.1777503909
  0
LINE
  5
245
100
AcDbEntity
  8
_1
100
AcDbLine
 62
7
  6
CONTINUOUS
 10
40.3364140658
 20
95.2144246344
 11
40.3174093736
 21
95.2026433276
  0
LINE
  5
246
100
AcDbEntity
  8
_1
100
AcDbLine
 62
7
  6
CONTINUOUS
 10
90.9273574796
 20
129.5676602397
 11
101.5587992075
 21
135.7056893441
  0
LINE
  5
247
100
AcDbEntity
  8
_1
100
AcDbLine
 62
7
  6
CONTINUOUS
 10
91.021401559
 20
129.489046405
 11
102.5678820266
 21
136.1553702186
  0
LINE
  5
248
100
AcDbEntity
  8
_1
100
AcDbLine
 62
7
  6
CONTINUOUS
 10
91.2534025993
 20
129.2951108423
 11
72.4116253485
 21
118.4168706089
  0
LINE
  5
249
100
AcDbEntity
  8
_1
100
AcDbLine
 62
7
  6
CONTINUOUS
 10
59.5444856922
 20
110.969591232
 11
60.1295011767
 21
111.3073480633
  0
LINE
  5
24A
100
AcDbEntity
  8
_1
100
AcDbLine
 62
7
  6
CONTINUOUS
 10
103.9992573782
 20
136.5705741089
 11
91.2992455947
 21
129.238262655
  0
LINE
  5
24B
100
AcDbEntity
  8
_1
100
AcDbLine
 62
7
  6
CONTINUOUS
 10
72.7170557125
 20
118.266612883
 11
91.4168913211
 21
129.0629035603
  0
LINE
  5
24C
100
AcDbEntity
  8
_1
100
AcDbLine
 62
7
  6
CONTINUOUS
 10
62.9995586198
 20
112.6341658345
 11
64.005229166
 21
113.2147865292
  0
LINE
  5
24D
100
AcDbEntity
  8
_1
100
AcDbLine
 62
7
  6
CONTINUOUS
 10
25.9458392334
 20
91.1970291056
 11
22.4103200473
 21
89.1558083362
  0
LINE
  5
24E
100
AcDbEntity
  8
_1
100
AcDbLine
 62
7
  6
CONTINUOUS
 10
50.3409216173
 20
105.2814524141
 11
58.9691359596
 21
110.2629245519
  0
LINE
  5
24F
100
AcDbEntity
  8
_1
100
AcDbLine
 62
7
  6
CONTINUOUS
 10
91.4765970423
 20
128.9620930874
 11
72.8077263371
 21
118.1836798988
  0
LINE
  5
250
100
AcDbEntity
  8
_1
100
AcDbLine
 62
7
  6
CONTINUOUS
 10
73.3245726115
 20
118.4219172601
 11
105.3015017872
 21
136.8836957256
  0
LINE
  5
251
100
AcDbEntity
  8
_1
100
AcDbLine
 62
7
  6
CONTINUOUS
 10
50.4015899022
 20
104.9337135708
 11
49.2701234586
 21
104.2804650144
  0
LINE
  5
252
100
AcDbEntity
  8
_1
100
AcDbLine
 62
7
  6
CONTINUOUS
 10
105.5859534998
 20
136.7594684873
 11
106.7841359095
 21
137.4512352948
  0
LINE
  5
253
100
AcDbEntity
  8
_1
100
AcDbLine
 62
7
  6
CONTINUOUS
 10
105.810245797
 20
136.6615143832
 11
110.937445344
 21
139.621686752
  0
LINE
  5
254
100
AcDbEntity
  8
_1
100
AcDbLine
 62
7
  6
CONTINUOUS
 10
23.910313332
 20
89.0072354992
 11
27.4458325181
 21
91.0484562685
  0
LINE
  5
255
100
AcDbEntity
  8
_1
100
AcDbLine
 62
7
  6
CONTINUOUS
 10
51.8409149019
 20
105.1328795771
 11
58.9304038442
 21
109.2259734938
  0
LINE
  5
256
100
AcDbEntity
  8
_1
100
AcDbLine
 62
7
  6
CONTINUOUS
 10
109.6841484335
 20
136.158708938
 11
110.8468132265
 21
136.8299697623
  0
LINE
  5
257
100
AcDbEntity
  8
_1
100
AcDbLine
 62
7
  6
CONTINUOUS
 10
62.2832432091
 20
77.2631134094
 11
60.7258338724
 21
78.1622637677
  0
LINE
  5
258
100
AcDbEntity
  8
_1
100
AcDbLine
 62
7
  6
CONTINUOUS
 10
45.8326271848
 20
86.8016417949
 11
43.0041882842
 21
88.434604813
  0
LINE
  5
259
100
AcDbEntity
  8
_1
100
AcDbLine
 62
7
  6
CONTINUOUS
 10
43.3577402028
 20
88.6387268899
 11
46.1861791034
 21
87.0057638718
  0
LINE
  5
25A
100
AcDbEntity
  8
_1
100
AcDbLine
 62
7
  6
CONTINUOUS
 10
47.6003926658
 20
87.0057672712
 11
43.3577343149
 21
89.4552117983
  0
LINE
  5
25B
100
AcDbEntity
  8
_1
100
AcDbLine
 62
7
  6
CONTINUOUS
 10
43.7112862335
 20
89.6593338752
 11
47.9539445844
 21
87.2098893481
  0
LINE
  5
25C
100
AcDbEntity
  8
_1
100
AcDbLine
 62
7
  6
CONTINUOUS
 10
49.7217130093
 20
87.0057723702
 11
43.357725483
 21
90.6799391609
  0
LINE
  5
25D
100
AcDbEntity
  8
_1
100
AcDbLine
 62
7
  6
CONTINUOUS
 10
43.7112774016
 20
90.8840612378
 11
46.7164937335
 21
89.1490380311
  0
LINE
  5
25E
100
AcDbEntity
  8
_1
100
AcDbLine
 62
7
  6
CONTINUOUS
 10
47.070048596
 20
88.9449176539
 11
50.0752649279
 21
87.2098944472
  0
LINE
  5
25F
100
AcDbEntity
  8
_1
100
AcDbLine
 62
7
  6
CONTINUOUS
 10
56.0582685591
 20
89.1985129469
 11
56.1019291066
 21
88.7918241031
  0
LINE
  5
260
100
AcDbEntity
  8
_1
100
AcDbLine
 62
7
  6
CONTINUOUS
 10
55.4890471519
 20
88.33002038
 11
55.5199791943
 21
87.9039109524
  0
LINE
  5
261
100
AcDbEntity
  8
_1
100
AcDbLine
 62
7
  6
CONTINUOUS
 10
58.9586653317
 20
81.1703381081
 11
58.8967920204
 21
83.9344480592
  0
LINE
  5
262
100
AcDbEntity
  8
_1
100
AcDbLine
 62
7
  6
CONTINUOUS
 10
58.8353152263
 20
106.0807639981
 11
58.8350115819
 21
106.0606421978
  0
LINE
  5
263
100
AcDbEntity
  8
_1
100
AcDbLine
 62
7
  6
CONTINUOUS
 10
53.3233895827
 20
54.7933996702
 11
53.1882730144
 21
45.9330483134
  0
LINE
  5
264
100
AcDbEntity
  8
_1
100
AcDbLine
 62
7
  6
CONTINUOUS
 10
58.8353161318
 20
106.0807939729
 11
58.95904662
 21
110.1733795226
  0
LINE
  5
265
100
AcDbEntity
  8
_1
100
AcDbLine
 62
7
  6
CONTINUOUS
 10
63.3039588098
 20
118.8169640752
 11
63.2658758895
 21
118.6641465216
  0
LINE
  5
266
100
AcDbEntity
  8
_1
100
AcDbLine
 62
7
  6
CONTINUOUS
 10
108.7405066564
 20
134.9909502327
 11
110.2003385329
 21
135.8337795286
  0
LINE
  5
267
100
AcDbEntity
  8
_1
100
AcDbLine
 62
7
  6
CONTINUOUS
 10
110.9282232994
 20
136.1188199841
 11
110.497600855
 21
135.8702014839
  0
LINE
  5
268
100
AcDbEntity
  8
_1
100
AcDbLine
 62
7
  6
CONTINUOUS
 10
40.3364160182
 20
95.2144259279
 11
54.4712662842
 21
103.3751368211
  0
LINE
  5
269
100
AcDbEntity
  8
_1
100
AcDbLine
 62
7
  6
CONTINUOUS
 10
110.2003385329
 20
135.4237497157
 11
109.0570596363
 21
134.763681277
  0
LINE
  5
26A
100
AcDbEntity
  8
_1
100
AcDbLine
 62
7
  6
CONTINUOUS
 10
40.8538799116
 20
95.1749856646
 11
54.9712640458
 21
103.3256125421
  0
LINE
  5
26B
100
AcDbEntity
  8
_1
100
AcDbLine
 62
7
  6
CONTINUOUS
 10
109.3999097542
 20
134.5175323124
 11
82.4989687125
 21
118.9863594691
  0
LINE
  5
26C
100
AcDbEntity
  8
_1
100
AcDbLine
 62
7
  6
CONTINUOUS
 10
32.812652924
 20
90.2171906542
 11
30.8491724962
 21
89.0835814674
  0
LINE
  5
26D
100
AcDbEntity
  8
_1
100
AcDbLine
 62
7
  6
CONTINUOUS
 10
31.1420633555
 20
88.9144846764
 11
33.3301168174
 21
90.1777503909
  0
LINE
  5
26E
100
AcDbEntity
  8
_1
100
AcDbLine
 62
7
  6
CONTINUOUS
 10
86.4130895818
 20
118.6775281259
 11
110.7021541632
 21
132.700742393
  0
LINE
  5
26F
100
AcDbEntity
  8
_1
100
AcDbLine
 62
7
  6
CONTINUOUS
 10
36.4590252009
 20
88.7025005049
 11
45.6513750847
 21
94.0096745053
  0
LINE
  5
270
100
AcDbEntity
  8
_1
100
AcDbLine
 62
7
  6
CONTINUOUS
 10
110.9613740538
 20
130.9794821065
 11
93.2837781235
 21
120.7733782597
  0
LINE
  5
271
100
AcDbEntity
  8
_1
100
AcDbLine
 62
7
  6
CONTINUOUS
 10
49.6863298498
 20
90.8636634774
 11
50.0398847123
 21
90.6595431001
  0
LINE
  5
272
100
AcDbEntity
  8
_1
100
AcDbLine
 62
7
  6
CONTINUOUS
 10
48.4179383821
 20
94.0096811553
 11
55.4890356336
 21
89.9272736101
  0
LINE
  5
273
100
AcDbEntity
  8
_1
100
AcDbLine
 62
7
  6
CONTINUOUS
 10
59.8795011767
 20
112.6027447441
 11
59.8795011767
 21
113.6641104727
  0
LINE
  5
274
100
AcDbEntity
  8
_1
100
AcDbLine
 62
7
  6
CONTINUOUS
 10
60.1295011767
 20
112.044360775
 11
60.1295011767
 21
110.1532374927
  0
LINE
  5
275
100
AcDbEntity
  8
_1
100
AcDbLine
 62
7
  6
CONTINUOUS
 10
60.6679001143
 20
109.3100568439
 11
60.6679001143
 21
111.5535023253
  0
LINE
  5
276
100
AcDbEntity
  8
_1
100
AcDbLine
 62
7
  6
CONTINUOUS
 10
62.706639358
 20
116.2455804569
 11
62.706639358
 21
115.0755771462
  0
LINE
  5
277
100
AcDbEntity
  8
_1
100
AcDbLine
 62
7
  6
CONTINUOUS
 10
62.706668345
 20
110.5929202457
 11
62.706668345
 21
112.22592508
  0
LINE
  5
278
100
AcDbEntity
  8
_1
100
AcDbLine
 62
7
  6
CONTINUOUS
 10
62.9459567617
 20
110.2181732907
 11
62.9459567617
 21
111.851178125
  0
LINE
  5
279
100
AcDbEntity
  8
_1
100
AcDbLine
 62
7
  6
CONTINUOUS
 10
62.9995355208
 20
115.0266448677
 11
62.9995355208
 21
115.837336303
  0
LINE
  5
27A
100
AcDbEntity
  8
_1
100
AcDbLine
 62
7
  6
CONTINUOUS
 10
63.2658758895
 20
116.6228904788
 11
63.2658758895
 21
118.6641465216
  0
LINE
  5
27B
100
AcDbEntity
  8
_1
100
AcDbLine
 62
7
  6
CONTINUOUS
 10
63.4795011766
 20
125.8254473878
 11
63.4795011766
 21
116.7669407233
  0
LINE
  5
27C
100
AcDbEntity
  8
_1
100
AcDbLine
 62
7
  6
CONTINUOUS
 10
58.912281269
 20
53.5387903135
 11
58.9135443696
 21
53.5937592223
  0
LINE
  5
27D
100
AcDbEntity
  8
_1
100
AcDbLine
 62
7
  6
CONTINUOUS
 10
59.5444974663
 20
109.3368701244
 11
59.4208561105
 21
105.2472327755
  0
LINE
  5
27E
100
AcDbEntity
  8
_1
100
AcDbLine
 62
7
  6
CONTINUOUS
 10
63.4982443794
 20
126.2314526214
 11
63.4796325088
 21
125.8254455295
  0
LINE
  5
27F
100
AcDbEntity
  8
_1
100
AcDbLine
 62
7
  6
CONTINUOUS
 10
114.068226963
 20
132.1121474241
 11
114.3030213632
 21
132.247705225
  0
LINE
  5
280
100
AcDbEntity
  8
_1
100
AcDbLine
 62
7
  6
CONTINUOUS
 10
93.596015533
 20
120.2772971208
 11
111.2736114634
 21
130.4834009676
  0
LINE
  5
281
100
AcDbEntity
  8
_1
100
AcDbLine
 62
7
  6
CONTINUOUS
 10
43.357725483
 20
90.6799391609
 11
43.7112774016
 21
90.8840612378
  0
LINE
  5
282
100
AcDbEntity
  8
_1
100
AcDbLine
 62
7
  6
CONTINUOUS
 10
114.4429919968
 20
131.3868109574
 11
114.068226963
 21
131.1704415559
  0
LINE
  5
283
100
AcDbEntity
  8
_1
100
AcDbLine
 62
7
  6
CONTINUOUS
 10
43.3577343149
 20
89.4552117983
 11
43.7112862335
 21
89.6593338752
  0
LINE
  5
284
100
AcDbEntity
  8
_1
100
AcDbLine
 62
7
  6
CONTINUOUS
 10
112.0621359533
 20
129.0010237083
 11
96.5058515345
 21
120.0196523231
  0
LINE
  5
285
100
AcDbEntity
  8
_1
100
AcDbLine
 62
7
  6
CONTINUOUS
 10
73.6054902266
 20
106.5109668916
 11
74.6111607727
 21
107.0915875863
  0
LINE
  5
286
100
AcDbEntity
  8
_1
100
AcDbLine
 62
7
  6
CONTINUOUS
 10
96.7399306869
 20
119.4886921232
 11
112.2962151056
 21
128.4700635084
  0
LINE
  5
287
100
AcDbEntity
  8
_1
100
AcDbLine
 62
7
  6
CONTINUOUS
 10
43.0041882842
 20
88.434604813
 11
43.3577402028
 21
88.6387268899
  0
LINE
  5
288
100
AcDbEntity
  8
_1
100
AcDbLine
 62
7
  6
CONTINUOUS
 10
26.8068564389
 20
78.0323327946
 11
28.2210641134
 21
78.8488211023
  0
LINE
  5
289
100
AcDbEntity
  8
_1
100
AcDbLine
 62
7
  6
CONTINUOUS
 10
73.6054902266
 20
104.8779620574
 11
73.8795594641
 21
105.0361950609
  0
LINE
  5
28A
100
AcDbEntity
  8
_1
100
AcDbLine
 62
7
  6
CONTINUOUS
 10
46.7164937335
 20
89.1490380311
 11
49.6863298498
 21
90.8636634774
  0
LINE
  5
28B
100
AcDbEntity
  8
_1
100
AcDbLine
 62
7
  6
CONTINUOUS
 10
50.0398847123
 20
90.6595431001
 11
47.070048596
 21
88.9449176539
  0
LINE
  5
28C
100
AcDbEntity
  8
_1
100
AcDbLine
 62
7
  6
CONTINUOUS
 10
46.811237527
 20
88.6860981594
 11
47.0006954065
 21
88.7954810642
  0
LINE
  5
28D
100
AcDbEntity
  8
_1
100
AcDbLine
 62
7
  6
CONTINUOUS
 10
80.5098174213
 20
106.4800336229
 11
84.7527627622
 21
108.5702224431
  0
LINE
  5
28E
100
AcDbEntity
  8
_1
100
AcDbLine
 62
7
  6
CONTINUOUS
 10
64.005229166
 20
114.8236399818
 11
64.005229166
 21
113.2147865292
  0
LINE
  5
28F
100
AcDbEntity
  8
_1
100
AcDbLine
 62
7
  6
CONTINUOUS
 10
66.566321752
 20
109.4015475104
 11
66.566321752
 21
105.3190354247
  0
LINE
  5
290
100
AcDbEntity
  8
_1
100
AcDbLine
 62
7
  6
CONTINUOUS
 10
68.0063213036
 20
104.487670104
 11
68.0063213036
 21
108.5701821896
  0
LINE
  5
291
100
AcDbEntity
  8
_1
100
AcDbLine
 62
7
  6
CONTINUOUS
 10
82.7434357115
 20
129.2185390923
 11
83.0422895586
 21
129.8624811557
  0
LINE
  5
292
100
AcDbEntity
  8
_1
100
AcDbLine
 62
7
  6
CONTINUOUS
 10
83.3411434056
 20
130.5064232191
 11
83.6399972527
 21
131.1503652825
  0
LINE
  5
293
100
AcDbEntity
  8
_1
100
AcDbLine
 62
7
  6
CONTINUOUS
 10
83.6399972527
 20
129.9256116568
 11
83.3558110805
 21
129.3132741149
  0
LINE
  5
294
100
AcDbEntity
  8
_1
100
AcDbLine
 62
7
  6
CONTINUOUS
 10
86.1927503233
 20
109.4015946865
 11
89.3713972471
 21
111.5523839437
  0
LINE
  5
295
100
AcDbEntity
  8
_1
100
AcDbLine
 62
7
  6
CONTINUOUS
 10
89.8130799833
 20
110.2182378713
 11
91.3837918241
 21
111.2810391935
  0
LINE
  5
296
100
AcDbEntity
  8
_1
100
AcDbLine
 62
7
  6
CONTINUOUS
 10
46.1861791034
 20
87.0057638718
 11
45.8326271848
 21
86.8016417949
  0
LINE
  5
297
100
AcDbEntity
  8
_1
100
AcDbLine
 62
7
  6
CONTINUOUS
 10
115.02497752
 20
126.5324835073
 11
120.3606426323
 21
129.613012808
  0
LINE
  5
298
100
AcDbEntity
  8
_1
100
AcDbLine
 62
7
  6
CONTINUOUS
 10
120.7141436468
 20
129.4160484852
 11
115.5838498175
 21
126.4540896424
  0
LINE
  5
299
100
AcDbEntity
  8
_1
100
AcDbLine
 62
7
  6
CONTINUOUS
 10
47.9539445844
 20
87.2098893481
 11
47.6003926658
 21
87.0057672712
  0
LINE
  5
29A
100
AcDbEntity
  8
_1
100
AcDbLine
 62
7
  6
CONTINUOUS
 10
96.3179333855
 20
114.1531074741
 11
113.9975371871
 21
124.360370559
  0
LINE
  5
29B
100
AcDbEntity
  8
_1
100
AcDbLine
 62
7
  6
CONTINUOUS
 10
50.0752649279
 20
87.2098944472
 11
49.7217130093
 21
87.0057723702
  0
LINE
  5
29C
100
AcDbEntity
  8
_1
100
AcDbLine
 62
7
  6
CONTINUOUS
 10
93.4177958343
 20
112.2048088271
 11
92.6295011765
 21
111.7496894109
  0
LINE
  5
29D
100
AcDbEntity
  8
_1
100
AcDbLine
 62
7
  6
CONTINUOUS
 10
113.9975371871
 20
123.9521193504
 11
96.3179333855
 21
113.7448562655
  0
LINE
  5
29E
100
AcDbEntity
  8
_1
100
AcDbLine
 62
7
  6
CONTINUOUS
 10
113.761825034
 20
122.5462125859
 11
119.0374090812
 21
125.5920542745
  0
LINE
  5
29F
100
AcDbEntity
  8
_1
100
AcDbLine
 62
7
  6
CONTINUOUS
 10
55.4890471519
 20
88.33002038
 11
46.2966972681
 21
83.0228463797
  0
LINE
  5
2A0
100
AcDbEntity
  8
_1
100
AcDbLine
 62
7
  6
CONTINUOUS
 10
55.5199791943
 20
87.9039109524
 11
46.3276293105
 21
82.5967369521
  0
LINE
  5
2A1
100
AcDbEntity
  8
_1
100
AcDbLine
 62
7
  6
CONTINUOUS
 10
93.214516661
 20
109.3369510572
 11
77.7935694382
 21
100.4337161721
  0
LINE
  5
2A2
100
AcDbEntity
  8
_1
100
AcDbLine
 62
7
  6
CONTINUOUS
 10
98.4709030469
 20
112.1130771459
 11
112.2370854966
 21
120.0609388466
  0
LINE
  5
2A3
100
AcDbEntity
  8
_1
100
AcDbLine
 62
7
  6
CONTINUOUS
 10
93.8280163037
 20
109.2453051444
 11
93.915737574
 21
109.2959507411
  0
LINE
  5
2A4
100
AcDbEntity
  8
_1
100
AcDbLine
 62
7
  6
CONTINUOUS
 10
94.0107030211
 20
109.3098890322
 11
95.0713587769
 21
109.922255263
  0
LINE
  5
2A5
100
AcDbEntity
  8
_1
100
AcDbLine
 62
7
  6
CONTINUOUS
 10
78.6689782955
 20
103.9401819991
 11
80.5098174213
 21
104.8470287886
  0
LINE
  5
2A6
100
AcDbEntity
  8
_1
100
AcDbLine
 62
7
  6
CONTINUOUS
 10
84.7527627622
 20
104.4877103575
 11
77.8400120663
 21
101.0823037211
  0
LINE
  5
2A7
100
AcDbEntity
  8
_1
100
AcDbLine
 62
7
  6
CONTINUOUS
 10
76.4256933311
 20
85.427780922
 11
74.8679106167
 21
86.3271468451
  0
LINE
  5
2A8
100
AcDbEntity
  8
_1
100
AcDbLine
 62
7
  6
CONTINUOUS
 10
75.4623493115
 20
91.4953465843
 11
72.3320001677
 21
93.3026136193
  0
LINE
  5
2A9
100
AcDbEntity
  8
_1
100
AcDbLine
 62
7
  6
CONTINUOUS
 10
54.9712640458
 20
103.3256125421
 11
51.8409149019
 21
105.1328795771
  0
LINE
  5
2AA
100
AcDbEntity
  8
_1
100
AcDbLine
 62
7
  6
CONTINUOUS
 10
73.038867584
 20
92.0993838831
 11
73.100742076
 21
89.3352211855
  0
LINE
  5
2AB
100
AcDbEntity
  8
_1
100
AcDbLine
 62
7
  6
CONTINUOUS
 10
72.2492967903
 20
106.480013767
 11
72.2492967903
 21
104.8470089328
  0
LINE
  5
2AC
100
AcDbEntity
  8
_1
100
AcDbLine
 62
7
  6
CONTINUOUS
 10
73.6054902266
 20
104.8779620574
 11
73.6054902266
 21
106.5109668916
  0
LINE
  5
2AD
100
AcDbEntity
  8
_1
100
AcDbLine
 62
7
  6
CONTINUOUS
 10
85.5718510604
 20
130.8515157078
 11
85.2729972133
 21
130.2075736444
  0
LINE
  5
2AE
100
AcDbEntity
  8
_1
100
AcDbLine
 62
7
  6
CONTINUOUS
 10
84.9741433662
 20
129.563631581
 11
84.6752895192
 21
128.9196895176
  0
LINE
  5
2AF
100
AcDbEntity
  8
_1
100
AcDbLine
 62
7
  6
CONTINUOUS
 10
92.0911143997
 20
109.310132376
 11
86.1927503233
 21
105.3190826009
  0
LINE
  5
2B0
100
AcDbEntity
  8
_1
100
AcDbLine
 62
7
  6
CONTINUOUS
 10
98.4963608513
 20
112.1300165996
 11
98.4712611753
 21
112.1132839127
  0
LINE
  5
2B1
100
AcDbEntity
  8
_1
100
AcDbLine
 62
7
  6
CONTINUOUS
 10
93.915737574
 20
107.6629459068
 11
93.8765397181
 21
107.6403151493
  0
LINE
  5
2B2
100
AcDbEntity
  8
_1
100
AcDbLine
 62
7
  6
CONTINUOUS
 10
95.0965741321
 20
108.2396274436
 11
94.0359183763
 21
107.6272612128
  0
LINE
  5
2B3
100
AcDbEntity
  8
_1
100
AcDbLine
 62
7
  6
CONTINUOUS
 10
94.0289172515
 20
106.9117944716
 11
94.2692924366
 21
107.050574321
  0
LINE
  5
2B4
100
AcDbEntity
  8
_1
100
AcDbLine
 62
7
  6
CONTINUOUS
 10
93.9018043658
 20
106.8046462821
 11
94.0510444074
 21
106.890809546
  0
LINE
  5
2B5
100
AcDbEntity
  8
_1
100
AcDbLine
 62
7
  6
CONTINUOUS
 10
94.3894193907
 20
107.0220456815
 11
95.4500751466
 21
107.6344119123
  0
LINE
  5
2B6
100
AcDbEntity
  8
_1
100
AcDbLine
 62
7
  6
CONTINUOUS
 10
49.559089552
 20
80.8081605823
 11
47.3710360902
 21
79.5448948678
  0
LINE
  5
2B7
100
AcDbEntity
  8
_1
100
AcDbLine
 62
7
  6
CONTINUOUS
 10
72.3320001677
 20
93.3026136193
 11
58.2146160335
 21
85.1519867419
  0
LINE
  5
2B8
100
AcDbEntity
  8
_1
100
AcDbLine
 62
7
  6
CONTINUOUS
 10
93.3381580167
 20
105.2473143027
 11
77.793569953
 21
96.2726957709
  0
LINE
  5
2B9
100
AcDbEntity
  8
_1
100
AcDbLine
 62
7
  6
CONTINUOUS
 10
48.7665151563
 20
78.7392328799
 11
50.2412643582
 21
79.5906746462
  0
LINE
  5
2BA
100
AcDbEntity
  8
_1
100
AcDbLine
 62
7
  6
CONTINUOUS
 10
78.1470709674
 20
95.6674802396
 11
93.6916590312
 21
104.6420987714
  0
LINE
  5
2BB
100
AcDbEntity
  8
_1
100
AcDbLine
 62
7
  6
CONTINUOUS
 10
58.8967908397
 20
83.9345008057
 11
73.038867584
 21
92.0993838831
  0
LINE
  5
2BC
100
AcDbEntity
  8
_1
100
AcDbLine
 62
7
  6
CONTINUOUS
 10
16.3969954788
 20
59.3205456749
 11
34.2160121764
 21
69.6082983523
  0
LINE
  5
2BD
100
AcDbEntity
  8
_1
100
AcDbLine
 62
7
  6
CONTINUOUS
 10
49.559089552
 20
80.8081605823
 11
58.2146160335
 21
85.1519867419
  0
LINE
  5
2BE
100
AcDbEntity
  8
_1
100
AcDbLine
 62
7
  6
CONTINUOUS
 10
78.644316579
 20
93.3324452767
 11
55.0228821694
 21
106.9699782695
  0
LINE
  5
2BF
100
AcDbEntity
  8
_1
100
AcDbLine
 62
7
  6
CONTINUOUS
 10
59.0673580396
 20
104.6420155448
 11
74.6120755405
 21
95.6674717425
  0
LINE
  5
2C0
100
AcDbEntity
  8
_1
100
AcDbLine
 62
7
  6
CONTINUOUS
 10
74.9655736114
 20
96.2726889732
 11
59.4208561105
 21
105.2472327755
  0
LINE
  5
2C1
100
AcDbEntity
  8
_1
100
AcDbLine
 62
7
  6
CONTINUOUS
 10
63.9817836421
 20
123.2864668511
 11
63.9838693995
 21
123.2780208275
  0
LINE
  5
2C2
100
AcDbEntity
  8
_1
100
AcDbLine
 62
7
  6
CONTINUOUS
 10
63.9818429831
 20
123.2864994003
 11
63.9838693995
 21
123.2780208275
  0
LINE
  5
2C3
100
AcDbEntity
  8
_1
100
AcDbLine
 62
7
  6
CONTINUOUS
 10
77.7184719666
 20
78.8476863951
 11
77.5833553982
 21
87.8640533966
  0
LINE
  5
2C4
100
AcDbEntity
  8
_1
100
AcDbLine
 62
7
  6
CONTINUOUS
 10
73.8795594641
 20
104.5199901795
 11
73.8795594641
 21
105.5814158737
  0
LINE
  5
2C5
100
AcDbEntity
  8
_1
100
AcDbLine
 62
7
  6
CONTINUOUS
 10
74.6111607727
 20
107.0915875863
 11
74.6111607727
 21
109.2961441126
  0
LINE
  5
2C6
100
AcDbEntity
  8
_1
100
AcDbLine
 62
7
  6
CONTINUOUS
 10
74.6824961238
 20
109.4765452575
 11
74.6824961238
 21
106.5611068116
  0
LINE
  5
2C7
100
AcDbEntity
  8
_1
100
AcDbLine
 62
7
  6
CONTINUOUS
 10
74.9191211142
 20
103.3925060908
 11
74.9191211142
 21
101.0822967001
  0
LINE
  5
2C8
100
AcDbEntity
  8
_1
100
AcDbLine
 62
7
  6
CONTINUOUS
 10
74.9655736114
 20
96.2726889732
 11
74.9655730966
 21
100.4337093744
  0
LINE
  5
2C9
100
AcDbEntity
  8
_1
100
AcDbLine
 62
7
  6
CONTINUOUS
 10
76.3795742213
 20
95.9315117234
 11
76.3795763023
 21
95.2447537722
  0
LINE
  5
2CA
100
AcDbEntity
  8
_1
100
AcDbLine
 62
7
  6
CONTINUOUS
 10
77.7935694382
 20
100.4337161721
 11
77.793569953
 21
96.2726957709
  0
LINE
  5
2CB
100
AcDbEntity
  8
_1
100
AcDbLine
 62
7
  6
CONTINUOUS
 10
77.8400120663
 20
101.0823037211
 11
77.8400120663
 21
103.3647386468
  0
LINE
  5
2CC
100
AcDbEntity
  8
_1
100
AcDbLine
 62
7
  6
CONTINUOUS
 10
78.0766086735
 20
106.5611102637
 11
78.0766086735
 21
109.4745205125
  0
LINE
  5
2CD
100
AcDbEntity
  8
_1
100
AcDbLine
 62
7
  6
CONTINUOUS
 10
78.1479446185
 20
109.296152614
 11
78.1479446185
 21
107.0915960877
  0
LINE
  5
2CE
100
AcDbEntity
  8
_1
100
AcDbLine
 62
7
  6
CONTINUOUS
 10
77.5833553982
 20
60.0174716219
 11
77.7184719666
 21
68.8778229788
  0
LINE
  5
2CF
100
AcDbEntity
  8
_1
100
AcDbLine
 62
7
  6
CONTINUOUS
 10
78.8794906539
 20
104.5199902137
 11
78.6689782955
 21
103.9401819991
  0
LINE
  5
2D0
100
AcDbEntity
  8
_1
100
AcDbLine
 62
7
  6
CONTINUOUS
 10
53.1968468492
 20
73.2074956548
 11
60.7258338724
 21
78.1622637677
  0
LINE
  5
2D1
100
AcDbEntity
  8
_1
100
AcDbLine
 62
7
  6
CONTINUOUS
 10
99.4331693931
 20
105.3348234005
 11
98.3725136372
 21
104.7224571697
  0
LINE
  5
2D2
100
AcDbEntity
  8
_1
100
AcDbLine
 62
7
  6
CONTINUOUS
 10
51.0672669276
 20
77.4109232757
 11
47.5317477416
 21
75.3697025064
  0
LINE
  5
2D3
100
AcDbEntity
  8
_1
100
AcDbLine
 62
7
  6
CONTINUOUS
 10
98.3377698977
 20
104.7016909025
 11
75.4623493115
 21
91.4953465843
  0
LINE
  5
2D4
100
AcDbEntity
  8
_1
100
AcDbLine
 62
7
  6
CONTINUOUS
 10
73.100742076
 20
89.3352211855
 11
58.9586653317
 21
81.1703381081
  0
LINE
  5
2D5
100
AcDbEntity
  8
_1
100
AcDbLine
 62
7
  6
CONTINUOUS
 10
51.2464510658
 20
77.2843097556
 11
58.9586653317
 21
81.1703381081
  0
LINE
  5
2D6
100
AcDbEntity
  8
_1
100
AcDbLine
 62
7
  6
CONTINUOUS
 10
50.2412655389
 20
79.5906218996
 11
58.8967920204
 21
83.9344480592
  0
LINE
  5
2D7
100
AcDbEntity
  8
_1
100
AcDbLine
 62
7
  6
CONTINUOUS
 10
74.9191211142
 20
101.0822967001
 11
68.0063213036
 21
104.487670104
  0
LINE
  5
2D8
100
AcDbEntity
  8
_1
100
AcDbLine
 62
7
  6
CONTINUOUS
 10
72.2492967903
 20
104.8470089328
 11
74.0901489952
 21
103.9401709929
  0
LINE
  5
2D9
100
AcDbEntity
  8
_1
100
AcDbLine
 62
7
  6
CONTINUOUS
 10
74.9655730966
 20
100.4337093744
 11
59.5444974663
 21
109.3368701244
  0
LINE
  5
2DA
100
AcDbEntity
  8
_1
100
AcDbLine
 62
7
  6
CONTINUOUS
 10
66.566321752
 20
105.3190354247
 11
60.6679001143
 21
109.3100568439
  0
LINE
  5
2DB
100
AcDbEntity
  8
_1
100
AcDbLine
 62
7
  6
CONTINUOUS
 10
61.3752295926
 20
111.2809670618
 11
62.9459567617
 21
110.2181732907
  0
LINE
  5
2DC
100
AcDbEntity
  8
_1
100
AcDbLine
 62
7
  6
CONTINUOUS
 10
74.0901489952
 20
103.9401709929
 11
73.8796282565
 21
104.5199902137
  0
LINE
  5
2DD
100
AcDbEntity
  8
_1
100
AcDbLine
 62
7
  6
CONTINUOUS
 10
80.7653226657
 20
89.701152089
 11
80.9757938771
 21
75.6563483401
  0
LINE
  5
2DE
100
AcDbEntity
  8
_1
100
AcDbLine
 62
7
  6
CONTINUOUS
 10
78.8795594641
 20
104.5199901795
 11
78.8795594641
 21
105.5814633507
  0
LINE
  5
2DF
100
AcDbEntity
  8
_1
100
AcDbLine
 62
7
  6
CONTINUOUS
 10
79.1536235387
 20
106.5109802277
 11
79.1536235387
 21
104.8779753935
  0
LINE
  5
2E0
100
AcDbEntity
  8
_1
100
AcDbLine
 62
7
  6
CONTINUOUS
 10
80.4076433859
 20
130.0350274001
 11
80.4076433859
 21
129.5859510717
  0
LINE
  5
2E1
100
AcDbEntity
  8
_1
100
AcDbLine
 62
7
  6
CONTINUOUS
 10
80.4727821766
 20
109.704109096
 11
80.4727821766
 21
118.6899089112
  0
LINE
  5
2E2
100
AcDbEntity
  8
_1
100
AcDbLine
 62
7
  6
CONTINUOUS
 10
80.5098174213
 20
104.8470287886
 11
80.5098174213
 21
106.4800336229
  0
LINE
  5
2E3
100
AcDbEntity
  8
_1
100
AcDbLine
 62
7
  6
CONTINUOUS
 10
83.0422895586
 20
129.8624811557
 11
83.0422895586
 21
129.2647720523
  0
LINE
  5
2E4
100
AcDbEntity
  8
_1
100
AcDbLine
 62
7
  6
CONTINUOUS
 10
83.3411434056
 20
130.5064232191
 11
83.3411434056
 21
129.3110050124
  0
LINE
  5
2E5
100
AcDbEntity
  8
_1
100
AcDbLine
 62
7
  6
CONTINUOUS
 10
83.6399972527
 20
131.1503652825
 11
83.6399972527
 21
129.9256116568
  0
LINE
  5
2E6
100
AcDbEntity
  8
_1
100
AcDbLine
 62
7
  6
CONTINUOUS
 10
83.6750287112
 20
117.0927018046
 11
83.6750287112
 21
110.3227146271
  0
LINE
  5
2E7
100
AcDbEntity
  8
_1
100
AcDbLine
 62
7
  6
CONTINUOUS
 10
80.9757938771
 20
75.6563483401
 11
80.7653226657
 21
61.8545703144
  0
LINE
  5
2E8
100
AcDbEntity
  8
_1
100
AcDbLine
 62
7
  6
CONTINUOUS
 10
62.9993743292
 20
76.2346220988
 11
55.0291256387
 21
70.8251869155
  0
LINE
  5
2E9
100
AcDbEntity
  8
_1
100
AcDbLine
 62
7
  6
CONTINUOUS
 10
54.3100434543
 20
71.8721527088
 11
62.2832432091
 21
77.2631134094
  0
LINE
  5
2EA
100
AcDbEntity
  8
_1
100
AcDbLine
 62
7
  6
CONTINUOUS
 10
60.7258338724
 20
78.1622637677
 11
74.8679106167
 21
86.3271468451
  0
LINE
  5
2EB
100
AcDbEntity
  8
_1
100
AcDbLine
 62
7
  6
CONTINUOUS
 10
49.6527538283
 20
71.7384093187
 11
53.1882730144
 21
73.779630088
  0
LINE
  5
2EC
100
AcDbEntity
  8
_1
100
AcDbLine
 62
7
  6
CONTINUOUS
 10
100.493519724
 20
101.091163982
 11
101.5541754798
 21
101.7035302128
  0
LINE
  5
2ED
100
AcDbEntity
  8
_1
100
AcDbLine
 62
7
  6
CONTINUOUS
 10
77.5833553982
 20
87.8640533966
 11
100.4587759844
 21
101.0703977148
  0
LINE
  5
2EE
100
AcDbEntity
  8
_1
100
AcDbLine
 62
7
  6
CONTINUOUS
 10
76.4256933311
 20
85.427780922
 11
62.2836165868
 21
77.2628978446
  0
LINE
  5
2EF
100
AcDbEntity
  8
_1
100
AcDbLine
 62
7
  6
CONTINUOUS
 10
20.3969775713
 20
52.3923321057
 11
38.2159942693
 21
62.6800847834
  0
LINE
  5
2F0
100
AcDbEntity
  8
_1
100
AcDbLine
 62
7
  6
CONTINUOUS
 10
54.3103791789
 20
71.8719588825
 11
53.2262407098
 21
71.2460349818
  0
LINE
  5
2F1
100
AcDbEntity
  8
_1
100
AcDbLine
 62
7
  6
CONTINUOUS
 10
62.9993743292
 20
76.2346220988
 11
77.1167584634
 21
84.3852489762
  0
LINE
  5
2F2
100
AcDbEntity
  8
_1
100
AcDbLine
 62
7
  6
CONTINUOUS
 10
53.2479579792
 20
69.7968354263
 11
55.0291256386
 21
70.8251869155
  0
LINE
  5
2F3
100
AcDbEntity
  8
_1
100
AcDbLine
 62
7
  6
CONTINUOUS
 10
95.579183334
 20
112.6223426577
 11
89.53914561
 21
111.4555365722
  0
LINE
  5
2F4
100
AcDbEntity
  8
_1
100
AcDbLine
 62
7
  6
CONTINUOUS
 10
83.6750287112
 20
110.3227146271
 11
80.4727821766
 21
109.704109096
  0
LINE
  5
2F5
100
AcDbEntity
  8
_1
100
AcDbLine
 62
7
  6
CONTINUOUS
 10
68.0063213036
 20
108.5701821896
 11
72.2492967903
 21
106.480013767
  0
LINE
  5
2F6
100
AcDbEntity
  8
_1
100
AcDbLine
 62
7
  6
CONTINUOUS
 10
78.8795594641
 20
105.0362027811
 11
79.1536235387
 21
104.8779753935
  0
LINE
  5
2F7
100
AcDbEntity
  8
_1
100
AcDbLine
 62
7
  6
CONTINUOUS
 10
79.1536235387
 20
106.5109802277
 11
78.1479446185
 21
107.0915960877
  0
LINE
  5
2F8
100
AcDbEntity
  8
_1
100
AcDbLine
 62
7
  6
CONTINUOUS
 10
62.9995355208
 20
115.837336303
 11
63.8663816299
 21
115.3368737905
  0
LINE
  5
2F9
100
AcDbEntity
  8
_1
100
AcDbLine
 62
7
  6
CONTINUOUS
 10
62.9459567617
 20
111.851178125
 11
66.566321752
 21
109.4015475104
  0
LINE
  5
2FA
100
AcDbEntity
  8
_1
100
AcDbLine
 62
7
  6
CONTINUOUS
 10
84.456497233
 20
130.6789694634
 11
84.456497233
 21
129.4542158378
  0
LINE
  5
2FB
100
AcDbEntity
  8
_1
100
AcDbLine
 62
7
  6
CONTINUOUS
 10
84.7527627622
 20
108.5702224431
 11
84.7527627622
 21
104.4877103575
  0
LINE
  5
2FC
100
AcDbEntity
  8
_1
100
AcDbLine
 62
7
  6
CONTINUOUS
 10
85.2729972133
 20
129.6098645411
 11
85.2729972133
 21
130.2075736444
  0
LINE
  5
2FD
100
AcDbEntity
  8
_1
100
AcDbLine
 62
7
  6
CONTINUOUS
 10
86.1927503233
 20
105.3190826009
 11
86.1927503233
 21
109.4015946865
  0
LINE
  5
2FE
100
AcDbEntity
  8
_1
100
AcDbLine
 62
7
  6
CONTINUOUS
 10
87.9076433859
 20
130.0350274001
 11
87.9076433859
 21
129.5859510717
  0
LINE
  5
2FF
100
AcDbEntity
  8
_1
100
AcDbLine
 62
7
  6
CONTINUOUS
 10
53.3233895827
 20
64.7632630865
 11
77.7184719666
 21
78.8476863951
  0
LINE
  5
300
100
AcDbEntity
  8
_1
100
AcDbLine
 62
7
  6
CONTINUOUS
 10
85.9938293622
 20
117.38432689
 11
83.6750287112
 21
117.0927018046
  0
LINE
  5
301
100
AcDbEntity
  8
_1
100
AcDbLine
 62
7
  6
CONTINUOUS
 10
98.4712611753
 20
112.1132839127
 11
98.3212540152
 21
112.1104398805
  0
LINE
  5
302
100
AcDbEntity
  8
_1
100
AcDbLine
 62
7
  6
CONTINUOUS
 10
63.5315531114
 20
116.5745285645
 11
63.2658758895
 21
116.6228904788
  0
LINE
  5
303
100
AcDbEntity
  8
_1
100
AcDbLine
 62
7
  6
CONTINUOUS
 10
88.7529427819
 20
111.909440718
 11
88.7529427819
 21
116.1142761743
  0
LINE
  5
304
100
AcDbEntity
  8
_1
100
AcDbLine
 62
7
  6
CONTINUOUS
 10
89.3286748435
 20
116.0678124712
 11
89.3286748435
 21
117.5910338893
  0
LINE
  5
305
100
AcDbEntity
  8
_1
100
AcDbLine
 62
7
  6
CONTINUOUS
 10
89.53914561
 20
111.4555365722
 11
89.53914561
 21
117.5938930694
  0
LINE
  5
306
100
AcDbEntity
  8
_1
100
AcDbLine
 62
7
  6
CONTINUOUS
 10
89.8130799833
 20
111.5084548334
 11
89.8130799833
 21
110.2182378713
  0
LINE
  5
307
100
AcDbEntity
  8
_1
100
AcDbLine
 62
7
  6
CONTINUOUS
 10
90.0523629952
 20
111.5546791928
 11
90.0523629952
 21
110.5929811693
  0
LINE
  5
308
100
AcDbEntity
  8
_1
100
AcDbLine
 62
7
  6
CONTINUOUS
 10
92.0911143997
 20
111.5957835561
 11
92.0911143997
 21
109.310132376
  0
LINE
  5
309
100
AcDbEntity
  8
_1
100
AcDbLine
 62
7
  6
CONTINUOUS
 10
92.6295011765
 20
112.0525271617
 11
92.6295011765
 21
110.1533047964
  0
LINE
  5
30A
100
AcDbEntity
  8
_1
100
AcDbLine
 62
7
  6
CONTINUOUS
 10
100.6686300635
 20
87.0667753802
 11
100.4205427734
 21
86.9235429714
  0
LINE
  5
30B
100
AcDbEntity
  8
_1
100
AcDbLine
 62
7
  6
CONTINUOUS
 10
101.7646466912
 20
87.6587264639
 11
100.7039909354
 21
87.0463602331
  0
LINE
  5
30C
100
AcDbEntity
  8
_1
100
AcDbLine
 62
7
  6
CONTINUOUS
 10
100.4211494005
 20
86.8830625716
 11
49.8632250397
 21
57.6936055698
  0
LINE
  5
30D
100
AcDbEntity
  8
_1
100
AcDbLine
 62
7
  6
CONTINUOUS
 10
41.8067892858
 20
52.0515319103
 11
43.2209969602
 21
52.868020218
  0
LINE
  5
30E
100
AcDbEntity
  8
_1
100
AcDbLine
 62
7
  6
CONTINUOUS
 10
94.0510444074
 20
106.890809546
 11
98.0896721024
 21
104.5591595082
  0
LINE
  5
30F
100
AcDbEntity
  8
_1
100
AcDbLine
 62
7
  6
CONTINUOUS
 10
94.2692924366
 20
107.050574321
 11
98.3377698977
 21
104.7016909025
  0
LINE
  5
310
100
AcDbEntity
  8
_1
100
AcDbLine
 62
7
  6
CONTINUOUS
 10
98.3725136372
 20
104.7224571697
 11
94.3894193907
 21
107.0220456815
  0
LINE
  5
311
100
AcDbEntity
  8
_1
100
AcDbLine
 62
7
  6
CONTINUOUS
 10
99.4331693931
 20
105.3348234005
 11
95.4500751466
 21
107.6344119123
  0
LINE
  5
312
100
AcDbEntity
  8
_1
100
AcDbLine
 62
7
  6
CONTINUOUS
 10
88.7529427819
 20
111.909440718
 11
89.53914561
 21
111.4555365722
  0
LINE
  5
313
100
AcDbEntity
  8
_1
100
AcDbLine
 62
7
  6
CONTINUOUS
 10
93.3381580167
 20
105.2473143027
 11
93.214516661
 21
109.3369510572
  0
LINE
  5
314
100
AcDbEntity
  8
_1
100
AcDbLine
 62
7
  6
CONTINUOUS
 10
93.9236870435
 20
106.0808414904
 11
93.7999557331
 21
110.1734536624
  0
LINE
  5
315
100
AcDbEntity
  8
_1
100
AcDbLine
 62
7
  6
CONTINUOUS
 10
93.9239907713
 20
106.0607265413
 11
93.9236870435
 21
106.0808414904
  0
LINE
  5
316
100
AcDbEntity
  8
_1
100
AcDbLine
 62
7
  6
CONTINUOUS
 10
94.0359183763
 20
107.6272612128
 11
94.0107030211
 21
109.3098890322
  0
LINE
  5
317
100
AcDbEntity
  8
_1
100
AcDbLine
 62
7
  6
CONTINUOUS
 10
95.0713587769
 20
109.922255263
 11
95.0965741321
 21
108.2396274436
  0
LINE
  5
318
100
AcDbEntity
  8
_1
100
AcDbLine
 62
7
  6
CONTINUOUS
 10
93.915737574
 20
109.2959507411
 11
93.915737574
 21
107.6629459068
  0
LINE
  5
319
100
AcDbEntity
  8
_1
100
AcDbLine
 62
7
  6
CONTINUOUS
 10
96.3179333855
 20
113.7448562655
 11
96.3179333855
 21
114.1531074741
  0
LINE
  5
31A
100
AcDbEntity
  8
_1
100
AcDbLine
 62
7
  6
CONTINUOUS
 10
96.62383181
 20
143.8040148003
 11
96.62383181
 21
143.2619722024
  0
LINE
  5
31B
100
AcDbEntity
  8
_1
100
AcDbLine
 62
7
  6
CONTINUOUS
 10
100.8852797383
 20
140.4672239721
 11
100.8862148276
 21
140.4770768378
  0
LINE
  5
31C
100
AcDbEntity
  8
_1
100
AcDbLine
 62
7
  6
CONTINUOUS
 10
77.7184719666
 20
68.8778229788
 11
53.3233895827
 21
54.7933996702
  0
LINE
  5
31D
100
AcDbEntity
  8
_1
100
AcDbLine
 62
7
  6
CONTINUOUS
 10
92.6295011765
 20
111.3074165737
 11
93.2145048869
 21
110.9696721648
  0
LINE
  5
31E
100
AcDbEntity
  8
_1
100
AcDbLine
 62
7
  6
CONTINUOUS
 10
97.1977877437
 20
112.7591200911
 11
98.3213114715
 21
112.1104680388
  0
LINE
  5
31F
100
AcDbEntity
  8
_1
100
AcDbLine
 62
7
  6
CONTINUOUS
 10
97.4848266172
 20
112.7140129503
 11
98.4963608513
 21
112.1300165996
  0
LINE
  5
320
100
AcDbEntity
  8
_1
100
AcDbLine
 62
7
  6
CONTINUOUS
 10
100.2106781891
 20
100.9278663205
 11
100.4211494005
 21
86.8830625716
  0
LINE
  5
321
100
AcDbEntity
  8
_1
100
AcDbLine
 62
7
  6
CONTINUOUS
 10
100.4587759844
 20
101.0703977148
 11
100.6686300635
 21
87.0667753801
  0
LINE
  5
322
100
AcDbEntity
  8
_1
100
AcDbLine
 62
7
  6
CONTINUOUS
 10
100.7039909354
 20
87.0463602331
 11
100.493519724
 21
101.091163982
  0
LINE
  5
323
100
AcDbEntity
  8
_1
100
AcDbLine
 62
7
  6
CONTINUOUS
 10
101.5541754798
 20
101.7035302128
 11
101.7646466912
 21
87.6587264639
  0
LINE
  5
324
100
AcDbEntity
  8
_1
100
AcDbLine
 62
7
  6
CONTINUOUS
 10
100.4917202402
 20
139.9503699108
 11
100.4917202402
 21
139.0086640426
  0
LINE
  5
325
100
AcDbEntity
  8
_1
100
AcDbLine
 62
7
  6
CONTINUOUS
 10
100.8664852739
 20
140.1439479686
 11
100.8664852739
 21
139.2250334442
  0
LINE
  5
326
100
AcDbEntity
  8
_1
100
AcDbLine
 62
7
  6
CONTINUOUS
 10
102.7325401005
 20
145.6969126987
 11
102.7325401005
 21
146.1172656623
  0
LINE
  5
327
100
AcDbEntity
  8
_1
100
AcDbLine
 62
7
  6
CONTINUOUS
 10
100.4211494005
 20
86.8830625716
 11
100.2106781891
 21
73.0812845458
  0
LINE
  5
328
100
AcDbEntity
  8
_1
100
AcDbLine
 62
7
  6
CONTINUOUS
 10
100.6686300635
 20
87.0667753801
 11
100.4587759844
 21
73.3054661818
  0
LINE
  5
329
100
AcDbEntity
  8
_1
100
AcDbLine
 62
7
  6
CONTINUOUS
 10
100.493519724
 20
73.2445822074
 11
100.7039909354
 21
87.0463602331
  0
LINE
  5
32A
100
AcDbEntity
  8
_1
100
AcDbLine
 62
7
  6
CONTINUOUS
 10
101.7646466912
 20
87.6587264639
 11
101.5541754798
 21
73.8569484382
  0
LINE
  5
32B
100
AcDbEntity
  8
_1
100
AcDbLine
 62
7
  6
CONTINUOUS
 10
55.0291256386
 20
51.8149268392
 11
53.2624145051
 21
50.7949217794
  0
LINE
  5
32C
100
AcDbEntity
  8
_1
100
AcDbLine
 62
7
  6
CONTINUOUS
 10
53.2593819848
 20
50.596062407
 11
54.8218943462
 21
51.4981739546
  0
LINE
  5
32D
100
AcDbEntity
  8
_1
100
AcDbLine
 62
7
  6
CONTINUOUS
 10
59.7544768167
 20
54.0245547916
 11
58.9122702204
 21
53.538309489
  0
LINE
  5
32E
100
AcDbEntity
  8
_1
100
AcDbLine
 62
7
  6
CONTINUOUS
 10
77.1167584634
 20
64.0350435857
 11
62.9993743292
 21
55.8844167082
  0
LINE
  5
32F
100
AcDbEntity
  8
_1
100
AcDbLine
 62
7
  6
CONTINUOUS
 10
62.7954721109
 20
55.5829055532
 11
76.9256910926
 21
63.740942589
  0
LINE
  5
330
100
AcDbEntity
  8
_1
100
AcDbLine
 62
7
  6
CONTINUOUS
 10
58.7171730579
 20
53.108554006
 11
72.3735383663
 21
60.9930131291
  0
LINE
  5
331
100
AcDbEntity
  8
_1
100
AcDbLine
 62
7
  6
CONTINUOUS
 10
100.4587759844
 20
73.3054661818
 11
100.2119235018
 21
73.1629466853
  0
LINE
  5
332
100
AcDbEntity
  8
_1
100
AcDbLine
 62
7
  6
CONTINUOUS
 10
101.5541754798
 20
73.8569484382
 11
100.493519724
 21
73.2445822074
  0
LINE
  5
333
100
AcDbEntity
  8
_1
100
AcDbLine
 62
7
  6
CONTINUOUS
 10
100.2106781891
 20
73.0812845458
 11
77.5833553982
 21
60.0174716219
  0
LINE
  5
334
100
AcDbEntity
  8
_1
100
AcDbLine
 62
7
  6
CONTINUOUS
 10
53.1882730144
 20
45.9330483134
 11
49.6527538283
 21
43.891827544
  0
LINE
  5
335
100
AcDbEntity
  8
_1
100
AcDbLine
 62
7
  6
CONTINUOUS
 10
58.703989806
 20
53.1013181121
 11
58.7163383242
 21
53.1080720758
  0
LINE
  5
336
100
AcDbEntity
  8
_1
100
AcDbLine
 62
7
  6
CONTINUOUS
 10
62.7786314562
 20
55.5737122945
 11
62.7946566981
 21
55.5824347779
  0
LINE
  5
337
100
AcDbEntity
  8
_1
100
AcDbLine
 62
7
  6
CONTINUOUS
 10
53.5813441859
 20
50.7819462609
 11
58.912281269
 21
53.5387903135
  0
LINE
  5
338
100
AcDbEntity
  8
_1
100
AcDbLine
 62
7
  6
CONTINUOUS
 10
53.2546126374
 20
50.283309542
 11
58.7048946496
 21
53.1018393987
  0
LINE
  5
339
100
AcDbEntity
  8
_1
100
AcDbLine
 62
7
  6
CONTINUOUS
 10
54.8221032409
 20
51.4977661877
 11
62.7793762635
 21
55.5741434149
  0
LINE
  5
33A
100
AcDbEntity
  8
_1
100
AcDbLine
 62
7
  6
CONTINUOUS
 10
55.0291256387
 20
51.8149268393
 11
62.9993743292
 21
55.8844167082
  0
LINE
  5
33B
100
AcDbEntity
  8
_1
100
AcDbLine
 62
7
  6
CONTINUOUS
 10
84.9594756913
 20
129.5320270595
 11
84.456497233
 21
129.4542158378
  0
LINE
  5
33C
100
AcDbEntity
  8
_1
100
AcDbLine
 62
7
  6
CONTINUOUS
 10
86.0894971936
 20
129.7361778254
 11
84.9741433662
 21
129.563631581
  0
LINE
  5
33D
100
AcDbEntity
  8
_1
100
AcDbLine
 62
7
  6
CONTINUOUS
 10
83.8587895389
 20
129.3910853367
 11
82.7434357115
 21
129.2185390923
  0
LINE
  5
33E
100
AcDbEntity
  8
_1
100
AcDbLine
 62
7
  6
CONTINUOUS
 10
82.2257895782
 20
130.3338769747
 11
83.3411434056
 21
130.5064232191
  0
LINE
  5
33F
100
AcDbEntity
  8
_1
100
AcDbLine
 62
7
  6
CONTINUOUS
 10
84.456497233
 20
130.6789694634
 11
85.5718510604
 21
130.8515157078
  0
LINE
  5
340
100
AcDbEntity
  8
_1
100
AcDbLine
 62
7
  6
CONTINUOUS
 10
76.9016743112
 20
59.0344159053
 11
75.7702074349
 21
58.3811670991
  0
LINE
  5
341
100
AcDbEntity
  8
_1
100
AcDbLine
 62
7
  6
CONTINUOUS
 10
100.9331626777
 20
72.5261538783
 11
99.8725069219
 21
71.9137876475
  0
LINE
  5
342
100
AcDbEntity
  8
_1
100
AcDbLine
 62
7
  6
CONTINUOUS
 10
52.5672602123
 20
44.6022537535
 11
49.0317410263
 21
42.5610329841
  0
LINE
  5
343
100
AcDbEntity
  8
_1
100
AcDbLine
 62
7
  6
CONTINUOUS
 10
76.9623425962
 20
58.6866770621
 11
99.589665387
 21
71.7504899859
  0
LINE
  5
344
100
AcDbEntity
  8
_1
100
AcDbLine
 62
7
  6
CONTINUOUS
 10
115.02497752
 20
126.5324835073
 11
115.5838498175
 21
126.4540896424
  0
LINE
  5
345
100
AcDbEntity
  8
_1
100
AcDbLine
 62
7
  6
CONTINUOUS
 10
82.2257895782
 20
130.3338769747
 11
83.0422895586
 21
129.8624811557
  0
LINE
  5
346
100
AcDbEntity
  8
_1
100
AcDbLine
 62
7
  6
CONTINUOUS
 10
83.8587895389
 20
129.3910853367
 11
84.6752895192
 21
128.9196895176
  0
LINE
  5
347
100
AcDbEntity
  8
_1
100
AcDbLine
 62
7
  6
CONTINUOUS
 10
83.6399972527
 20
129.9256116568
 11
84.456497233
 21
129.4542158378
  0
LINE
  5
348
100
AcDbEntity
  8
_1
100
AcDbLine
 62
7
  6
CONTINUOUS
 10
86.0894971936
 20
129.7361778254
 11
85.2729972133
 21
130.2075736444
  0
LINE
  5
349
100
AcDbEntity
  8
_1
100
AcDbLine
 62
7
  6
CONTINUOUS
 10
84.456497233
 20
130.6789694634
 11
83.6399972527
 21
131.1503652825
  0
LINE
  5
34A
100
AcDbEntity
  8
_1
100
AcDbLine
 62
7
  6
CONTINUOUS
 10
110.2003385329
 20
135.9657923135
 11
110.2003385329
 21
135.4237497157
  0
LINE
  5
34B
100
AcDbEntity
  8
_1
100
AcDbLine
 62
7
  6
CONTINUOUS
 10
114.4617864611
 20
132.6290014854
 11
114.4627215504
 21
132.638854351
  0
LINE
  5
34C
100
AcDbEntity
  8
_1
100
AcDbLine
 62
7
  6
CONTINUOUS
 10
115.0339440354
 20
126.3487819361
 11
115.1041554543
 21
126.3333587656
  0
LINE
  5
34D
100
AcDbEntity
  8
_1
100
AcDbLine
 62
7
  6
CONTINUOUS
 10
113.9975371871
 20
124.360370559
 11
113.9975371871
 21
123.9521193504
  0
LINE
  5
34E
100
AcDbEntity
  8
_1
100
AcDbLine
 62
7
  6
CONTINUOUS
 10
114.068226963
 20
132.1121474241
 11
114.068226963
 21
131.1704415559
  0
LINE
  5
34F
100
AcDbEntity
  8
_1
100
AcDbLine
 62
7
  6
CONTINUOUS
 10
114.4429919968
 20
132.3057254818
 11
114.4429919968
 21
131.3868109574
  0
LINE
  5
350
100
AcDbEntity
  8
_1
100
AcDbLine
 62
7
  6
CONTINUOUS
 10
116.3090468234
 20
137.858690212
 11
116.3090468234
 21
138.2790431755
  0
LINE
  5
351
100
AcDbEntity
  8
_1
100
AcDbLine
 62
7
  6
CONTINUOUS
 10
110.497600855
 20
135.8702014839
 11
110.2003385329
 21
135.9657923135
  0
LINE
  5
352
100
AcDbEntity
  8
_1
100
AcDbLine
 62
7
  6
CONTINUOUS
 10
96.9210941322
 20
143.7084239707
 11
96.62383181
 21
143.8040148003
  0
LINE
  5
353
100
AcDbEntity
  8
_1
100
AcDbLine
 62
7
  6
CONTINUOUS
 10
110.2003385329
 20
135.9657923135
 11
109.6841484335
 21
136.158708938
  0
LINE
  5
354
100
AcDbEntity
  8
_1
100
AcDbLine
 62
7
  6
CONTINUOUS
 10
96.62383181
 20
143.8040148003
 11
96.1076417107
 21
143.9969314248
  0
LINE
  5
355
100
AcDbEntity
  8
_1
100
AcDbLine
 62
7
  6
CONTINUOUS
 10
120.3606426323
 20
129.613012808
 11
120.7141436468
 21
129.4160484852
  0
LINE
  5
356
100
AcDbEntity
  8
_1
100
AcDbLine
 62
7
  6
CONTINUOUS
 10
106.9846143722
 20
137.3395323491
 11
106.7841359095
 21
137.4512352948
  0
ARC
  5
357
100
AcDbEntity
  8
_1
100
AcDbCircle
 62
7
  6
CONTINUOUS
 10
40.6246276933
 20
64.5518951186
 40
13.3411819728
100
AcDbArc
 50
239.9949004053
 51
241.850717154
  0
ARC
  5
358
100
AcDbEntity
  8
_1
100
AcDbCircle
 62
7
  6
CONTINUOUS
 10
36.9121895396
 20
70.7600833253
 40
13.2120099034
100
AcDbArc
 50
178.1382687866
 51
180.0120650165
  0
ARC
  5
359
100
AcDbEntity
  8
_1
100
AcDbCircle
 62
7
  6
CONTINUOUS
 10
45.7725023085
 20
86.2299442311
 40
5.8528753289
100
AcDbArc
 50
117.2357476481
 51
119.968244001
  0
ARC
  5
35A
100
AcDbEntity
  8
_1
100
AcDbCircle
 62
7
  6
CONTINUOUS
 10
48.5062021302
 20
90.8982171242
 40
4.9547896141
100
AcDbArc
 50
299.9604751025
 51
303.381017094
  0
ARC
  5
35B
100
AcDbEntity
  8
_1
100
AcDbCircle
 62
7
  6
CONTINUOUS
 10
37.1869278594
 20
59.8587640895
 40
3.5840692227
100
AcDbArc
 50
318.1220188
 51
321.531341947
  0
ARC
  5
35C
100
AcDbEntity
  8
_1
100
AcDbCircle
 62
7
  6
CONTINUOUS
 10
31.2524368536
 20
70.1587497486
 40
3.5525806306
100
AcDbArc
 50
98.9419137352
 51
101.878967056
  0
ARC
  5
35D
100
AcDbEntity
  8
_1
100
AcDbCircle
 62
7
  6
CONTINUOUS
 10
17.1454800753
 20
54.4765852135
 40
2.9274828174
100
AcDbArc
 50
0.0785019023
 51
4.3947177264
  0
ARC
  5
35E
100
AcDbEntity
  8
_1
100
AcDbCircle
 62
7
  6
CONTINUOUS
 10
43.2003988617
 20
88.9012932783
 40
2.0868220922
100
AcDbArc
 50
191.7313664125
 51
195.0717015552
  0
ARC
  5
35F
100
AcDbEntity
  8
_1
100
AcDbCircle
 62
7
  6
CONTINUOUS
 10
50.8693826855
 20
88.901224325
 40
2.0864280872
100
AcDbArc
 50
344.9099893764
 51
348.2687916283
  0
ARC
  5
360
100
AcDbEntity
  8
_1
100
AcDbCircle
 62
7
  6
CONTINUOUS
 10
20.2761271067
 20
57.3670365533
 40
1.525598087
100
AcDbArc
 50
180.0037455859
 51
181.1503281075
  0
ARC
  5
361
100
AcDbEntity
  8
_1
100
AcDbCircle
 62
7
  6
CONTINUOUS
 10
54.6401260051
 20
51.8112894021
 40
0.3620400806
100
AcDbArc
 50
299.9775500728
 51
303.9288177715
  0
ARC
  5
362
100
AcDbEntity
  8
_1
100
AcDbCircle
 62
7
  6
CONTINUOUS
 10
62.6138618172
 20
55.8958278392
 40
0.3617976061
100
AcDbArc
 50
299.9789485456
 51
302.7326310755
  0
ARC
  5
363
100
AcDbEntity
  8
_1
100
AcDbCircle
 62
7
  6
CONTINUOUS
 10
69.4465657873
 20
126.1553383086
 40
8.6512853404
100
AcDbArc
 50
292.8621760684
 51
296.6319661499
  0
ARC
  5
364
100
AcDbEntity
  8
_1
100
AcDbCircle
 62
7
  6
CONTINUOUS
 10
68.872656057
 20
115.7734268669
 40
6.3461981967
100
AcDbArc
 50
148.3952657778
 51
151.3414605502
  0
ARC
  5
365
100
AcDbEntity
  8
_1
100
AcDbCircle
 62
7
  6
CONTINUOUS
 10
99.0458548683
 20
72.6693438454
 40
1.068702323
100
AcDbArc
 50
310.107895894
 51
317.9220397422
  0
ARC
  5
366
100
AcDbEntity
  8
_1
100
AcDbCircle
 62
7
  6
CONTINUOUS
 10
99.0834568874
 20
72.626268331
 40
1.0115329546
100
AcDbArc
 50
300.3928501082
 51
310.0507575212
  0
ARC
  5
367
100
AcDbEntity
  8
_1
100
AcDbCircle
 62
7
  6
CONTINUOUS
 10
99.3678556134
 20
72.7886928027
 40
1.0099973252
100
AcDbArc
 50
291.3968713321
 51
299.5930097045
  0
ARC
  5
368
100
AcDbEntity
  8
_1
100
AcDbCircle
 62
7
  6
CONTINUOUS
 10
99.0888223255
 20
72.6180329238
 40
1.0017148744
100
AcDbArc
 50
299.9983616621
 51
300.3664479445
  0
ARC
  5
369
100
AcDbEntity
  8
_1
100
AcDbCircle
 62
7
  6
CONTINUOUS
 10
99.3716638718
 20
72.7813305658
 40
1.0017148517
100
AcDbArc
 50
299.6115658941
 51
300.3657160601
  0
ARC
  5
36A
100
AcDbEntity
  8
_1
100
AcDbCircle
 62
7
  6
CONTINUOUS
 10
76.4588863192
 20
129.8427210009
 40
20.615877144
100
AcDbArc
 50
274.6995094103
 51
281.0496877341
  0
ARC
  5
36B
100
AcDbEntity
  8
_1
100
AcDbCircle
 62
7
  6
CONTINUOUS
 10
76.2716335494
 20
129.6444649964
 40
20.4159577937
100
AcDbArc
 50
259.4587658136
 51
265.3348608553
  0
ARC
  5
36C
100
AcDbEntity
  8
_1
100
AcDbCircle
 62
7
  6
CONTINUOUS
 10
76.7485485768
 20
128.244293995
 40
18.9915658797
100
AcDbArc
 50
281.4574802591
 51
283.5609716017
  0
ARC
  5
36D
100
AcDbEntity
  8
_1
100
AcDbCircle
 62
7
  6
CONTINUOUS
 10
76.9636474065
 20
127.3461545045
 40
18.0680293585
100
AcDbArc
 50
283.5657081525
 51
286.1615667288
  0
ARC
  5
36E
100
AcDbEntity
  8
_1
100
AcDbCircle
 62
7
  6
CONTINUOUS
 10
123.7525924001
 20
143.4301850643
 40
16.8948180875
100
AcDbArc
 50
211.8392347163
 51
219.4253983537
  0
ARC
  5
36F
100
AcDbEntity
  8
_1
100
AcDbCircle
 62
7
  6
CONTINUOUS
 10
110.1760856772
 20
151.2684075511
 40
16.8948180875
100
AcDbArc
 50
211.8392347163
 51
219.4253983537
  0
ARC
  5
370
100
AcDbEntity
  8
_1
100
AcDbCircle
 62
7
  6
CONTINUOUS
 10
78.0933828217
 20
124.0316393402
 40
14.5634789887
100
AcDbArc
 50
292.7586798046
 51
292.9260206234
  0
ARC
  5
371
100
AcDbEntity
  8
_1
100
AcDbCircle
 62
7
  6
CONTINUOUS
 10
77.6616991742
 20
126.6521998344
 40
14.0878759038
100
AcDbArc
 50
191.2907038461
 51
193.8222105501
  0
ARC
  5
372
100
AcDbEntity
  8
_1
100
AcDbCircle
 62
7
  6
CONTINUOUS
 10
78.2319150429
 20
123.6794504608
 40
13.7617824976
100
AcDbArc
 50
293.7428196828
 51
294.2600000509
  0
ARC
  5
373
100
AcDbEntity
  8
_1
100
AcDbCircle
 62
7
  6
CONTINUOUS
 10
73.7514573946
 20
116.1590093545
 40
13.0087181768
100
AcDbArc
 50
240.0547250436
 51
243.7916014276
  0
ARC
  5
374
100
AcDbEntity
  8
_1
100
AcDbCircle
 62
7
  6
CONTINUOUS
 10
73.6365370619
 20
120.0260852078
 40
12.7646795277
100
AcDbArc
 50
240.0189906954
 51
243.8273357758
  0
ARC
  5
375
100
AcDbEntity
  8
_1
100
AcDbCircle
 62
7
  6
CONTINUOUS
 10
73.7236721598
 20
122.0555547806
 40
12.3737767628
100
AcDbArc
 50
240.0209540091
 51
243.8922075352
  0
ARC
  5
376
100
AcDbEntity
  8
_1
100
AcDbCircle
 62
7
  6
CONTINUOUS
 10
73.0366510796
 20
114.9045092077
 40
11.5648808577
100
AcDbArc
 50
235.9800976059
 51
240.0208843057
  0
ARC
  5
377
100
AcDbEntity
  8
_1
100
AcDbCircle
 62
7
  6
CONTINUOUS
 10
72.9122714839
 20
118.7879685362
 40
11.3303123379
100
AcDbArc
 50
235.9382520378
 51
240.0627298738
  0
ARC
  5
378
100
AcDbEntity
  8
_1
100
AcDbCircle
 62
7
  6
CONTINUOUS
 10
105.6469772575
 20
129.1726886069
 40
8.0686573339
100
AcDbArc
 50
55.6444292099
 51
59.9766899282
  0
ARC
  5
379
100
AcDbEntity
  8
_1
100
AcDbCircle
 62
7
  6
CONTINUOUS
 10
92.0704705347
 20
137.0109110937
 40
8.0686573339
100
AcDbArc
 50
55.6444292099
 51
59.9766899282
  0
ARC
  5
37A
100
AcDbEntity
  8
_1
100
AcDbCircle
 62
7
  6
CONTINUOUS
 10
92.0896315787
 20
137.3482027268
 40
7.2991856118
100
AcDbArc
 50
118.1531678664
 51
120.026770296
  0
ARC
  5
37B
100
AcDbEntity
  8
_1
100
AcDbCircle
 62
7
  6
CONTINUOUS
 10
85.0430803408
 20
128.2596788492
 40
3.887829934
100
AcDbArc
 50
60.0159364483
 51
61.9133235928
  0
ARC
  5
37C
100
AcDbEntity
  8
_1
100
AcDbCircle
 62
7
  6
CONTINUOUS
 10
90.5716239038
 20
109.0033809742
 40
3.3804513921
100
AcDbArc
 50
32.6305596592
 51
36.8195421056
  0
ARC
  5
37D
100
AcDbEntity
  8
_1
100
AcDbCircle
 62
7
  6
CONTINUOUS
 10
90.7510041341
 20
109.0154581195
 40
3.2935843052
100
AcDbArc
 50
21.0014723131
 51
24.2071004822
  0
ARC
  5
37E
100
AcDbEntity
  8
_1
100
AcDbCircle
 62
7
  6
CONTINUOUS
 10
90.8214602098
 20
109.0428715707
 40
3.217983799
100
AcDbArc
 50
20.6318211153
 51
20.9953916039
  0
ARC
  5
37F
100
AcDbEntity
  8
_1
100
AcDbCircle
 62
7
  6
CONTINUOUS
 10
109.3167675359
 20
135.0012305821
 40
2.179317372
100
AcDbArc
 50
41.6065591625
 51
42.0419159802
  0
ARC
  5
380
100
AcDbEntity
  8
_1
100
AcDbCircle
 62
7
  6
CONTINUOUS
 10
95.7402608131
 20
142.8394530689
 40
2.179317372
100
AcDbArc
 50
41.6065591625
 51
42.0419159802
  0
ARC
  5
381
100
AcDbEntity
  8
_1
100
AcDbCircle
 62
7
  6
CONTINUOUS
 10
86.7768713728
 20
129.7842787156
 40
1.3811455729
100
AcDbArc
 50
7.9309107009
 51
12.8385311459
  0
ARC
  5
382
100
AcDbEntity
  8
_1
100
AcDbCircle
 62
7
  6
CONTINUOUS
 10
81.538415312
 20
129.7842787554
 40
1.3811454807
100
AcDbArc
 50
167.161490331
 51
172.0690570707
  0
ARC
  5
383
100
AcDbEntity
  8
_1
100
AcDbCircle
 62
7
  6
CONTINUOUS
 10
114.4259160896
 20
127.5694881841
 40
1.1976031467
100
AcDbArc
 50
296.6570103936
 51
300.0143563819
  0
ARC
  5
384
100
AcDbEntity
  8
_1
100
AcDbCircle
 62
7
  6
CONTINUOUS
 10
96.9671585852
 20
120.0082499256
 40
0.461447949
100
AcDbArc
 50
178.5840748557
 51
180.0050570873
  0
ARC
  5
385
100
AcDbEntity
  8
_1
100
AcDbCircle
 62
7
  6
CONTINUOUS
 10
112.5234430035
 20
128.9896213108
 40
0.4614479487
100
AcDbArc
 50
178.5840748552
 51
180.0050570878
  0
SPLINE
  5
386
100
AcDbEntity
  8
_1
100
AcDbSpline
 62
7
  6
CONTINUOUS
 70
0
 71
3
 72
15
 73
11
 74
0
 42
0.0000001
 43
0.0000001
 44
0.0000000001
 40
0.0
 40
0.0
 40
0.0
 40
0.0
 40
0.1141564308
 40
0.2373248993
 40
0.366975279
 40
0.4999972043
 40
0.6330228648
 40
0.7626735591
 40
0.8858454977
 40
1.0
 40
1.0
 40
1.0
 40
1.0
 10
15.5685505684
 20
57.0811594542
 30
0.0
 10
15.5685505684
 20
56.8855248458
 30
0.0
 10
15.6043783593
 20
56.4784308233
 30
0.0
 10
15.7472305749
 20
55.8642838828
 30
0.0
 10
15.976050626
 20
55.2422013905
 30
0.0
 10
16.2823191217
 20
54.6355711729
 30
0.0
 10
16.6545390345
 20
54.0670175522
 30
0.0
 10
17.0788680341
 20
53.5577949642
 30
0.0
 10
17.5393133089
 20
53.1270079967
 30
0.0
 10
17.8739506881
 20
52.8924256245
 30
0.0
 10
18.0433712271
 20
52.7946079992
 30
0.0
  0
SPLINE
  5
387
100
AcDbEntity
  8
_1
100
AcDbSpline
 62
7
  6
CONTINUOUS
 70
0
 71
3
 72
16
 73
12
 74
0
 42
0.0000001
 43
0.0000001
 44
0.0000000001
 40
0.0
 40
0.0
 40
0.0
 40
0.0
 40
0.0992143554
 40
0.1542128872
 40
0.2126449002
 40
0.3384390388
 40
0.4731084587
 40
0.6117984208
 40
0.7491651681
 40
0.8800107957
 40
1.0
 40
1.0
 40
1.0
 40
1.0
 10
17.5481070491
 20
58.0266026091
 30
0.0
 10
17.6918485788
 20
58.0069998827
 30
0.0
 10
17.9107413698
 20
57.9391548645
 30
0.0
 10
18.1879057558
 20
57.7978603987
 30
0.0
 10
18.4818523602
 20
57.6070466698
 30
0.0
 10
18.8349743812
 20
57.2987857528
 30
0.0
 10
19.2117282782
 20
56.8504519723
 30
0.0
 10
19.5309674908
 20
56.3394907057
 30
0.0
 10
19.7747239542
 20
55.7945290903
 30
0.0
 10
19.9294383359
 20
55.2462890657
 30
0.0
 10
19.9694309184
 20
54.8791129648
 30
0.0
 10
19.9694309184
 20
54.7036637817
 30
0.0
  0
SPLINE
  5
388
100
AcDbEntity
  8
_1
100
AcDbSpline
 62
7
  6
CONTINUOUS
 70
0
 71
3
 72
14
 73
10
 74
0
 42
0.0000001
 43
0.0000001
 44
0.0000000001
 40
0.0
 40
0.0
 40
0.0
 40
0.0
 40
0.289271266
 40
0.422536393
 40
0.5484968263
 40
0.667894022
 40
0.7818675835
 40
0.8919527969
 40
1.0
 40
1.0
 40
1.0
 40
1.0
 10
18.3969140961
 20
52.5904710388
 30
0.0
 10
18.5724956693
 20
52.4890960585
 30
0.0
 10
18.8420623885
 20
52.3607874032
 30
0.0
 10
19.2117573083
 20
52.2529950667
 30
0.0
 10
19.474165876
 20
52.2089666196
 30
0.0
 10
19.7266599656
 20
52.2001756272
 30
0.0
 10
19.9668397778
 20
52.2269753903
 30
0.0
 10
20.1921510652
 20
52.2892549425
 30
0.0
 10
20.3313895463
 20
52.3544767925
 30
0.0
 10
20.3969724467
 20
52.3923409818
 30
0.0
  0
SPLINE
  5
389
100
AcDbEntity
  8
_1
100
AcDbSpline
 62
7
  6
CONTINUOUS
 70
0
 71
3
 72
14
 73
10
 74
0
 42
0.0000001
 43
0.0000001
 44
0.0000000001
 40
0.0
 40
0.0
 40
0.0
 40
0.0
 40
0.1080470808
 40
0.2181317812
 40
0.3321075955
 40
0.4515068119
 40
0.5774545012
 40
0.7107201378
 40
1.0
 40
1.0
 40
1.0
 40
1.0
 10
16.3970006034
 20
59.3205367988
 30
0.0
 10
16.3314185993
 20
59.282673127
 30
0.0
 10
16.2053172183
 20
59.1947020937
 30
0.0
 10
16.038723575
 20
59.0307214157
 30
0.0
 10
15.8954259402
 20
58.8361181897
 30
0.0
 10
15.7767996354
 20
58.6130636288
 30
0.0
 10
15.6837090485
 20
58.3638142651
 30
0.0
 10
15.5922171003
 20
57.9897584399
 30
0.0
 10
15.5685476245
 20
57.6921509846
 30
0.0
 10
15.5685476245
 20
57.4894019084
 30
0.0
  0
SPLINE
  5
38A
100
AcDbEntity
  8
_1
100
AcDbSpline
 62
7
  6
CONTINUOUS
 70
0
 71
3
 72
26
 73
22
 74
0
 42
0.0000001
 43
0.0000001
 44
0.0000000001
 40
0.0
 40
0.0
 40
0.0
 40
0.0
 40
0.0605203794
 40
0.1148482547
 40
0.1638071963
 40
0.1869279713
 40
0.2095542461
 40
0.2320824283
 40
0.2549172834
 40
0.2784367478
 40
0.3029635008
 40
0.3558742418
 40
0.4148803309
 40
0.4800331351
 40
0.5505988644
 40
0.6252993396
 40
0.7025046668
 40
0.7803890336
 40
0.8570828261
 40
0.9307921965
 40
1.0
 40
1.0
 40
1.0
 40
1.0
 10
16.0139090678
 20
56.8240374215
 30
0.0
 10
16.0139090678
 20
56.9654807762
 30
0.0
 10
16.0347899334
 20
57.2347915138
 30
0.0
 10
16.140306063
 20
57.6058635133
 30
0.0
 10
16.2917126503
 20
57.8645828786
 30
0.0
 10
16.4452325156
 20
58.0252076117
 30
0.0
 10
16.5731430541
 20
58.1218232017
 30
0.0
 10
16.7147036676
 20
58.1955923652
 30
0.0
 10
16.8683732568
 20
58.2458668475
 30
0.0
 10
17.0325850762
 20
58.2721538022
 30
0.0
 10
17.2692316684
 20
58.2752535271
 30
0.0
 10
17.5857264131
 20
58.2142963281
 30
0.0
 10
17.9686511041
 20
58.0514354809
 30
0.0
 10
18.3528099673
 20
57.8039979465
 30
0.0
 10
18.7253139108
 20
57.4807609622
 30
0.0
 10
19.0735432677
 20
57.0930202123
 30
0.0
 10
19.3853066581
 20
56.6543743843
 30
0.0
 10
19.6496392941
 20
56.1803146754
 30
0.0
 10
19.857161183
 20
55.6875417191
 30
0.0
 10
20.0006299047
 20
55.1935370827
 30
0.0
 10
20.0520295896
 20
54.8621863166
 30
0.0
 10
20.0643555691
 20
54.700909751
 30
0.0
  0
SPLINE
  5
38B
100
AcDbEntity
  8
_1
100
AcDbSpline
 62
7
  6
CONTINUOUS
 70
0
 71
3
 72
27
 73
23
 74
0
 42
0.0000001
 43
0.0000001
 44
0.0000000001
 40
0.0
 40
0.0
 40
0.0
 40
0.0
 40
0.0603491856
 40
0.0881553873
 40
0.1144305947
 40
0.162989176
 40
0.1859551675
 40
0.2084961626
 40
0.2310376937
 40
0.2540040508
 40
0.302562667
 40
0.3288416389
 40
0.3566433075
 40
0.4169916229
 40
0.4835436077
 40
0.5553525313
 40
0.6309387098
 40
0.708492801
 40
0.786045989
 40
0.861633835
 40
0.9334457738
 40
1.0
 40
1.0
 40
1.0
 40
1.0
 10
20.072960145
 20
54.4805962052
 30
0.0
 10
20.072960145
 20
54.3351212121
 30
0.0
 10
20.0560001256
 20
54.1216022122
 30
0.0
 10
19.9902889453
 20
53.8531297379
 30
0.0
 10
19.9037204452
 20
53.6209802191
 30
0.0
 10
19.7783647655
 20
53.4166198715
 30
0.0
 10
19.6160236815
 20
53.2570023133
 30
0.0
 10
19.4808727205
 20
53.1626213127
 30
0.0
 10
19.3315598338
 20
53.0927685074
 30
0.0
 10
19.1121589393
 20
53.0319727639
 30
0.0
 10
18.8724824983
 20
53.0255853194
 30
0.0
 10
18.6281676912
 20
53.0667046969
 30
0.0
 10
18.3627552663
 20
53.1440368399
 30
0.0
 10
18.0238157947
 20
53.3053591234
 30
0.0
 10
17.6301922725
 20
53.5813261695
 30
0.0
 10
17.252451732
 20
53.9346759147
 30
0.0
 10
16.9045196552
 20
54.3522330494
 30
0.0
 10
16.5992595386
 20
54.8184806347
 30
0.0
 10
16.3481025892
 20
55.315951677
 30
0.0
 10
16.1604403219
 20
55.8261045706
 30
0.0
 10
16.0432948799
 20
56.3297541386
 30
0.0
 10
16.0139090678
 20
56.6636048406
 30
0.0
 10
16.0139090678
 20
56.8240374215
 30
0.0
  0
SPLINE
  5
38C
100
AcDbEntity
  8
_1
100
AcDbSpline
 62
7
  6
CONTINUOUS
 70
0
 71
3
 72
15
 73
11
 74
0
 42
0.0000001
 43
0.0000001
 44
0.0000000001
 40
0.0
 40
0.0
 40
0.0
 40
0.0
 40
0.1147233716
 40
0.237946332
 40
0.3672477494
 40
0.4997400867
 40
0.6322663739
 40
0.7616850198
 40
0.885073523
 40
1.0
 40
1.0
 40
1.0
 40
1.0
 10
18.7508364833
 20
57.3364091584
 30
0.0
 10
18.7525838483
 20
57.2491055713
 30
0.0
 10
18.7712342482
 20
57.0681684961
 30
0.0
 10
18.8371208482
 20
56.7958191539
 30
0.0
 10
18.9397115785
 20
56.5206057601
 30
0.0
 10
19.0753713392
 20
56.2522129119
 30
0.0
 10
19.2393738485
 20
56.0000320069
 30
0.0
 10
19.4259699439
 20
55.772898021
 30
0.0
 10
19.6285752295
 20
55.5788059507
 30
0.0
 10
19.7758012778
 20
55.4715160151
 30
0.0
 10
19.8504964606
 20
55.4259899615
 30
0.0
  0
SPLINE
  5
38D
100
AcDbEntity
  8
_1
100
AcDbSpline
 62
7
  6
CONTINUOUS
 70
0
 71
3
 72
11
 73
7
 74
0
 42
0.0000001
 43
0.0000001
 44
0.0000000001
 40
0.0
 40
0.0
 40
0.0
 40
0.0
 40
0.2810016997
 40
0.5403631775
 40
0.7788082249
 40
1.0
 40
1.0
 40
1.0
 40
1.0
 10
18.1848459532
 20
57.0403414976
 30
0.0
 10
18.1848459532
 20
57.1012963275
 30
0.0
 10
18.1919375769
 20
57.2187058133
 30
0.0
 10
18.2266256233
 20
57.38475994
 30
0.0
 10
18.2846215281
 20
57.5304716541
 30
0.0
 10
18.3401353263
 20
57.6144449458
 30
0.0
 10
18.3711989609
 20
57.651012894
 30
0.0
  0
SPLINE
  5
38E
100
AcDbEntity
  8
_1
100
AcDbSpline
 62
7
  6
CONTINUOUS
 70
0
 71
3
 72
11
 73
7
 74
0
 42
0.0000001
 43
0.0000001
 44
0.0000000001
 40
0.0
 40
0.0
 40
0.0
 40
0.0
 40
0.2423783423
 40
0.4993175327
 40
0.7566172296
 40
1.0
 40
1.0
 40
1.0
 40
1.0
 10
19.7148648358
 20
55.8245989566
 30
0.0
 10
19.6276339566
 20
55.8946823564
 30
0.0
 10
19.4635365452
 20
56.0589864247
 30
0.0
 10
19.2625831528
 20
56.3465678172
 30
0.0
 10
19.1113311376
 20
56.6636308169
 30
0.0
 10
19.0489474108
 20
56.8879445137
 30
0.0
 10
19.030724296
 20
56.9988174901
 30
0.0
  0
SPLINE
  5
38F
100
AcDbEntity
  8
_1
100
AcDbSpline
 62
7
  6
CONTINUOUS
 70
0
 71
3
 72
9
 73
5
 74
0
 42
0.0000001
 43
0.0000001
 44
0.0000000001
 40
0.0
 40
0.0
 40
0.0
 40
0.0
 40
0.257551395
 40
1.0
 40
1.0
 40
1.0
 40
1.0
 10
18.0433712271
 20
52.7946079992
 30
0.0
 10
18.0739672444
 20
52.7769429052
 30
0.0
 10
18.1938473929
 20
52.7102659276
 30
0.0
 10
18.3181794876
 20
52.6514664322
 30
0.0
 10
18.4126396221
 20
52.6133916994
 30
0.0
  0
SPLINE
  5
390
100
AcDbEntity
  8
_1
100
AcDbSpline
 62
7
  6
CONTINUOUS
 70
0
 71
3
 72
18
 73
14
 74
0
 42
0.0000001
 43
0.0000001
 44
0.0000000001
 40
0.0
 40
0.0
 40
0.0
 40
0.0
 40
0.1362156121
 40
0.2594192785
 40
0.3172672917
 40
0.3733596301
 40
0.4284702196
 40
0.4834441038
 40
0.5391392944
 40
0.5963591747
 40
0.71777195
 40
0.8518203978
 40
1.0
 40
1.0
 40
1.0
 40
1.0
 10
18.4126396221
 20
52.6133916994
 30
0.0
 10
18.5502061848
 20
52.5579417454
 30
0.0
 10
18.8220680212
 20
52.4741366093
 30
0.0
 10
19.1702519212
 20
52.4468627936
 30
0.0
 10
19.4271877769
 20
52.4795393848
 30
0.0
 10
19.605234241
 20
52.5288830702
 30
0.0
 10
19.7709515021
 20
52.6032942806
 30
0.0
 10
19.9228756639
 20
52.7021040969
 30
0.0
 10
20.0596293293
 20
52.8244739351
 30
0.0
 10
20.2234170117
 20
53.021158704
 30
0.0
 10
20.3838274428
 20
53.326072944
 30
0.0
 10
20.4959318612
 20
53.7539434525
 30
0.0
 10
20.5183186444
 20
54.0621254465
 30
0.0
 10
20.5183186444
 20
54.2234741726
 30
0.0
  0
SPLINE
  5
391
100
AcDbEntity
  8
_1
100
AcDbSpline
 62
7
  6
CONTINUOUS
 70
0
 71
3
 72
14
 73
10
 74
0
 42
0.0000001
 43
0.0000001
 44
0.0000000001
 40
0.0
 40
0.0
 40
0.0
 40
0.0
 40
0.1080470808
 40
0.2181317812
 40
0.3321075955
 40
0.4515068119
 40
0.5774545012
 40
0.7107201378
 40
1.0
 40
1.0
 40
1.0
 40
1.0
 10
20.3969724467
 20
52.3923409818
 30
0.0
 10
20.4625544508
 20
52.4302046536
 30
0.0
 10
20.5886558317
 20
52.5181756869
 30
0.0
 10
20.755249475
 20
52.6821563649
 30
0.0
 10
20.8985471099
 20
52.8767595909
 30
0.0
 10
21.0171734147
 20
53.0998141518
 30
0.0
 10
21.1102640016
 20
53.3490635155
 30
0.0
 10
21.2017559498
 20
53.7231193407
 30
0.0
 10
21.2254254256
 20
54.0207267961
 30
0.0
 10
21.2254254256
 20
54.2234758722
 30
0.0
  0
SPLINE
  5
392
100
AcDbEntity
  8
_1
100
AcDbSpline
 62
7
  6
CONTINUOUS
 70
0
 71
3
 72
23
 73
19
 74
0
 42
0.0000001
 43
0.0000001
 44
0.0000000001
 40
0.0
 40
0.0
 40
0.0
 40
0.0
 40
0.0623893411
 40
0.1287457053
 40
0.1983459753
 40
0.270335013
 40
0.3437233813
 40
0.4174667952
 40
0.490502831
 40
0.5618006007
 40
0.6304085969
 40
0.6955065344
 40
0.756464181
 40
0.8129111322
 40
0.8648206422
 40
0.9126035512
 40
0.9571855005
 40
1.0
 40
1.0
 40
1.0
 40
1.0
 10
21.2254254256
 20
54.2234758722
 30
0.0
 10
21.2254254256
 20
54.3894101353
 30
0.0
 10
21.2029334714
 20
54.7320570234
 30
0.0
 10
21.1104426606
 20
55.2523114851
 30
0.0
 10
20.9600189193
 20
55.7854089682
 30
0.0
 10
20.754955907
 20
56.3199345436
 30
0.0
 10
20.4995656578
 20
56.8445720825
 30
0.0
 10
20.1993199436
 20
57.3481235734
 30
0.0
 10
19.8606102591
 20
57.8198469414
 30
0.0
 10
19.4906563926
 20
58.249688187
 30
0.0
 10
19.0973093138
 20
58.6285115177
 30
0.0
 10
18.6888471127
 20
58.9482887879
 30
0.0
 10
18.2737502049
 20
59.2022450902
 30
0.0
 10
17.8604493569
 20
59.3849097496
 30
0.0
 10
17.4571710183
 20
59.4920598336
 30
0.0
 10
17.0718354908
 20
59.5204207583
 30
0.0
 10
16.7129978725
 20
59.467826373
 30
0.0
 10
16.4956166315
 20
59.3774726149
 30
0.0
 10
16.3970006034
 20
59.3205367988
 30
0.0
  0
SPLINE
  5
393
100
AcDbEntity
  8
_1
100
AcDbSpline
 62
7
  6
CONTINUOUS
 70
0
 71
3
 72
15
 73
11
 74
0
 42
0.0000001
 43
0.0000001
 44
0.0000000001
 40
0.0
 40
0.0
 40
0.0
 40
0.0
 40
0.1514504589
 40
0.2907272351
 40
0.4184587829
 40
0.5368550171
 40
0.6494931472
 40
0.7610786116
 40
0.8765340516
 40
1.0
 40
1.0
 40
1.0
 40
1.0
 10
16.4002798294
 20
56.7642675066
 30
0.0
 10
16.4002798294
 20
56.8637362963
 30
0.0
 10
16.4122017097
 20
57.0550305683
 30
0.0
 10
16.470838905
 20
57.3247795642
 30
0.0
 10
16.5689891193
 20
57.5598929442
 30
0.0
 10
16.7053466804
 20
57.7546532398
 30
0.0
 10
16.8776397384
 20
57.9032945487
 30
0.0
 10
17.0812658754
 20
58.0006919361
 30
0.0
 10
17.3096085042
 20
58.0441861259
 30
0.0
 10
17.467761466
 20
58.0375597242
 30
0.0
 10
17.5481070491
 20
58.0266026091
 30
0.0
  0
SPLINE
  5
394
100
AcDbEntity
  8
_1
100
AcDbSpline
 62
7
  6
CONTINUOUS
 70
0
 71
3
 72
17
 73
13
 74
0
 42
0.0000001
 43
0.0000001
 44
0.0000000001
 40
0.0
 40
0.0
 40
0.0
 40
0.0
 40
0.0442511904
 40
0.0916384438
 40
0.1428036716
 40
0.1980224948
 40
0.3200051457
 40
0.4547384301
 40
0.5967023669
 40
0.7392402948
 40
0.87559225
 40
1.0
 40
1.0
 40
1.0
 40
1.0
 10
19.9392802794
 20
54.93699973
 30
0.0
 10
19.8957534146
 20
54.9289718536
 30
0.0
 10
19.8035646319
 20
54.9223669137
 30
0.0
 10
19.6610789384
 20
54.9396895113
 30
0.0
 10
19.5128900386
 20
54.9830886951
 30
0.0
 10
19.3043184076
 20
55.0776913179
 30
0.0
 10
19.0465629058
 20
55.2582421494
 30
0.0
 10
18.7667576249
 20
55.5448566974
 30
0.0
 10
18.524653527
 20
55.8893344992
 30
0.0
 10
18.3369984277
 20
56.268046902
 30
0.0
 10
18.2165568662
 20
56.6547902301
 30
0.0
 10
18.1848459532
 20
56.915906212
 30
0.0
 10
18.1848459532
 20
57.0403414976
 30
0.0
  0
SPLINE
  5
395
100
AcDbEntity
  8
_1
100
AcDbSpline
 62
7
  6
CONTINUOUS
 70
0
 71
3
 72
9
 73
5
 74
0
 42
0.0000001
 43
0.0000001
 44
0.0000000001
 40
0.0
 40
0.0
 40
0.0
 40
0.0
 40
0.4822761097
 40
1.0
 40
1.0
 40
1.0
 40
1.0
 10
20.5183186444
 20
54.2234741726
 30
0.0
 10
20.5183186444
 20
54.3999169265
 30
0.0
 10
20.4892118555
 20
54.7660362117
 30
0.0
 10
20.413103626
 20
55.1248685739
 30
0.0
 10
20.363519236
 20
55.3076747414
 30
0.0
  0
SPLINE
  5
396
100
AcDbEntity
  8
_1
100
AcDbSpline
 62
7
  6
CONTINUOUS
 70
0
 71
3
 72
11
 73
7
 74
0
 42
0.0000001
 43
0.0000001
 44
0.0000000001
 40
0.0
 40
0.0
 40
0.0
 40
0.0
 40
0.2462095151
 40
0.5001131496
 40
0.7539628795
 40
1.0
 40
1.0
 40
1.0
 40
1.0
 10
20.363519236
 20
55.3076747414
 30
0.0
 10
20.2999896802
 20
55.5418935071
 30
0.0
 10
20.1367221318
 20
56.0088538086
 30
0.0
 10
19.8039163388
 20
56.6753557638
 30
0.0
 10
19.3920261619
 20
57.2959032562
 30
0.0
 10
19.0686484252
 20
57.6699600179
 30
0.0
 10
18.8973236469
 20
57.8415986171
 30
0.0
  0
SPLINE
  5
397
100
AcDbEntity
  8
_1
100
AcDbSpline
 62
7
  6
CONTINUOUS
 70
0
 71
3
 72
22
 73
18
 74
0
 42
0.0000001
 43
0.0000001
 44
0.0000000001
 40
0.0
 40
0.0
 40
0.0
 40
0.0
 40
0.1611838435
 40
0.236594289
 40
0.3080426971
 40
0.375357768
 40
0.4385628347
 40
0.4979004839
 40
0.5538716954
 40
0.6072514778
 40
0.6590611075
 40
0.7104953168
 40
0.7627931047
 40
0.8170965552
 40
0.874330217
 40
0.9351570469
 40
1.0
 40
1.0
 40
1.0
 40
1.0
 10
18.8973236469
 20
57.8415986171
 30
0.0
 10
18.7326339836
 20
58.0065899476
 30
0.0
 10
18.4734696425
 20
58.2328752009
 30
0.0
 10
18.1027403691
 20
58.4807916161
 30
0.0
 10
17.8298866775
 20
58.6285251271
 30
0.0
 10
17.5593508019
 20
58.7402554929
 30
0.0
 10
17.2942679162
 20
58.814622211
 30
0.0
 10
17.0376967077
 20
58.8505018858
 30
0.0
 10
16.7926859357
 20
58.8471590645
 30
0.0
 10
16.5623171078
 20
58.8042835055
 30
0.0
 10
16.3498037624
 20
58.721992574
 30
0.0
 10
16.1582707053
 20
58.6013603792
 30
0.0
 10
15.9905347017
 20
58.4441496419
 30
0.0
 10
15.8487690516
 20
58.2528273584
 30
0.0
 10
15.7344539835
 20
58.0301748305
 30
0.0
 10
15.6487290118
 20
57.7790827045
 30
0.0
 10
15.6122995642
 20
57.6004965692
 30
0.0
 10
15.598598705
 20
57.5077205716
 30
0.0
  0
SPLINE
  5
398
100
AcDbEntity
  8
_1
100
AcDbSpline
 62
7
  6
CONTINUOUS
 70
0
 71
3
 72
9
 73
5
 74
0
 42
0.0000001
 43
0.0000001
 44
0.0000000001
 40
0.0
 40
0.0
 40
0.0
 40
0.0
 40
0.2423998893
 40
1.0
 40
1.0
 40
1.0
 40
1.0
 10
15.598598705
 20
57.5077205716
 30
0.0
 10
15.5935484062
 20
57.4735222411
 30
0.0
 10
15.5755609415
 20
57.3320258611
 30
0.0
 10
15.5685505684
 20
57.1892026092
 30
0.0
 10
15.5685505684
 20
57.0811594542
 30
0.0
  0
SPLINE
  5
399
100
AcDbEntity
  8
_1
100
AcDbSpline
 62
7
  6
CONTINUOUS
 70
0
 71
3
 72
26
 73
22
 74
0
 42
0.0000001
 43
0.0000001
 44
0.0000000001
 40
0.0
 40
0.0
 40
0.0
 40
0.0
 40
0.0490119051
 40
0.0721621075
 40
0.0947198231
 40
0.1169970562
 40
0.1393258555
 40
0.1620334179
 40
0.1854215772
 40
0.2351180427
 40
0.2899118829
 40
0.3503163316
 40
0.4161315865
 40
0.486627875
 40
0.560700912
 40
0.6369982955
 40
0.7140253781
 40
0.7902455715
 40
0.8641637559
 40
0.9344513553
 40
1.0
 40
1.0
 40
1.0
 40
1.0
 10
19.8519565703
 20
54.0361959947
 30
0.0
 10
19.8168437021
 20
53.950318676
 30
0.0
 10
19.7509564666
 20
53.828514644
 30
0.0
 10
19.6349198966
 20
53.6911979353
 30
0.0
 10
19.538280023
 20
53.6054812832
 30
0.0
 10
19.4312643769
 20
53.5359525632
 30
0.0
 10
19.3147232537
 20
53.4832544276
 30
0.0
 10
19.1896857853
 20
53.4477284383
 30
0.0
 10
19.0094944822
 20
53.4231642826
 30
0.0
 10
18.7653143736
 20
53.4391895157
 30
0.0
 10
18.4638566311
 20
53.5271615139
 30
0.0
 10
18.1556091168
 20
53.6802049128
 30
0.0
 10
17.849045569
 20
53.8935771552
 30
0.0
 10
17.5526710024
 20
54.1609888616
 30
0.0
 10
17.275014785
 20
54.474649537
 30
0.0
 10
17.0241733144
 20
54.8253734258
 30
0.0
 10
16.8075066929
 20
55.2028526429
 30
0.0
 10
16.6314145145
 20
55.5959663608
 30
0.0
 10
16.5010315064
 20
55.9932080694
 30
0.0
 10
16.4202548549
 20
56.3828411116
 30
0.0
 10
16.4002798294
 20
56.6401854717
 30
0.0
 10
16.4002798294
 20
56.7642675066
 30
0.0
  0
SPLINE
  5
39A
100
AcDbEntity
  8
_1
100
AcDbSpline
 62
7
  6
CONTINUOUS
 70
0
 71
3
 72
12
 73
8
 74
0
 42
0.0000001
 43
0.0000001
 44
0.0000000001
 40
0.0
 40
0.0
 40
0.0
 40
0.0
 40
0.2885527725
 40
0.5472919965
 40
0.7806866176
 40
0.8913271377
 40
1.0
 40
1.0
 40
1.0
 40
1.0
 10
100.4587759844
 20
73.3054661818
 30
0.0
 10
100.4565278593
 20
73.15804401
 30
0.0
 10
100.42994734
 20
72.8777908784
 30
0.0
 10
100.3111442975
 20
72.4935540166
 30
0.0
 10
100.1447846139
 20
72.2286877123
 30
0.0
 10
99.9783820988
 20
72.0667433241
 30
0.0
 10
99.8858418857
 20
72.0024521503
 30
0.0
 10
99.8377527519
 20
71.9746897099
 30
0.0
  0
SPLINE
  5
39B
100
AcDbEntity
  8
_1
100
AcDbSpline
 62
7
  6
CONTINUOUS
 70
0
 71
3
 72
15
 73
11
 74
0
 42
0.0000001
 43
0.0000001
 44
0.0000000001
 40
0.0
 40
0.0
 40
0.0
 40
0.0
 40
0.1139344176
 40
0.2368222307
 40
0.3661451487
 40
0.4989169389
 40
0.6318389705
 40
0.7616009426
 40
0.8851816562
 40
1.0
 40
1.0
 40
1.0
 40
1.0
 10
98.3377698977
 20
104.7016909025
 30
0.0
 10
98.4813030775
 20
104.6188238571
 30
0.0
 10
98.7649099321
 20
104.4204174262
 30
0.0
 10
99.1557003207
 20
104.0565141154
 30
0.0
 10
99.5164698404
 20
103.6264405701
 30
0.0
 10
99.8340062088
 20
103.1460989621
 30
0.0
 10
100.0966631651
 20
102.6329706241
 30
0.0
 10
100.294924099
 20
102.1058156193
 30
0.0
 10
100.4213943582
 20
101.5840239382
 30
0.0
 10
100.456273313
 20
101.2374016869
 30
0.0
 10
100.4587759844
 20
101.0703977148
 30
0.0
  0
SPLINE
  5
39C
100
AcDbEntity
  8
_1
100
AcDbSpline
 62
7
  6
CONTINUOUS
 70
0
 71
3
 72
11
 73
7
 74
0
 42
0.0000001
 43
0.0000001
 44
0.0000000001
 40
0.0
 40
0.0
 40
0.0
 40
0.0
 40
0.2372539654
 40
0.5000012591
 40
0.7627478695
 40
1.0
 40
1.0
 40
1.0
 40
1.0
 10
93.915737574
 20
107.6629459068
 30
0.0
 10
93.915737574
 20
107.6049829652
 30
0.0
 10
93.9374697068
 20
107.482746453
 30
0.0
 10
94.0132725844
 20
107.3110083037
 30
0.0
 10
94.1241012035
 20
107.1594929041
 30
0.0
 10
94.219095161
 20
107.0795550759
 30
0.0
 10
94.2692924366
 20
107.050574321
 30
0.0
  0
SPLINE
  5
39D
100
AcDbEntity
  8
_1
100
AcDbSpline
 62
7
  6
CONTINUOUS
 70
0
 71
3
 72
9
 73
5
 74
0
 42
0.0000001
 43
0.0000001
 44
0.0000000001
 40
0.0
 40
0.0
 40
0.0
 40
0.0
 40
0.4818833886
 40
1.0
 40
1.0
 40
1.0
 40
1.0
 10
92.6302883559
 20
111.6642868963
 30
0.0
 10
92.7509758679
 20
111.5818503219
 30
0.0
 10
92.9844961866
 20
111.3854738488
 30
0.0
 10
93.1835775011
 20
111.1550629504
 30
0.0
 10
93.2777665592
 20
111.0292742447
 30
0.0
  0
SPLINE
  5
39E
100
AcDbEntity
  8
_1
100
AcDbSpline
 62
7
  6
CONTINUOUS
 70
0
 71
3
 72
9
 73
5
 74
0
 42
0.0000001
 43
0.0000001
 44
0.0000000001
 40
0.0
 40
0.0
 40
0.0
 40
0.0
 40
0.2627255383
 40
1.0
 40
1.0
 40
1.0
 40
1.0
 10
93.8340811388
 20
109.889949779
 30
0.0
 10
93.8473780296
 20
109.8390731304
 30
0.0
 10
93.8925917722
 20
109.644123985
 30
0.0
 10
93.915737574
 20
109.4435191412
 30
0.0
 10
93.915737574
 20
109.2959507411
 30
0.0
  0
SPLINE
  5
39F
100
AcDbEntity
  8
_1
100
AcDbSpline
 62
7
  6
CONTINUOUS
 70
0
 71
3
 72
12
 73
8
 74
0
 42
0.0000001
 43
0.0000001
 44
0.0000000001
 40
0.0
 40
0.0
 40
0.0
 40
0.0
 40
0.2885527725
 40
0.5472919965
 40
0.7806866176
 40
0.8913271377
 40
1.0
 40
1.0
 40
1.0
 40
1.0
 10
101.5541754798
 20
73.8569484382
 30
0.0
 10
101.5519273547
 20
73.7095262663
 30
0.0
 10
101.5253468355
 20
73.4292731348
 30
0.0
 10
101.4065437929
 20
73.045036273
 30
0.0
 10
101.2401841093
 20
72.7801699686
 30
0.0
 10
101.0737815942
 20
72.6182255805
 30
0.0
 10
100.9812413811
 20
72.5539344066
 30
0.0
 10
100.9331522473
 20
72.5261719663
 30
0.0
  0
SPLINE
  5
3A0
100
AcDbEntity
  8
_1
100
AcDbSpline
 62
7
  6
CONTINUOUS
 70
0
 71
3
 72
15
 73
11
 74
0
 42
0.0000001
 43
0.0000001
 44
0.0000000001
 40
0.0
 40
0.0
 40
0.0
 40
0.0
 40
0.1139344176
 40
0.2368222307
 40
0.3661451487
 40
0.4989169389
 40
0.6318389705
 40
0.7616009426
 40
0.8851816562
 40
1.0
 40
1.0
 40
1.0
 40
1.0
 10
99.4331693931
 20
105.3348234005
 30
0.0
 10
99.5767025729
 20
105.2519563552
 30
0.0
 10
99.8603094275
 20
105.0535499242
 30
0.0
 10
100.2510998161
 20
104.6896466135
 30
0.0
 10
100.6118693358
 20
104.2595730682
 30
0.0
 10
100.9294057042
 20
103.7792314602
 30
0.0
 10
101.1920626605
 20
103.2661031221
 30
0.0
 10
101.3903235944
 20
102.7389481174
 30
0.0
 10
101.5167938536
 20
102.2171564362
 30
0.0
 10
101.5516728084
 20
101.8705341849
 30
0.0
 10
101.5541754798
 20
101.7035302128
 30
0.0
  0
SPLINE
  5
3A1
100
AcDbEntity
  8
_1
100
AcDbSpline
 62
7
  6
CONTINUOUS
 70
0
 71
3
 72
11
 73
7
 74
0
 42
0.0000001
 43
0.0000001
 44
0.0000000001
 40
0.0
 40
0.0
 40
0.0
 40
0.0
 40
0.2383285595
 40
0.5010926793
 40
0.7632637416
 40
1.0
 40
1.0
 40
1.0
 40
1.0
 10
95.0965741321
 20
108.2396274436
 30
0.0
 10
95.0974381576
 20
108.1819707797
 30
0.0
 10
95.1201889158
 20
108.0609594104
 30
0.0
 10
95.1963142029
 20
107.8912394608
 30
0.0
 10
95.3064769838
 20
107.7418396213
 30
0.0
 10
95.400470764
 20
107.663050368
 30
0.0
 10
95.4500751466
 20
107.6344119123
 30
0.0
  0
SPLINE
  5
3A2
100
AcDbEntity
  8
_1
100
AcDbSpline
 62
7
  6
CONTINUOUS
 70
0
 71
3
 72
14
 73
10
 74
0
 42
0.0000001
 43
0.0000001
 44
0.0000000001
 40
0.0
 40
0.0
 40
0.0
 40
0.0
 40
0.116769272
 40
0.2412534664
 40
0.5031171941
 40
0.635066044
 40
0.7635854595
 40
0.8860023407
 40
1.0
 40
1.0
 40
1.0
 40
1.0
 10
93.7601972524
 20
112.2794013171
 30
0.0
 10
93.8506809604
 20
112.2195259601
 30
0.0
 10
94.0283212978
 20
112.081350076
 30
0.0
 10
94.3584099991
 20
111.7491446388
 30
0.0
 10
94.637287092
 20
111.3508311272
 30
0.0
 10
94.8507783959
 20
110.9142863863
 30
0.0
 10
94.9716450241
 20
110.5787882844
 30
0.0
 10
95.0485725116
 20
110.2477405275
 30
0.0
 10
95.0697715925
 20
110.0281685301
 30
0.0
 10
95.0713587769
 20
109.922255263
 30
0.0
  0
SPLINE
  5
3A3
100
AcDbEntity
  8
_1
100
AcDbSpline
 62
7
  6
CONTINUOUS
 70
0
 71
3
 72
12
 73
8
 74
0
 42
0.0000001
 43
0.0000001
 44
0.0000000001
 40
0.0
 40
0.0
 40
0.0
 40
0.0
 40
0.108637177
 40
0.2192953498
 40
0.4527892199
 40
0.7115657981
 40
1.0
 40
1.0
 40
1.0
 40
1.0
 10
99.8780483328
 20
71.9170346548
 30
0.0
 10
99.9257437072
 20
71.9449790157
 30
0.0
 10
100.0174976894
 20
72.009549811
 30
0.0
 10
100.1824158796
 20
72.1716736708
 30
0.0
 10
100.3472026272
 20
72.4360067576
 30
0.0
 10
100.4649145205
 20
72.8187954781
 30
0.0
 10
100.4912818616
 20
73.0978330177
 30
0.0
 10
100.493519724
 20
73.2445822074
 30
0.0
  0
SPLINE
  5
3A4
100
AcDbEntity
  8
_1
100
AcDbSpline
 62
7
  6
CONTINUOUS
 70
0
 71
3
 72
9
 73
5
 74
0
 42
0.0000001
 43
0.0000001
 44
0.0000000001
 40
0.0
 40
0.0
 40
0.0
 40
0.0
 40
0.2399393285
 40
1.0
 40
1.0
 40
1.0
 40
1.0
 10
94.3894193907
 20
107.0220456815
 30
0.0
 10
94.382517014
 20
107.0260306804
 30
0.0
 10
94.3541800979
 20
107.0433805342
 30
0.0
 10
94.3275440529
 20
107.0634497113
 30
0.0
 10
94.3082977787
 20
107.0797898339
 30
0.0
  0
SPLINE
  5
3A5
100
AcDbEntity
  8
_1
100
AcDbSpline
 62
7
  6
CONTINUOUS
 70
0
 71
3
 72
11
 73
7
 74
0
 42
0.0000001
 43
0.0000001
 44
0.0000000001
 40
0.0
 40
0.0
 40
0.0
 40
0.0
 40
0.24953255
 40
0.5115454862
 40
0.7674488896
 40
1.0
 40
1.0
 40
1.0
 40
1.0
 10
94.3082977787
 20
107.0797898339
 30
0.0
 10
94.2685444303
 20
107.1135405007
 30
0.0
 10
94.1952658407
 20
107.1926698227
 30
0.0
 10
94.1101910754
 20
107.3296613993
 30
0.0
 10
94.053169049
 20
107.4767124303
 30
0.0
 10
94.0366465901
 20
107.5786672976
 30
0.0
 10
94.0359183763
 20
107.6272612128
 30
0.0
  0
SPLINE
  5
3A6
100
AcDbEntity
  8
_1
100
AcDbSpline
 62
7
  6
CONTINUOUS
 70
0
 71
3
 72
15
 73
11
 74
0
 42
0.0000001
 43
0.0000001
 44
0.0000000001
 40
0.0
 40
0.0
 40
0.0
 40
0.0
 40
0.1148183438
 40
0.2383990574
 40
0.3681610295
 40
0.5010830611
 40
0.6338548513
 40
0.7631777693
 40
0.8860655824
 40
1.0
 40
1.0
 40
1.0
 40
1.0
 10
100.493519724
 20
101.091163982
 30
0.0
 10
100.4910170526
 20
101.2581679541
 30
0.0
 10
100.4561380978
 20
101.6047902054
 30
0.0
 10
100.3296678386
 20
102.1265818866
 30
0.0
 10
100.1314069047
 20
102.6537368913
 30
0.0
 10
99.8687499483
 20
103.1668652293
 30
0.0
 10
99.55121358
 20
103.6472068373
 30
0.0
 10
99.1904440603
 20
104.0772803826
 30
0.0
 10
98.7996536717
 20
104.4411836934
 30
0.0
 10
98.5160468171
 20
104.6395901244
 30
0.0
 10
98.3725136372
 20
104.7224571697
 30
0.0
  0
SPLINE
  5
3A7
100
AcDbEntity
  8
_1
100
AcDbSpline
 62
7
  6
CONTINUOUS
 70
0
 71
3
 72
9
 73
5
 74
0
 42
0.0000001
 43
0.0000001
 44
0.0000000001
 40
0.0
 40
0.0
 40
0.0
 40
0.0
 40
0.4788955121
 40
1.0
 40
1.0
 40
1.0
 40
1.0
 10
94.0107030211
 20
109.3098890322
 30
0.0
 10
94.0085787451
 20
109.4516425702
 30
0.0
 10
93.9720975086
 20
109.7474369444
 30
0.0
 10
93.8874118195
 20
110.0323940485
 30
0.0
 10
93.8330553498
 20
110.1767650594
 30
0.0
  0
SPLINE
  5
3A8
100
AcDbEntity
  8
_1
100
AcDbSpline
 62
7
  6
CONTINUOUS
 70
0
 71
3
 72
9
 73
5
 74
0
 42
0.0000001
 43
0.0000001
 44
0.0000000001
 40
0.0
 40
0.0
 40
0.0
 40
0.0
 40
0.2502214126
 40
1.0
 40
1.0
 40
1.0
 40
1.0
 10
93.7549812946
 20
110.3659464737
 30
0.0
 10
93.7266120762
 20
110.4290971006
 30
0.0
 10
93.605462467
 20
110.6779009622
 30
0.0
 10
93.4544752144
 20
110.9122623216
 30
0.0
 10
93.3263168785
 20
111.0753851127
 30
0.0
  0
SPLINE
  5
3A9
100
AcDbEntity
  8
_1
100
AcDbSpline
 62
7
  6
CONTINUOUS
 70
0
 71
3
 72
9
 73
5
 74
0
 42
0.0000001
 43
0.0000001
 44
0.0000000001
 40
0.0
 40
0.0
 40
0.0
 40
0.0
 40
0.5214668524
 40
1.0
 40
1.0
 40
1.0
 40
1.0
 10
93.3263168785
 20
111.0753851127
 30
0.0
 10
93.2246144812
 20
111.2048341944
 30
0.0
 10
93.0107068655
 20
111.438958024
 30
0.0
 10
92.7588691056
 20
111.6331868029
 30
0.0
 10
92.6295780952
 20
111.711324396
 30
0.0
  0
SPLINE
  5
3AA
100
AcDbEntity
  8
_1
100
AcDbSpline
 62
7
  6
CONTINUOUS
 70
0
 71
3
 72
11
 73
7
 74
0
 42
0.0000001
 43
0.0000001
 44
0.0000000001
 40
0.0
 40
0.0
 40
0.0
 40
0.0
 40
0.2810607377
 40
0.5402298267
 40
0.7785309663
 40
1.0
 40
1.0
 40
1.0
 40
1.0
 10
100.2106781891
 20
73.0812845458
 30
0.0
 10
100.2089472594
 20
72.9677777767
 30
0.0
 10
100.1921543431
 20
72.7494314458
 30
0.0
 10
100.1214601861
 20
72.4416331665
 30
0.0
 10
100.0069550111
 20
72.1729444416
 30
0.0
 10
99.8990559582
 20
72.0195293552
 30
0.0
 10
99.8390817226
 20
71.9531624348
 30
0.0
  0
SPLINE
  5
3AB
100
AcDbEntity
  8
_1
100
AcDbSpline
 62
7
  6
CONTINUOUS
 70
0
 71
3
 72
15
 73
11
 74
0
 42
0.0000001
 43
0.0000001
 44
0.0000000001
 40
0.0
 40
0.0
 40
0.0
 40
0.0
 40
0.1139344176
 40
0.2368222307
 40
0.3661451487
 40
0.4989169389
 40
0.6318389705
 40
0.7616009426
 40
0.8851816562
 40
1.0
 40
1.0
 40
1.0
 40
1.0
 10
98.0896721024
 20
104.5591595082
 30
0.0
 10
98.2332052822
 20
104.4762924628
 30
0.0
 10
98.5168121368
 20
104.2778860319
 30
0.0
 10
98.9076025254
 20
103.9139827211
 30
0.0
 10
99.2683720451
 20
103.4839091758
 30
0.0
 10
99.5859084134
 20
103.0035675678
 30
0.0
 10
99.8485653698
 20
102.4904392298
 30
0.0
 10
100.0468263037
 20
101.963284225
 30
0.0
 10
100.1732965629
 20
101.4414925439
 30
0.0
 10
100.2081755177
 20
101.0948702926
 30
0.0
 10
100.2106781891
 20
100.9278663205
 30
0.0
  0
SPLINE
  5
3AC
100
AcDbEntity
  8
_1
100
AcDbSpline
 62
7
  6
CONTINUOUS
 70
0
 71
3
 72
9
 73
5
 74
0
 42
0.0000001
 43
0.0000001
 44
0.0000000001
 40
0.0
 40
0.0
 40
0.0
 40
0.0
 40
0.265606966
 40
1.0
 40
1.0
 40
1.0
 40
1.0
 10
93.8890743692
 20
107.0296833077
 30
0.0
 10
93.9013634029
 20
107.0152743871
 30
0.0
 10
93.9495391396
 20
106.9627567829
 30
0.0
 10
94.0056972645
 20
106.9169901389
 30
0.0
 10
94.0510444074
 20
106.890809546
 30
0.0
  0
SPLINE
  5
3AD
100
AcDbEntity
  8
_1
100
AcDbSpline
 62
7
  6
CONTINUOUS
 70
0
 71
3
 72
11
 73
7
 74
0
 42
0.0000001
 43
0.0000001
 44
0.0000000001
 40
0.0
 40
0.0
 40
0.0
 40
0.0
 40
0.2178007409
 40
0.4509173704
 40
0.7101940772
 40
1.0
 40
1.0
 40
1.0
 40
1.0
 10
94.4239413261
 20
105.6625512325
 30
0.0
 10
94.4239420128
 20
105.5673340419
 30
0.0
 10
94.3885156476
 20
105.3689428026
 30
0.0
 10
94.2383771445
 20
105.0923490699
 30
0.0
 10
94.0003271379
 20
104.8425969766
 30
0.0
 10
93.8014541987
 20
104.7054044519
 30
0.0
 10
93.6917320085
 20
104.6420566476
 30
0.0
  0
SPLINE
  5
3AE
100
AcDbEntity
  8
_1
100
AcDbSpline
 62
7
  6
CONTINUOUS
 70
0
 71
3
 72
11
 73
7
 74
0
 42
0.0000001
 43
0.0000001
 44
0.0000000001
 40
0.0
 40
0.0
 40
0.0
 40
0.0
 40
0.280006048
 40
0.5360362276
 40
0.7732555735
 40
1.0
 40
1.0
 40
1.0
 40
1.0
 10
93.9486952304
 20
106.5089290409
 30
0.0
 10
94.0218423493
 20
106.450583601
 30
0.0
 10
94.1538597989
 20
106.327991153
 30
0.0
 10
94.3072488985
 20
106.1177044463
 30
0.0
 10
94.4020206918
 20
105.8940538687
 30
0.0
 10
94.4239407798
 20
105.7383198964
 30
0.0
 10
94.4239413261
 20
105.6625512325
 30
0.0
  0
SPLINE
  5
3AF
100
AcDbEntity
  8
_1
100
AcDbSpline
 62
7
  6
CONTINUOUS
 70
0
 71
3
 72
11
 73
7
 74
0
 42
0.0000001
 43
0.0000001
 44
0.0000000001
 40
0.0
 40
0.0
 40
0.0
 40
0.0
 40
0.2175551683
 40
0.4676013862
 40
0.7379158269
 40
1.0
 40
1.0
 40
1.0
 40
1.0
 10
93.9239908207
 20
106.0607249066
 30
0.0
 10
93.9255266648
 20
106.0099328426
 30
0.0
 10
93.9550969917
 20
105.9003114124
 30
0.0
 10
94.0712610629
 20
105.7660630147
 30
0.0
 10
94.2374490152
 20
105.6812347179
 30
0.0
 10
94.362622394
 20
105.662551356
 30
0.0
 10
94.4238385007
 20
105.6625512239
 30
0.0
  0
SPLINE
  5
3B0
100
AcDbEntity
  8
_1
100
AcDbSpline
 62
7
  6
CONTINUOUS
 70
0
 71
3
 72
11
 73
7
 74
0
 42
0.0000001
 43
0.0000001
 44
0.0000000001
 40
0.0
 40
0.0
 40
0.0
 40
0.0
 40
0.289713546
 40
0.548862181
 40
0.7819567695
 40
1.0
 40
1.0
 40
1.0
 40
1.0
 10
93.3381580353
 20
105.2473126438
 30
0.0
 10
93.4259276568
 20
105.2975365152
 30
0.0
 10
93.5850411836
 20
105.4064746979
 30
0.0
 10
93.7755565691
 20
105.6053640922
 30
0.0
 10
93.8957026065
 20
105.8261271887
 30
0.0
 10
93.9239913695
 20
105.9846177486
 30
0.0
 10
93.9239908207
 20
106.0607249066
 30
0.0
  0
SPLINE
  5
3B1
100
AcDbEntity
  8
_1
100
AcDbSpline
 62
7
  6
CONTINUOUS
 70
0
 71
3
 72
11
 73
7
 74
0
 42
0.0000001
 43
0.0000001
 44
0.0000000001
 40
0.0
 40
0.0
 40
0.0
 40
0.0
 40
0.2658946186
 40
0.5250724414
 40
0.7713946984
 40
1.0
 40
1.0
 40
1.0
 40
1.0
 10
76.3795742213
 20
95.9315117234
 30
0.0
 10
76.5098311425
 20
95.9315120365
 30
0.0
 10
76.7672848116
 20
95.9462390776
 30
0.0
 10
77.1404785026
 20
96.0110934535
 30
0.0
 10
77.4851459245
 20
96.1170491552
 30
0.0
 10
77.6967994427
 20
96.216328127
 30
0.0
 10
77.793569984
 20
96.2726941192
 30
0.0
  0
SPLINE
  5
3B2
100
AcDbEntity
  8
_1
100
AcDbSpline
 62
7
  6
CONTINUOUS
 70
0
 71
3
 72
11
 73
7
 74
0
 42
0.0000001
 43
0.0000001
 44
0.0000000001
 40
0.0
 40
0.0
 40
0.0
 40
0.0
 40
0.2286056714
 40
0.4749280816
 40
0.734105788
 40
1.0
 40
1.0
 40
1.0
 40
1.0
 10
74.9655735804
 20
96.2726873215
 30
0.0
 10
75.0623448854
 20
96.2163218191
 30
0.0
 10
75.2739997005
 20
96.1170439042
 30
0.0
 10
75.6186686078
 20
96.0110898417
 30
0.0
 10
75.9918632132
 20
95.9462372374
 30
0.0
 10
76.2493172291
 20
95.9315114103
 30
0.0
 10
76.3795742213
 20
95.9315117234
 30
0.0
  0
SPLINE
  5
3B3
100
AcDbEntity
  8
_1
100
AcDbSpline
 62
7
  6
CONTINUOUS
 70
0
 71
3
 72
11
 73
7
 74
0
 42
0.0000001
 43
0.0000001
 44
0.0000000001
 40
0.0
 40
0.0
 40
0.0
 40
0.0
 40
0.2180427404
 40
0.4511373588
 40
0.7102862474
 40
1.0
 40
1.0
 40
1.0
 40
1.0
 10
58.8350115325
 20
106.0606405631
 30
0.0
 10
58.8350120813
 20
105.9845332831
 30
0.0
 10
58.8633032408
 20
105.8260427114
 30
0.0
 10
58.9834524337
 20
105.6052803869
 30
0.0
 10
59.1739705988
 20
105.4063920166
 30
0.0
 10
59.3330857078
 20
105.2974545844
 30
0.0
 10
59.4208560919
 20
105.2472311167
 30
0.0
  0
SPLINE
  5
3B4
100
AcDbEntity
  8
_1
100
AcDbSpline
 62
7
  6
CONTINUOUS
 70
0
 71
3
 72
11
 73
7
 74
0
 42
0.0000001
 43
0.0000001
 44
0.0000000001
 40
0.0
 40
0.0
 40
0.0
 40
0.0
 40
0.2284069329
 40
0.5010924432
 40
0.7731377548
 40
1.0
 40
1.0
 40
1.0
 40
1.0
 10
93.3381580167
 20
105.2473143027
 30
0.0
 10
93.3389860926
 20
105.1920565608
 30
0.0
 10
93.3609272247
 20
105.071041953
 30
0.0
 10
93.4374253752
 20
104.8986645103
 30
0.0
 10
93.5497237844
 20
104.7476173524
 30
0.0
 10
93.6441225858
 20
104.6695436392
 30
0.0
 10
93.6916590312
 20
104.6420987717
 30
0.0
  0
SPLINE
  5
3B5
100
AcDbEntity
  8
_1
100
AcDbSpline
 62
7
  6
CONTINUOUS
 70
0
 71
3
 72
11
 73
7
 74
0
 42
0.0000001
 43
0.0000001
 44
0.0000000001
 40
0.0
 40
0.0
 40
0.0
 40
0.0
 40
0.2267436625
 40
0.4639624205
 40
0.7199927974
 40
1.0
 40
1.0
 40
1.0
 40
1.0
 10
58.335061027
 20
105.6624644855
 30
0.0
 10
58.3350604806
 20
105.7382358046
 30
0.0
 10
58.3569799079
 20
105.8939756766
 30
0.0
 10
58.451755412
 20
106.1176345829
 30
0.0
 10
58.6051524425
 20
106.327928335
 30
0.0
 10
58.7371769209
 20
106.4505241108
 30
0.0
 10
58.8103279953
 20
106.5088709743
 30
0.0
  0
SPLINE
  5
3B6
100
AcDbEntity
  8
_1
100
AcDbSpline
 62
7
  6
CONTINUOUS
 70
0
 71
3
 72
11
 73
7
 74
0
 42
0.0000001
 43
0.0000001
 44
0.0000000001
 40
0.0
 40
0.0
 40
0.0
 40
0.0
 40
0.2898061259
 40
0.5490830837
 40
0.782199744
 40
1.0
 40
1.0
 40
1.0
 40
1.0
 10
59.0672850629
 20
104.6419734207
 30
0.0
 10
58.9575619193
 20
104.7053207205
 30
0.0
 10
58.7586870017
 20
104.8425123073
 30
0.0
 10
58.5206335202
 20
105.0922631221
 30
0.0
 10
58.370491075
 20
105.3688558911
 30
0.0
 10
58.3350617136
 20
105.5672471426
 30
0.0
 10
58.335061027
 20
105.6624644855
 30
0.0
  0
SPLINE
  5
3B7
100
AcDbEntity
  8
_1
100
AcDbSpline
 62
7
  6
CONTINUOUS
 70
0
 71
3
 72
11
 73
7
 74
0
 42
0.0000001
 43
0.0000001
 44
0.0000000001
 40
0.0
 40
0.0
 40
0.0
 40
0.0
 40
0.2175550825
 40
0.4676014985
 40
0.7379160499
 40
1.0
 40
1.0
 40
1.0
 40
1.0
 10
58.8350115325
 20
106.0606405631
 30
0.0
 10
58.8334756867
 20
106.0098484392
 30
0.0
 10
58.8039053031
 20
105.9002268343
 30
0.0
 10
58.6877413164
 20
105.7659779993
 30
0.0
 10
58.5215534561
 20
105.6811489063
 30
0.0
 10
58.3963800032
 20
105.6624649038
 30
0.0
 10
58.3351638524
 20
105.6624644774
 30
0.0
  0
SPLINE
  5
3B8
100
AcDbEntity
  8
_1
100
AcDbSpline
 62
7
  6
CONTINUOUS
 70
0
 71
3
 72
11
 73
7
 74
0
 42
0.0000001
 43
0.0000001
 44
0.0000000001
 40
0.0
 40
0.0
 40
0.0
 40
0.0
 40
0.2268617502
 40
0.4989070257
 40
0.7715928106
 40
1.0
 40
1.0
 40
1.0
 40
1.0
 10
59.0673580396
 20
104.6420155451
 30
0.0
 10
59.1148941559
 20
104.6694606797
 30
0.0
 10
59.2092922273
 20
104.7475349461
 30
0.0
 10
59.3215896319
 20
104.8985826047
 30
0.0
 10
59.3980870908
 20
105.0709603356
 30
0.0
 10
59.4200280411
 20
105.1919750033
 30
0.0
 10
59.4208561105
 20
105.2472327755
 30
0.0
  0
SPLINE
  5
3B9
100
AcDbEntity
  8
_1
100
AcDbSpline
 62
7
  6
CONTINUOUS
 70
0
 71
3
 72
11
 73
7
 74
0
 42
0.0000001
 43
0.0000001
 44
0.0000000001
 40
0.0
 40
0.0
 40
0.0
 40
0.0
 40
0.2284071894
 40
0.5010929743
 40
0.7731382498
 40
1.0
 40
1.0
 40
1.0
 40
1.0
 10
74.9655736114
 20
96.2726889732
 30
0.0
 10
74.964745542
 20
96.217431201
 30
0.0
 10
74.9428045917
 20
96.0964165333
 30
0.0
 10
74.8663071328
 20
95.9240388024
 30
0.0
 10
74.7540097282
 20
95.7729911438
 30
0.0
 10
74.6596116568
 20
95.6949168774
 30
0.0
 10
74.6120755405
 20
95.6674717428
 30
0.0
  0
SPLINE
  5
3BA
100
AcDbEntity
  8
_1
100
AcDbSpline
 62
7
  6
CONTINUOUS
 70
0
 71
3
 72
11
 73
7
 74
0
 42
0.0000001
 43
0.0000001
 44
0.0000000001
 40
0.0
 40
0.0
 40
0.0
 40
0.0
 40
0.2268622452
 40
0.4989075568
 40
0.7715930671
 40
1.0
 40
1.0
 40
1.0
 40
1.0
 10
78.1470709674
 20
95.6674802399
 30
0.0
 10
78.0995345221
 20
95.6949251074
 30
0.0
 10
78.0051357206
 20
95.7729988206
 30
0.0
 10
77.8928373115
 20
95.9240459785
 30
0.0
 10
77.8163391609
 20
96.0964234212
 30
0.0
 10
77.7943980289
 20
96.217438029
 30
0.0
 10
77.793569953
 20
96.2726957709
 30
0.0
  0
SPLINE
  5
3BB
100
AcDbEntity
  8
_1
100
AcDbSpline
 62
7
  6
CONTINUOUS
 70
0
 71
3
 72
11
 73
7
 74
0
 42
0.0000001
 43
0.0000001
 44
0.0000000001
 40
0.0
 40
0.0
 40
0.0
 40
0.0
 40
0.2660566513
 40
0.5253315772
 40
0.7716205437
 40
1.0
 40
1.0
 40
1.0
 40
1.0
 10
76.3795763028
 20
95.2446944151
 30
0.0
 10
76.2167530787
 20
95.2446940237
 30
0.0
 10
75.8949741547
 20
95.2629354053
 30
0.0
 10
75.4285197823
 20
95.3432707886
 30
0.0
 10
74.9977237549
 20
95.4745167647
 30
0.0
 10
74.7330435438
 20
95.5975482081
 30
0.0
 10
74.6120025638
 20
95.6674296184
 30
0.0
  0
SPLINE
  5
3BC
100
AcDbEntity
  8
_1
100
AcDbSpline
 62
7
  6
CONTINUOUS
 70
0
 71
3
 72
11
 73
7
 74
0
 42
0.0000001
 43
0.0000001
 44
0.0000000001
 40
0.0
 40
0.0
 40
0.0
 40
0.0
 40
0.2283790833
 40
0.4746678958
 40
0.7339429392
 40
1.0
 40
1.0
 40
1.0
 40
1.0
 10
78.1471439447
 20
95.6674381158
 30
0.0
 10
78.0261039187
 20
95.5975560925
 30
0.0
 10
77.7614253275
 20
95.4745233277
 30
0.0
 10
77.3306311568
 20
95.3432753031
 30
0.0
 10
76.8641779275
 20
95.2629377055
 30
0.0
 10
76.5423994377
 20
95.2446948065
 30
0.0
 10
76.3795763028
 20
95.2446944151
 30
0.0
  0
SPLINE
  5
3BD
100
AcDbEntity
  8
_1
100
AcDbSpline
 62
7
  6
CONTINUOUS
 70
0
 71
3
 72
11
 73
7
 74
0
 42
0.0000001
 43
0.0000001
 44
0.0000000001
 40
0.0
 40
0.0
 40
0.0
 40
0.0
 40
0.2849941403
 40
0.5427219816
 40
0.7777955253
 40
1.0
 40
1.0
 40
1.0
 40
1.0
 10
60.6679001143
 20
109.3100568439
 30
0.0
 10
60.5861463954
 20
109.36537348
 30
0.0
 10
60.4382298079
 20
109.4832683915
 30
0.0
 10
60.2637889817
 20
109.6914322536
 30
0.0
 10
60.1547029632
 20
109.9169884284
 30
0.0
 10
60.1295085112
 20
110.0762754457
 30
0.0
 10
60.1295085248
 20
110.1532374927
 30
0.0
  0
SPLINE
  5
3BE
100
AcDbEntity
  8
_1
100
AcDbSpline
 62
7
  6
CONTINUOUS
 70
0
 71
3
 72
13
 73
9
 74
0
 42
0.0000001
 43
0.0000001
 44
0.0000000001
 40
0.0
 40
0.0
 40
0.0
 40
0.0
 40
0.1162058069
 40
0.2398939618
 40
0.4999994807
 40
0.7601052753
 40
0.8837937756
 40
1.0
 40
1.0
 40
1.0
 40
1.0
 10
77.8400120663
 20
101.0823037211
 30
0.0
 10
77.7355001099
 20
101.0308183247
 30
0.0
 10
77.5117950991
 20
100.9402153777
 30
0.0
 10
77.0268969154
 20
100.8095119596
 30
0.0
 10
76.3795687462
 20
100.745685194
 30
0.0
 10
75.7322399493
 20
100.8095089007
 30
0.0
 10
75.2473400628
 20
100.9402099708
 30
0.0
 10
75.0236337903
 20
101.0308118174
 30
0.0
 10
74.9191211142
 20
101.0822967001
 30
0.0
  0
SPLINE
  5
3BF
100
AcDbEntity
  8
_1
100
AcDbSpline
 62
7
  6
CONTINUOUS
 70
0
 71
3
 72
9
 73
5
 74
0
 42
0.0000001
 43
0.0000001
 44
0.0000000001
 40
0.0
 40
0.0
 40
0.0
 40
0.0
 40
0.2426221852
 40
1.0
 40
1.0
 40
1.0
 40
1.0
 10
86.1927503233
 20
105.3190826009
 30
0.0
 10
86.0813268118
 20
105.2436893605
 30
0.0
 10
85.6162652451
 20
104.9415773721
 30
0.0
 10
85.1294956778
 20
104.673299109
 30
0.0
 10
84.7527627622
 20
104.4877103575
 30
0.0
  0
SPLINE
  5
3C0
100
AcDbEntity
  8
_1
100
AcDbSpline
 62
7
  6
CONTINUOUS
 70
0
 71
3
 72
11
 73
7
 74
0
 42
0.0000001
 43
0.0000001
 44
0.0000000001
 40
0.0
 40
0.0
 40
0.0
 40
0.0
 40
0.2700404487
 40
0.5259223155
 40
0.7666600923
 40
1.0
 40
1.0
 40
1.0
 40
1.0
 10
74.1875234377
 20
106.2751053531
 30
0.0
 10
74.1384663766
 20
106.2252783311
 30
0.0
 10
74.0515907215
 20
106.1192913827
 30
0.0
 10
73.9538433716
 20
105.9453593361
 30
0.0
 10
73.8931261838
 20
105.7650669421
 30
0.0
 10
73.879568949
 20
105.6418943787
 30
0.0
 10
73.8795755008
 20
105.5814738173
 30
0.0
  0
SPLINE
  5
3C1
100
AcDbEntity
  8
_1
100
AcDbSpline
 62
7
  6
CONTINUOUS
 70
0
 71
3
 72
9
 73
5
 74
0
 42
0.0000001
 43
0.0000001
 44
0.0000000001
 40
0.0
 40
0.0
 40
0.0
 40
0.0
 40
0.2703887678
 40
1.0
 40
1.0
 40
1.0
 40
1.0
 10
74.6117998711
 20
103.4993797948
 30
0.0
 10
74.5583076255
 20
103.5302628586
 30
0.0
 10
74.3652495938
 20
103.652015897
 30
0.0
 10
74.1909826206
 20
103.8074612548
 30
0.0
 10
74.0901489952
 20
103.9401709929
 30
0.0
  0
SPLINE
  5
3C2
100
AcDbEntity
  8
_1
100
AcDbSpline
 62
7
  6
CONTINUOUS
 70
0
 71
3
 72
15
 73
11
 74
0
 42
0.0000001
 43
0.0000001
 44
0.0000000001
 40
0.0
 40
0.0
 40
0.0
 40
0.0
 40
0.0989410684
 40
0.2120110088
 40
0.337721363
 40
0.4724296996
 40
0.6112552654
 40
0.7488097569
 40
0.8798585669
 40
1.0
 40
1.0
 40
1.0
 40
1.0
 10
78.6689782955
 20
103.9401819991
 30
0.0
 10
78.5820567412
 20
103.8257797076
 30
0.0
 10
78.3541075828
 20
103.6118368246
 30
0.0
 10
77.9251383336
 20
103.3679495737
 30
0.0
 10
77.4100911496
 20
103.1897183275
 30
0.0
 10
76.8374212426
 20
103.0869405478
 30
0.0
 10
76.2389571997
 20
103.0650060591
 30
0.0
 10
75.6483482306
 20
103.125257919
 30
0.0
 10
75.0991015866
 20
103.2641495988
 30
0.0
 10
74.7628907476
 20
103.4121494101
 30
0.0
 10
74.6117998711
 20
103.4993797948
 30
0.0
  0
SPLINE
  5
3C3
100
AcDbEntity
  8
_1
100
AcDbSpline
 62
7
  6
CONTINUOUS
 70
0
 71
3
 72
11
 73
7
 74
0
 42
0.0000001
 43
0.0000001
 44
0.0000000001
 40
0.0
 40
0.0
 40
0.0
 40
0.0
 40
0.2895971787
 40
0.5491098301
 40
0.7822367324
 40
1.0
 40
1.0
 40
1.0
 40
1.0
 10
62.9995586198
 20
112.6341658345
 30
0.0
 10
62.9556968553
 20
112.6088423841
 30
0.0
 10
62.876107157
 20
112.5539845544
 30
0.0
 10
62.7809377678
 20
112.4540307179
 30
0.0
 10
62.7207112824
 20
112.343402627
 30
0.0
 10
62.7067234561
 20
112.2640092223
 30
0.0
 10
62.706709842
 20
112.2259250002
 30
0.0
  0
SPLINE
  5
3C4
100
AcDbEntity
  8
_1
100
AcDbSpline
 62
7
  6
CONTINUOUS
 70
0
 71
3
 72
20
 73
16
 74
0
 42
0.0000001
 43
0.0000001
 44
0.0000000001
 40
0.0
 40
0.0
 40
0.0
 40
0.0
 40
0.0695693052
 40
0.1413317573
 40
0.2146362726
 40
0.2886563541
 40
0.3625846881
 40
0.4355863937
 40
0.5755806668
 40
0.703341118
 40
0.8155397172
 40
0.865841944
 40
0.9127357219
 40
0.9570620182
 40
1.0
 40
1.0
 40
1.0
 40
1.0
 10
63.5815735784
 20
114.929407512
 30
0.0
 10
63.4855803534
 20
114.9617524841
 30
0.0
 10
63.2863172179
 20
115.0150404018
 30
0.0
 10
62.9782272727
 20
115.0688491382
 30
0.0
 10
62.6607042386
 20
115.102298164
 30
0.0
 10
62.3383667148
 20
115.1115438228
 30
0.0
 10
62.0166855379
 20
115.09631408
 30
0.0
 10
61.6017595549
 20
115.0452687821
 30
0.0
 10
61.1170645006
 20
114.9282056169
 30
0.0
 10
60.6076031775
 20
114.7047912978
 30
0.0
 10
60.2625730603
 20
114.4514219332
 30
0.0
 10
60.0637098665
 20
114.2186419479
 30
0.0
 10
59.9584332314
 20
114.0400771896
 30
0.0
 10
59.8940581398
 20
113.8541998505
 30
0.0
 10
59.8795063048
 20
113.7267095903
 30
0.0
 10
59.8795105284
 20
113.6641899295
 30
0.0
  0
SPLINE
  5
3C5
100
AcDbEntity
  8
_1
100
AcDbSpline
 62
7
  6
CONTINUOUS
 70
0
 71
3
 72
11
 73
7
 74
0
 42
0.0000001
 43
0.0000001
 44
0.0000000001
 40
0.0
 40
0.0
 40
0.0
 40
0.0
 40
0.2848089236
 40
0.5427468396
 40
0.7778437356
 40
1.0
 40
1.0
 40
1.0
 40
1.0
 10
62.9459223699
 20
116.6203237549
 30
0.0
 10
62.909612394
 20
116.5957550916
 30
0.0
 10
62.8439050247
 20
116.5433195099
 30
0.0
 10
62.7663175392
 20
116.4508512448
 30
0.0
 10
62.7178182607
 20
116.3505730095
 30
0.0
 10
62.7066686061
 20
116.2797773338
 30
0.0
 10
62.7066808444
 20
116.245580537
 30
0.0
  0
SPLINE
  5
3C6
100
AcDbEntity
  8
_1
100
AcDbSpline
 62
7
  6
CONTINUOUS
 70
0
 71
3
 72
15
 73
11
 74
0
 42
0.0000001
 43
0.0000001
 44
0.0000000001
 40
0.0
 40
0.0
 40
0.0
 40
0.0
 40
0.1015480673
 40
0.2062671531
 40
0.3168634365
 40
0.4353023856
 40
0.5627316767
 40
0.6995407327
 40
0.845581899
 40
1.0
 40
1.0
 40
1.0
 40
1.0
 10
97.360953361
 20
147.4598836609
 30
0.0
 10
97.5333638914
 20
147.5594110195
 30
0.0
 10
97.9074167204
 20
147.7229246832
 30
0.0
 10
98.5208966776
 20
147.8445355117
 30
0.0
 10
99.1789593448
 20
147.8440288679
 30
0.0
 10
99.8702354957
 20
147.7230348091
 30
0.0
 10
100.5841192066
 20
147.4848233881
 30
0.0
 10
101.3099506082
 20
147.1338316984
 30
0.0
 10
102.0364068325
 20
146.6759024306
 30
0.0
 10
102.5020172188
 20
146.3134799374
 30
0.0
 10
102.7325401005
 20
146.1172656623
 30
0.0
  0
SPLINE
  5
3C7
100
AcDbEntity
  8
_1
100
AcDbSpline
 62
7
  6
CONTINUOUS
 70
0
 71
3
 72
11
 73
7
 74
0
 42
0.0000001
 43
0.0000001
 44
0.0000000001
 40
0.0
 40
0.0
 40
0.0
 40
0.0
 40
0.2897459695
 40
0.5490812187
 40
0.7822207561
 40
1.0
 40
1.0
 40
1.0
 40
1.0
 10
60.6117415837
 20
111.5821343594
 30
0.0
 10
60.5020273428
 20
111.645476473
 30
0.0
 10
60.3029934074
 20
111.7825302781
 30
0.0
 10
60.0651566619
 20
112.0325316611
 30
0.0
 10
59.9147127182
 20
112.3090472449
 30
0.0
 10
59.8795014534
 20
112.5075245137
 30
0.0
 10
59.8795196216
 20
112.6027446917
 30
0.0
  0
SPLINE
  5
3C8
100
AcDbEntity
  8
_1
100
AcDbSpline
 62
7
  6
CONTINUOUS
 70
0
 71
3
 72
9
 73
5
 74
0
 42
0.0000001
 43
0.0000001
 44
0.0000000001
 40
0.0
 40
0.0
 40
0.0
 40
0.0
 40
0.2634743292
 40
1.0
 40
1.0
 40
1.0
 40
1.0
 10
61.3752295926
 20
111.2809670618
 30
0.0
 10
61.3052361298
 20
111.2986932994
 30
0.0
 10
61.0417528867
 20
111.3738243539
 30
0.0
 10
60.78654069
 20
111.4812163314
 30
0.0
 10
60.6117415837
 20
111.5821343594
 30
0.0
  0
SPLINE
  5
3C9
100
AcDbEntity
  8
_1
100
AcDbSpline
 62
7
  6
CONTINUOUS
 70
0
 71
3
 72
11
 73
7
 74
0
 42
0.0000001
 43
0.0000001
 44
0.0000000001
 40
0.0
 40
0.0
 40
0.0
 40
0.0
 40
0.286647043
 40
0.5463666753
 40
0.7817001035
 40
1.0
 40
1.0
 40
1.0
 40
1.0
 10
84.5103020948
 20
111.90943052
 30
0.0
 10
84.3918239971
 20
111.8410275667
 30
0.0
 10
84.1747915945
 20
111.6940485372
 30
0.0
 10
83.9070098172
 20
111.4307220106
 30
0.0
 10
83.721351475
 20
111.1414364566
 30
0.0
 10
83.6567165533
 20
110.9310333208
 30
0.0
 10
83.6419263733
 20
110.8279016199
 30
0.0
  0
SPLINE
  5
3CA
100
AcDbEntity
  8
_1
100
AcDbSpline
 62
7
  6
CONTINUOUS
 70
0
 71
3
 72
15
 73
11
 74
0
 42
0.0000001
 43
0.0000001
 44
0.0000000001
 40
0.0
 40
0.0
 40
0.0
 40
0.0
 40
0.1141469224
 40
0.2373360366
 40
0.366976904
 40
0.5000005214
 40
0.6330240662
 40
0.7626647219
 40
0.8858535023
 40
1.0
 40
1.0
 40
1.0
 40
1.0
 10
88.7529427819
 20
111.909440718
 30
0.0
 10
88.6077312121
 20
111.9932767603
 30
0.0
 10
88.2901587742
 20
112.1411347916
 30
0.0
 10
87.7730506722
 20
112.2983348726
 30
0.0
 10
87.2131734579
 20
112.3950381263
 30
0.0
 10
86.6316188609
 20
112.4277036214
 30
0.0
 10
86.0500647287
 20
112.3950353662
 30
0.0
 10
85.4901888879
 20
112.298329454
 30
0.0
 10
84.9730830121
 20
112.1411269149
 30
0.0
 10
84.6555125197
 20
111.9932672974
 30
0.0
 10
84.5103020948
 20
111.90943052
 30
0.0
  0
SPLINE
  5
3CB
100
AcDbEntity
  8
_1
100
AcDbSpline
 62
7
  6
CONTINUOUS
 70
0
 71
3
 72
19
 73
15
 74
0
 42
0.0000001
 43
0.0000001
 44
0.0000000001
 40
0.0
 40
0.0
 40
0.0
 40
0.0
 40
0.1425223292
 40
0.2872750126
 40
0.4299298532
 40
0.5663304745
 40
0.6310932953
 40
0.6930482255
 40
0.751933547
 40
0.8075950605
 40
0.8600075585
 40
0.9093040229
 40
0.9557982686
 40
1.0
 40
1.0
 40
1.0
 40
1.0
 10
80.4727821766
 20
109.704109096
 30
0.0
 10
79.5890710216
 20
109.5333950044
 30
0.0
 10
77.7831949623
 20
109.3076784042
 30
0.0
 10
75.0617466127
 20
109.3025521759
 30
0.0
 10
72.397980286
 20
109.6246271192
 30
0.0
 10
70.2867197005
 20
110.1635097474
 30
0.0
 10
68.7312288725
 20
110.7519951719
 30
0.0
 10
67.6703933309
 20
111.2537534994
 30
0.0
 10
66.7071848848
 20
111.817820022
 30
0.0
 10
65.8522773245
 20
112.4381696624
 30
0.0
 10
65.1153249986
 20
113.1082876689
 30
0.0
 10
64.5047548382
 20
113.8213032607
 30
0.0
 10
64.0280179031
 20
114.5694825571
 30
0.0
 10
63.7989681748
 20
115.097857936
 30
0.0
 10
63.7108746521
 20
115.362733153
 30
0.0
  0
SPLINE
  5
3CC
100
AcDbEntity
  8
_1
100
AcDbSpline
 62
7
  6
CONTINUOUS
 70
0
 71
3
 72
9
 73
5
 74
0
 42
0.0000001
 43
0.0000001
 44
0.0000000001
 40
0.0
 40
0.0
 40
0.0
 40
0.0
 40
0.5043708692
 40
1.0
 40
1.0
 40
1.0
 40
1.0
 10
63.7108746521
 20
115.362733153
 30
0.0
 10
63.6351201709
 20
115.5905079544
 30
0.0
 10
63.5190369151
 20
116.0543472231
 30
0.0
 10
63.4795196147
 20
116.5310592467
 30
0.0
 10
63.4795059915
 20
116.7669407235
 30
0.0
  0
SPLINE
  5
3CD
100
AcDbEntity
  8
_1
100
AcDbSpline
 62
7
  6
CONTINUOUS
 70
0
 71
3
 72
9
 73
5
 74
0
 42
0.0000001
 43
0.0000001
 44
0.0000000001
 40
0.0
 40
0.0
 40
0.0
 40
0.0
 40
0.4632261644
 40
1.0
 40
1.0
 40
1.0
 40
1.0
 10
96.7651539818
 20
112.8271069522
 30
0.0
 10
96.663382647
 20
112.8288234373
 30
0.0
 10
96.4430592754
 20
112.8025821284
 30
0.0
 10
96.2327649983
 20
112.7352929175
 30
0.0
 10
96.1233265284
 20
112.6913085361
 30
0.0
  0
SPLINE
  5
3CE
100
AcDbEntity
  8
_1
100
AcDbSpline
 62
7
  6
CONTINUOUS
 70
0
 71
3
 72
14
 73
10
 74
0
 42
0.0000001
 43
0.0000001
 44
0.0000000001
 40
0.0
 40
0.0
 40
0.0
 40
0.0
 40
0.2892808737
 40
0.4225466678
 40
0.5484941357
 40
0.6678930747
 40
0.7818686332
 40
0.891953058
 40
1.0
 40
1.0
 40
1.0
 40
1.0
 10
113.9975371871
 20
123.9521193504
 30
0.0
 10
113.9975371871
 20
123.521276604
 30
0.0
 10
113.9472386364
 20
122.8888597228
 30
0.0
 10
113.7528155972
 20
122.0939913653
 30
0.0
 10
113.5549968068
 20
121.5643382076
 30
0.0
 10
113.3029143077
 20
121.0903502191
 30
0.0
 10
112.9984076253
 20
120.676820164
 30
0.0
 10
112.6443962885
 20
120.3283632561
 30
0.0
 10
112.3764309656
 20
120.1414265418
 30
0.0
 10
112.2370694642
 20
120.0609666157
 30
0.0
  0
SPLINE
  5
3CF
100
AcDbEntity
  8
_1
100
AcDbSpline
 62
7
  6
CONTINUOUS
 70
0
 71
3
 72
14
 73
10
 74
0
 42
0.0000001
 43
0.0000001
 44
0.0000000001
 40
0.0
 40
0.0
 40
0.0
 40
0.0
 40
0.2604616053
 40
0.3918161833
 40
0.5218129358
 40
0.6489330518
 40
0.7717694435
 40
0.889145057
 40
1.0
 40
1.0
 40
1.0
 40
1.0
 10
110.7021541632
 20
132.700742393
 30
0.0
 10
111.2063155956
 20
132.0892563223
 30
0.0
 10
111.8910099432
 20
131.1054053283
 30
0.0
 10
112.6444340666
 20
129.7067034611
 30
0.0
 10
113.1234344387
 20
128.624618025
 30
0.0
 10
113.5058351424
 20
127.5322537674
 30
0.0
 10
113.7851647091
 20
126.4484899688
 30
0.0
 10
113.9562612561
 20
125.3925300691
 30
0.0
 10
113.9975371871
 20
124.6976762435
 30
0.0
 10
113.9975371871
 20
124.360370559
 30
0.0
  0
SPLINE
  5
3D0
100
AcDbEntity
  8
_1
100
AcDbSpline
 62
7
  6
CONTINUOUS
 70
0
 71
3
 72
9
 73
5
 74
0
 42
0.0000001
 43
0.0000001
 44
0.0000000001
 40
0.0
 40
0.0
 40
0.0
 40
0.0
 40
0.2437103893
 40
1.0
 40
1.0
 40
1.0
 40
1.0
 10
107.3507057707
 20
135.8729563725
 30
0.0
 10
107.5236149863
 20
135.7731294487
 30
0.0
 10
108.2265711082
 20
135.3522578844
 30
0.0
 10
108.9033962353
 20
134.888149098
 30
0.0
 10
109.3999097542
 20
134.5175323124
 30
0.0
  0
SPLINE
  5
3D1
100
AcDbEntity
  8
_1
100
AcDbSpline
 62
7
  6
CONTINUOUS
 70
0
 71
3
 72
9
 73
5
 74
0
 42
0.0000001
 43
0.0000001
 44
0.0000000001
 40
0.0
 40
0.0
 40
0.0
 40
0.0
 40
0.2427859645
 40
1.0
 40
1.0
 40
1.0
 40
1.0
 10
105.3015017872
 20
136.8836957256
 30
0.0
 10
105.4727760372
 20
136.8137754181
 30
0.0
 10
106.1728561699
 20
136.5126976525
 30
0.0
 10
106.8510260068
 20
136.1614400923
 30
0.0
 10
107.3507057707
 20
135.8729563725
 30
0.0
  0
SPLINE
  5
3D2
100
AcDbEntity
  8
_1
100
AcDbSpline
 62
7
  6
CONTINUOUS
 70
0
 71
3
 72
9
 73
5
 74
0
 42
0.0000001
 43
0.0000001
 44
0.0000000001
 40
0.0
 40
0.0
 40
0.0
 40
0.0
 40
0.508813072
 40
1.0
 40
1.0
 40
1.0
 40
1.0
 10
103.9992573782
 20
136.5705741089
 30
0.0
 10
104.2270090337
 20
136.5838299635
 30
0.0
 10
104.6735476705
 20
136.6471378147
 30
0.0
 10
105.1010100092
 20
136.7925580287
 30
0.0
 10
105.3015017872
 20
136.8836957256
 30
0.0
  0
SPLINE
  5
3D3
100
AcDbEntity
  8
_1
100
AcDbSpline
 62
7
  6
CONTINUOUS
 70
0
 71
3
 72
9
 73
5
 74
0
 42
0.0000001
 43
0.0000001
 44
0.0000000001
 40
0.0
 40
0.0
 40
0.0
 40
0.0
 40
0.2625974044
 40
1.0
 40
1.0
 40
1.0
 40
1.0
 10
101.5587992075
 20
135.7056893441
 30
0.0
 10
101.5722343058
 20
135.700140715
 30
0.0
 10
101.6239861492
 20
135.6805204638
 30
0.0
 10
101.6782679301
 20
135.6671550607
 30
0.0
 10
101.7187856127
 20
135.6622118775
 30
0.0
  0
SPLINE
  5
3D4
100
AcDbEntity
  8
_1
100
AcDbSpline
 62
7
  6
CONTINUOUS
 70
0
 71
3
 72
9
 73
5
 74
0
 42
0.0000001
 43
0.0000001
 44
0.0000000001
 40
0.0
 40
0.0
 40
0.0
 40
0.0
 40
0.2570956023
 40
1.0
 40
1.0
 40
1.0
 40
1.0
 10
100.5624524093
 20
136.1994569805
 30
0.0
 10
100.645014243
 20
136.1517909619
 30
0.0
 10
100.9689253511
 20
135.9712793591
 30
0.0
 10
101.3041825731
 20
135.8108447531
 30
0.0
 10
101.5587992075
 20
135.7056893441
 30
0.0
  0
SPLINE
  5
3D5
100
AcDbEntity
  8
_1
100
AcDbSpline
 62
7
  6
CONTINUOUS
 70
0
 71
3
 72
9
 73
5
 74
0
 42
0.0000001
 43
0.0000001
 44
0.0000000001
 40
0.0
 40
0.0
 40
0.0
 40
0.0
 40
0.2561195364
 40
1.0
 40
1.0
 40
1.0
 40
1.0
 10
99.5661056111
 20
136.8561455015
 30
0.0
 10
99.6479560893
 20
136.7954386905
 30
0.0
 10
99.9706711651
 20
136.5626920926
 30
0.0
 10
100.3061262253
 20
136.3474436239
 30
0.0
 10
100.5624524093
 20
136.1994569805
 30
0.0
  0
SPLINE
  5
3D6
100
AcDbEntity
  8
_1
100
AcDbSpline
 62
7
  6
CONTINUOUS
 70
0
 71
3
 72
9
 73
5
 74
0
 42
0.0000001
 43
0.0000001
 44
0.0000000001
 40
0.0
 40
0.0
 40
0.0
 40
0.0
 40
0.5165446842
 40
1.0
 40
1.0
 40
1.0
 40
1.0
 10
99.1048705556
 20
137.4335571435
 30
0.0
 10
99.1603613513
 20
137.3180629215
 30
0.0
 10
99.2927937895
 20
137.1058291197
 30
0.0
 10
99.4697821115
 20
136.9275866539
 30
0.0
 10
99.5661056111
 20
136.8561455015
 30
0.0
  0
SPLINE
  5
3D7
100
AcDbEntity
  8
_1
100
AcDbSpline
 62
7
  6
CONTINUOUS
 70
0
 71
3
 72
9
 73
5
 74
0
 42
0.0000001
 43
0.0000001
 44
0.0000000001
 40
0.0
 40
0.0
 40
0.0
 40
0.0
 40
0.4973912536
 40
1.0
 40
1.0
 40
1.0
 40
1.0
 10
97.1256474404
 20
140.5389648798
 30
0.0
 10
97.5147458969
 20
140.0670361066
 30
0.0
 10
98.2375249297
 20
139.0679341922
 30
0.0
 10
98.8372046708
 20
137.9906560774
 30
0.0
 10
99.1048705556
 20
137.4335571435
 30
0.0
  0
SPLINE
  5
3D8
100
AcDbEntity
  8
_1
100
AcDbSpline
 62
7
  6
CONTINUOUS
 70
0
 71
3
 72
9
 73
5
 74
0
 42
0.0000001
 43
0.0000001
 44
0.0000000001
 40
0.0
 40
0.0
 40
0.0
 40
0.0
 40
0.2437103893
 40
1.0
 40
1.0
 40
1.0
 40
1.0
 10
93.7741990479
 20
143.7111788593
 30
0.0
 10
93.9471082634
 20
143.6113519355
 30
0.0
 10
94.6500643853
 20
143.1904803712
 30
0.0
 10
95.3268895125
 20
142.7263715848
 30
0.0
 10
95.8234030314
 20
142.3557547992
 30
0.0
  0
SPLINE
  5
3D9
100
AcDbEntity
  8
_1
100
AcDbSpline
 62
7
  6
CONTINUOUS
 70
0
 71
3
 72
9
 73
5
 74
0
 42
0.0000001
 43
0.0000001
 44
0.0000000001
 40
0.0
 40
0.0
 40
0.0
 40
0.0
 40
0.2427859645
 40
1.0
 40
1.0
 40
1.0
 40
1.0
 10
91.7249950644
 20
144.7219182124
 30
0.0
 10
91.8962693144
 20
144.6519979049
 30
0.0
 10
92.5963494471
 20
144.3509201393
 30
0.0
 10
93.2745192839
 20
143.9996625791
 30
0.0
 10
93.7741990479
 20
143.7111788593
 30
0.0
  0
SPLINE
  5
3DA
100
AcDbEntity
  8
_1
100
AcDbSpline
 62
7
  6
CONTINUOUS
 70
0
 71
3
 72
9
 73
5
 74
0
 42
0.0000001
 43
0.0000001
 44
0.0000000001
 40
0.0
 40
0.0
 40
0.0
 40
0.0
 40
0.508813072
 40
1.0
 40
1.0
 40
1.0
 40
1.0
 10
90.4227506554
 20
144.4087965957
 30
0.0
 10
90.6505023108
 20
144.4220524503
 30
0.0
 10
91.0970409477
 20
144.4853603015
 30
0.0
 10
91.5245032863
 20
144.6307805155
 30
0.0
 10
91.7249950644
 20
144.7219182124
 30
0.0
  0
SPLINE
  5
3DB
100
AcDbEntity
  8
_1
100
AcDbSpline
 62
7
  6
CONTINUOUS
 70
0
 71
3
 72
11
 73
7
 74
0
 42
0.0000001
 43
0.0000001
 44
0.0000000001
 40
0.0
 40
0.0
 40
0.0
 40
0.0
 40
0.2781437656
 40
0.5387796473
 40
0.7796145308
 40
1.0
 40
1.0
 40
1.0
 40
1.0
 10
82.9467051026
 20
134.0908763834
 30
0.0
 10
83.8106495182
 20
133.8384996381
 30
0.0
 10
85.4608869624
 20
133.263399375
 30
0.0
 10
87.7351932083
 20
132.1564120908
 30
0.0
 10
89.6843568907
 20
130.8551776938
 30
0.0
 10
90.7833621086
 20
129.8314371355
 30
0.0
 10
91.2534025993
 20
129.2951108423
 30
0.0
  0
SPLINE
  5
3DC
100
AcDbEntity
  8
_1
100
AcDbSpline
 62
7
  6
CONTINUOUS
 70
0
 71
3
 72
9
 73
5
 74
0
 42
0.0000001
 43
0.0000001
 44
0.0000000001
 40
0.0
 40
0.0
 40
0.0
 40
0.0
 40
0.4344943362
 40
1.0
 40
1.0
 40
1.0
 40
1.0
 10
82.710192159
 20
134.0896049461
 30
0.0
 10
82.7403889269
 20
134.1070395713
 30
0.0
 10
82.8241494394
 20
134.1193383242
 30
0.0
 10
82.9031434884
 20
134.1036016678
 30
0.0
 10
82.9467051026
 20
134.0908763834
 30
0.0
  0
SPLINE
  5
3DD
100
AcDbEntity
  8
_1
100
AcDbSpline
 62
7
  6
CONTINUOUS
 70
0
 71
3
 72
10
 73
6
 74
0
 42
0.0000001
 43
0.0000001
 44
0.0000000001
 40
0.0
 40
0.0
 40
0.0
 40
0.0
 40
0.2499958567
 40
0.6250017049
 40
1.0
 40
1.0
 40
1.0
 40
1.0
 10
91.4168913211
 20
129.0629035603
 30
0.0
 10
91.4218893264
 20
129.0545159787
 30
0.0
 10
91.4347680962
 20
129.0337754059
 30
0.0
 10
91.4538629556
 20
128.9996946358
 30
0.0
 10
91.4691674618
 20
128.9747145989
 30
0.0
 10
91.4765970423
 20
128.9620930874
 30
0.0
  0
SPLINE
  5
3DE
100
AcDbEntity
  8
_1
100
AcDbSpline
 62
7
  6
CONTINUOUS
 70
0
 71
3
 72
9
 73
5
 74
0
 42
0.0000001
 43
0.0000001
 44
0.0000000001
 40
0.0
 40
0.0
 40
0.0
 40
0.0
 40
0.4538655488
 40
1.0
 40
1.0
 40
1.0
 40
1.0
 10
91.2534025993
 20
129.2951108423
 30
0.0
 10
91.2817475255
 20
129.2627686728
 30
0.0
 10
91.3392892915
 20
129.1872297189
 30
0.0
 10
91.3904019251
 20
129.1073576888
 30
0.0
 10
91.4168913211
 20
129.0629035603
 30
0.0
  0
SPLINE
  5
3DF
100
AcDbEntity
  8
_1
100
AcDbSpline
 62
7
  6
CONTINUOUS
 70
0
 71
3
 72
12
 73
8
 74
0
 42
0.0000001
 43
0.0000001
 44
0.0000000001
 40
0.0
 40
0.0
 40
0.0
 40
0.0
 40
0.289572783
 40
0.5486441711
 40
0.781639023
 40
0.8918405879
 40
1.0
 40
1.0
 40
1.0
 40
1.0
 10
81.3292280371
 20
128.3612256637
 30
0.0
 10
81.153655112
 20
128.4625904461
 30
0.0
 10
80.8351788083
 20
128.6819418409
 30
0.0
 10
80.4546757246
 20
129.0815670161
 30
0.0
 10
80.2504045386
 20
129.458167787
 30
0.0
 10
80.1708227928
 20
129.7652848097
 30
0.0
 10
80.1576647294
 20
129.9184787191
 30
0.0
 10
80.157657065
 20
129.9942022807
 30
0.0
  0
SPLINE
  5
3E0
100
AcDbEntity
  8
_1
100
AcDbSpline
 62
7
  6
CONTINUOUS
 70
0
 71
3
 72
11
 73
7
 74
0
 42
0.0000001
 43
0.0000001
 44
0.0000000001
 40
0.0
 40
0.0
 40
0.0
 40
0.0
 40
0.2556052017
 40
0.5051285522
 40
0.7520041632
 40
1.0
 40
1.0
 40
1.0
 40
1.0
 10
64.1461089828
 20
128.1159048301
 30
0.0
 10
64.0558923454
 20
127.9703543449
 30
0.0
 10
63.8920108999
 20
127.6734042886
 30
0.0
 10
63.6990595143
 20
127.2068227486
 30
0.0
 10
63.564108552
 20
126.725512815
 30
0.0
 10
63.513706881
 20
126.3968761241
 30
0.0
 10
63.4982443794
 20
126.2314526214
 30
0.0
  0
SPLINE
  5
3E1
100
AcDbEntity
  8
_1
100
AcDbSpline
 62
7
  6
CONTINUOUS
 70
0
 71
3
 72
13
 73
9
 74
0
 42
0.0000001
 43
0.0000001
 44
0.0000000001
 40
0.0
 40
0.0
 40
0.0
 40
0.0
 40
0.3805249851
 40
0.6815843108
 40
0.7986536672
 40
0.8917626789
 40
0.9591610999
 40
1.0
 40
1.0
 40
1.0
 40
1.0
 10
88.7493230903
 20
143.8033255954
 30
0.0
 10
88.7634004427
 20
143.8114531101
 30
0.0
 10
88.7884545682
 20
143.8262847841
 30
0.0
 10
88.8172244671
 20
143.844666773
 30
0.0
 10
88.835051505
 20
143.8572643783
 30
0.0
 10
88.8444774776
 20
143.8645113075
 30
0.0
 10
88.8508522293
 20
143.8702109473
 30
0.0
 10
88.8539968779
 20
143.8737537596
 30
0.0
 10
88.8547094274
 20
143.8753461439
 30
0.0
  0
SPLINE
  5
3E2
100
AcDbEntity
  8
_1
100
AcDbSpline
 62
7
  6
CONTINUOUS
 70
0
 71
3
 72
18
 73
14
 74
0
 42
0.0000001
 43
0.0000001
 44
0.0000000001
 40
0.0
 40
0.0
 40
0.0
 40
0.0
 40
0.1282189424
 40
0.269441335
 40
0.4154043106
 40
0.5576862573
 40
0.6892592023
 40
0.7496693599
 40
0.8061025392
 40
0.8586976269
 40
0.907929152
 40
0.9546423539
 40
1.0
 40
1.0
 40
1.0
 40
1.0
 10
90.3801006293
 20
141.7516069207
 30
0.0
 10
90.5290186341
 20
141.6656310155
 30
0.0
 10
90.8638118055
 20
141.5221933755
 30
0.0
 10
91.4082185975
 20
141.3940228505
 30
0.0
 10
91.9854863135
 20
141.3534740604
 30
0.0
 10
92.5485262721
 20
141.4103221713
 30
0.0
 10
92.980896394
 20
141.544378763
 30
0.0
 10
93.2748040625
 20
141.7033022879
 30
0.0
 10
93.4575495506
 20
141.839924259
 30
0.0
 10
93.6047784641
 20
141.9943641997
 30
0.0
 10
93.7129525176
 20
142.1633007873
 30
0.0
 10
93.7793279199
 20
142.342431281
 30
0.0
 10
93.7942945
 20
142.4663855397
 30
0.0
 10
93.7943032803
 20
142.5272147859
 30
0.0
  0
SPLINE
  5
3E3
100
AcDbEntity
  8
_1
100
AcDbSpline
 62
7
  6
CONTINUOUS
 70
0
 71
3
 72
19
 73
15
 74
0
 42
0.0000001
 43
0.0000001
 44
0.0000000001
 40
0.0
 40
0.0
 40
0.0
 40
0.0
 40
0.1286323062
 40
0.2701561634
 40
0.4172442418
 40
0.5615281936
 40
0.6301799815
 40
0.6953202242
 40
0.7563157481
 40
0.8127969106
 40
0.8647389554
 40
0.9125514861
 40
0.9571602108
 40
1.0
 40
1.0
 40
1.0
 40
1.0
 10
86.8092827755
 20
131.5659429771
 30
0.0
 10
86.5316915668
 20
131.7262067105
 30
0.0
 10
85.9031961603
 20
131.9855134492
 30
0.0
 10
84.87882918
 20
132.1904770928
 30
0.0
 10
83.7955721518
 20
132.2204193772
 30
0.0
 10
82.9020845748
 20
132.0950720751
 30
0.0
 10
82.2353011379
 20
131.9029820121
 30
0.0
 10
81.7841795792
 20
131.7212475584
 30
0.0
 10
81.3834264545
 20
131.5032689469
 30
0.0
 10
81.0413974198
 20
131.2533286864
 30
0.0
 10
80.7653576528
 20
130.976153527
 30
0.0
 10
80.5616944224
 20
130.6766030249
 30
0.0
 10
80.4362254365
 20
130.3606109513
 30
0.0
 10
80.4076476587
 20
130.141777893
 30
0.0
 10
80.4076582382
 20
130.0350274007
 30
0.0
  0
SPLINE
  5
3E4
100
AcDbEntity
  8
_1
100
AcDbSpline
 62
7
  6
CONTINUOUS
 70
0
 71
3
 72
18
 73
14
 74
0
 42
0.0000001
 43
0.0000001
 44
0.0000000001
 40
0.0
 40
0.0
 40
0.0
 40
0.0
 40
0.1282189424
 40
0.269441335
 40
0.4154043106
 40
0.5576862573
 40
0.6892592023
 40
0.7496693599
 40
0.8061025392
 40
0.8586976269
 40
0.907929152
 40
0.9546423539
 40
1.0
 40
1.0
 40
1.0
 40
1.0
 10
103.9566073521
 20
133.9133844339
 30
0.0
 10
104.1055253569
 20
133.8274085287
 30
0.0
 10
104.4403185283
 20
133.6839708887
 30
0.0
 10
104.9847253203
 20
133.5558003637
 30
0.0
 10
105.5619930363
 20
133.5152515736
 30
0.0
 10
106.1250329949
 20
133.5720996845
 30
0.0
 10
106.5574031169
 20
133.7061562762
 30
0.0
 10
106.8513107853
 20
133.8650798012
 30
0.0
 10
107.0340562734
 20
134.0017017722
 30
0.0
 10
107.181285187
 20
134.1561417129
 30
0.0
 10
107.2894592404
 20
134.3250783005
 30
0.0
 10
107.3558346427
 20
134.5042087942
 30
0.0
 10
107.3708012228
 20
134.6281630529
 30
0.0
 10
107.3708100031
 20
134.6889922991
 30
0.0
  0
SPLINE
  5
3E5
100
AcDbEntity
  8
_1
100
AcDbSpline
 62
7
  6
CONTINUOUS
 70
0
 71
3
 72
9
 73
5
 74
0
 42
0.0000001
 43
0.0000001
 44
0.0000000001
 40
0.0
 40
0.0
 40
0.0
 40
0.0
 40
0.2404497403
 40
1.0
 40
1.0
 40
1.0
 40
1.0
 10
114.9874272126
 20
139.220540092
 30
0.0
 10
115.1001499274
 20
139.1554610746
 30
0.0
 10
115.5619993345
 20
138.8728271106
 30
0.0
 10
115.9959489891
 20
138.5455428137
 30
0.0
 10
116.3090468234
 20
138.2790431755
 30
0.0
  0
SPLINE
  5
3E6
100
AcDbEntity
  8
_1
100
AcDbSpline
 62
7
  6
CONTINUOUS
 70
0
 71
3
 72
14
 73
10
 74
0
 42
0.0000001
 43
0.0000001
 44
0.0000000001
 40
0.0
 40
0.0
 40
0.0
 40
0.0
 40
0.2902519675
 40
0.4237925056
 40
0.5498306303
 40
0.6691249412
 40
0.7828117332
 40
0.8924642231
 40
1.0
 40
1.0
 40
1.0
 40
1.0
 10
120.7141436468
 20
129.4160484852
 30
0.0
 10
120.7204839877
 20
128.992955732
 30
0.0
 10
120.6802378899
 20
128.3713809499
 30
0.0
 10
120.5000863512
 20
127.5888929286
 30
0.0
 10
120.3128120793
 20
127.0676816452
 30
0.0
 10
120.0713303731
 20
126.6014082613
 30
0.0
 10
119.7774235269
 20
126.1950073662
 30
0.0
 10
119.4340361837
 20
125.8532032535
 30
0.0
 10
119.1731584451
 20
125.6704688782
 30
0.0
 10
119.0373933204
 20
125.5920815551
 30
0.0
  0
SPLINE
  5
3E7
100
AcDbEntity
  8
_1
100
AcDbSpline
 62
7
  6
CONTINUOUS
 70
0
 71
3
 72
15
 73
11
 74
0
 42
0.0000001
 43
0.0000001
 44
0.0000000001
 40
0.0
 40
0.0
 40
0.0
 40
0.0
 40
0.1225892889
 40
0.2502724954
 40
0.3808942873
 40
0.5122010273
 40
0.6418687797
 40
0.7676639753
 40
0.8876013848
 40
1.0
 40
1.0
 40
1.0
 40
1.0
 10
116.3090468234
 20
137.858690212
 30
0.0
 10
116.5996138562
 20
137.6058075148
 30
0.0
 10
117.1631193243
 20
137.0546535418
 30
0.0
 10
117.929844431
 20
136.1332794806
 30
0.0
 10
118.6198705142
 20
135.1197797524
 30
0.0
 10
119.2151716735
 20
134.0408474003
 30
0.0
 10
119.7001640424
 20
132.9244868374
 30
0.0
 10
120.0623580723
 20
131.7996901204
 30
0.0
 10
120.2921282155
 20
130.69587508
 30
0.0
 10
120.3553505973
 20
129.9661518128
 30
0.0
 10
120.3606426323
 20
129.613012808
 30
0.0
  0
SPLINE
  5
3E8
100
AcDbEntity
  8
_1
100
AcDbSpline
 62
7
  6
CONTINUOUS
 70
0
 71
3
 72
14
 73
10
 74
0
 42
0.0000001
 43
0.0000001
 44
0.0000000001
 40
0.0
 40
0.0
 40
0.0
 40
0.0
 40
0.1080472951
 40
0.2181321566
 40
0.3321084401
 40
0.4515068899
 40
0.5774537029
 40
0.7107203653
 40
1.0
 40
1.0
 40
1.0
 40
1.0
 10
110.9374611048
 20
139.6216594715
 30
0.0
 10
111.0702596839
 20
139.6983339868
 30
0.0
 10
111.3522077084
 20
139.8303976733
 30
0.0
 10
111.8084423284
 20
139.9565293278
 30
0.0
 10
112.2947942179
 20
140.0107851961
 30
0.0
 10
112.8060583531
 20
139.9929934984
 30
0.0
 10
113.3374063737
 20
139.9038853811
 30
0.0
 10
114.0860058056
 20
139.6856206707
 30
0.0
 10
114.631874165
 20
139.4258140959
 30
0.0
 10
114.9874272126
 20
139.220540092
 30
0.0
  0
SPLINE
  5
3E9
100
AcDbEntity
  8
_1
100
AcDbSpline
 62
7
  6
CONTINUOUS
 70
0
 71
3
 72
11
 73
7
 74
0
 42
0.0000001
 43
0.0000001
 44
0.0000000001
 40
0.0
 40
0.0
 40
0.0
 40
0.0
 40
0.2100376787
 40
0.4397300909
 40
0.7017842387
 40
1.0
 40
1.0
 40
1.0
 40
1.0
 10
103.3708211584
 20
134.6890053656
 30
0.0
 10
103.3708084773
 20
134.6180060591
 30
0.0
 10
103.3997572867
 20
134.468338848
 30
0.0
 10
103.5212685356
 20
134.2607497986
 30
0.0
 10
103.7115330099
 20
134.0703883042
 30
0.0
 10
103.8693060774
 20
133.9637867081
 30
0.0
 10
103.9566073521
 20
133.9133844339
 30
0.0
  0
SPLINE
  5
3EA
100
AcDbEntity
  8
_1
100
AcDbSpline
 62
7
  6
CONTINUOUS
 70
0
 71
3
 72
20
 73
16
 74
0
 42
0.0000001
 43
0.0000001
 44
0.0000000001
 40
0.0
 40
0.0
 40
0.0
 40
0.0
 40
0.0428310844
 40
0.087431029
 40
0.1352341854
 40
0.1871659788
 40
0.2436355796
 40
0.3046180597
 40
0.3697440618
 40
0.4383807253
 40
0.5826340301
 40
0.7296941375
 40
0.8711921412
 40
0.9375940488
 40
1.0
 40
1.0
 40
1.0
 40
1.0
 10
88.1576297069
 20
129.9942022777
 30
0.0
 10
88.157641232
 20
129.8803354694
 30
0.0
 10
88.1271559571
 20
129.6469137184
 30
0.0
 10
87.9933218501
 20
129.3098556667
 30
0.0
 10
87.7760823714
 20
128.9903326911
 30
0.0
 10
87.4816385139
 20
128.6946802739
 30
0.0
 10
87.1168091055
 20
128.4280797896
 30
0.0
 10
86.6893459847
 20
128.1955709774
 30
0.0
 10
86.2081562834
 20
128.0017229707
 30
0.0
 10
85.4969468672
 20
127.7968269531
 30
0.0
 10
84.5437798926
 20
127.6631383012
 30
0.0
 10
83.3887994494
 20
127.6949801867
 30
0.0
 10
82.4575823619
 20
127.8812840287
 30
0.0
 10
81.7809377324
 20
128.1264316867
 30
0.0
 10
81.4729083202
 20
128.2782736902
 30
0.0
 10
81.3292280371
 20
128.3612256637
 30
0.0
  0
SPLINE
  5
3EB
100
AcDbEntity
  8
_1
100
AcDbSpline
 62
7
  6
CONTINUOUS
 70
0
 71
3
 72
12
 73
8
 74
0
 42
0.0000001
 43
0.0000001
 44
0.0000000001
 40
0.0
 40
0.0
 40
0.0
 40
0.0
 40
0.1081583165
 40
0.2183597755
 40
0.4513539159
 40
0.7104277657
 40
1.0
 40
1.0
 40
1.0
 40
1.0
 10
87.9076285337
 20
130.0350273994
 30
0.0
 10
87.9076214983
 20
130.1060174816
 30
0.0
 10
87.8952891749
 20
130.2496363334
 30
0.0
 10
87.8206760757
 20
130.537555847
 30
0.0
 10
87.6291778598
 20
130.8906223678
 30
0.0
 10
87.2724532086
 20
131.2652701424
 30
0.0
 10
86.9738819934
 20
131.4709137242
 30
0.0
 10
86.8092827755
 20
131.5659429771
 30
0.0
  0
SPLINE
  5
3EC
100
AcDbEntity
  8
_1
100
AcDbSpline
 62
7
  6
CONTINUOUS
 70
0
 71
3
 72
9
 73
5
 74
0
 42
0.0000001
 43
0.0000001
 44
0.0000000001
 40
0.0
 40
0.0
 40
0.0
 40
0.0
 40
0.5155400853
 40
1.0
 40
1.0
 40
1.0
 40
1.0
 10
113.6169518754
 20
126.9593570763
 30
0.0
 10
113.709658982
 20
126.8711051762
 30
0.0
 10
113.9066749855
 20
126.716384375
 30
0.0
 10
114.1364146244
 20
126.61396516
 30
0.0
 10
114.2519749945
 20
126.5806035372
 30
0.0
  0
SPLINE
  5
3ED
100
AcDbEntity
  8
_1
100
AcDbSpline
 62
7
  6
CONTINUOUS
 70
0
 71
3
 72
9
 73
5
 74
0
 42
0.0000001
 43
0.0000001
 44
0.0000000001
 40
0.0
 40
0.0
 40
0.0
 40
0.0
 40
0.4906623627
 40
1.0
 40
1.0
 40
1.0
 40
1.0
 10
102.5678844823
 20
136.1553659654
 30
0.0
 10
102.7804335532
 20
136.2781049267
 30
0.0
 10
103.2464821022
 20
136.4749060121
 30
0.0
 10
103.7449035926
 20
136.5557699277
 30
0.0
 10
103.9992573782
 20
136.5705741089
 30
0.0
  0
SPLINE
  5
3EE
100
AcDbEntity
  8
_1
100
AcDbSpline
 62
7
  6
CONTINUOUS
 70
0
 71
3
 72
11
 73
7
 74
0
 42
0.0000001
 43
0.0000001
 44
0.0000000001
 40
0.0
 40
0.0
 40
0.0
 40
0.0
 40
0.2100376787
 40
0.4397300909
 40
0.7017842387
 40
1.0
 40
1.0
 40
1.0
 40
1.0
 10
89.7943144355
 20
142.5272278524
 30
0.0
 10
89.7943017545
 20
142.4562285459
 30
0.0
 10
89.8232505639
 20
142.3065613348
 30
0.0
 10
89.9447618128
 20
142.0989722853
 30
0.0
 10
90.1350262871
 20
141.908610791
 30
0.0
 10
90.2927993546
 20
141.8020091949
 30
0.0
 10
90.3801006293
 20
141.7516069207
 30
0.0
  0
SPLINE
  5
3EF
100
AcDbEntity
  8
_1
100
AcDbSpline
 62
7
  6
CONTINUOUS
 70
0
 71
3
 72
17
 73
13
 74
0
 42
0.0000001
 43
0.0000001
 44
0.0000000001
 40
0.0
 40
0.0
 40
0.0
 40
0.0
 40
0.010954713
 40
0.0326767397
 40
0.065042772
 40
0.1075540586
 40
0.159659324
 40
0.2205090499
 40
0.3627076118
 40
0.5227699843
 40
0.6899088358
 40
1.0
 40
1.0
 40
1.0
 40
1.0
 10
70.6517171091
 20
133.3928069852
 30
0.0
 10
70.653414187
 20
133.3926167657
 30
0.0
 10
70.6584549046
 20
133.3942203498
 30
0.0
 10
70.6679589369
 20
133.3973281183
 30
0.0
 10
70.6819883263
 20
133.403010278
 30
0.0
 10
70.7002032012
 20
133.410682549
 30
0.0
 10
70.7223792178
 20
133.4204888903
 30
0.0
 10
70.7585867207
 20
133.4369428699
 30
0.0
 10
70.8098170916
 20
133.4610276385
 30
0.0
 10
70.8756324514
 20
133.4930133702
 30
0.0
 10
70.9642630135
 20
133.5378919319
 30
0.0
 10
71.0298639479
 20
133.5730521562
 30
0.0
 10
71.07172716
 20
133.5972217486
 30
0.0
  0
SPLINE
  5
3F0
100
AcDbEntity
  8
_1
100
AcDbSpline
 62
7
  6
CONTINUOUS
 70
0
 71
3
 72
11
 73
7
 74
0
 42
0.0000001
 43
0.0000001
 44
0.0000000001
 40
0.0
 40
0.0
 40
0.0
 40
0.0
 40
0.1837903411
 40
0.4149060055
 40
0.6888976848
 40
1.0
 40
1.0
 40
1.0
 40
1.0
 10
98.3295090439
 20
112.5077361332
 30
0.0
 10
98.2440778046
 20
112.5570338056
 30
0.0
 10
98.0377212558
 20
112.6445814076
 30
0.0
 10
97.6798465004
 20
112.7400034684
 30
0.0
 10
97.2460317206
 20
112.8060867366
 30
0.0
 10
96.9320890115
 20
112.8242914099
 30
0.0
 10
96.7651539818
 20
112.8271069522
 30
0.0
  0
SPLINE
  5
3F1
100
AcDbEntity
  8
_1
100
AcDbSpline
 62
7
  6
CONTINUOUS
 70
0
 71
3
 72
11
 73
7
 74
0
 42
0.0000001
 43
0.0000001
 44
0.0000000001
 40
0.0
 40
0.0
 40
0.0
 40
0.0
 40
0.2333059433
 40
0.474155658
 40
0.730066519
 40
1.0
 40
1.0
 40
1.0
 40
1.0
 10
78.8795423407
 20
105.5815352927
 30
0.0
 10
78.8795542763
 20
105.6419437983
 30
0.0
 10
78.8659701599
 20
105.765127227
 30
0.0
 10
78.805274669
 20
105.9454413737
 30
0.0
 10
78.7075400597
 20
106.1193852573
 30
0.0
 10
78.6206323959
 20
106.2253114968
 30
0.0
 10
78.5715854811
 20
106.2751043424
 30
0.0
  0
SPLINE
  5
3F2
100
AcDbEntity
  8
_1
100
AcDbSpline
 62
7
  6
CONTINUOUS
 70
0
 71
3
 72
11
 73
7
 74
0
 42
0.0000001
 43
0.0000001
 44
0.0000000001
 40
0.0
 40
0.0
 40
0.0
 40
0.0
 40
0.2150793133
 40
0.4542426208
 40
0.7171037753
 40
1.0
 40
1.0
 40
1.0
 40
1.0
 10
92.675698823
 20
112.0320238365
 30
0.0
 10
92.6105533542
 20
111.9446539588
 30
0.0
 10
92.4486758245
 20
111.7778188216
 30
0.0
 10
92.1479803219
 20
111.5707819465
 30
0.0
 10
91.7872223552
 20
111.399939379
 30
0.0
 10
91.522751904
 20
111.316232411
 30
0.0
 10
91.3837918241
 20
111.2810391935
 30
0.0
  0
SPLINE
  5
3F3
100
AcDbEntity
  8
_1
100
AcDbSpline
 62
7
  6
CONTINUOUS
 70
0
 71
3
 72
11
 73
7
 74
0
 42
0.0000001
 43
0.0000001
 44
0.0000000001
 40
0.0
 40
0.0
 40
0.0
 40
0.0
 40
0.2222049144
 40
0.4572786547
 40
0.7150063809
 40
1.0
 40
1.0
 40
1.0
 40
1.0
 10
92.6294938284
 20
110.1533047964
 30
0.0
 10
92.6294938148
 20
110.076343679
 30
0.0
 10
92.6043000508
 20
109.917058696
 30
0.0
 10
92.495216647
 20
109.6915050128
 30
0.0
 10
92.3207797989
 20
109.4833430349
 30
0.0
 10
92.1728663869
 20
109.3654487732
 30
0.0
 10
92.0911143997
 20
109.310132376
 30
0.0
  0
SPLINE
  5
3F4
100
AcDbEntity
  8
_1
100
AcDbSpline
 62
7
  6
CONTINUOUS
 70
0
 71
3
 72
11
 73
7
 74
0
 42
0.0000001
 43
0.0000001
 44
0.0000000001
 40
0.0
 40
0.0
 40
0.0
 40
0.0
 40
0.259361847
 40
0.5209431608
 40
0.7716061174
 40
1.0
 40
1.0
 40
1.0
 40
1.0
 10
89.3286748435
 20
116.0678124712
 30
0.0
 10
88.881498098
 20
116.1544781611
 30
0.0
 10
87.9668906044
 20
116.2509246852
 30
0.0
 10
86.6081311958
 20
116.180129523
 30
0.0
 10
85.3314699839
 20
115.9027730706
 30
0.0
 10
84.5493217585
 20
115.5729357891
 30
0.0
 10
84.201949073
 20
115.3723812727
 30
0.0
  0
SPLINE
  5
3F5
100
AcDbEntity
  8
_1
100
AcDbSpline
 62
7
  6
CONTINUOUS
 70
0
 71
3
 72
9
 73
5
 74
0
 42
0.0000001
 43
0.0000001
 44
0.0000000001
 40
0.0
 40
0.0
 40
0.0
 40
0.0
 40
0.2582744601
 40
1.0
 40
1.0
 40
1.0
 40
1.0
 10
84.201949073
 20
115.3723812727
 30
0.0
 10
84.1543286502
 20
115.3448877729
 30
0.0
 10
83.971840115
 20
115.2352275013
 30
0.0
 10
83.7971401404
 20
115.1123621397
 30
0.0
 10
83.6741395326
 20
115.0133265991
 30
0.0
  0
SPLINE
  5
3F6
100
AcDbEntity
  8
_1
100
AcDbSpline
 62
7
  6
CONTINUOUS
 70
0
 71
3
 72
15
 73
11
 74
0
 42
0.0000001
 43
0.0000001
 44
0.0000000001
 40
0.0
 40
0.0
 40
0.0
 40
0.0
 40
0.1225892889
 40
0.2502724954
 40
0.3808942873
 40
0.5122010273
 40
0.6418687797
 40
0.7676639753
 40
0.8876013848
 40
1.0
 40
1.0
 40
1.0
 40
1.0
 10
102.7325401005
 20
145.6969126987
 30
0.0
 10
103.0231071333
 20
145.4440300016
 30
0.0
 10
103.5866126015
 20
144.8928760286
 30
0.0
 10
104.3533377082
 20
143.9715019674
 30
0.0
 10
105.0433637913
 20
142.9580022392
 30
0.0
 10
105.6386649507
 20
141.8790698871
 30
0.0
 10
106.1236573196
 20
140.7627093242
 30
0.0
 10
106.4858513495
 20
139.6379126072
 30
0.0
 10
106.7156214926
 20
138.5340975668
 30
0.0
 10
106.7788438744
 20
137.8043742996
 30
0.0
 10
106.7841359095
 20
137.4512352948
 30
0.0
  0
SPLINE
  5
3F7
100
AcDbEntity
  8
_1
100
AcDbSpline
 62
7
  6
CONTINUOUS
 70
0
 71
3
 72
9
 73
5
 74
0
 42
0.0000001
 43
0.0000001
 44
0.0000000001
 40
0.0
 40
0.0
 40
0.0
 40
0.0
 40
0.2604598033
 40
1.0
 40
1.0
 40
1.0
 40
1.0
 10
83.886328432
 20
111.1329662227
 30
0.0
 10
84.064401218
 20
111.213221905
 30
0.0
 10
84.741300953
 20
111.5359182426
 30
0.0
 10
85.3904290448
 20
111.918941287
 30
0.0
 10
85.8427334918
 20
112.239866078
 30
0.0
  0
SPLINE
  5
3F8
100
AcDbEntity
  8
_1
100
AcDbSpline
 62
7
  6
CONTINUOUS
 70
0
 71
3
 72
13
 73
9
 74
0
 42
0.0000001
 43
0.0000001
 44
0.0000000001
 40
0.0
 40
0.0
 40
0.0
 40
0.0
 40
0.365920113
 40
0.6465004098
 40
0.7551879254
 40
0.8456467092
 40
0.9239055334
 40
1.0
 40
1.0
 40
1.0
 40
1.0
 10
64.1049278518
 20
123.21263615
 30
0.0
 10
64.0969137049
 20
123.226949049
 30
0.0
 10
64.0816915126
 20
123.2516321419
 30
0.0
 10
64.0599044528
 20
123.2779561168
 30
0.0
 10
64.0427147955
 20
123.2910595042
 30
0.0
 10
64.0312631925
 20
123.2962915321
 30
0.0
 10
64.0200716811
 20
123.2973679719
 30
0.0
 10
64.013310718
 20
123.295019977
 30
0.0
 10
64.0103565505
 20
123.2933142688
 30
0.0
  0
SPLINE
  5
3F9
100
AcDbEntity
  8
_1
100
AcDbSpline
 62
7
  6
CONTINUOUS
 70
0
 71
3
 72
9
 73
5
 74
0
 42
0.0000001
 43
0.0000001
 44
0.0000000001
 40
0.0
 40
0.0
 40
0.0
 40
0.0
 40
0.2505287015
 40
1.0
 40
1.0
 40
1.0
 40
1.0
 10
72.7170557125
 20
118.266612883
 30
0.0
 10
72.6959739399
 20
118.2859924166
 30
0.0
 10
72.6058692778
 20
118.3567120348
 30
0.0
 10
72.4958369025
 20
118.4011541267
 30
0.0
 10
72.4116253485
 20
118.4168706089
 30
0.0
  0
SPLINE
  5
3FA
100
AcDbEntity
  8
_1
100
AcDbSpline
 62
7
  6
CONTINUOUS
 70
0
 71
3
 72
11
 73
7
 74
0
 42
0.0000001
 43
0.0000001
 44
0.0000000001
 40
0.0
 40
0.0
 40
0.0
 40
0.0
 40
0.2350277529
 40
0.4952388068
 40
0.7580162956
 40
1.0
 40
1.0
 40
1.0
 40
1.0
 10
73.6054902266
 20
104.8779620574
 30
0.0
 10
73.5104548825
 20
104.8230937034
 30
0.0
 10
73.2904999154
 20
104.741220058
 30
0.0
 10
72.9369588653
 20
104.696658577
 30
0.0
 10
72.5785420293
 20
104.7257132028
 30
0.0
 10
72.3506511437
 20
104.7970798984
 30
0.0
 10
72.2492967903
 20
104.8470089328
 30
0.0
  0
SPLINE
  5
3FB
100
AcDbEntity
  8
_1
100
AcDbSpline
 62
7
  6
CONTINUOUS
 70
0
 71
3
 72
18
 73
14
 74
0
 42
0.0000001
 43
0.0000001
 44
0.0000000001
 40
0.0
 40
0.0
 40
0.0
 40
0.0
 40
0.1291557447
 40
0.2710511297
 40
0.4193064578
 40
0.5656675711
 40
0.7014666415
 40
0.7631060425
 40
0.8196761645
 40
0.8709877964
 40
0.9173521387
 40
0.9597833902
 40
1.0
 40
1.0
 40
1.0
 40
1.0
 10
106.7850227009
 20
135.5463610494
 30
0.0
 10
106.63767167
 20
135.6314322822
 30
0.0
 10
106.3016624564
 20
135.7646441002
 30
0.0
 10
105.7536177007
 20
135.8548468789
 30
0.0
 10
105.1757579813
 20
135.8461155562
 30
0.0
 10
104.6154171613
 20
135.7455704401
 30
0.0
 10
104.1862893819
 20
135.5919247595
 30
0.0
 10
103.892072089
 20
135.4312116159
 30
0.0
 10
103.7098314496
 20
135.3010156458
 30
0.0
 10
103.5626457737
 20
135.1596749935
 30
0.0
 10
103.4537783031
 20
135.0090950616
 30
0.0
 10
103.3862688768
 20
134.8513779648
 30
0.0
 10
103.370830621
 20
134.7419853485
 30
0.0
 10
103.3708211584
 20
134.6890053656
 30
0.0
  0
SPLINE
  5
3FC
100
AcDbEntity
  8
_1
100
AcDbSpline
 62
7
  6
CONTINUOUS
 70
0
 71
3
 72
16
 73
12
 74
0
 42
0.0000001
 43
0.0000001
 44
0.0000000001
 40
0.0
 40
0.0
 40
0.0
 40
0.0
 40
0.123249185
 40
0.2581672726
 40
0.3993870823
 40
0.540579504
 40
0.6754362596
 40
0.7985783827
 40
0.8546985334
 40
0.9068850502
 40
1.0
 40
1.0
 40
1.0
 40
1.0
 10
106.7850227009
 20
135.1381098408
 30
0.0
 10
106.6540732141
 20
135.2137118519
 30
0.0
 10
106.3607302637
 20
135.3398041232
 30
0.0
 10
105.8815936952
 20
135.4513146848
 30
0.0
 10
105.3690101501
 20
135.4892062705
 30
0.0
 10
104.8565666185
 20
135.4508026329
 30
0.0
 10
104.3777175924
 20
135.3387019315
 30
0.0
 10
104.0212046255
 20
135.185034877
 30
0.0
 10
103.7829571132
 20
135.0290510898
 30
0.0
 10
103.5952278949
 20
134.8680462247
 30
0.0
 10
103.4854719755
 20
134.7215821658
 30
0.0
 10
103.4377460764
 20
134.6177925348
 30
0.0
  0
SPLINE
  5
3FD
100
AcDbEntity
  8
_1
100
AcDbSpline
 62
7
  6
CONTINUOUS
 70
0
 71
3
 72
12
 73
8
 74
0
 42
0.0000001
 43
0.0000001
 44
0.0000000001
 40
0.0
 40
0.0
 40
0.0
 40
0.0
 40
0.2839713268
 40
0.5434311365
 40
0.7802570319
 40
0.8918907456
 40
1.0
 40
1.0
 40
1.0
 40
1.0
 10
67.5407032114
 20
109.1327313068
 30
0.0
 10
67.086620145
 20
109.3948903566
 30
0.0
 10
66.2489733924
 20
109.9553686909
 30
0.0
 10
65.1930325194
 20
110.9457904565
 30
0.0
 10
64.5358324171
 20
111.8681926761
 30
0.0
 10
64.1777032981
 20
112.6333912279
 30
0.0
 10
64.053193142
 20
113.0210208636
 30
0.0
 10
64.005229166
 20
113.2147865292
 30
0.0
  0
SPLINE
  5
3FE
100
AcDbEntity
  8
_1
100
AcDbSpline
 62
7
  6
CONTINUOUS
 70
0
 71
3
 72
11
 73
7
 74
0
 42
0.0000001
 43
0.0000001
 44
0.0000000001
 40
0.0
 40
0.0
 40
0.0
 40
0.0
 40
0.2665179077
 40
0.5245281474
 40
0.770084549
 40
1.0
 40
1.0
 40
1.0
 40
1.0
 10
74.6111607727
 20
107.0915875863
 30
0.0
 10
73.9547980244
 20
107.1457406191
 30
0.0
 10
72.6670627515
 20
107.3123361571
 30
0.0
 10
70.8096294511
 20
107.7406586787
 30
0.0
 10
69.0932350155
 20
108.3338846168
 30
0.0
 10
68.0327335652
 20
108.8486638761
 30
0.0
 10
67.5407032114
 20
109.1327313068
 30
0.0
  0
SPLINE
  5
3FF
100
AcDbEntity
  8
_1
100
AcDbSpline
 62
7
  6
CONTINUOUS
 70
0
 71
3
 72
11
 73
7
 74
0
 42
0.0000001
 43
0.0000001
 44
0.0000000001
 40
0.0
 40
0.0
 40
0.0
 40
0.0
 40
0.2419839057
 40
0.5047614636
 40
0.7649724444
 40
1.0
 40
1.0
 40
1.0
 40
1.0
 10
72.2492967903
 20
106.480013767
 30
0.0
 10
72.350651228
 20
106.4300846911
 30
0.0
 10
72.5785422487
 20
106.358717983
 30
0.0
 10
72.9369591824
 20
106.329663418
 30
0.0
 10
73.2905001305
 20
106.3742249563
 30
0.0
 10
73.5104549622
 20
106.4560985837
 30
0.0
 10
73.6054902266
 20
106.5109668916
 30
0.0
  0
SPLINE
  5
400
100
AcDbEntity
  8
_1
100
AcDbSpline
 62
7
  6
CONTINUOUS
 70
0
 71
3
 72
10
 73
6
 74
0
 42
0.0000001
 43
0.0000001
 44
0.0000000001
 40
0.0
 40
0.0
 40
0.0
 40
0.0
 40
0.5004324377
 40
0.7508532798
 40
1.0
 40
1.0
 40
1.0
 40
1.0
 10
64.0052294167
 20
114.685362262
 30
0.0
 10
63.9347145279
 20
114.7263413363
 30
0.0
 10
63.8285821509
 20
114.7872579992
 30
0.0
 10
63.687711432
 20
114.869202196
 30
0.0
 10
63.6171388708
 20
114.9098158468
 30
0.0
 10
63.5815735784
 20
114.929407512
 30
0.0
  0
SPLINE
  5
401
100
AcDbEntity
  8
_1
100
AcDbSpline
 62
7
  6
CONTINUOUS
 70
0
 71
3
 72
11
 73
7
 74
0
 42
0.0000001
 43
0.0000001
 44
0.0000000001
 40
0.0
 40
0.0
 40
0.0
 40
0.0
 40
0.2277380107
 40
0.4754062609
 40
0.7357513724
 40
1.0
 40
1.0
 40
1.0
 40
1.0
 10
60.6117415837
 20
112.6435600167
 30
0.0
 10
60.753967864
 20
112.5615356804
 30
0.0
 10
61.0687070145
 20
112.4204827748
 30
0.0
 10
61.5828445957
 20
112.2829905963
 30
0.0
 10
62.1371150033
 20
112.2151810729
 30
0.0
 10
62.5165477681
 20
112.2187996181
 30
0.0
 10
62.7065249956
 20
112.232976381
 30
0.0
  0
SPLINE
  5
402
100
AcDbEntity
  8
_1
100
AcDbSpline
 62
7
  6
CONTINUOUS
 70
0
 71
3
 72
10
 73
6
 74
0
 42
0.0000001
 43
0.0000001
 44
0.0000000001
 40
0.0
 40
0.0
 40
0.0
 40
0.0
 40
0.2250336746
 40
0.5912964187
 40
1.0
 40
1.0
 40
1.0
 40
1.0
 10
115.1039538645
 20
126.3334029054
 30
0.0
 10
115.1413010654
 20
126.328169961
 30
0.0
 10
115.2412423675
 20
126.3259620199
 30
0.0
 10
115.4063943659
 20
126.3638668432
 30
0.0
 10
115.5245337829
 20
126.4198437183
 30
0.0
 10
115.5838498175
 20
126.4540896424
 30
0.0
  0
SPLINE
  5
403
100
AcDbEntity
  8
_1
100
AcDbSpline
 62
7
  6
CONTINUOUS
 70
0
 71
3
 72
9
 73
5
 74
0
 42
0.0000001
 43
0.0000001
 44
0.0000000001
 40
0.0
 40
0.0
 40
0.0
 40
0.0
 40
0.244563509
 40
1.0
 40
1.0
 40
1.0
 40
1.0
 10
107.3563004013
 20
134.460371289
 30
0.0
 10
107.3527391954
 20
134.4773371158
 30
0.0
 10
107.3355994719
 20
134.5461567134
 30
0.0
 10
107.3082788345
 20
134.6123253713
 30
0.0
 10
107.2831990829
 20
134.6596371553
 30
0.0
  0
SPLINE
  5
404
100
AcDbEntity
  8
_1
100
AcDbSpline
 62
7
  6
CONTINUOUS
 70
0
 71
3
 72
9
 73
5
 74
0
 42
0.0000001
 43
0.0000001
 44
0.0000000001
 40
0.0
 40
0.0
 40
0.0
 40
0.0
 40
0.2258377038
 40
1.0
 40
1.0
 40
1.0
 40
1.0
 10
107.2831990829
 20
134.6596371553
 30
0.0
 10
107.258656563
 20
134.7059354766
 30
0.0
 10
107.1306957319
 20
134.9008429667
 30
0.0
 10
106.9405865313
 20
135.0482970533
 30
0.0
 10
106.7850227009
 20
135.1381098408
 30
0.0
  0
SPLINE
  5
405
100
AcDbEntity
  8
_1
100
AcDbSpline
 62
7
  6
CONTINUOUS
 70
0
 71
3
 72
11
 73
7
 74
0
 42
0.0000001
 43
0.0000001
 44
0.0000000001
 40
0.0
 40
0.0
 40
0.0
 40
0.0
 40
0.2247336474
 40
0.4610488749
 40
0.717963572
 40
1.0
 40
1.0
 40
1.0
 40
1.0
 10
107.3708100031
 20
134.6889922991
 30
0.0
 10
107.3708217349
 20
134.7702698497
 30
0.0
 10
107.3433512643
 20
134.9380678694
 30
0.0
 10
107.2242747146
 20
135.1726805618
 30
0.0
 10
107.0341621766
 20
135.382494309
 30
0.0
 10
106.8733593265
 20
135.4953610286
 30
0.0
 10
106.7850227009
 20
135.5463610494
 30
0.0
  0
SPLINE
  5
406
100
AcDbEntity
  8
_1
100
AcDbSpline
 62
7
  6
CONTINUOUS
 70
0
 71
3
 72
11
 73
7
 74
0
 42
0.0000001
 43
0.0000001
 44
0.0000000001
 40
0.0
 40
0.0
 40
0.0
 40
0.0
 40
0.2293476088
 40
0.4701933794
 40
0.7262502439
 40
1.0
 40
1.0
 40
1.0
 40
1.0
 10
88.1234885046
 20
130.0911751054
 30
0.0
 10
88.1029346814
 20
130.1814450272
 30
0.0
 10
88.0421584507
 20
130.362670192
 30
0.0
 10
87.8997966706
 20
130.620491294
 30
0.0
 10
87.7070696286
 20
130.8661613176
 30
0.0
 10
87.5522280839
 20
131.0147185069
 30
0.0
 10
87.4680746177
 20
131.0863379424
 30
0.0
  0
SPLINE
  5
407
100
AcDbEntity
  8
_1
100
AcDbSpline
 62
7
  6
CONTINUOUS
 70
0
 71
3
 72
9
 73
5
 74
0
 42
0.0000001
 43
0.0000001
 44
0.0000000001
 40
0.0
 40
0.0
 40
0.0
 40
0.0
 40
0.4926973899
 40
1.0
 40
1.0
 40
1.0
 40
1.0
 10
87.9076433859
 20
129.5859510712
 30
0.0
 10
87.907643384
 20
129.496284521
 30
0.0
 10
87.8877550505
 20
129.3137879959
 30
0.0
 10
87.8302230257
 20
129.1396839619
 30
0.0
 10
87.7931685645
 20
129.055121599
 30
0.0
  0
SPLINE
  5
408
100
AcDbEntity
  8
_1
100
AcDbSpline
 62
7
  6
CONTINUOUS
 70
0
 71
3
 72
12
 73
8
 74
0
 42
0.0000001
 43
0.0000001
 44
0.0000000001
 40
0.0
 40
0.0
 40
0.0
 40
0.0
 40
0.1081583165
 40
0.2183597755
 40
0.4513539159
 40
0.7104277657
 40
1.0
 40
1.0
 40
1.0
 40
1.0
 10
80.4076582382
 20
130.0350274007
 30
0.0
 10
80.4076652736
 20
129.9640373185
 30
0.0
 10
80.419997597
 20
129.8204184667
 30
0.0
 10
80.4946106962
 20
129.5324989531
 30
0.0
 10
80.686108912
 20
129.1794324323
 30
0.0
 10
81.0428335633
 20
128.8047846577
 30
0.0
 10
81.3414047785
 20
128.599141076
 30
0.0
 10
81.5060039964
 20
128.504111823
 30
0.0
  0
SPLINE
  5
409
100
AcDbEntity
  8
_1
100
AcDbSpline
 62
7
  6
CONTINUOUS
 70
0
 71
3
 72
14
 73
10
 74
0
 42
0.0000001
 43
0.0000001
 44
0.0000000001
 40
0.0
 40
0.0
 40
0.0
 40
0.0
 40
0.1719546446
 40
0.31186943
 40
0.4301428336
 40
0.5396197001
 40
0.6486849201
 40
0.760955824
 40
1.0
 40
1.0
 40
1.0
 40
1.0
 10
110.9282232994
 20
136.1188199841
 30
0.0
 10
110.9477977021
 20
136.1301212032
 30
0.0
 10
110.9814929146
 20
136.1542778528
 30
0.0
 10
111.0173428356
 20
136.1991778724
 30
0.0
 10
111.0332942929
 20
136.2458545679
 30
0.0
 10
111.0329988361
 20
136.2907647067
 30
0.0
 10
111.0219474611
 20
136.3331463203
 30
0.0
 10
110.995980867
 20
136.3881036479
 30
0.0
 10
110.9671552081
 20
136.4248287812
 30
0.0
 10
110.9462912543
 20
136.4483230668
 30
0.0
  0
SPLINE
  5
40A
100
AcDbEntity
  8
_1
100
AcDbSpline
 62
7
  6
CONTINUOUS
 70
0
 71
3
 72
9
 73
5
 74
0
 42
0.0000001
 43
0.0000001
 44
0.0000000001
 40
0.0
 40
0.0
 40
0.0
 40
0.0
 40
0.2358725936
 40
1.0
 40
1.0
 40
1.0
 40
1.0
 10
114.4429919968
 20
132.3057254818
 30
0.0
 10
114.431407209
 20
132.3028522833
 30
0.0
 10
114.3827789047
 20
132.2887162607
 30
0.0
 10
114.3365078797
 20
132.2670385589
 30
0.0
 10
114.3030213632
 20
132.247705225
 30
0.0
  0
SPLINE
  5
40B
100
AcDbEntity
  8
_1
100
AcDbSpline
 62
7
  6
CONTINUOUS
 70
0
 71
3
 72
19
 73
15
 74
0
 42
0.0000001
 43
0.0000001
 44
0.0000000001
 40
0.0
 40
0.0
 40
0.0
 40
0.0
 40
0.0428107775
 40
0.0873341261
 40
0.1349683082
 40
0.1866289584
 40
0.2427388504
 40
0.3033026817
 40
0.3679889856
 40
0.4362095126
 40
0.5798920623
 40
0.7270148555
 40
0.8694683202
 40
1.0
 40
1.0
 40
1.0
 40
1.0
 10
80.157657065
 20
129.9942022807
 30
0.0
 10
80.1576457327
 20
130.1061635374
 30
0.0
 10
80.187080401
 20
130.33550487
 30
0.0
 10
80.3164199039
 20
130.6671467718
 30
0.0
 10
80.5266038281
 20
130.9821419789
 30
0.0
 10
80.8117920323
 20
131.2744002835
 30
0.0
 10
81.1655634694
 20
131.5389396841
 30
0.0
 10
81.5806338825
 20
131.7709016276
 30
0.0
 10
82.0486126686
 20
131.965895772
 30
0.0
 10
82.7421548676
 20
132.1749507378
 30
0.0
 10
83.6754265346
 20
132.3182645962
 30
0.0
 10
84.8134259863
 20
132.3040111833
 30
0.0
 10
85.8995638091
 20
132.1079429447
 30
0.0
 10
86.5723381445
 20
131.8504111512
 30
0.0
 10
86.8734968708
 20
131.6896638233
 30
0.0
  0
SPLINE
  5
40C
100
AcDbEntity
  8
_1
100
AcDbSpline
 62
7
  6
CONTINUOUS
 70
0
 71
3
 72
14
 73
10
 74
0
 42
0.0000001
 43
0.0000001
 44
0.0000000001
 40
0.0
 40
0.0
 40
0.0
 40
0.0
 40
0.1085978582
 40
0.2037295311
 40
0.2960133713
 40
0.3965966205
 40
0.5137824258
 40
0.6522213744
 40
1.0
 40
1.0
 40
1.0
 40
1.0
 10
98.4963608513
 20
112.1300165996
 30
0.0
 10
98.5108179827
 20
112.1408935033
 30
0.0
 10
98.535932346
 20
112.1645093439
 30
0.0
 10
98.5593505356
 20
112.2091833886
 30
0.0
 10
98.5634256229
 20
112.2582476701
 30
0.0
 10
98.5485570542
 20
112.3086496406
 30
0.0
 10
98.5168146505
 20
112.3593847653
 30
0.0
 10
98.4477358715
 20
112.4329928949
 30
0.0
 10
98.3796916321
 20
112.4787785198
 30
0.0
 10
98.3295090439
 20
112.5077361332
 30
0.0
  0
SPLINE
  5
40D
100
AcDbEntity
  8
_1
100
AcDbSpline
 62
7
  6
CONTINUOUS
 70
0
 71
3
 72
11
 73
7
 74
0
 42
0.0000001
 43
0.0000001
 44
0.0000000001
 40
0.0
 40
0.0
 40
0.0
 40
0.0
 40
0.2247336474
 40
0.4610488749
 40
0.717963572
 40
1.0
 40
1.0
 40
1.0
 40
1.0
 10
93.7943032803
 20
142.5272147859
 30
0.0
 10
93.7943150121
 20
142.6084923365
 30
0.0
 10
93.7668445414
 20
142.7762903562
 30
0.0
 10
93.6477679918
 20
143.0109030486
 30
0.0
 10
93.4576554538
 20
143.2207167958
 30
0.0
 10
93.2968526037
 20
143.3335835154
 30
0.0
 10
93.2085159781
 20
143.3845835362
 30
0.0
  0
SPLINE
  5
40E
100
AcDbEntity
  8
_1
100
AcDbSpline
 62
7
  6
CONTINUOUS
 70
0
 71
3
 72
9
 73
5
 74
0
 42
0.0000001
 43
0.0000001
 44
0.0000000001
 40
0.0
 40
0.0
 40
0.0
 40
0.0
 40
0.2444552603
 40
1.0
 40
1.0
 40
1.0
 40
1.0
 10
93.7798739095
 20
142.2982282262
 30
0.0
 10
93.7762617055
 20
142.3154832325
 30
0.0
 10
93.7588158252
 20
142.3854986213
 30
0.0
 10
93.7308333234
 20
142.452764316
 30
0.0
 10
93.7051241565
 20
142.5008041634
 30
0.0
  0
SPLINE
  5
40F
100
AcDbEntity
  8
_1
100
AcDbSpline
 62
7
  6
CONTINUOUS
 70
0
 71
3
 72
9
 73
5
 74
0
 42
0.0000001
 43
0.0000001
 44
0.0000000001
 40
0.0
 40
0.0
 40
0.0
 40
0.0
 40
0.2259393604
 40
1.0
 40
1.0
 40
1.0
 40
1.0
 10
93.7051241565
 20
142.5008041634
 30
0.0
 10
93.6805041562
 20
142.5468088071
 30
0.0
 10
93.5525405768
 20
142.7403782738
 30
0.0
 10
93.3633284114
 20
142.8869533496
 30
0.0
 10
93.2085159781
 20
142.9763323276
 30
0.0
  0
SPLINE
  5
410
100
AcDbEntity
  8
_1
100
AcDbSpline
 62
7
  6
CONTINUOUS
 70
0
 71
3
 72
9
 73
5
 74
0
 42
0.0000001
 43
0.0000001
 44
0.0000000001
 40
0.0
 40
0.0
 40
0.0
 40
0.0
 40
0.2613194616
 40
1.0
 40
1.0
 40
1.0
 40
1.0
 10
114.9632190247
 20
126.4991803531
 30
0.0
 10
114.9464842811
 20
126.4907960375
 30
0.0
 10
114.8816732966
 20
126.4603224598
 30
0.0
 10
114.8135196
 20
126.436587586
 30
0.0
 10
114.7620007905
 20
126.4245358505
 30
0.0
  0
SPLINE
  5
411
100
AcDbEntity
  8
_1
100
AcDbSpline
 62
7
  6
CONTINUOUS
 70
0
 71
3
 72
9
 73
5
 74
0
 42
0.0000001
 43
0.0000001
 44
0.0000000001
 40
0.0
 40
0.0
 40
0.0
 40
0.0
 40
0.4569128582
 40
1.0
 40
1.0
 40
1.0
 40
1.0
 10
114.4617864611
 20
132.6290014854
 30
0.0
 10
114.4571666035
 20
132.5798944354
 30
0.0
 10
114.4498863697
 20
132.4721601196
 30
0.0
 10
114.4451377988
 20
132.3643126225
 30
0.0
 10
114.4429919968
 20
132.3057254818
 30
0.0
  0
SPLINE
  5
412
100
AcDbEntity
  8
_1
100
AcDbSpline
 62
7
  6
CONTINUOUS
 70
0
 71
3
 72
9
 73
5
 74
0
 42
0.0000001
 43
0.0000001
 44
0.0000000001
 40
0.0
 40
0.0
 40
0.0
 40
0.0
 40
0.5435787683
 40
1.0
 40
1.0
 40
1.0
 40
1.0
 10
114.5121208343
 20
133.1822953149
 30
0.0
 10
114.503126866
 20
133.083831582
 30
0.0
 10
114.4867284268
 20
132.9026789699
 30
0.0
 10
114.4706333381
 20
132.7214967219
 30
0.0
 10
114.4627215504
 20
132.638854351
 30
0.0
  0
SPLINE
  5
413
100
AcDbEntity
  8
_1
100
AcDbSpline
 62
7
  6
CONTINUOUS
 70
0
 71
3
 72
11
 73
7
 74
0
 42
0.0000001
 43
0.0000001
 44
0.0000000001
 40
0.0
 40
0.0
 40
0.0
 40
0.0
 40
0.2327695464
 40
0.4718356604
 40
0.7252798503
 40
1.0
 40
1.0
 40
1.0
 40
1.0
 10
116.3090468234
 20
138.2790431755
 30
0.0
 10
116.0560680631
 20
137.93803244
 30
0.0
 10
115.5918971979
 20
137.2088512296
 30
0.0
 10
115.0577774399
 20
135.9930146484
 30
0.0
 10
114.6897214988
 20
134.6380459181
 30
0.0
 10
114.5577052972
 20
133.6813427054
 30
0.0
 10
114.5121208343
 20
133.1822953149
 30
0.0
  0
SPLINE
  5
414
100
AcDbEntity
  8
_1
100
AcDbSpline
 62
7
  6
CONTINUOUS
 70
0
 71
3
 72
13
 73
9
 74
0
 42
0.0000001
 43
0.0000001
 44
0.0000000001
 40
0.0
 40
0.0
 40
0.0
 40
0.0
 40
0.2838502664
 40
0.5402654333
 40
0.6598378322
 40
0.7753362385
 40
0.8882786022
 40
1.0
 40
1.0
 40
1.0
 40
1.0
 10
114.4429919968
 20
131.3868109574
 30
0.0
 10
114.4610557241
 20
132.0342489925
 30
0.0
 10
114.5389468325
 20
133.2666877881
 30
0.0
 10
114.8263425119
 20
134.751153148
 30
0.0
 10
115.180417367
 20
135.8167035214
 30
0.0
 10
115.4976732074
 20
136.5458922944
 30
0.0
 10
115.8715378761
 20
137.2272706483
 30
0.0
 10
116.1579088581
 20
137.6533986853
 30
0.0
 10
116.3090468234
 20
137.858690212
 30
0.0
  0
SPLINE
  5
415
100
AcDbEntity
  8
_1
100
AcDbSpline
 62
7
  6
CONTINUOUS
 70
0
 71
3
 72
11
 73
7
 74
0
 42
0.0000001
 43
0.0000001
 44
0.0000000001
 40
0.0
 40
0.0
 40
0.0
 40
0.0
 40
0.2349420801
 40
0.4825075335
 40
0.7389475396
 40
1.0
 40
1.0
 40
1.0
 40
1.0
 10
110.9282232994
 20
136.1188199841
 30
0.0
 10
111.2545027803
 20
135.8792668426
 30
0.0
 10
111.8938625577
 20
135.344504314
 30
0.0
 10
112.7777512318
 20
134.4252781131
 30
0.0
 10
113.5938189579
 20
133.3876380961
 30
0.0
 10
114.0773055843
 20
132.636726793
 30
0.0
 10
114.3030213632
 20
132.247705225
 30
0.0
  0
SPLINE
  5
416
100
AcDbEntity
  8
_1
100
AcDbSpline
 62
7
  6
CONTINUOUS
 70
0
 71
3
 72
11
 73
7
 74
0
 42
0.0000001
 43
0.0000001
 44
0.0000000001
 40
0.0
 40
0.0
 40
0.0
 40
0.0
 40
0.2632066944
 40
0.5205204847
 40
0.7674131962
 40
1.0
 40
1.0
 40
1.0
 40
1.0
 10
114.4617864611
 20
132.6290014854
 30
0.0
 10
114.2246180475
 20
133.0216597496
 30
0.0
 10
113.7179084004
 20
133.776167468
 30
0.0
 10
112.864836246
 20
134.8091935386
 30
0.0
 10
111.9459835426
 20
135.7096733118
 30
0.0
 10
111.2831916448
 20
136.2229008453
 30
0.0
 10
110.9462912543
 20
136.4483230668
 30
0.0
  0
SPLINE
  5
417
100
AcDbEntity
  8
_1
100
AcDbSpline
 62
7
  6
CONTINUOUS
 70
0
 71
3
 72
11
 73
7
 74
0
 42
0.0000001
 43
0.0000001
 44
0.0000000001
 40
0.0
 40
0.0
 40
0.0
 40
0.0
 40
0.266523632
 40
0.5250121576
 40
0.7707751971
 40
1.0
 40
1.0
 40
1.0
 40
1.0
 10
114.5121208343
 20
133.1822953149
 30
0.0
 10
114.2597212221
 20
133.5707296981
 30
0.0
 10
113.7240699743
 20
134.3117517324
 30
0.0
 10
112.8289673478
 20
135.3119154237
 30
0.0
 10
111.8753226547
 20
136.1621229365
 30
0.0
 10
111.1918461273
 20
136.6307694307
 30
0.0
 10
110.8468132265
 20
136.8299697623
 30
0.0
  0
SPLINE
  5
418
100
AcDbEntity
  8
_1
100
AcDbSpline
 62
7
  6
CONTINUOUS
 70
0
 71
3
 72
11
 73
7
 74
0
 42
0.0000001
 43
0.0000001
 44
0.0000000001
 40
0.0
 40
0.0
 40
0.0
 40
0.0
 40
0.2324318152
 40
0.4792821905
 40
0.7366606078
 40
1.0
 40
1.0
 40
1.0
 40
1.0
 10
110.935248719
 20
136.4606629608
 30
0.0
 10
111.2731937064
 20
136.235845938
 30
0.0
 10
111.9381853413
 20
135.7232611348
 30
0.0
 10
112.8601440639
 20
134.8226081459
 30
0.0
 10
113.7162558075
 20
133.7882719624
 30
0.0
 10
114.2247335301
 20
133.0323507687
 30
0.0
 10
114.4627215504
 20
132.638854351
 30
0.0
  0
SPLINE
  5
419
100
AcDbEntity
  8
_1
100
AcDbSpline
 62
7
  6
CONTINUOUS
 70
0
 71
3
 72
14
 73
10
 74
0
 42
0.0000001
 43
0.0000001
 44
0.0000000001
 40
0.0
 40
0.0
 40
0.0
 40
0.0
 40
0.1606231136
 40
0.2227931115
 40
0.2804457464
 40
0.3924873512
 40
0.5072833434
 40
0.7473125257
 40
1.0
 40
1.0
 40
1.0
 40
1.0
 10
110.8468132265
 20
136.8299697623
 30
0.0
 10
110.8264728714
 20
136.8182263229
 30
0.0
 10
110.7998627939
 20
136.795644437
 30
0.0
 10
110.7849966163
 20
136.7568143252
 30
0.0
 10
110.7813817379
 20
136.7228562478
 30
0.0
 10
110.7881421203
 20
136.6810832608
 30
0.0
 10
110.8156211544
 20
136.6182751449
 30
0.0
 10
110.8640022967
 20
136.5432676505
 30
0.0
 10
110.910504954
 20
136.4881033751
 30
0.0
 10
110.9352487175
 20
136.4606629624
 30
0.0
  0
SPLINE
  5
41A
100
AcDbEntity
  8
_1
100
AcDbSpline
 62
7
  6
CONTINUOUS
 70
0
 71
3
 72
9
 73
5
 74
0
 42
0.0000001
 43
0.0000001
 44
0.0000000001
 40
0.0
 40
0.0
 40
0.0
 40
0.0
 40
0.2428545653
 40
1.0
 40
1.0
 40
1.0
 40
1.0
 10
70.8100431673
 20
133.4422028914
 30
0.0
 10
70.8058382579
 20
133.4434563657
 30
0.0
 10
70.7886300928
 20
133.4489714417
 30
0.0
 10
70.7718663352
 20
133.4558461535
 30
0.0
 10
70.7594897504
 20
133.4616731583
 30
0.0
  0
SPLINE
  5
41B
100
AcDbEntity
  8
_1
100
AcDbSpline
 62
7
  6
CONTINUOUS
 70
0
 71
3
 72
19
 73
15
 74
0
 42
0.0000001
 43
0.0000001
 44
0.0000000001
 40
0.0
 40
0.0
 40
0.0
 40
0.0
 40
0.0092607376
 40
0.0184988234
 40
0.0351791812
 40
0.0607977618
 40
0.0956777488
 40
0.139903254
 40
0.1934826035
 40
0.2562218495
 40
0.4064500156
 40
0.5846906659
 40
0.7847201669
 40
1.0
 40
1.0
 40
1.0
 40
1.0
 10
88.8547094274
 20
143.8753461439
 30
0.0
 10
88.8550032255
 20
143.8760027152
 30
0.0
 10
88.8553756254
 20
143.8777990083
 30
0.0
 10
88.8523027114
 20
143.8789103287
 30
0.0
 10
88.8484578076
 20
143.8784312255
 30
0.0
 10
88.8425108851
 20
143.8772224862
 30
0.0
 10
88.834762485
 20
143.8748076793
 30
0.0
 10
88.8250487616
 20
143.8713324801
 30
0.0
 10
88.8134693321
 20
143.8667070202
 30
0.0
 10
88.7944360184
 20
143.8585539522
 30
0.0
 10
88.7668525707
 20
143.8457965292
 30
0.0
 10
88.729991162
 20
143.827726861
 30
0.0
 10
88.6889446612
 20
143.8067316466
 30
0.0
 10
88.6604081496
 20
143.7916881531
 30
0.0
 10
88.6456549939
 20
143.7838173733
 30
0.0
  0
SPLINE
  5
41C
100
AcDbEntity
  8
_1
100
AcDbSpline
 62
7
  6
CONTINUOUS
 70
0
 71
3
 72
9
 73
5
 74
0
 42
0.0000001
 43
0.0000001
 44
0.0000000001
 40
0.0
 40
0.0
 40
0.0
 40
0.0
 40
0.5118600839
 40
1.0
 40
1.0
 40
1.0
 40
1.0
 10
63.4765430727
 20
118.9645195842
 30
0.0
 10
63.439935167
 20
118.9500948654
 30
0.0
 10
63.372003191
 20
118.9108218109
 30
0.0
 10
63.3218969848
 20
118.8499226765
 30
0.0
 10
63.3039081492
 20
118.8169917461
 30
0.0
  0
SPLINE
  5
41D
100
AcDbEntity
  8
_1
100
AcDbSpline
 62
7
  6
CONTINUOUS
 70
0
 71
3
 72
9
 73
5
 74
0
 42
0.0000001
 43
0.0000001
 44
0.0000000001
 40
0.0
 40
0.0
 40
0.0
 40
0.0
 40
0.4896202766
 40
1.0
 40
1.0
 40
1.0
 40
1.0
 10
69.2958206236
 20
110.4942342819
 30
0.0
 10
69.7655974502
 20
110.3076926362
 30
0.0
 10
70.744538818
 20
109.9745643797
 30
0.0
 10
71.7488172774
 20
109.7296030768
 30
0.0
 10
72.2653507073
 20
109.6256537215
 30
0.0
  0
SPLINE
  5
41E
100
AcDbEntity
  8
_1
100
AcDbSpline
 62
7
  6
CONTINUOUS
 70
0
 71
3
 72
9
 73
5
 74
0
 42
0.0000001
 43
0.0000001
 44
0.0000000001
 40
0.0
 40
0.0
 40
0.0
 40
0.0
 40
0.5246271223
 40
1.0
 40
1.0
 40
1.0
 40
1.0
 10
74.6669720433
 20
109.478510552
 30
0.0
 10
74.6504788551
 20
109.4492326447
 30
0.0
 10
74.6239928364
 20
109.39054032
 30
0.0
 10
74.6111607727
 20
109.3265931211
 30
0.0
 10
74.6111607727
 20
109.2961441126
 30
0.0
  0
SPLINE
  5
41F
100
AcDbEntity
  8
_1
100
AcDbSpline
 62
7
  6
CONTINUOUS
 70
0
 71
3
 72
9
 73
5
 74
0
 42
0.0000001
 43
0.0000001
 44
0.0000000001
 40
0.0
 40
0.0
 40
0.0
 40
0.0
 40
0.4784800712
 40
1.0
 40
1.0
 40
1.0
 40
1.0
 10
63.4792678307
 20
125.8254503048
 30
0.0
 10
63.4789639641
 20
125.5106987974
 30
0.0
 10
63.5482248775
 20
124.8517960538
 30
0.0
 10
63.7310857761
 20
124.2170528889
 30
0.0
 10
63.8464738557
 20
123.8939763337
 30
0.0
  0
SPLINE
  5
420
100
AcDbEntity
  8
_1
100
AcDbSpline
 62
7
  6
CONTINUOUS
 70
0
 71
3
 72
9
 73
5
 74
0
 42
0.0000001
 43
0.0000001
 44
0.0000000001
 40
0.0
 40
0.0
 40
0.0
 40
0.0
 40
0.5212833637
 40
1.0
 40
1.0
 40
1.0
 40
1.0
 10
83.7664733733
 20
110.6185500671
 30
0.0
 10
84.311138169
 20
110.8489177469
 30
0.0
 10
85.3307257159
 20
111.3545750154
 30
0.0
 10
86.2673415643
 20
112.0049274441
 30
0.0
 10
86.6830585506
 20
112.3543903725
 30
0.0
  0
SPLINE
  5
421
100
AcDbEntity
  8
_1
100
AcDbSpline
 62
7
  6
CONTINUOUS
 70
0
 71
3
 72
11
 73
7
 74
0
 42
0.0000001
 43
0.0000001
 44
0.0000000001
 40
0.0
 40
0.0
 40
0.0
 40
0.0
 40
0.2221559072
 40
0.457252588
 40
0.7151905087
 40
1.0
 40
1.0
 40
1.0
 40
1.0
 10
62.706709842
 20
112.2259250002
 30
0.0
 10
62.7066976175
 20
112.1917277773
 30
0.0
 10
62.7178475161
 20
112.1209311803
 30
0.0
 10
62.7663480075
 20
112.0206518603
 30
0.0
 10
62.8439372124
 20
111.92818274
 30
0.0
 10
62.9096460104
 20
111.8757468987
 30
0.0
 10
62.9459567617
 20
111.851178125
 30
0.0
  0
SPLINE
  5
422
100
AcDbEntity
  8
_1
100
AcDbSpline
 62
7
  6
CONTINUOUS
 70
0
 71
3
 72
9
 73
5
 74
0
 42
0.0000001
 43
0.0000001
 44
0.0000000001
 40
0.0
 40
0.0
 40
0.0
 40
0.0
 40
0.4936772407
 40
1.0
 40
1.0
 40
1.0
 40
1.0
 10
91.3837918241
 20
111.2810391935
 30
0.0
 10
91.1691269573
 20
111.2266728795
 30
0.0
 10
90.7238855418
 20
111.1555123352
 30
0.0
 10
90.2733083457
 20
111.1547470462
 30
0.0
 10
90.046872951
 20
111.1722979097
 30
0.0
  0
SPLINE
  5
423
100
AcDbEntity
  8
_1
100
AcDbSpline
 62
7
  6
CONTINUOUS
 70
0
 71
3
 72
11
 73
7
 74
0
 42
0.0000001
 43
0.0000001
 44
0.0000000001
 40
0.0
 40
0.0
 40
0.0
 40
0.0
 40
0.2177467144
 40
0.4508752365
 40
0.7101798094
 40
1.0
 40
1.0
 40
1.0
 40
1.0
 10
59.8795105284
 20
113.6641899295
 30
0.0
 10
59.8795169602
 20
113.5689820577
 30
0.0
 10
59.9146520389
 20
113.3705126435
 30
0.0
 10
60.0651333897
 20
113.0940325193
 30
0.0
 10
60.3029412411
 20
112.8439984577
 30
0.0
 10
60.5019675699
 20
112.706868574
 30
0.0
 10
60.6117415837
 20
112.6435600167
 30
0.0
  0
SPLINE
  5
424
100
AcDbEntity
  8
_1
100
AcDbSpline
 62
7
  6
CONTINUOUS
 70
0
 71
3
 72
11
 73
7
 74
0
 42
0.0000001
 43
0.0000001
 44
0.0000000001
 40
0.0
 40
0.0
 40
0.0
 40
0.0
 40
0.2177629239
 40
0.4508896611
 40
0.710402324
 40
1.0
 40
1.0
 40
1.0
 40
1.0
 10
62.7066808444
 20
116.245580537
 30
0.0
 10
62.7066944741
 20
116.207495884
 30
0.0
 10
62.7206826342
 20
116.1281015392
 30
0.0
 10
62.7809104428
 20
116.0174723939
 30
0.0
 10
62.8760817159
 20
115.917517798
 30
0.0
 10
62.9556729328
 20
115.8626598071
 30
0.0
 10
62.9995355208
 20
115.837336303
 30
0.0
  0
SPLINE
  5
425
100
AcDbEntity
  8
_1
100
AcDbSpline
 62
7
  6
CONTINUOUS
 70
0
 71
3
 72
11
 73
7
 74
0
 42
0.0000001
 43
0.0000001
 44
0.0000000001
 40
0.0
 40
0.0
 40
0.0
 40
0.0
 40
0.2350284792
 40
0.4952398098
 40
0.7580170347
 40
1.0
 40
1.0
 40
1.0
 40
1.0
 10
79.1536235387
 20
106.5109802277
 30
0.0
 10
79.2486595902
 20
106.4561123791
 30
0.0
 10
79.4686154691
 20
106.374239829
 30
0.0
 10
79.8221571384
 20
106.329679969
 30
0.0
 10
80.1805735668
 20
106.3587362401
 30
0.0
 10
80.4084636921
 20
106.430104054
 30
0.0
 10
80.5098174213
 20
106.4800336229
 30
0.0
  0
SPLINE
  5
426
100
AcDbEntity
  8
_1
100
AcDbSpline
 62
7
  6
CONTINUOUS
 70
0
 71
3
 72
11
 73
7
 74
0
 42
0.0000001
 43
0.0000001
 44
0.0000000001
 40
0.0
 40
0.0
 40
0.0
 40
0.0
 40
0.2178552527
 40
0.4509850943
 40
0.7102423762
 40
1.0
 40
1.0
 40
1.0
 40
1.0
 10
73.8795755008
 20
105.5814738173
 30
0.0
 10
73.8795858305
 20
105.4862137865
 30
0.0
 10
73.9146743145
 20
105.2876720089
 30
0.0
 10
74.0652340587
 20
105.0111854036
 30
0.0
 10
74.3029910524
 20
104.7611251199
 30
0.0
 10
74.5021030442
 20
104.6242055342
 30
0.0
 10
74.6117998711
 20
104.560805489
 30
0.0
  0
SPLINE
  5
427
100
AcDbEntity
  8
_1
100
AcDbSpline
 62
7
  6
CONTINUOUS
 70
0
 71
3
 72
9
 73
5
 74
0
 42
0.0000001
 43
0.0000001
 44
0.0000000001
 40
0.0
 40
0.0
 40
0.0
 40
0.0
 40
0.505238579
 40
1.0
 40
1.0
 40
1.0
 40
1.0
 10
77.0747333246
 20
118.3932198707
 30
0.0
 10
77.6491819651
 20
118.411120193
 30
0.0
 10
78.7856533461
 20
118.4718033845
 30
0.0
 10
79.9166687007
 20
118.6033518366
 30
0.0
 10
80.4727821766
 20
118.6899089112
 30
0.0
  0
SPLINE
  5
428
100
AcDbEntity
  8
_1
100
AcDbSpline
 62
7
  6
CONTINUOUS
 70
0
 71
3
 72
11
 73
7
 74
0
 42
0.0000001
 43
0.0000001
 44
0.0000000001
 40
0.0
 40
0.0
 40
0.0
 40
0.0
 40
0.2221563748
 40
0.4572532743
 40
0.7151910335
 40
1.0
 40
1.0
 40
1.0
 40
1.0
 10
90.0523214998
 20
110.5929810894
 30
0.0
 10
90.0523337265
 20
110.5587842753
 30
0.0
 10
90.0411841044
 20
110.4879885752
 30
0.0
 10
89.992684783
 20
110.3877103642
 30
0.0
 10
89.9150973507
 20
110.2952420792
 30
0.0
 10
89.849389965
 20
110.2428065386
 30
0.0
 10
89.8130799833
 20
110.2182378713
 30
0.0
  0
SPLINE
  5
429
100
AcDbEntity
  8
_1
100
AcDbSpline
 62
7
  6
CONTINUOUS
 70
0
 71
3
 72
9
 73
5
 74
0
 42
0.0000001
 43
0.0000001
 44
0.0000000001
 40
0.0
 40
0.0
 40
0.0
 40
0.0
 40
0.2460150976
 40
1.0
 40
1.0
 40
1.0
 40
1.0
 10
73.3245726115
 20
118.4219172601
 30
0.0
 10
73.6319460754
 20
118.4109850764
 30
0.0
 10
74.8814605124
 20
118.3717616764
 30
0.0
 10
76.1325603927
 20
118.3638614141
 30
0.0
 10
77.0747341968
 20
118.3932203743
 30
0.0
  0
SPLINE
  5
42A
100
AcDbEntity
  8
_1
100
AcDbSpline
 62
7
  6
CONTINUOUS
 70
0
 71
3
 72
11
 73
7
 74
0
 42
0.0000001
 43
0.0000001
 44
0.0000000001
 40
0.0
 40
0.0
 40
0.0
 40
0.0
 40
0.2848094484
 40
0.5427475259
 40
0.7778442032
 40
1.0
 40
1.0
 40
1.0
 40
1.0
 10
62.9459567617
 20
110.2181732907
 30
0.0
 10
62.9096460163
 20
110.2427420604
 30
0.0
 10
62.8439372347
 20
110.2951779428
 30
0.0
 10
62.7663479766
 20
110.3876470433
 30
0.0
 10
62.717847528
 20
110.4879263875
 30
0.0
 10
62.706697597
 20
110.5587229602
 30
0.0
 10
62.7067098332
 20
110.5929201656
 30
0.0
  0
SPLINE
  5
42B
100
AcDbEntity
  8
_1
100
AcDbSpline
 62
7
  6
CONTINUOUS
 70
0
 71
3
 72
9
 73
5
 74
0
 42
0.0000001
 43
0.0000001
 44
0.0000000001
 40
0.0
 40
0.0
 40
0.0
 40
0.0
 40
0.5063223386
 40
1.0
 40
1.0
 40
1.0
 40
1.0
 10
62.7121590452
 20
111.1722329036
 30
0.0
 10
62.4857222716
 20
111.1546803418
 30
0.0
 10
62.0351416792
 20
111.1554428296
 30
0.0
 10
61.5898965369
 20
111.2266014522
 30
0.0
 10
61.3752295926
 20
111.2809670618
 30
0.0
  0
SPLINE
  5
42C
100
AcDbEntity
  8
_1
100
AcDbSpline
 62
7
  6
CONTINUOUS
 70
0
 71
3
 72
15
 73
11
 74
0
 42
0.0000001
 43
0.0000001
 44
0.0000000001
 40
0.0
 40
0.0
 40
0.0
 40
0.0
 40
0.0970951724
 40
0.2022215798
 40
0.3162050479
 40
0.4390549559
 40
0.5701505197
 40
0.708364785
 40
0.8522397047
 40
1.0
 40
1.0
 40
1.0
 40
1.0
 10
88.3374127859
 20
112.1335780849
 30
0.0
 10
88.1593723975
 20
111.7959336676
 30
0.0
 10
87.7110700868
 20
111.1320472573
 30
0.0
 10
86.8382041919
 20
110.2396391213
 30
0.0
 10
85.7597290557
 20
109.4294886024
 30
0.0
 10
84.4972525566
 20
108.7164552013
 30
0.0
 10
83.0752661375
 20
108.1133647614
 30
0.0
 10
81.5213975704
 20
107.631573353
 30
0.0
 10
79.8662476555
 20
107.2805163685
 30
0.0
 10
78.7268662438
 20
107.1393627013
 30
0.0
 10
78.1479446185
 20
107.0915960877
 30
0.0
  0
SPLINE
  5
42D
100
AcDbEntity
  8
_1
100
AcDbSpline
 62
7
  6
CONTINUOUS
 70
0
 71
3
 72
15
 73
11
 74
0
 42
0.0000001
 43
0.0000001
 44
0.0000000001
 40
0.0
 40
0.0
 40
0.0
 40
0.0
 40
0.1001563472
 40
0.2071980069
 40
0.3217376695
 40
0.4439727566
 40
0.573641402
 40
0.7101341034
 40
0.852637699
 40
1.0
 40
1.0
 40
1.0
 40
1.0
 10
64.1049278518
 20
123.21263615
 30
0.0
 10
64.2659676905
 20
122.9250263792
 30
0.0
 10
64.6525182492
 20
122.3589218543
 30
0.0
 10
65.377011925
 20
121.5822312752
 30
0.0
 10
66.2532562617
 20
120.8616716395
 30
0.0
 10
67.2686074358
 20
120.206596152
 30
0.0
 10
68.4093338182
 20
119.6254649643
 30
0.0
 10
69.659869294
 20
119.1258104319
 30
0.0
 10
71.0029410597
 20
118.7145799578
 30
0.0
 10
71.9348712237
 20
118.5058476834
 30
0.0
 10
72.4116253485
 20
118.4168706089
 30
0.0
  0
SPLINE
  5
42E
100
AcDbEntity
  8
_1
100
AcDbSpline
 62
7
  6
CONTINUOUS
 70
0
 71
3
 72
12
 73
8
 74
0
 42
0.0000001
 43
0.0000001
 44
0.0000000001
 40
0.0
 40
0.0
 40
0.0
 40
0.0
 40
0.289572783
 40
0.5486441711
 40
0.781639023
 40
0.8918405879
 40
1.0
 40
1.0
 40
1.0
 40
1.0
 10
86.9860587348
 20
131.6271788947
 30
0.0
 10
87.1616316599
 20
131.5258141123
 30
0.0
 10
87.4801079636
 20
131.3064627175
 30
0.0
 10
87.8606110473
 20
130.9068375423
 30
0.0
 10
88.0648822333
 20
130.5302367715
 30
0.0
 10
88.1444639791
 20
130.2231197487
 30
0.0
 10
88.1576220425
 20
130.0699258393
 30
0.0
 10
88.1576297069
 20
129.9942022777
 30
0.0
  0
SPLINE
  5
42F
100
AcDbEntity
  8
_1
100
AcDbSpline
 62
7
  6
CONTINUOUS
 70
0
 71
3
 72
9
 73
5
 74
0
 42
0.0000001
 43
0.0000001
 44
0.0000000001
 40
0.0
 40
0.0
 40
0.0
 40
0.0
 40
0.2574215209
 40
1.0
 40
1.0
 40
1.0
 40
1.0
 10
84.7527627622
 20
108.5702224431
 30
0.0
 10
84.8808064864
 20
108.6333002203
 30
0.0
 10
85.3743063903
 20
108.886126049
 30
0.0
 10
85.8517293042
 20
109.1708473396
 30
0.0
 10
86.1927503233
 20
109.4015946865
 30
0.0
  0
SPLINE
  5
430
100
AcDbEntity
  8
_1
100
AcDbSpline
 62
7
  6
CONTINUOUS
 70
0
 71
3
 72
16
 73
12
 74
0
 42
0.0000001
 43
0.0000001
 44
0.0000000001
 40
0.0
 40
0.0
 40
0.0
 40
0.0
 40
0.0562024741
 40
0.1127160066
 40
0.2298707162
 40
0.3572728096
 40
0.4931054594
 40
0.6310796902
 40
0.7632153057
 40
0.8855660793
 40
1.0
 40
1.0
 40
1.0
 40
1.0
 10
93.2837781235
 20
120.7733782597
 30
0.0
 10
93.2701753425
 20
120.7655247373
 30
0.0
 10
93.2445203334
 20
120.7466423083
 30
0.0
 10
93.2031022852
 20
120.6968693382
 30
0.0
 10
93.1731398545
 20
120.6150476793
 30
0.0
 10
93.1805680835
 20
120.5065772057
 30
0.0
 10
93.2245616631
 20
120.401319591
 30
0.0
 10
93.3010351861
 20
120.3148639408
 30
0.0
 10
93.3975602195
 20
120.258381189
 30
0.0
 10
93.5021590872
 20
120.2420565237
 30
0.0
 10
93.5683188953
 20
120.261306555
 30
0.0
 10
93.596015533
 20
120.2772971208
 30
0.0
  0
SPLINE
  5
431
100
AcDbEntity
  8
_1
100
AcDbSpline
 62
7
  6
CONTINUOUS
 70
0
 71
3
 72
11
 73
7
 74
0
 42
0.0000001
 43
0.0000001
 44
0.0000000001
 40
0.0
 40
0.0
 40
0.0
 40
0.0
 40
0.2368476818
 40
0.4931782071
 40
0.7531360043
 40
1.0
 40
1.0
 40
1.0
 40
1.0
 10
93.596015533
 20
120.2772971208
 30
0.0
 10
93.556962602
 20
120.3040040782
 30
0.0
 10
93.4827263021
 20
120.370195448
 30
0.0
 10
93.3913013123
 20
120.4906290032
 30
0.0
 10
93.3215178938
 20
120.6270123646
 30
0.0
 10
93.2923808156
 20
120.7248219655
 30
0.0
 10
93.2837781235
 20
120.7733782597
 30
0.0
  0
SPLINE
  5
432
100
AcDbEntity
  8
_1
100
AcDbSpline
 62
7
  6
CONTINUOUS
 70
0
 71
3
 72
11
 73
7
 74
0
 42
0.0000001
 43
0.0000001
 44
0.0000000001
 40
0.0
 40
0.0
 40
0.0
 40
0.0
 40
0.2468139738
 40
0.5067097693
 40
0.7631035035
 40
1.0
 40
1.0
 40
1.0
 40
1.0
 10
110.9613740538
 20
130.9794821065
 30
0.0
 10
110.9699750024
 20
130.9309356536
 30
0.0
 10
110.9991021197
 20
130.8331469132
 30
0.0
 10
111.0688744932
 20
130.696769133
 30
0.0
 10
111.1602996765
 20
130.5763229369
 30
0.0
 10
111.2345504854
 20
130.510113428
 30
0.0
 10
111.2736114634
 20
130.4834009676
 30
0.0
  0
SPLINE
  5
433
100
AcDbEntity
  8
_1
100
AcDbSpline
 62
7
  6
CONTINUOUS
 70
0
 71
3
 72
15
 73
11
 74
0
 42
0.0000001
 43
0.0000001
 44
0.0000000001
 40
0.0
 40
0.0
 40
0.0
 40
0.0
 40
0.1125879611
 40
0.2313741924
 40
0.3594779183
 40
0.4949244251
 40
0.6316848003
 40
0.7635245117
 40
0.8860629988
 40
1.0
 40
1.0
 40
1.0
 40
1.0
 10
111.2736114634
 20
130.4834009676
 30
0.0
 10
111.3010603194
 20
130.4992484774
 30
0.0
 10
111.3501795521
 20
130.5461525822
 30
0.0
 10
111.3862693152
 20
130.6439585156
 30
0.0
 10
111.3808289843
 20
130.7539492152
 30
0.0
 10
111.3368284451
 20
130.8601135739
 30
0.0
 10
111.2589468055
 20
130.9458889026
 30
0.0
 10
111.1608525777
 20
131.0006420697
 30
0.0
 10
111.0555082394
 20
131.0149914973
 30
0.0
 10
110.9891518048
 20
130.9955195027
 30
0.0
 10
110.9613740538
 20
130.9794821065
 30
0.0
  0
SPLINE
  5
434
100
AcDbEntity
  8
_1
100
AcDbSpline
 62
7
  6
CONTINUOUS
 70
0
 71
3
 72
28
 73
24
 74
0
 42
0.0000001
 43
0.0000001
 44
0.0000000001
 40
0.0
 40
0.0
 40
0.0
 40
0.0
 40
0.0071260313
 40
0.0141540125
 40
0.0212181513
 40
0.0281385532
 40
0.0351884577
 40
0.042461532
 40
0.0573799404
 40
0.0728274013
 40
0.0880655681
 40
0.1167724165
 40
0.1454994422
 40
0.1755624033
 40
0.2061965845
 40
0.2372938572
 40
0.3011910694
 40
0.3670020932
 40
0.5019753054
 40
0.6372307878
 40
0.7670008321
 40
0.8878085249
 40
1.0
 40
1.0
 40
1.0
 40
1.0
 10
96.5058515345
 20
120.0196523231
 30
0.0
 10
96.5043609955
 20
120.0187917651
 30
0.0
 10
96.5008917982
 20
120.0216926158
 30
0.0
 10
96.4956847803
 20
120.0218162321
 30
0.0
 10
96.4911008976
 20
120.0193635621
 30
0.0
 10
96.4865992686
 20
120.0170491742
 30
0.0
 10
96.4825885926
 20
120.0137806679
 30
0.0
 10
96.477767264
 20
120.0086134783
 30
0.0
 10
96.4726710129
 20
120.0009719512
 30
0.0
 10
96.4685093756
 20
119.9907943107
 30
0.0
 10
96.4622060306
 20
119.9777064172
 30
0.0
 10
96.4481428728
 20
119.9665806189
 30
0.0
 10
96.432340384
 20
119.9524103026
 30
0.0
 10
96.4217427699
 20
119.9333000858
 30
0.0
 10
96.4114484432
 20
119.9137332919
 30
0.0
 10
96.399336764
 20
119.8858471298
 30
0.0
 10
96.3887952842
 20
119.8482788634
 30
0.0
 10
96.3803938095
 20
119.7847379207
 30
0.0
 10
96.3866014384
 20
119.7027623186
 30
0.0
 10
96.4189126933
 20
119.6104506702
 30
0.0
 10
96.4740555259
 20
119.5337042738
 30
0.0
 10
96.5451440449
 20
119.4798068566
 30
0.0
 10
96.6009945086
 20
119.4642579692
 30
0.0
 10
96.6280249416
 20
119.4623571231
 30
0.0
  0
SPLINE
  5
435
100
AcDbEntity
  8
_1
100
AcDbSpline
 62
7
  6
CONTINUOUS
 70
0
 71
3
 72
10
 73
6
 74
0
 42
0.0000001
 43
0.0000001
 44
0.0000000001
 40
0.0
 40
0.0
 40
0.0
 40
0.0
 40
0.5162266803
 40
0.7698526763
 40
1.0
 40
1.0
 40
1.0
 40
1.0
 10
96.7399306869
 20
119.4886921232
 30
0.0
 10
96.6690157399
 20
119.5592166949
 30
0.0
 10
96.5830748693
 20
119.6864103342
 30
0.0
 10
96.5187362113
 20
119.8697285156
 30
0.0
 10
96.505710638
 20
119.9636206922
 30
0.0
 10
96.505710638
 20
120.0082091969
 30
0.0
  0
SPLINE
  5
436
100
AcDbEntity
  8
_1
100
AcDbSpline
 62
7
  6
CONTINUOUS
 70
0
 71
3
 72
11
 73
7
 74
0
 42
0.0000001
 43
0.0000001
 44
0.0000000001
 40
0.0
 40
0.0
 40
0.0
 40
0.0
 40
0.2296728385
 40
0.4827793693
 40
0.7449425494
 40
1.0
 40
1.0
 40
1.0
 40
1.0
 10
112.0619950567
 20
128.9895805821
 30
0.0
 10
112.0619950567
 20
128.9449905256
 30
0.0
 10
112.0749999913
 20
128.8511578138
 30
0.0
 10
112.123138334
 20
128.7139965415
 30
0.0
 10
112.1968797841
 20
128.5830581685
 30
0.0
 10
112.261049099
 20
128.5049264056
 30
0.0
 10
112.2962151056
 20
128.4700635084
 30
0.0
  0
SPLINE
  5
437
100
AcDbEntity
  8
_1
100
AcDbSpline
 62
7
  6
CONTINUOUS
 70
0
 71
3
 72
15
 73
11
 74
0
 42
0.0000001
 43
0.0000001
 44
0.0000000001
 40
0.0
 40
0.0
 40
0.0
 40
0.0
 40
0.1146049271
 40
0.2382919834
 40
0.3701018142
 40
0.5059946053
 40
0.6405719658
 40
0.7687082189
 40
0.8880207303
 40
1.0
 40
1.0
 40
1.0
 40
1.0
 10
112.2962151056
 20
128.4700635084
 30
0.0
 10
112.3212559514
 20
128.4845207611
 30
0.0
 10
112.3672974911
 20
128.5258410725
 30
0.0
 10
112.4112401741
 20
128.6100689657
 30
0.0
 10
112.4283358179
 20
128.7088255226
 30
0.0
 10
112.4161215317
 20
128.8110330067
 30
0.0
 10
112.375301064
 20
128.9045613637
 30
0.0
 10
112.310729551
 20
128.978477281
 30
0.0
 10
112.229518922
 20
129.0231133641
 30
0.0
 10
112.1696219279
 20
129.0298720732
 30
0.0
 10
112.1415246398
 20
129.0269176858
 30
0.0
  0
SPLINE
  5
438
100
AcDbEntity
  8
_1
100
AcDbSpline
 62
7
  6
CONTINUOUS
 70
0
 71
3
 72
10
 73
6
 74
0
 42
0.0000001
 43
0.0000001
 44
0.0000000001
 40
0.0
 40
0.0
 40
0.0
 40
0.0
 40
0.374352034
 40
0.7487804994
 40
1.0
 40
1.0
 40
1.0
 40
1.0
 10
112.1415246398
 20
129.0269176858
 30
0.0
 10
112.1310972526
 20
129.0258212617
 30
0.0
 10
112.1103241604
 20
129.0221111246
 30
0.0
 10
112.0840314549
 20
129.0121827708
 30
0.0
 10
112.068229464
 20
129.0045417773
 30
0.0
 10
112.0621359533
 20
129.0010237083
 30
0.0
  0
SPLINE
  5
439
100
AcDbEntity
  8
_1
100
AcDbSpline
 62
7
  6
CONTINUOUS
 70
0
 71
3
 72
11
 73
7
 74
0
 42
0.0000001
 43
0.0000001
 44
0.0000000001
 40
0.0
 40
0.0
 40
0.0
 40
0.0
 40
0.2419831666
 40
0.5047604605
 40
0.7649717181
 40
1.0
 40
1.0
 40
1.0
 40
1.0
 10
80.5098174213
 20
104.8470287886
 30
0.0
 10
80.4084636078
 20
104.7970991782
 30
0.0
 10
80.1805733474
 20
104.7257313519
 30
0.0
 10
79.8221568213
 20
104.6966751416
 30
0.0
 10
79.4686152539
 20
104.7412350587
 30
0.0
 10
79.2486595104
 20
104.8231075909
 30
0.0
 10
79.1536235387
 20
104.8779753935
 30
0.0
  0
SPLINE
  5
43A
100
AcDbEntity
  8
_1
100
AcDbSpline
 62
7
  6
CONTINUOUS
 70
0
 71
3
 72
9
 73
5
 74
0
 42
0.0000001
 43
0.0000001
 44
0.0000000001
 40
0.0
 40
0.0
 40
0.0
 40
0.0
 40
0.260715657
 40
1.0
 40
1.0
 40
1.0
 40
1.0
 10
88.4370856808
 20
143.6677770051
 30
0.0
 10
88.443068919
 20
143.664960044
 30
0.0
 10
88.4662766968
 20
143.6547253872
 30
0.0
 10
88.4905612815
 20
143.6468356953
 30
0.0
 10
88.5088704448
 20
143.6427828316
 30
0.0
  0
SPLINE
  5
43B
100
AcDbEntity
  8
_1
100
AcDbSpline
 62
7
  6
CONTINUOUS
 70
0
 71
3
 72
13
 73
9
 74
0
 42
0.0000001
 43
0.0000001
 44
0.0000000001
 40
0.0
 40
0.0
 40
0.0
 40
0.0
 40
0.4347045048
 40
0.6129522129
 40
0.7601937235
 40
0.8738992662
 40
0.9522812162
 40
1.0
 40
1.0
 40
1.0
 40
1.0
 10
70.7594897504
 20
133.4616731583
 30
0.0
 10
70.7433690439
 20
133.4523659196
 30
0.0
 10
70.7207863295
 20
133.4392498613
 30
0.0
 10
70.6926526842
 20
133.422281994
 30
0.0
 10
70.6771104043
 20
133.4128705212
 30
0.0
 10
70.6637134076
 20
133.4038179591
 30
0.0
 10
70.6578888446
 20
133.4005271467
 30
0.0
 10
70.6496864505
 20
133.3930345946
 30
0.0
 10
70.6517171091
 20
133.3928069852
 30
0.0
  0
SPLINE
  5
43C
100
AcDbEntity
  8
_1
100
AcDbSpline
 62
7
  6
CONTINUOUS
 70
0
 71
3
 72
9
 73
5
 74
0
 42
0.0000001
 43
0.0000001
 44
0.0000000001
 40
0.0
 40
0.0
 40
0.0
 40
0.0
 40
0.4753351796
 40
1.0
 40
1.0
 40
1.0
 40
1.0
 10
78.1479446185
 20
109.296152614
 30
0.0
 10
78.1479446185
 20
109.3262689694
 30
0.0
 10
78.1354061673
 20
109.3895340513
 30
0.0
 10
78.1093710067
 20
109.4476639701
 30
0.0
 10
78.0931636151
 20
109.4766870137
 30
0.0
  0
SPLINE
  5
43D
100
AcDbEntity
  8
_1
100
AcDbSpline
 62
7
  6
CONTINUOUS
 70
0
 71
3
 72
11
 73
7
 74
0
 42
0.0000001
 43
0.0000001
 44
0.0000000001
 40
0.0
 40
0.0
 40
0.0
 40
0.0
 40
0.2507504289
 40
0.5005412237
 40
0.7504740468
 40
1.0
 40
1.0
 40
1.0
 40
1.0
 10
78.5715854811
 20
106.2751043424
 30
0.0
 10
78.5306876008
 20
106.2998123554
 30
0.0
 10
78.4480025672
 20
106.3473812227
 30
0.0
 10
78.3240382633
 20
106.4186747247
 30
0.0
 10
78.2004806206
 20
106.4902175462
 30
0.0
 10
78.1178746399
 20
106.5374882637
 30
0.0
 10
78.0766086735
 20
106.5611102637
 30
0.0
  0
SPLINE
  5
43E
100
AcDbEntity
  8
_1
100
AcDbSpline
 62
7
  6
CONTINUOUS
 70
0
 71
3
 72
18
 73
14
 74
0
 42
0.0000001
 43
0.0000001
 44
0.0000000001
 40
0.0
 40
0.0
 40
0.0
 40
0.0
 40
0.1291557447
 40
0.2710511297
 40
0.4193064578
 40
0.5656675711
 40
0.7014666415
 40
0.7631060425
 40
0.8196761645
 40
0.8709877964
 40
0.9173521387
 40
0.9597833902
 40
1.0
 40
1.0
 40
1.0
 40
1.0
 10
93.2085159781
 20
143.3845835362
 30
0.0
 10
93.0611649471
 20
143.469654769
 30
0.0
 10
92.7251557335
 20
143.602866587
 30
0.0
 10
92.1771109779
 20
143.6930693657
 30
0.0
 10
91.5992512585
 20
143.684338043
 30
0.0
 10
91.0389104385
 20
143.5837929269
 30
0.0
 10
90.6097826591
 20
143.4301472463
 30
0.0
 10
90.3155653662
 20
143.2694341026
 30
0.0
 10
90.1333247268
 20
143.1392381326
 30
0.0
 10
89.9861390508
 20
142.9978974803
 30
0.0
 10
89.8772715803
 20
142.8473175484
 30
0.0
 10
89.809762154
 20
142.6896004516
 30
0.0
 10
89.7943238982
 20
142.5802078353
 30
0.0
 10
89.7943144355
 20
142.5272278524
 30
0.0
  0
SPLINE
  5
43F
100
AcDbEntity
  8
_1
100
AcDbSpline
 62
7
  6
CONTINUOUS
 70
0
 71
3
 72
18
 73
14
 74
0
 42
0.0000001
 43
0.0000001
 44
0.0000000001
 40
0.0
 40
0.0
 40
0.0
 40
0.0
 40
0.1286618188
 40
0.270188017
 40
0.4172742359
 40
0.5615634344
 40
0.6951983489
 40
0.7562085623
 40
0.8127085884
 40
0.8646674042
 40
0.9124909505
 40
0.957127602
 40
1.0
 40
1.0
 40
1.0
 40
1.0
 10
74.6117998711
 20
104.560805489
 30
0.0
 10
74.7968242025
 20
104.4538693878
 30
0.0
 10
75.2159069546
 20
104.2811714184
 30
0.0
 10
75.8986585424
 20
104.144458793
 30
0.0
 10
76.6209605899
 20
104.1245021787
 30
0.0
 10
77.3232186341
 20
104.22307494
 30
0.0
 10
77.8614721302
 20
104.4027851844
 30
0.0
 10
78.2288391282
 20
104.6024704006
 30
0.0
 10
78.4569241681
 20
104.7690963046
 30
0.0
 10
78.6409827366
 20
104.9538976011
 30
0.0
 10
78.7768116749
 20
105.153621342
 30
0.0
 10
78.8605426445
 20
105.3643521636
 30
0.0
 10
78.8795282708
 20
105.5103253863
 30
0.0
 10
78.8795423407
 20
105.5815352927
 30
0.0
  0
SPLINE
  5
440
100
AcDbEntity
  8
_1
100
AcDbSpline
 62
7
  6
CONTINUOUS
 70
0
 71
3
 72
16
 73
12
 74
0
 42
0.0000001
 43
0.0000001
 44
0.0000000001
 40
0.0
 40
0.0
 40
0.0
 40
0.0
 40
0.1232487517
 40
0.2581664754
 40
0.3993849264
 40
0.5405720294
 40
0.6754293692
 40
0.7985734347
 40
0.8546944498
 40
0.9068823484
 40
1.0
 40
1.0
 40
1.0
 40
1.0
 10
93.2085159781
 20
142.9763323276
 30
0.0
 10
93.0775696394
 20
143.0519325212
 30
0.0
 10
92.7842341236
 20
143.1780228527
 30
0.0
 10
92.305110512
 20
143.2895322671
 30
0.0
 10
91.792546688
 20
143.3274288912
 30
0.0
 10
91.2801208662
 20
143.2890326965
 30
0.0
 10
90.8012826636
 20
143.1769469463
 30
0.0
 10
90.4447677075
 20
143.0232941796
 30
0.0
 10
90.2065148885
 20
142.8673202871
 30
0.0
 10
90.0187740327
 20
142.7063272865
 30
0.0
 10
89.9090086156
 20
142.5598698672
 30
0.0
 10
89.8612713134
 20
142.4560844129
 30
0.0
  0
SPLINE
  5
441
100
AcDbEntity
  8
_1
100
AcDbSpline
 62
7
  6
CONTINUOUS
 70
0
 71
3
 72
11
 73
7
 74
0
 42
0.0000001
 43
0.0000001
 44
0.0000000001
 40
0.0
 40
0.0
 40
0.0
 40
0.0
 40
0.2495319056
 40
0.499466617
 40
0.7492608447
 40
1.0
 40
1.0
 40
1.0
 40
1.0
 10
74.6824961238
 20
106.5611068116
 30
0.0
 10
74.6412304006
 20
106.537483089
 30
0.0
 10
74.5586266938
 20
106.4902073627
 30
0.0
 10
74.43506772
 20
106.4186655578
 30
0.0
 10
74.3111084728
 20
106.3473683011
 30
0.0
 10
74.228425073
 20
106.2998020421
 30
0.0
 10
74.1875234377
 20
106.2751053531
 30
0.0
  0
SPLINE
  5
442
100
AcDbEntity
  8
_1
100
AcDbSpline
 62
7
  6
CONTINUOUS
 70
0
 71
3
 72
13
 73
9
 74
0
 42
0.0000001
 43
0.0000001
 44
0.0000000001
 40
0.0
 40
0.0
 40
0.0
 40
0.0
 40
0.2370344215
 40
0.3668256619
 40
0.5000074942
 40
0.6331878644
 40
0.7629776499
 40
1.0
 40
1.0
 40
1.0
 40
1.0
 10
78.0766086735
 20
106.5611102643
 30
0.0
 10
77.8351528961
 20
106.6993275137
 30
0.0
 10
77.4237194536
 20
106.8499421447
 30
0.0
 10
76.8449026408
 20
106.9495131855
 30
0.0
 10
76.3795277234
 20
106.9758542984
 30
0.0
 10
75.9141536678
 20
106.949510677
 30
0.0
 10
75.3353597271
 20
106.8499179516
 30
0.0
 10
74.9239349079
 20
106.6993252269
 30
0.0
 10
74.6824961238
 20
106.5611068122
 30
0.0
  0
SPLINE
  5
443
100
AcDbEntity
  8
_1
100
AcDbSpline
 62
7
  6
CONTINUOUS
 70
0
 71
3
 72
9
 73
5
 74
0
 42
0.0000001
 43
0.0000001
 44
0.0000000001
 40
0.0
 40
0.0
 40
0.0
 40
0.0
 40
0.257496431
 40
1.0
 40
1.0
 40
1.0
 40
1.0
 10
100.8664852739
 20
139.2250334442
 30
0.0
 10
100.8706962627
 20
139.3759632174
 30
0.0
 10
100.892029032
 20
139.961920613
 30
0.0
 10
100.9358457834
 20
140.5473404389
 30
0.0
 10
100.9870284429
 20
140.9797042613
 30
0.0
  0
SPLINE
  5
444
100
AcDbEntity
  8
_1
100
AcDbSpline
 62
7
  6
CONTINUOUS
 70
0
 71
3
 72
11
 73
7
 74
0
 42
0.0000001
 43
0.0000001
 44
0.0000000001
 40
0.0
 40
0.0
 40
0.0
 40
0.0
 40
0.2732771813
 40
0.5266892447
 40
0.7664980312
 40
1.0
 40
1.0
 40
1.0
 40
1.0
 10
100.9870284429
 20
140.9797042613
 30
0.0
 10
101.0414923272
 20
141.4397861214
 30
0.0
 10
101.1872289992
 20
142.3227878342
 30
0.0
 10
101.5547129894
 20
143.5731266744
 30
0.0
 10
102.0647728035
 20
144.6990544629
 30
0.0
 10
102.4978452839
 20
145.3781254429
 30
0.0
 10
102.7325401005
 20
145.6969126987
 30
0.0
  0
SPLINE
  5
445
100
AcDbEntity
  8
_1
100
AcDbSpline
 62
7
  6
CONTINUOUS
 70
0
 71
3
 72
9
 73
5
 74
0
 42
0.0000001
 43
0.0000001
 44
0.0000000001
 40
0.0
 40
0.0
 40
0.0
 40
0.0
 40
0.5075159655
 40
1.0
 40
1.0
 40
1.0
 40
1.0
 10
80.5256173705
 20
129.0471990206
 30
0.0
 10
80.4874623099
 20
129.1329113969
 30
0.0
 10
80.4281632919
 20
129.3095164903
 30
0.0
 10
80.4076433839
 20
129.4949087141
 30
0.0
 10
80.4076433859
 20
129.5859510712
 30
0.0
  0
SPLINE
  5
446
100
AcDbEntity
  8
_1
100
AcDbSpline
 62
7
  6
CONTINUOUS
 70
0
 71
3
 72
11
 73
7
 74
0
 42
0.0000001
 43
0.0000001
 44
0.0000000001
 40
0.0
 40
0.0
 40
0.0
 40
0.0
 40
0.2327695464
 40
0.4718356604
 40
0.7252798503
 40
1.0
 40
1.0
 40
1.0
 40
1.0
 10
102.7325401005
 20
146.1172656623
 30
0.0
 10
102.4795613403
 20
145.7762549268
 30
0.0
 10
102.0153904751
 20
145.0470737164
 30
0.0
 10
101.4812707171
 20
143.8312371352
 30
0.0
 10
101.113214776
 20
142.4762684049
 30
0.0
 10
100.9811985744
 20
141.5195651922
 30
0.0
 10
100.9356141114
 20
141.0205178017
 30
0.0
  0
SPLINE
  5
447
100
AcDbEntity
  8
_1
100
AcDbSpline
 62
7
  6
CONTINUOUS
 70
0
 71
3
 72
9
 73
5
 74
0
 42
0.0000001
 43
0.0000001
 44
0.0000000001
 40
0.0
 40
0.0
 40
0.0
 40
0.0
 40
0.5435787683
 40
1.0
 40
1.0
 40
1.0
 40
1.0
 10
100.9356141114
 20
141.0205178017
 30
0.0
 10
100.9266201432
 20
140.9220540688
 30
0.0
 10
100.9102217039
 20
140.7409014567
 30
0.0
 10
100.8941266153
 20
140.5597192087
 30
0.0
 10
100.8862148276
 20
140.4770768378
 30
0.0
  0
SPLINE
  5
448
100
AcDbEntity
  8
_1
100
AcDbSpline
 62
7
  6
CONTINUOUS
 70
0
 71
3
 72
9
 73
5
 74
0
 42
0.0000001
 43
0.0000001
 44
0.0000000001
 40
0.0
 40
0.0
 40
0.0
 40
0.0
 40
0.4569128582
 40
1.0
 40
1.0
 40
1.0
 40
1.0
 10
100.8852797383
 20
140.4672239721
 30
0.0
 10
100.8806598806
 20
140.4181169222
 30
0.0
 10
100.8733796469
 20
140.3103826064
 30
0.0
 10
100.8686310759
 20
140.2025351093
 30
0.0
 10
100.8664852739
 20
140.1439479686
 30
0.0
  0
SPLINE
  5
449
100
AcDbEntity
  8
_1
100
AcDbSpline
 62
7
  6
CONTINUOUS
 70
0
 71
3
 72
14
 73
10
 74
0
 42
0.0000001
 43
0.0000001
 44
0.0000000001
 40
0.0
 40
0.0
 40
0.0
 40
0.0
 40
0.1606231136
 40
0.2227931115
 40
0.2804457464
 40
0.3924873512
 40
0.5072833434
 40
0.7473125257
 40
1.0
 40
1.0
 40
1.0
 40
1.0
 10
97.2703065037
 20
144.6681922491
 30
0.0
 10
97.2499661486
 20
144.6564488097
 30
0.0
 10
97.223356071
 20
144.6338669238
 30
0.0
 10
97.2084898935
 20
144.595036812
 30
0.0
 10
97.204875015
 20
144.5610787346
 30
0.0
 10
97.2116353974
 20
144.5193057476
 30
0.0
 10
97.2391144316
 20
144.4564976316
 30
0.0
 10
97.2874955739
 20
144.3814901373
 30
0.0
 10
97.3339982312
 20
144.3263258619
 30
0.0
 10
97.3587419947
 20
144.2988854492
 30
0.0
  0
SPLINE
  5
44A
100
AcDbEntity
  8
_1
100
AcDbSpline
 62
7
  6
CONTINUOUS
 70
0
 71
3
 72
11
 73
7
 74
0
 42
0.0000001
 43
0.0000001
 44
0.0000000001
 40
0.0
 40
0.0
 40
0.0
 40
0.0
 40
0.2324318152
 40
0.4792821905
 40
0.7366606078
 40
1.0
 40
1.0
 40
1.0
 40
1.0
 10
97.3587419962
 20
144.2988854476
 30
0.0
 10
97.6966869836
 20
144.0740684248
 30
0.0
 10
98.3616786184
 20
143.5614836216
 30
0.0
 10
99.283637341
 20
142.6608306327
 30
0.0
 10
100.1397490847
 20
141.6264944492
 30
0.0
 10
100.6482268073
 20
140.8705732555
 30
0.0
 10
100.8862148276
 20
140.4770768378
 30
0.0
  0
SPLINE
  5
44B
100
AcDbEntity
  8
_1
100
AcDbSpline
 62
7
  6
CONTINUOUS
 70
0
 71
3
 72
11
 73
7
 74
0
 42
0.0000001
 43
0.0000001
 44
0.0000000001
 40
0.0
 40
0.0
 40
0.0
 40
0.0
 40
0.2780558125
 40
0.5353624402
 40
0.7745229033
 40
1.0
 40
1.0
 40
1.0
 40
1.0
 10
81.0137057277
 20
131.2178031798
 30
0.0
 10
80.9074080346
 20
131.1397882454
 30
0.0
 10
80.7118177398
 20
130.9764253834
 30
0.0
 10
80.4678930047
 20
130.6996528743
 30
0.0
 10
80.2895289616
 20
130.4051327258
 30
0.0
 10
80.2155357976
 20
130.1954276706
 30
0.0
 10
80.1917981552
 20
130.0911746199
 30
0.0
  0
SPLINE
  5
44C
100
AcDbEntity
  8
_1
100
AcDbSpline
 62
7
  6
CONTINUOUS
 70
0
 71
3
 72
11
 73
7
 74
0
 42
0.0000001
 43
0.0000001
 44
0.0000000001
 40
0.0
 40
0.0
 40
0.0
 40
0.0
 40
0.266523632
 40
0.5250121576
 40
0.7707751971
 40
1.0
 40
1.0
 40
1.0
 40
1.0
 10
100.9356141114
 20
141.0205178017
 30
0.0
 10
100.6832144993
 20
141.4089521849
 30
0.0
 10
100.1475632515
 20
142.1499742192
 30
0.0
 10
99.252460625
 20
143.1501379105
 30
0.0
 10
98.2988159319
 20
144.0003454233
 30
0.0
 10
97.6153394044
 20
144.4689919175
 30
0.0
 10
97.2703065037
 20
144.6681922491
 30
0.0
  0
SPLINE
  5
44D
100
AcDbEntity
  8
_1
100
AcDbSpline
 62
7
  6
CONTINUOUS
 70
0
 71
3
 72
11
 73
7
 74
0
 42
0.0000001
 43
0.0000001
 44
0.0000000001
 40
0.0
 40
0.0
 40
0.0
 40
0.0
 40
0.2349420801
 40
0.4825075335
 40
0.7389475396
 40
1.0
 40
1.0
 40
1.0
 40
1.0
 10
97.3517165766
 20
143.9570424708
 30
0.0
 10
97.6779960575
 20
143.7174893294
 30
0.0
 10
98.3173558349
 20
143.1827268008
 30
0.0
 10
99.201244509
 20
142.2635005999
 30
0.0
 10
100.0173122351
 20
141.2258605829
 30
0.0
 10
100.5007988615
 20
140.4749492798
 30
0.0
 10
100.7265146404
 20
140.0859277118
 30
0.0
  0
SPLINE
  5
44E
100
AcDbEntity
  8
_1
100
AcDbSpline
 62
7
  6
CONTINUOUS
 70
0
 71
3
 72
11
 73
7
 74
0
 42
0.0000001
 43
0.0000001
 44
0.0000000001
 40
0.0
 40
0.0
 40
0.0
 40
0.0
 40
0.2632066944
 40
0.5205204847
 40
0.7674131962
 40
1.0
 40
1.0
 40
1.0
 40
1.0
 10
100.8852797383
 20
140.4672239721
 30
0.0
 10
100.6481113247
 20
140.8598822364
 30
0.0
 10
100.1414016776
 20
141.6143899548
 30
0.0
 10
99.2883295231
 20
142.6474160254
 30
0.0
 10
98.3694768198
 20
143.5478957986
 30
0.0
 10
97.7066849219
 20
144.0611233321
 30
0.0
 10
97.3697845315
 20
144.2865455536
 30
0.0
  0
SPLINE
  5
44F
100
AcDbEntity
  8
_1
100
AcDbSpline
 62
7
  6
CONTINUOUS
 70
0
 71
3
 72
9
 73
5
 74
0
 42
0.0000001
 43
0.0000001
 44
0.0000000001
 40
0.0
 40
0.0
 40
0.0
 40
0.0
 40
0.2358725936
 40
1.0
 40
1.0
 40
1.0
 40
1.0
 10
100.8664852739
 20
140.1439479686
 30
0.0
 10
100.8549004862
 20
140.1410747701
 30
0.0
 10
100.8062721819
 20
140.1269387475
 30
0.0
 10
100.7600011569
 20
140.1052610457
 30
0.0
 10
100.7265146404
 20
140.0859277118
 30
0.0
  0
SPLINE
  5
450
100
AcDbEntity
  8
_1
100
AcDbSpline
 62
7
  6
CONTINUOUS
 70
0
 71
3
 72
14
 73
10
 74
0
 42
0.0000001
 43
0.0000001
 44
0.0000000001
 40
0.0
 40
0.0
 40
0.0
 40
0.0
 40
0.1719546446
 40
0.31186943
 40
0.4301428336
 40
0.5396197001
 40
0.6486849201
 40
0.760955824
 40
1.0
 40
1.0
 40
1.0
 40
1.0
 10
97.3517165766
 20
143.9570424708
 30
0.0
 10
97.3712909792
 20
143.96834369
 30
0.0
 10
97.4049861917
 20
143.9925003395
 30
0.0
 10
97.4408361128
 20
144.0374003591
 30
0.0
 10
97.45678757
 20
144.0840770547
 30
0.0
 10
97.4564921133
 20
144.1289871935
 30
0.0
 10
97.4454407383
 20
144.1713688071
 30
0.0
 10
97.4194741442
 20
144.2263261347
 30
0.0
 10
97.3906484852
 20
144.263051268
 30
0.0
 10
97.3697845315
 20
144.2865455536
 30
0.0
  0
SPLINE
  5
451
100
AcDbEntity
  8
_1
100
AcDbSpline
 62
7
  6
CONTINUOUS
 70
0
 71
3
 72
19
 73
15
 74
0
 42
0.0000001
 43
0.0000001
 44
0.0000000001
 40
0.0
 40
0.0
 40
0.0
 40
0.0
 40
0.1286323062
 40
0.2701561634
 40
0.4172442418
 40
0.5615281936
 40
0.6301799815
 40
0.6953202242
 40
0.7563157481
 40
0.8127969106
 40
0.8647389554
 40
0.9125514861
 40
0.9571602108
 40
1.0
 40
1.0
 40
1.0
 40
1.0
 10
81.5060039964
 20
128.504111823
 30
0.0
 10
81.783595205
 20
128.3438480897
 30
0.0
 10
82.4120906116
 20
128.0845413509
 30
0.0
 10
83.4364575919
 20
127.8795777073
 30
0.0
 10
84.51971462
 20
127.849635423
 30
0.0
 10
85.4132021971
 20
127.9749827251
 30
0.0
 10
86.0799856339
 20
128.167072788
 30
0.0
 10
86.5311071926
 20
128.3488072418
 30
0.0
 10
86.9318603173
 20
128.5667858533
 30
0.0
 10
87.2738893521
 20
128.8167261137
 30
0.0
 10
87.5499291191
 20
129.0939012731
 30
0.0
 10
87.7535923495
 20
129.3934517752
 30
0.0
 10
87.8790613353
 20
129.7094438488
 30
0.0
 10
87.9076391131
 20
129.9282769072
 30
0.0
 10
87.9076285337
 20
130.0350273994
 30
0.0
  0
SPLINE
  5
452
100
AcDbEntity
  8
_1
100
AcDbSpline
 62
7
  6
CONTINUOUS
 70
0
 71
3
 72
10
 73
6
 74
0
 42
0.0000001
 43
0.0000001
 44
0.0000000001
 40
0.0
 40
0.0
 40
0.0
 40
0.0
 40
0.2502730721
 40
0.6229835422
 40
1.0
 40
1.0
 40
1.0
 40
1.0
 10
96.6280249416
 20
119.4623571231
 30
0.0
 10
96.6377086358
 20
119.461676142
 30
0.0
 10
96.6620328496
 20
119.4614654641
 30
0.0
 10
96.700036027
 20
119.4705753299
 30
0.0
 10
96.7272661379
 20
119.481380286
 30
0.0
 10
96.7399306869
 20
119.4886921232
 30
0.0
  0
SPLINE
  5
453
100
AcDbEntity
  8
_1
100
AcDbSpline
 62
7
  6
CONTINUOUS
 70
0
 71
3
 72
12
 73
8
 74
0
 42
0.0000001
 43
0.0000001
 44
0.0000000001
 40
0.0
 40
0.0
 40
0.0
 40
0.0
 40
0.2895710537
 40
0.5486419394
 40
0.7816375395
 40
0.8918398063
 40
1.0
 40
1.0
 40
1.0
 40
1.0
 10
39.0444421234
 20
64.5112285498
 30
0.0
 10
39.0444421234
 20
64.3084920863
 30
0.0
 10
39.0137114298
 20
63.9230007989
 30
0.0
 10
38.857867398
 20
63.3936536279
 30
0.0
 10
38.6338473758
 20
63.0284430099
 30
0.0
 10
38.4076591213
 20
62.8059602265
 30
0.0
 10
38.2815642321
 20
62.7179659784
 30
0.0
 10
38.2159874508
 20
62.6800965893
 30
0.0
  0
SPLINE
  5
454
100
AcDbEntity
  8
_1
100
AcDbSpline
 62
7
  6
CONTINUOUS
 70
0
 71
3
 72
11
 73
7
 74
0
 42
0.0000001
 43
0.0000001
 44
0.0000000001
 40
0.0
 40
0.0
 40
0.0
 40
0.0
 40
0.2325023748
 40
0.4779713538
 40
0.7345262549
 40
1.0
 40
1.0
 40
1.0
 40
1.0
 10
23.7001799291
 20
70.757301216
 30
0.0
 10
23.7001799291
 20
70.2466291486
 30
0.0
 10
23.7588124574
 20
69.1962506985
 30
0.0
 10
24.0032234898
 20
67.5994236607
 30
0.0
 10
24.4029032298
 20
65.9597585613
 30
0.0
 10
24.763650229
 20
64.8699560469
 30
0.0
 10
24.9675974072
 20
64.323695502
 30
0.0
  0
SPLINE
  5
455
100
AcDbEntity
  8
_1
100
AcDbSpline
 62
7
  6
CONTINUOUS
 70
0
 71
3
 72
11
 73
7
 74
0
 42
0.0000001
 43
0.0000001
 44
0.0000000001
 40
0.0
 40
0.0
 40
0.0
 40
0.0
 40
0.2654709935
 40
0.5220382466
 40
0.7674779041
 40
1.0
 40
1.0
 40
1.0
 40
1.0
 10
29.0154499681
 20
57.3127297341
 30
0.0
 10
29.386521724
 20
56.8630224915
 30
0.0
 10
30.1498899448
 20
56.0057554681
 30
0.0
 10
31.3699538292
 20
54.8399683257
 30
0.0
 10
32.6304975309
 20
53.8299181587
 30
0.0
 10
33.5107573249
 20
53.2540299965
 30
0.0
 10
33.9530083904
 20
52.9986863735
 30
0.0
  0
SPLINE
  5
456
100
AcDbEntity
  8
_1
100
AcDbSpline
 62
7
  6
CONTINUOUS
 70
0
 71
3
 72
11
 73
7
 74
0
 42
0.0000001
 43
0.0000001
 44
0.0000000001
 40
0.0
 40
0.0
 40
0.0
 40
0.0
 40
0.2781105767
 40
0.5368264152
 40
0.7766518116
 40
1.0
 40
1.0
 40
1.0
 40
1.0
 10
40.7994967788
 20
60.885229366
 30
0.0
 10
40.7994967788
 20
60.5511025171
 30
0.0
 10
40.7642064171
 20
59.9053041678
 30
0.0
 10
40.5926660454
 20
58.9850631589
 30
0.0
 10
40.3061634669
 20
58.162670917
 30
0.0
 10
40.0319138708
 20
57.6739326991
 30
0.0
 10
39.8771043587
 20
57.4547584553
 30
0.0
  0
SPLINE
  5
457
100
AcDbEntity
  8
_1
100
AcDbSpline
 62
7
  6
CONTINUOUS
 70
0
 71
3
 72
12
 73
8
 74
0
 42
0.0000001
 43
0.0000001
 44
0.0000000001
 40
0.0
 40
0.0
 40
0.0
 40
0.0
 40
0.2895584497
 40
0.5486502143
 40
0.7816319468
 40
0.8918384854
 40
1.0
 40
1.0
 40
1.0
 40
1.0
 10
47.5317477416
 20
42.7096058212
 30
0.0
 10
47.6634198295
 20
42.6335866255
 30
0.0
 10
47.9253282289
 20
42.5090079162
 30
0.0
 10
48.327576266
 20
42.4117021904
 30
0.0
 10
48.6487823973
 20
42.4203071193
 30
0.0
 10
48.8781128702
 20
42.4837347615
 30
0.0
 10
48.9825453376
 20
42.5326558259
 30
0.0
 10
49.0317305958
 20
42.5610510721
 30
0.0
  0
SPLINE
  5
458
100
AcDbEntity
  8
_1
100
AcDbSpline
 62
7
  6
CONTINUOUS
 70
0
 71
3
 72
11
 73
7
 74
0
 42
0.0000001
 43
0.0000001
 44
0.0000000001
 40
0.0
 40
0.0
 40
0.0
 40
0.0
 40
0.2897467649
 40
0.5490797395
 40
0.7822221015
 40
1.0
 40
1.0
 40
1.0
 40
1.0
 10
25.8119795394
 20
84.8584356059
 30
0.0
 10
25.8119795394
 20
84.7444147269
 30
0.0
 10
25.7947202205
 20
84.5276041975
 30
0.0
 10
25.7068841195
 20
84.2297212616
 30
0.0
 10
25.5590537864
 20
83.9880262081
 30
0.0
 10
25.4201966694
 20
83.8712655844
 30
0.0
 10
25.3459711621
 20
83.8284284223
 30
0.0
  0
SPLINE
  5
459
100
AcDbEntity
  8
_1
100
AcDbSpline
 62
7
  6
CONTINUOUS
 70
0
 71
3
 72
11
 73
7
 74
0
 42
0.0000001
 43
0.0000001
 44
0.0000000001
 40
0.0
 40
0.0
 40
0.0
 40
0.0
 40
0.2897467649
 40
0.5490797395
 40
0.7822221015
 40
1.0
 40
1.0
 40
1.0
 40
1.0
 10
48.8120752973
 20
45.0213223191
 30
0.0
 10
48.8120752973
 20
44.9073014402
 30
0.0
 10
48.7948159784
 20
44.6904909107
 30
0.0
 10
48.7069798775
 20
44.3926079748
 30
0.0
 10
48.5591495444
 20
44.1509129214
 30
0.0
 10
48.4202924273
 20
44.0341522976
 30
0.0
 10
48.34606692
 20
43.9913151356
 30
0.0
  0
SPLINE
  5
45A
100
AcDbEntity
  8
_1
100
AcDbSpline
 62
7
  6
CONTINUOUS
 70
0
 71
3
 72
11
 73
7
 74
0
 42
0.0000001
 43
0.0000001
 44
0.0000000001
 40
0.0
 40
0.0
 40
0.0
 40
0.0
 40
0.2897467649
 40
0.5490797395
 40
0.7822221015
 40
1.0
 40
1.0
 40
1.0
 40
1.0
 10
48.8120752973
 20
71.5796245355
 30
0.0
 10
48.8120752973
 20
71.4656036565
 30
0.0
 10
48.7948159784
 20
71.2487931271
 30
0.0
 10
48.7069798775
 20
70.9509101912
 30
0.0
 10
48.5591495444
 20
70.7092151377
 30
0.0
 10
48.4202924273
 20
70.592454514
 30
0.0
 10
48.34606692
 20
70.5496173519
 30
0.0
  0
SPLINE
  5
45B
100
AcDbEntity
  8
_1
100
AcDbSpline
 62
7
  6
CONTINUOUS
 70
0
 71
3
 72
17
 73
13
 74
0
 42
0.0000001
 43
0.0000001
 44
0.0000000001
 40
0.0
 40
0.0
 40
0.0
 40
0.0
 40
0.0428581672
 40
0.0874869941
 40
0.1353186504
 40
0.1872840057
 40
0.3045444484
 40
0.4382116659
 40
0.5825549289
 40
0.7297154015
 40
0.8713049786
 40
1.0
 40
1.0
 40
1.0
 40
1.0
 10
46.0960899115
 20
47.888412898
 30
0.0
 10
46.1515638878
 20
47.9204281419
 30
0.0
 10
46.2738261335
 20
47.9712775326
 30
0.0
 10
46.4756687514
 20
48.0008095625
 30
0.0
 10
46.6924274146
 20
47.9849196429
 30
0.0
 10
47.0073599957
 20
47.9010933303
 30
0.0
 10
47.4099818658
 20
47.6809968792
 30
0.0
 10
47.8547924996
 20
47.2870466768
 30
0.0
 10
48.247989342
 20
46.7837657171
 30
0.0
 10
48.5574311809
 20
46.2117926077
 30
0.0
 10
48.7582742608
 20
45.6180409296
 30
0.0
 10
48.8120752973
 20
45.2136509172
 30
0.0
 10
48.8120752973
 20
45.0213223191
 30
0.0
  0
SPLINE
  5
45C
100
AcDbEntity
  8
_1
100
AcDbSpline
 62
7
  6
CONTINUOUS
 70
0
 71
3
 72
12
 73
8
 74
0
 42
0.0000001
 43
0.0000001
 44
0.0000000001
 40
0.0
 40
0.0
 40
0.0
 40
0.0
 40
0.2885527725
 40
0.5472919965
 40
0.7806866176
 40
0.8913271377
 40
1.0
 40
1.0
 40
1.0
 40
1.0
 10
80.7653226657
 20
61.8545703144
 30
0.0
 10
80.7630745406
 20
61.7071481425
 30
0.0
 10
80.7364940214
 20
61.4268950109
 30
0.0
 10
80.6176909788
 20
61.0426581491
 30
0.0
 10
80.4513312952
 20
60.7777918448
 30
0.0
 10
80.2849287801
 20
60.6158474566
 30
0.0
 10
80.192388567
 20
60.5515562828
 30
0.0
 10
80.1442994332
 20
60.5237938425
 30
0.0
  0
SPLINE
  5
45D
100
AcDbEntity
  8
_1
100
AcDbSpline
 62
7
  6
CONTINUOUS
 70
0
 71
3
 72
15
 73
11
 74
0
 42
0.0000001
 43
0.0000001
 44
0.0000000001
 40
0.0
 40
0.0
 40
0.0
 40
0.0
 40
0.1139344176
 40
0.2368222307
 40
0.3661451487
 40
0.4989169389
 40
0.6318389705
 40
0.7616009426
 40
0.8851816562
 40
1.0
 40
1.0
 40
1.0
 40
1.0
 10
78.644316579
 20
93.3324452767
 30
0.0
 10
78.7878497589
 20
93.2495782314
 30
0.0
 10
79.0714566134
 20
93.0511718004
 30
0.0
 10
79.4622470021
 20
92.6872684896
 30
0.0
 10
79.8230165217
 20
92.2571949443
 30
0.0
 10
80.1405528901
 20
91.7768533363
 30
0.0
 10
80.4032098464
 20
91.2637249983
 30
0.0
 10
80.6014707803
 20
90.7365699936
 30
0.0
 10
80.7279410395
 20
90.2147783124
 30
0.0
 10
80.7628199943
 20
89.8681560611
 30
0.0
 10
80.7653226657
 20
89.701152089
 30
0.0
  0
SPLINE
  5
45E
100
AcDbEntity
  8
_1
100
AcDbSpline
 62
7
  6
CONTINUOUS
 70
0
 71
3
 72
19
 73
15
 74
0
 42
0.0000001
 43
0.0000001
 44
0.0000000001
 40
0.0
 40
0.0
 40
0.0
 40
0.0
 40
0.0440922417
 40
0.0912688815
 40
0.1422153535
 40
0.1972341787
 40
0.2562970592
 40
0.3191158045
 40
0.4537756166
 40
0.5958506784
 40
0.7386112889
 40
0.8752228154
 40
0.9394210427
 40
1.0
 40
1.0
 40
1.0
 40
1.0
 10
52.4350655772
 20
89.7302481944
 30
0.0
 10
52.3868218107
 20
89.8746089036
 30
0.0
 10
52.252816159
 20
90.1627531436
 30
0.0
 10
51.9618925104
 20
90.5612871761
 30
0.0
 10
51.5820026362
 20
90.9320037789
 30
0.0
 10
51.1204510813
 20
91.268718302
 30
0.0
 10
50.5855559347
 20
91.5661559806
 30
0.0
 10
49.7685270669
 20
91.911405127
 30
0.0
 10
48.6273149039
 20
92.2073505666
 30
0.0
 10
47.1796961386
 20
92.3406781092
 30
0.0
 10
45.7220230482
 20
92.251071316
 30
0.0
 10
44.558296971
 20
91.9904606446
 30
0.0
 10
43.7129493726
 20
91.6715176665
 30
0.0
 10
43.326693364
 20
91.4785111734
 30
0.0
 10
43.1455884439
 20
91.3739508231
 30
0.0
  0
SPLINE
  5
45F
100
AcDbEntity
  8
_1
100
AcDbSpline
 62
7
  6
CONTINUOUS
 70
0
 71
3
 72
11
 73
7
 74
0
 42
0.0000001
 43
0.0000001
 44
0.0000000001
 40
0.0
 40
0.0
 40
0.0
 40
0.0
 40
0.2207916364
 40
0.4589205469
 40
0.7183019837
 40
1.0
 40
1.0
 40
1.0
 40
1.0
 10
52.9260122353
 20
88.4723118832
 30
0.0
 10
52.8680244788
 20
88.2988186448
 30
0.0
 10
52.702039499
 20
87.9524086034
 30
0.0
 10
52.3357817766
 20
87.4789249314
 30
0.0
 10
51.8545719589
 20
87.0443310377
 30
0.0
 10
51.4794713288
 20
86.7958760897
 30
0.0
 10
51.2773502831
 20
86.6791821461
 30
0.0
  0
SPLINE
  5
460
100
AcDbEntity
  8
_1
100
AcDbSpline
 62
7
  6
CONTINUOUS
 70
0
 71
3
 72
10
 73
6
 74
0
 42
0.0000001
 43
0.0000001
 44
0.0000000001
 40
0.0
 40
0.0
 40
0.0
 40
0.0
 40
0.519141594
 40
0.7622822955
 40
1.0
 40
1.0
 40
1.0
 40
1.0
 10
76.1958011849
 20
58.562874869
 30
0.0
 10
76.3308702457
 20
58.5423645823
 30
0.0
 10
76.5358457782
 20
58.5383861276
 30
0.0
 10
76.7922674783
 20
58.6023780422
 30
0.0
 10
76.9081545827
 20
58.6554177741
 30
0.0
 10
76.9623321657
 20
58.68669515
 30
0.0
  0
SPLINE
  5
461
100
AcDbEntity
  8
_1
100
AcDbSpline
 62
7
  6
CONTINUOUS
 70
0
 71
3
 72
11
 73
7
 74
0
 42
0.0000001
 43
0.0000001
 44
0.0000000001
 40
0.0
 40
0.0
 40
0.0
 40
0.0
 40
0.2177648073
 40
0.4508950352
 40
0.7103684932
 40
1.0
 40
1.0
 40
1.0
 40
1.0
 10
39.7994196833
 20
84.2296969112
 30
0.0
 10
39.7994007734
 20
84.1820908629
 30
0.0
 10
39.7818826068
 20
84.0828523871
 30
0.0
 10
39.7066109537
 20
83.9445752879
 30
0.0
 10
39.5876652292
 20
83.8196123835
 30
0.0
 10
39.4881672476
 20
83.751054238
 30
0.0
 10
39.4333330421
 20
83.7193958837
 30
0.0
  0
SPLINE
  5
462
100
AcDbEntity
  8
_1
100
AcDbSpline
 62
7
  6
CONTINUOUS
 70
0
 71
3
 72
11
 73
7
 74
0
 42
0.0000001
 43
0.0000001
 44
0.0000000001
 40
0.0
 40
0.0
 40
0.0
 40
0.0
 40
0.2179909364
 40
0.4527821877
 40
0.712576751
 40
1.0
 40
1.0
 40
1.0
 40
1.0
 10
56.0582439944
 20
89.1985120018
 30
0.0
 10
56.0507994804
 20
89.2676613186
 30
0.0
 10
56.0119573048
 20
89.4094909992
 30
0.0
 10
55.8913273758
 20
89.6050351293
 30
0.0
 10
55.713589673
 20
89.7826656583
 30
0.0
 10
55.5684514087
 20
89.8814239282
 30
0.0
 10
55.4890356336
 20
89.9272736101
 30
0.0
  0
SPLINE
  5
463
100
AcDbEntity
  8
_1
100
AcDbSpline
 62
7
  6
CONTINUOUS
 70
0
 71
3
 72
12
 73
8
 74
0
 42
0.0000001
 43
0.0000001
 44
0.0000000001
 40
0.0
 40
0.0
 40
0.0
 40
0.0
 40
0.2885527725
 40
0.5472919965
 40
0.7806866176
 40
0.8913271377
 40
1.0
 40
1.0
 40
1.0
 40
1.0
 10
53.1882730144
 20
45.9330483134
 30
0.0
 10
53.1860248893
 20
45.7856261415
 30
0.0
 10
53.15944437
 20
45.5053730099
 30
0.0
 10
53.0406413275
 20
45.1211361482
 30
0.0
 10
52.8742816439
 20
44.8562698438
 30
0.0
 10
52.7078791288
 20
44.6943254556
 30
0.0
 10
52.6153389157
 20
44.6300342818
 30
0.0
 10
52.5672497819
 20
44.6022718415
 30
0.0
  0
SPLINE
  5
464
100
AcDbEntity
  8
_1
100
AcDbSpline
 62
7
  6
CONTINUOUS
 70
0
 71
3
 72
12
 73
8
 74
0
 42
0.0000001
 43
0.0000001
 44
0.0000000001
 40
0.0
 40
0.0
 40
0.0
 40
0.0
 40
0.1081650043
 40
0.2183777938
 40
0.4513705854
 40
0.7104638266
 40
1.0
 40
1.0
 40
1.0
 40
1.0
 10
49.2701319411
 20
104.2804503206
 30
0.0
 10
49.2209438338
 20
104.2520530252
 30
0.0
 10
49.1263507677
 20
104.186070611
 30
0.0
 10
48.9567526293
 20
104.0191555115
 30
0.0
 10
48.7886900564
 20
103.7452683771
 30
0.0
 10
48.67184603
 20
103.3482468532
 30
0.0
 10
48.6487876193
 20
103.0591409062
 30
0.0
 10
48.6487875678
 20
102.9071071895
 30
0.0
  0
SPLINE
  5
465
100
AcDbEntity
  8
_1
100
AcDbSpline
 62
7
  6
CONTINUOUS
 70
0
 71
3
 72
12
 73
8
 74
0
 42
0.0000001
 43
0.0000001
 44
0.0000000001
 40
0.0
 40
0.0
 40
0.0
 40
0.0
 40
0.1081615146
 40
0.2183680532
 40
0.4513497857
 40
0.7104415503
 40
1.0
 40
1.0
 40
1.0
 40
1.0
 10
53.5228993152
 20
107.1185330186
 30
0.0
 10
53.5720845733
 20
107.1469282648
 30
0.0
 10
53.6765170408
 20
107.1958493292
 30
0.0
 10
53.9058475137
 20
107.2592769714
 30
0.0
 10
54.227053645
 20
107.2678819003
 30
0.0
 10
54.6293016821
 20
107.1705761744
 30
0.0
 10
54.8912100814
 20
107.0459974651
 30
0.0
 10
55.0228821694
 20
106.9699782695
 30
0.0
  0
SPLINE
  5
466
100
AcDbEntity
  8
_1
100
AcDbSpline
 62
7
  6
CONTINUOUS
 70
0
 71
3
 72
10
 73
6
 74
0
 42
0.0000001
 43
0.0000001
 44
0.0000000001
 40
0.0
 40
0.0
 40
0.0
 40
0.0
 40
0.2374712526
 40
0.4804822338
 40
1.0
 40
1.0
 40
1.0
 40
1.0
 10
50.3409320477
 20
105.2814343261
 30
0.0
 10
50.2861277771
 20
105.2497951559
 30
0.0
 10
50.1810918675
 20
105.1749466359
 30
0.0
 10
49.9957328914
 20
104.9818741598
 30
0.0
 10
49.8964274797
 20
104.7994057696
 30
0.0
 10
49.8468078357
 20
104.6701621619
 30
0.0
  0
SPLINE
  5
467
100
AcDbEntity
  8
_1
100
AcDbSpline
 62
7
  6
CONTINUOUS
 70
0
 71
3
 72
17
 73
13
 74
0
 42
0.0000001
 43
0.0000001
 44
0.0000000001
 40
0.0
 40
0.0
 40
0.0
 40
0.0
 40
0.0428581672
 40
0.0874869941
 40
0.1353186504
 40
0.1872840057
 40
0.3045444484
 40
0.4382116659
 40
0.5825549289
 40
0.7297154015
 40
0.8713049786
 40
1.0
 40
1.0
 40
1.0
 40
1.0
 10
23.0959941535
 20
87.7255261848
 30
0.0
 10
23.1514681299
 20
87.7575414286
 30
0.0
 10
23.2737303755
 20
87.8083908193
 30
0.0
 10
23.4755729934
 20
87.8379228492
 30
0.0
 10
23.6923316567
 20
87.8220329296
 30
0.0
 10
24.0072642378
 20
87.738206617
 30
0.0
 10
24.4098861078
 20
87.5181101659
 30
0.0
 10
24.8546967416
 20
87.1241599635
 30
0.0
 10
25.247893584
 20
86.6208790039
 30
0.0
 10
25.557335423
 20
86.0489058945
 30
0.0
 10
25.7581785028
 20
85.4551542163
 30
0.0
 10
25.8119795394
 20
85.0507642039
 30
0.0
 10
25.8119795394
 20
84.8584356059
 30
0.0
  0
SPLINE
  5
468
100
AcDbEntity
  8
_1
100
AcDbSpline
 62
7
  6
CONTINUOUS
 70
0
 71
3
 72
15
 73
11
 74
0
 42
0.0000001
 43
0.0000001
 44
0.0000000001
 40
0.0
 40
0.0
 40
0.0
 40
0.0
 40
0.1139344176
 40
0.2368222307
 40
0.3661451487
 40
0.4989169389
 40
0.6318389705
 40
0.7616009426
 40
0.8851816562
 40
1.0
 40
1.0
 40
1.0
 40
1.0
 10
51.0672669276
 20
77.4109232757
 30
0.0
 10
51.2108001075
 20
77.3280562304
 30
0.0
 10
51.4944069621
 20
77.1296497994
 30
0.0
 10
51.8851973507
 20
76.7657464886
 30
0.0
 10
52.2459668704
 20
76.3356729433
 30
0.0
 10
52.5635032387
 20
75.8553313353
 30
0.0
 10
52.8261601951
 20
75.3422029973
 30
0.0
 10
53.024421129
 20
74.8150479926
 30
0.0
 10
53.1508913881
 20
74.2932563114
 30
0.0
 10
53.185770343
 20
73.9466340601
 30
0.0
 10
53.1882730144
 20
73.779630088
 30
0.0
  0
SPLINE
  5
469
100
AcDbEntity
  8
_1
100
AcDbSpline
 62
7
  6
CONTINUOUS
 70
0
 71
3
 72
12
 73
8
 74
0
 42
0.0000001
 43
0.0000001
 44
0.0000000001
 40
0.0
 40
0.0
 40
0.0
 40
0.0
 40
0.1086728623
 40
0.2193133824
 40
0.4527080035
 40
0.7114472275
 40
1.0
 40
1.0
 40
1.0
 40
1.0
 10
22.4103304778
 20
89.1557902482
 30
0.0
 10
22.362241344
 20
89.1280278079
 30
0.0
 10
22.2697011308
 20
89.063736634
 30
0.0
 10
22.1032986157
 20
88.9017922459
 30
0.0
 10
21.9369389321
 20
88.6369259415
 30
0.0
 10
21.8181358896
 20
88.2526890797
 30
0.0
 10
21.7915553703
 20
87.9724359482
 30
0.0
 10
21.7893072453
 20
87.8250137763
 30
0.0
  0
SPLINE
  5
46A
100
AcDbEntity
  8
_1
100
AcDbSpline
 62
7
  6
CONTINUOUS
 70
0
 71
3
 72
12
 73
8
 74
0
 42
0.0000001
 43
0.0000001
 44
0.0000000001
 40
0.0
 40
0.0
 40
0.0
 40
0.0
 40
0.1081615146
 40
0.2183680532
 40
0.4513497857
 40
0.7104415503
 40
1.0
 40
1.0
 40
1.0
 40
1.0
 10
25.9458496638
 20
91.1970110176
 30
0.0
 10
25.995034922
 20
91.2254062638
 30
0.0
 10
26.0994673895
 20
91.2743273282
 30
0.0
 10
26.3287978623
 20
91.3377549704
 30
0.0
 10
26.6500039937
 20
91.3463598993
 30
0.0
 10
27.0522520308
 20
91.2490541735
 30
0.0
 10
27.3141604301
 20
91.1244754642
 30
0.0
 10
27.4458325181
 20
91.0484562685
 30
0.0
  0
SPLINE
  5
46B
100
AcDbEntity
  8
_1
100
AcDbSpline
 62
7
  6
CONTINUOUS
 70
0
 71
3
 72
17
 73
13
 74
0
 42
0.0000001
 43
0.0000001
 44
0.0000000001
 40
0.0
 40
0.0
 40
0.0
 40
0.0
 40
0.0428581672
 40
0.0874869941
 40
0.1353186504
 40
0.1872840057
 40
0.3045444484
 40
0.4382116659
 40
0.5825549289
 40
0.7297154015
 40
0.8713049786
 40
1.0
 40
1.0
 40
1.0
 40
1.0
 10
46.0960899115
 20
74.4467151144
 30
0.0
 10
46.1515638878
 20
74.4787303582
 30
0.0
 10
46.2738261335
 20
74.5295797489
 30
0.0
 10
46.4756687514
 20
74.5591117788
 30
0.0
 10
46.6924274146
 20
74.5432218592
 30
0.0
 10
47.0073599957
 20
74.4593955466
 30
0.0
 10
47.4099818658
 20
74.2392990955
 30
0.0
 10
47.8547924996
 20
73.8453488931
 30
0.0
 10
48.247989342
 20
73.3420679335
 30
0.0
 10
48.5574311809
 20
72.7700948241
 30
0.0
 10
48.7582742608
 20
72.1763431459
 30
0.0
 10
48.8120752973
 20
71.7719531335
 30
0.0
 10
48.8120752973
 20
71.5796245355
 30
0.0
  0
SPLINE
  5
46C
100
AcDbEntity
  8
_1
100
AcDbSpline
 62
7
  6
CONTINUOUS
 70
0
 71
3
 72
15
 73
11
 74
0
 42
0.0000001
 43
0.0000001
 44
0.0000000001
 40
0.0
 40
0.0
 40
0.0
 40
0.0
 40
0.1080132627
 40
0.2180617257
 40
0.3319995369
 40
0.4513614563
 40
0.5772752811
 40
0.7104914696
 40
0.8514274723
 40
1.0
 40
1.0
 40
1.0
 40
1.0
 10
26.8068564389
 20
78.0323327947
 30
0.0
 10
26.5609218988
 20
77.8903427114
 30
0.0
 10
26.0881003376
 20
77.5603707055
 30
0.0
 10
25.4633151175
 20
76.9455160152
 30
0.0
 10
24.9259601146
 20
76.2157476129
 30
0.0
 10
24.4811158267
 20
75.3792487844
 30
0.0
 10
24.1320529891
 20
74.4446495247
 30
0.0
 10
23.8815861623
 20
73.4208454103
 30
0.0
 10
23.7317047562
 20
72.3178371848
 30
0.0
 10
23.7001769851
 20
71.556159736
 30
0.0
 10
23.7001769851
 20
71.1655436702
 30
0.0
  0
SPLINE
  5
46D
100
AcDbEntity
  8
_1
100
AcDbSpline
 62
7
  6
CONTINUOUS
 70
0
 71
3
 72
14
 73
10
 74
0
 42
0.0000001
 43
0.0000001
 44
0.0000000001
 40
0.0
 40
0.0
 40
0.0
 40
0.0
 40
0.2892707421
 40
0.4225372666
 40
0.5484967151
 40
0.6678940072
 40
0.7818683461
 40
0.8919523835
 40
1.0
 40
1.0
 40
1.0
 40
1.0
 10
34.3065512537
 20
52.7945529093
 30
0.0
 10
34.9649813945
 20
52.4143971808
 30
0.0
 10
35.9758686698
 20
51.9332697124
 30
0.0
 10
37.3622079204
 20
51.5289832677
 30
0.0
 10
38.3462518011
 20
51.3639247321
 30
0.0
 10
39.2930991444
 20
51.3309397409
 30
0.0
 10
40.1937846395
 20
51.4314056365
 30
0.0
 10
41.0386699385
 20
51.6650490455
 30
0.0
 10
41.5608523704
 20
51.9095404554
 30
0.0
 10
41.8067892858
 20
52.0515319101
 30
0.0
  0
SPLINE
  5
46E
100
AcDbEntity
  8
_1
100
AcDbSpline
 62
7
  6
CONTINUOUS
 70
0
 71
3
 72
21
 73
17
 74
0
 42
0.0000001
 43
0.0000001
 44
0.0000000001
 40
0.0
 40
0.0
 40
0.0
 40
0.0
 40
0.0450517791
 40
0.0934243416
 40
0.1455812081
 40
0.2016623196
 40
0.2615385888
 40
0.3248662046
 40
0.3911370975
 40
0.4597195088
 40
0.600772542
 40
0.7418381395
 40
0.8104393089
 40
0.8767294661
 40
0.9400991937
 40
1.0
 40
1.0
 40
1.0
 40
1.0
 10
30.5213250095
 20
73.659538532
 30
0.0
 10
30.7879407623
 20
73.6839704741
 30
0.0
 10
31.3470455168
 20
73.6772603443
 30
0.0
 10
32.200447338
 20
73.514997994
 30
0.0
 10
33.0812624528
 20
73.2049528917
 30
0.0
 10
33.9749876194
 20
72.7530904786
 30
0.0
 10
34.8673528287
 20
72.1673228866
 30
0.0
 10
35.7436914236
 20
71.4576194924
 30
0.0
 10
36.5895284657
 20
70.6359098369
 30
0.0
 10
37.6672951173
 20
69.3981616793
 30
0.0
 10
38.8455585571
 20
67.668673792
 30
0.0
 10
39.7554875615
 20
65.78400996
 30
0.0
 10
40.2896802752
 20
64.2318583443
 30
0.0
 10
40.5794122975
 20
63.0882204379
 30
0.0
 10
40.7567764289
 20
61.9741911129
 30
0.0
 10
40.7994967788
 20
61.2412067312
 30
0.0
 10
40.7994967788
 20
60.885229366
 30
0.0
  0
SPLINE
  5
46F
100
AcDbEntity
  8
_1
100
AcDbSpline
 62
7
  6
CONTINUOUS
 70
0
 71
3
 72
9
 73
5
 74
0
 42
0.0000001
 43
0.0000001
 44
0.0000000001
 40
0.0
 40
0.0
 40
0.0
 40
0.0
 40
0.504230374
 40
1.0
 40
1.0
 40
1.0
 40
1.0
 10
39.8555116131
 20
57.466231343
 30
0.0
 10
39.7394586628
 20
57.3368655443
 30
0.0
 10
39.4897157257
 20
57.0970662478
 30
0.0
 10
39.2047727061
 20
56.9001377446
 30
0.0
 10
39.0567894263
 20
56.8146998197
 30
0.0
  0
SPLINE
  5
470
100
AcDbEntity
  8
_1
100
AcDbSpline
 62
7
  6
CONTINUOUS
 70
0
 71
3
 72
9
 73
5
 74
0
 42
0.0000001
 43
0.0000001
 44
0.0000000001
 40
0.0
 40
0.0
 40
0.0
 40
0.0
 40
0.4957631779
 40
1.0
 40
1.0
 40
1.0
 40
1.0
 10
29.5568562984
 20
73.2691648851
 30
0.0
 10
29.7049386892
 20
73.3546600316
 30
0.0
 10
30.018180024
 20
73.5030476384
 30
0.0
 10
30.3509697077
 20
73.5994391838
 30
0.0
 10
30.5211560123
 20
73.6352504991
 30
0.0
  0
SPLINE
  5
471
100
AcDbEntity
  8
_1
100
AcDbSpline
 62
7
  6
CONTINUOUS
 70
0
 71
3
 72
11
 73
7
 74
0
 42
0.0000001
 43
0.0000001
 44
0.0000000001
 40
0.0
 40
0.0
 40
0.0
 40
0.0
 40
0.2277108428
 40
0.4753530045
 40
0.7356900959
 40
1.0
 40
1.0
 40
1.0
 40
1.0
 10
48.6487871351
 20
102.9071069397
 30
0.0
 10
48.6487870686
 20
102.7105939462
 30
0.0
 10
48.6909976705
 20
102.2999364186
 30
0.0
 10
48.8557677529
 20
101.684616363
 30
0.0
 10
49.1166663693
 20
101.0691889443
 30
0.0
 10
49.3471050158
 20
100.6776758613
 30
0.0
 10
49.4756005416
 20
100.4892150364
 30
0.0
  0
SPLINE
  5
472
100
AcDbEntity
  8
_1
100
AcDbSpline
 62
7
  6
CONTINUOUS
 70
0
 71
3
 72
20
 73
16
 74
0
 42
0.0000001
 43
0.0000001
 44
0.0000000001
 40
0.0
 40
0.0
 40
0.0
 40
0.0
 40
0.0428318641
 40
0.0874324985
 40
0.1352362007
 40
0.1871683721
 40
0.2436381728
 40
0.3046206846
 40
0.3697465662
 40
0.4383829724
 40
0.5826354319
 40
0.7296946367
 40
0.8711920799
 40
0.9375939338
 40
1.0
 40
1.0
 40
1.0
 40
1.0
 10
34.2160189949
 20
69.6082865464
 30
0.0
 10
34.3146270993
 20
69.665230919
 30
0.0
 10
34.5320230806
 20
69.755542918
 30
0.0
 10
34.8908471456
 20
69.8081718179
 30
0.0
 10
35.276187928
 20
69.7798024829
 30
0.0
 10
35.6794580674
 20
69.6726364249
 30
0.0
 10
36.0927606701
 20
69.4899884105
 30
0.0
 10
36.507855098
 20
69.2360518192
 30
0.0
 10
36.9163305168
 20
68.9162557546
 30
0.0
 10
37.4493829477
 20
68.4027816245
 30
0.0
 10
38.041745146
 20
67.6441617449
 30
0.0
 10
38.5916570292
 20
66.6279988725
 30
0.0
 10
38.8959168379
 20
65.7283879032
 30
0.0
 10
39.0219295045
 20
65.0198202173
 30
0.0
 10
39.0444421234
 20
64.6771362419
 30
0.0
 10
39.0444421234
 20
64.5112285498
 30
0.0
  0
SPLINE
  5
473
100
AcDbEntity
  8
_1
100
AcDbSpline
 62
7
  6
CONTINUOUS
 70
0
 71
3
 72
12
 73
8
 74
0
 42
0.0000001
 43
0.0000001
 44
0.0000000001
 40
0.0
 40
0.0
 40
0.0
 40
0.0
 40
0.287375643
 40
0.5468367168
 40
0.7815313627
 40
0.8921753899
 40
1.0
 40
1.0
 40
1.0
 40
1.0
 10
36.4590252009
 20
88.7025005049
 30
0.0
 10
36.1765052399
 20
88.539388503
 30
0.0
 10
35.6603096733
 20
88.1882593046
 30
0.0
 10
35.0285505809
 20
87.5569876916
 30
0.0
 10
34.6641158342
 20
86.9649078341
 30
0.0
 10
34.494007388
 20
86.4777156219
 30
0.0
 10
34.4480048795
 20
86.2328230211
 30
0.0
 10
34.4349348293
 20
86.1111215995
 30
0.0
  0
SPLINE
  5
474
100
AcDbEntity
  8
_1
100
AcDbSpline
 62
7
  6
CONTINUOUS
 70
0
 71
3
 72
15
 73
11
 74
0
 42
0.0000001
 43
0.0000001
 44
0.0000000001
 40
0.0
 40
0.0
 40
0.0
 40
0.0
 40
0.1141236058
 40
0.2373475862
 40
0.3669728832
 40
0.5000004526
 40
0.6330279586
 40
0.7626530685
 40
0.8858767805
 40
1.0
 40
1.0
 40
1.0
 40
1.0
 10
48.4179383821
 20
94.0096811553
 30
0.0
 10
48.3232676263
 20
94.0643381051
 30
0.0
 10
48.1161621911
 20
94.160731023
 30
0.0
 10
47.7789811548
 20
94.2632780196
 30
0.0
 10
47.4138682322
 20
94.3263218987
 30
0.0
 10
47.0346545912
 20
94.3476424125
 30
0.0
 10
46.6554412278
 20
94.3263201422
 30
0.0
 10
46.2903290978
 20
94.2632745558
 30
0.0
 10
45.9531493978
 20
94.1607259159
 30
0.0
 10
45.7460451259
 20
94.0643319528
 30
0.0
 10
45.6513750847
 20
94.0096745053
 30
0.0
  0
SPLINE
  5
475
100
AcDbEntity
  8
_1
100
AcDbSpline
 62
7
  6
CONTINUOUS
 70
0
 71
3
 72
17
 73
13
 74
0
 42
0.0000001
 43
0.0000001
 44
0.0000000001
 40
0.0
 40
0.0
 40
0.0
 40
0.0
 40
0.128688448
 40
0.2702796817
 40
0.4174325464
 40
0.5617749928
 40
0.6954478191
 40
0.8127119577
 40
0.8646769781
 40
0.912510124
 40
0.9571398159
 40
1.0
 40
1.0
 40
1.0
 40
1.0
 10
39.4333330421
 20
83.7193958837
 30
0.0
 10
39.340803931
 20
83.6659744953
 30
0.0
 10
39.1313012331
 20
83.579534379
 30
0.0
 10
38.7898576997
 20
83.5112194482
 30
0.0
 10
38.4287179767
 20
83.5012222249
 30
0.0
 10
38.077357864
 20
83.550594299
 30
0.0
 10
37.7642588235
 20
83.6551729112
 30
0.0
 10
37.5464981773
 20
83.7877264521
 30
0.0
 10
37.4187058821
 20
83.9159828664
 30
0.0
 10
37.3508145437
 20
84.0158367089
 30
0.0
 10
37.3089797353
 20
84.1211624957
 30
0.0
 10
37.2994579531
 20
84.194112187
 30
0.0
 10
37.2994720879
 20
84.2296967424
 30
0.0
  0
SPLINE
  5
476
100
AcDbEntity
  8
_1
100
AcDbSpline
 62
7
  6
CONTINUOUS
 70
0
 71
3
 72
20
 73
16
 74
0
 42
0.0000001
 43
0.0000001
 44
0.0000000001
 40
0.0
 40
0.0
 40
0.0
 40
0.0
 40
0.0605704487
 40
0.1247587989
 40
0.2613506898
 40
0.4040923471
 40
0.5461509122
 40
0.614849749
 40
0.6809273727
 40
0.7437383978
 40
0.8027936623
 40
0.8578050487
 40
0.9087443343
 40
0.9559141173
 40
1.0
 40
1.0
 40
1.0
 40
1.0
 10
51.2773502831
 20
86.6791821461
 30
0.0
 10
51.0797828926
 20
86.5651172409
 30
0.0
 10
50.6584184558
 20
86.3545660688
 30
0.0
 10
49.736242417
 20
86.0066339812
 30
0.0
 10
48.466657537
 20
85.7223254145
 30
0.0
 10
46.87680647
 20
85.6245708427
 30
0.0
 10
45.5448077774
 20
85.7471467932
 30
0.0
 10
44.5252588648
 20
85.9705390434
 30
0.0
 10
43.8141103096
 20
86.1934512231
 30
0.0
 10
43.1609976386
 20
86.4695341642
 30
0.0
 10
42.5774871283
 20
86.7939852897
 30
0.0
 10
42.0739761958
 20
87.1613185178
 30
0.0
 10
41.6595558243
 20
87.5657328443
 30
0.0
 10
41.3421908224
 20
88.0004945566
 30
0.0
 10
41.1960034818
 20
88.3148293264
 30
0.0
 10
41.1433761125
 20
88.4723123807
 30
0.0
  0
SPLINE
  5
477
100
AcDbEntity
  8
_1
100
AcDbSpline
 62
7
  6
CONTINUOUS
 70
0
 71
3
 72
11
 73
7
 74
0
 42
0.0000001
 43
0.0000001
 44
0.0000000001
 40
0.0
 40
0.0
 40
0.0
 40
0.0
 40
0.2816987692
 40
0.5410773575
 40
0.7792068327
 40
1.0
 40
1.0
 40
1.0
 40
1.0
 10
43.1455884439
 20
91.3739508231
 30
0.0
 10
42.9603102847
 20
91.2669810666
 30
0.0
 10
42.6164685397
 20
91.0392327297
 30
0.0
 10
42.1753605954
 20
90.640854949
 30
0.0
 10
41.8396259825
 20
90.2068283736
 30
0.0
 10
41.6874680586
 20
89.8892858989
 30
0.0
 10
41.6343141347
 20
89.7302486595
 30
0.0
  0
SPLINE
  5
478
100
AcDbEntity
  8
_1
100
AcDbSpline
 62
7
  6
CONTINUOUS
 70
0
 71
3
 72
17
 73
13
 74
0
 42
0.0000001
 43
0.0000001
 44
0.0000000001
 40
0.0
 40
0.0
 40
0.0
 40
0.0
 40
0.1462219854
 40
0.2953642771
 40
0.4416655676
 40
0.579701102
 40
0.7051356867
 40
0.7623883948
 40
0.8158467186
 40
0.9121935402
 40
0.9567099418
 40
1.0
 40
1.0
 40
1.0
 40
1.0
 10
72.3339629667
 20
61.0964642634
 30
0.0
 10
72.4054047761
 20
60.8708978204
 30
0.0
 10
72.5851448314
 20
60.4258851312
 30
0.0
 10
72.9429596918
 20
59.80480114
 30
0.0
 10
73.3752877915
 20
59.2492909268
 30
0.0
 10
73.8578258979
 20
58.7907167745
 30
0.0
 10
74.2932235119
 20
58.5014989458
 30
0.0
 10
74.6435588218
 20
58.3464072242
 30
0.0
 10
74.9649398927
 20
58.2502443861
 30
0.0
 10
75.2854998014
 20
58.2249914745
 30
0.0
 10
75.5785329437
 20
58.2880054417
 30
0.0
 10
75.7095330512
 20
58.3461582455
 30
0.0
 10
75.7701989464
 20
58.3811818028
 30
0.0
  0
SPLINE
  5
479
100
AcDbEntity
  8
_1
100
AcDbSpline
 62
7
  6
CONTINUOUS
 70
0
 71
3
 72
23
 73
19
 74
0
 42
0.0000001
 43
0.0000001
 44
0.0000000001
 40
0.0
 40
0.0
 40
0.0
 40
0.0
 40
0.0629565764
 40
0.1300052632
 40
0.2003636354
 40
0.2731174055
 40
0.3472069143
 40
0.4215210374
 40
0.4949318861
 40
0.5663552569
 40
0.6348040946
 40
0.6994468261
 40
0.7596756295
 40
0.8151883993
 40
0.8660876384
 40
0.9129833793
 40
0.9570579554
 40
1.0
 40
1.0
 40
1.0
 40
1.0
 10
46.3276293105
 20
82.5967369521
 30
0.0
 10
46.0693324561
 20
82.4476100838
 30
0.0
 10
45.5148092911
 20
82.1754349769
 30
0.0
 10
44.619466273
 20
81.8552641516
 30
0.0
 10
43.6513642057
 20
81.6160262264
 30
0.0
 10
42.632415121
 20
81.4629580458
 30
0.0
 10
41.5852679736
 20
81.3995436609
 30
0.0
 10
40.5334689612
 20
81.4271721486
 30
0.0
 10
39.5006149972
 20
81.5452446208
 30
0.0
 10
38.5098679182
 20
81.7511052751
 30
0.0
 10
37.5833501271
 20
82.0401835106
 30
0.0
 10
36.7416317947
 20
82.406172669
 30
0.0
 10
36.0032812264
 20
82.8412979992
 30
0.0
 10
35.3845883013
 20
83.3367359683
 30
0.0
 10
34.8996202301
 20
83.8829042615
 30
0.0
 10
34.5608415026
 20
84.4697281545
 30
0.0
 10
34.3796461013
 20
85.0843813562
 30
0.0
 10
34.369551231
 20
85.5021591981
 30
0.0
 10
34.3912754293
 20
85.7044327232
 30
0.0
  0
SPLINE
  5
47A
100
AcDbEntity
  8
_1
100
AcDbSpline
 62
7
  6
CONTINUOUS
 70
0
 71
3
 72
12
 73
8
 74
0
 42
0.0000001
 43
0.0000001
 44
0.0000000001
 40
0.0
 40
0.0
 40
0.0
 40
0.0
 40
0.2895584497
 40
0.5486502143
 40
0.7816319468
 40
0.8918384854
 40
1.0
 40
1.0
 40
1.0
 40
1.0
 10
23.910313332
 20
89.0072354992
 30
0.0
 10
23.778641244
 20
89.0832546948
 30
0.0
 10
23.5167328447
 20
89.2078334041
 30
0.0
 10
23.1144848076
 20
89.30513913
 30
0.0
 10
22.7932786763
 20
89.296534201
 30
0.0
 10
22.5639482034
 20
89.2331065588
 30
0.0
 10
22.4595157359
 20
89.1841854944
 30
0.0
 10
22.4103304778
 20
89.1557902482
 30
0.0
  0
SPLINE
  5
47B
100
AcDbEntity
  8
_1
100
AcDbSpline
 62
7
  6
CONTINUOUS
 70
0
 71
3
 72
15
 73
11
 74
0
 42
0.0000001
 43
0.0000001
 44
0.0000000001
 40
0.0
 40
0.0
 40
0.0
 40
0.0
 40
0.1148183438
 40
0.2383990574
 40
0.3681610295
 40
0.5010830611
 40
0.6338548513
 40
0.7631777693
 40
0.8860655824
 40
1.0
 40
1.0
 40
1.0
 40
1.0
 10
49.6527538283
 20
71.7384093187
 30
0.0
 10
49.6502511569
 20
71.9054132908
 30
0.0
 10
49.6153722021
 20
72.2520355421
 30
0.0
 10
49.4889019429
 20
72.7738272232
 30
0.0
 10
49.290641009
 20
73.300982228
 30
0.0
 10
49.0279840527
 20
73.814110566
 30
0.0
 10
48.7104476843
 20
74.294452174
 30
0.0
 10
48.3496781646
 20
74.7245257193
 30
0.0
 10
47.958887776
 20
75.0884290301
 30
0.0
 10
47.6752809214
 20
75.286835461
 30
0.0
 10
47.5317477416
 20
75.3697025064
 30
0.0
  0
SPLINE
  5
47C
100
AcDbEntity
  8
_1
100
AcDbSpline
 62
7
  6
CONTINUOUS
 70
0
 71
3
 72
17
 73
13
 74
0
 42
0.0000001
 43
0.0000001
 44
0.0000000001
 40
0.0
 40
0.0
 40
0.0
 40
0.0
 40
0.0428581672
 40
0.0874869941
 40
0.1353186504
 40
0.1872840057
 40
0.3045444484
 40
0.4382116659
 40
0.5825549289
 40
0.7297154015
 40
0.8713049786
 40
1.0
 40
1.0
 40
1.0
 40
1.0
 10
48.34606692
 20
43.9913151356
 30
0.0
 10
48.2905929437
 20
43.9592998917
 30
0.0
 10
48.168330698
 20
43.908450501
 30
0.0
 10
47.9664880801
 20
43.8789184711
 30
0.0
 10
47.7497294169
 20
43.8948083907
 30
0.0
 10
47.4347968358
 20
43.9786347033
 30
0.0
 10
47.0321749657
 20
44.1987311544
 30
0.0
 10
46.5873643319
 20
44.5926813568
 30
0.0
 10
46.1941674895
 20
45.0959623165
 30
0.0
 10
45.8847256506
 20
45.6679354259
 30
0.0
 10
45.6838825707
 20
46.261687104
 30
0.0
 10
45.6300815342
 20
46.6660771164
 30
0.0
 10
45.6300815342
 20
46.8584057145
 30
0.0
  0
SPLINE
  5
47D
100
AcDbEntity
  8
_1
100
AcDbSpline
 62
7
  6
CONTINUOUS
 70
0
 71
3
 72
11
 73
7
 74
0
 42
0.0000001
 43
0.0000001
 44
0.0000000001
 40
0.0
 40
0.0
 40
0.0
 40
0.0
 40
0.2177529248
 40
0.4508871647
 40
0.7104416951
 40
1.0
 40
1.0
 40
1.0
 40
1.0
 10
54.471292187
 20
103.375091876
 30
0.0
 10
54.5042752641
 20
103.3941286881
 30
0.0
 10
54.580025171
 20
103.4217171837
 30
0.0
 10
54.705953592
 20
103.4248769996
 30
0.0
 10
54.8400991242
 20
103.3924184142
 30
0.0
 10
54.9274077868
 20
103.3509323922
 30
0.0
 10
54.9712640458
 20
103.3256125421
 30
0.0
  0
SPLINE
  5
47E
100
AcDbEntity
  8
_1
100
AcDbSpline
 62
7
  6
CONTINUOUS
 70
0
 71
3
 72
9
 73
5
 74
0
 42
0.0000001
 43
0.0000001
 44
0.0000000001
 40
0.0
 40
0.0
 40
0.0
 40
0.0
 40
0.2563907324
 40
1.0
 40
1.0
 40
1.0
 40
1.0
 10
77.1167584634
 20
84.3852489762
 30
0.0
 10
77.1962706089
 20
83.915722127
 30
0.0
 10
77.4801635497
 20
82.0801548912
 30
0.0
 10
77.6570351279
 20
80.2274748354
 30
0.0
 10
77.7184719666
 20
78.8476863951
 30
0.0
  0
SPLINE
  5
47F
100
AcDbEntity
  8
_1
100
AcDbSpline
 62
7
  6
CONTINUOUS
 70
0
 71
3
 72
11
 73
7
 74
0
 42
0.0000001
 43
0.0000001
 44
0.0000000001
 40
0.0
 40
0.0
 40
0.0
 40
0.0
 40
0.231907802
 40
0.4882319641
 40
0.7508146335
 40
1.0
 40
1.0
 40
1.0
 40
1.0
 10
76.4256933311
 20
85.427780922
 30
0.0
 10
76.5116720566
 20
85.3781422046
 30
0.0
 10
76.6768037483
 20
85.2457135434
 30
0.0
 10
76.8799212822
 20
84.9941617067
 30
0.0
 10
77.0352503127
 20
84.7022056015
 30
0.0
 10
77.0989470475
 20
84.490427096
 30
0.0
 10
77.1167584634
 20
84.3852489762
 30
0.0
  0
SPLINE
  5
480
100
AcDbEntity
  8
_1
100
AcDbSpline
 62
7
  6
CONTINUOUS
 70
0
 71
3
 72
15
 73
11
 74
0
 42
0.0000001
 43
0.0000001
 44
0.0000000001
 40
0.0
 40
0.0
 40
0.0
 40
0.0
 40
0.1151509132
 40
0.2389243269
 40
0.3687449754
 40
0.5016159278
 40
0.6342630069
 40
0.7634292288
 40
0.8861691611
 40
1.0
 40
1.0
 40
1.0
 40
1.0
 10
73.100742076
 20
89.3352211855
 30
0.0
 10
73.1038504967
 20
89.1963565204
 30
0.0
 10
73.1346060357
 20
88.9085148521
 30
0.0
 10
73.2416451567
 20
88.475660624
 30
0.0
 10
73.4076886522
 20
88.0389142951
 30
0.0
 10
73.626611475
 20
87.6141680102
 30
0.0
 10
73.890566934
 20
87.2167836356
 30
0.0
 10
74.1899802419
 20
86.8610652889
 30
0.0
 10
74.5140059414
 20
86.560022231
 30
0.0
 10
74.7489984844
 20
86.3957992436
 30
0.0
 10
74.8679106167
 20
86.3271468451
 30
0.0
  0
SPLINE
  5
481
100
AcDbEntity
  8
_1
100
AcDbSpline
 62
7
  6
CONTINUOUS
 70
0
 71
3
 72
11
 73
7
 74
0
 42
0.0000001
 43
0.0000001
 44
0.0000000001
 40
0.0
 40
0.0
 40
0.0
 40
0.0
 40
0.2364837348
 40
0.4983703288
 40
0.7611405499
 40
1.0
 40
1.0
 40
1.0
 40
1.0
 10
72.3320001677
 20
93.3026136193
 30
0.0
 10
72.4306165789
 20
93.2456786958
 30
0.0
 10
72.6176017564
 20
93.0892452977
 30
0.0
 10
72.8372489564
 20
92.7925603761
 30
0.0
 10
72.989799455
 20
92.4551521636
 30
0.0
 10
73.0362936552
 20
92.2143708135
 30
0.0
 10
73.038867584
 20
92.0993838831
 30
0.0
  0
SPLINE
  5
482
100
AcDbEntity
  8
_1
100
AcDbSpline
 62
7
  6
CONTINUOUS
 70
0
 71
3
 72
15
 73
11
 74
0
 42
0.0000001
 43
0.0000001
 44
0.0000000001
 40
0.0
 40
0.0
 40
0.0
 40
0.0
 40
0.1148183438
 40
0.2383990574
 40
0.3681610295
 40
0.5010830611
 40
0.6338548513
 40
0.7631777693
 40
0.8860655824
 40
1.0
 40
1.0
 40
1.0
 40
1.0
 10
77.5833553982
 20
87.8640533966
 30
0.0
 10
77.5808527269
 20
88.0310573687
 30
0.0
 10
77.545973772
 20
88.37767962
 30
0.0
 10
77.4195035129
 20
88.8994713011
 30
0.0
 10
77.221242579
 20
89.4266263059
 30
0.0
 10
76.9585856226
 20
89.9397546439
 30
0.0
 10
76.6410492543
 20
90.4200962519
 30
0.0
 10
76.2802797346
 20
90.8501697972
 30
0.0
 10
75.889489346
 20
91.214073108
 30
0.0
 10
75.6058824914
 20
91.4124795389
 30
0.0
 10
75.4623493115
 20
91.4953465843
 30
0.0
  0
SPLINE
  5
483
100
AcDbEntity
  8
_1
100
AcDbSpline
 62
7
  6
CONTINUOUS
 70
0
 71
3
 72
11
 73
7
 74
0
 42
0.0000001
 43
0.0000001
 44
0.0000000001
 40
0.0
 40
0.0
 40
0.0
 40
0.0
 40
0.2334848557
 40
0.491256449
 40
0.7536798801
 40
1.0
 40
1.0
 40
1.0
 40
1.0
 10
54.310379132
 20
71.8719588555
 30
0.0
 10
54.3982295092
 20
71.8213367055
 30
0.0
 10
54.5683333239
 20
71.6885202255
 30
0.0
 10
54.7785839674
 20
71.435137273
 30
0.0
 10
54.9413107279
 20
71.1427185966
 30
0.0
 10
55.0096151609
 20
70.9303580481
 30
0.0
 10
55.0291256386
 20
70.8251869155
 30
0.0
  0
SPLINE
  5
484
100
AcDbEntity
  8
_1
100
AcDbSpline
 62
7
  6
CONTINUOUS
 70
0
 71
3
 72
14
 73
10
 74
0
 42
0.0000001
 43
0.0000001
 44
0.0000000001
 40
0.0
 40
0.0
 40
0.0
 40
0.0
 40
0.1144743491
 40
0.2270095617
 40
0.3404809356
 40
0.4576530469
 40
0.711024334
 40
0.8508396879
 40
1.0
 40
1.0
 40
1.0
 40
1.0
 10
52.5139933428
 20
89.4940903163
 30
0.0
 10
52.5533694183
 20
89.3762604245
 30
0.0
 10
52.6103547934
 20
89.1347656986
 30
0.0
 10
52.6234246102
 20
88.7631491332
 30
0.0
 10
52.5623930313
 20
88.3932735764
 30
0.0
 10
52.3796281147
 20
87.8979292596
 30
0.0
 10
52.0511836634
 20
87.4387062042
 30
0.0
 10
51.6209792939
 20
87.036158023
 30
0.0
 10
51.3674998205
 20
86.8499169567
 30
0.0
 10
51.2323477545
 20
86.7608181641
 30
0.0
  0
SPLINE
  5
485
100
AcDbEntity
  8
_1
100
AcDbSpline
 62
7
  6
CONTINUOUS
 70
0
 71
3
 72
24
 73
20
 74
0
 42
0.0000001
 43
0.0000001
 44
0.0000000001
 40
0.0
 40
0.0
 40
0.0
 40
0.0
 40
0.0441294007
 40
0.0878282937
 40
0.1332365219
 40
0.1821137522
 40
0.2082587878
 40
0.2356305008
 40
0.294127968
 40
0.3575629841
 40
0.4254131539
 40
0.4968464299
 40
0.5708135855
 40
0.6461248051
 40
0.7215184627
 40
0.795735029
 40
0.8675625149
 40
0.9359521123
 40
1.0
 40
1.0
 40
1.0
 40
1.0
 10
41.6343141347
 20
89.7302486595
 30
0.0
 10
41.5803140005
 20
89.5686795479
 30
0.0
 10
41.5134502407
 20
89.2312890015
 30
0.0
 10
41.5580226209
 20
88.7123715348
 30
0.0
 10
41.7463110253
 20
88.2078218534
 30
0.0
 10
42.0095872087
 20
87.8199130629
 30
0.0
 10
42.2773152135
 20
87.528554791
 30
0.0
 10
42.5981527954
 20
87.237816147
 30
0.0
 10
43.0730578505
 20
86.9068220816
 30
0.0
 10
43.728150267
 20
86.5745633608
 30
0.0
 10
44.4650274439
 20
86.3061275246
 30
0.0
 10
45.2655051239
 20
86.1080001458
 30
0.0
 10
46.1099003206
 20
85.984984476
 30
0.0
 10
46.9772686435
 20
85.9401357137
 30
0.0
 10
47.8460786514
 20
85.97455793
 30
0.0
 10
48.694690095
 20
86.0874274214
 30
0.0
 10
49.5022159264
 20
86.2758792948
 30
0.0
 10
50.248403925
 20
86.5353681663
 30
0.0
 10
50.7096734666
 20
86.7596798936
 30
0.0
 10
50.9237954205
 20
86.8833025234
 30
0.0
  0
SPLINE
  5
486
100
AcDbEntity
  8
_1
100
AcDbSpline
 62
7
  6
CONTINUOUS
 70
0
 71
3
 72
15
 73
11
 74
0
 42
0.0000001
 43
0.0000001
 44
0.0000000001
 40
0.0
 40
0.0
 40
0.0
 40
0.0
 40
0.1080132627
 40
0.2180617257
 40
0.3319995369
 40
0.4513614563
 40
0.5772752811
 40
0.7104914696
 40
0.8514274723
 40
1.0
 40
1.0
 40
1.0
 40
1.0
 10
41.8067892858
 20
52.0515319101
 30
0.0
 10
42.0527238259
 20
52.1935219935
 30
0.0
 10
42.5255453871
 20
52.5234939994
 30
0.0
 10
43.1503306072
 20
53.1383486896
 30
0.0
 10
43.6876856101
 20
53.868117092
 30
0.0
 10
44.132529898
 20
54.7046159205
 30
0.0
 10
44.4815927356
 20
55.6392151801
 30
0.0
 10
44.7320595624
 20
56.6630192946
 30
0.0
 10
44.8819409685
 20
57.76602752
 30
0.0
 10
44.9134687396
 20
58.5277049689
 30
0.0
 10
44.9134687396
 20
58.9183210346
 30
0.0
  0
SPLINE
  5
487
100
AcDbEntity
  8
_1
100
AcDbSpline
 62
7
  6
CONTINUOUS
 70
0
 71
3
 72
11
 73
7
 74
0
 42
0.0000001
 43
0.0000001
 44
0.0000000001
 40
0.0
 40
0.0
 40
0.0
 40
0.0
 40
0.2897467649
 40
0.5490797395
 40
0.7822221015
 40
1.0
 40
1.0
 40
1.0
 40
1.0
 10
22.6299857762
 20
86.6955190012
 30
0.0
 10
22.6299857762
 20
86.8095398802
 30
0.0
 10
22.6472450951
 20
87.0263504096
 30
0.0
 10
22.7350811961
 20
87.3242333455
 30
0.0
 10
22.8829115292
 20
87.5659283989
 30
0.0
 10
23.0217686463
 20
87.6826890227
 30
0.0
 10
23.0959941535
 20
87.7255261848
 30
0.0
  0
SPLINE
  5
488
100
AcDbEntity
  8
_1
100
AcDbSpline
 62
7
  6
CONTINUOUS
 70
0
 71
3
 72
10
 73
6
 74
0
 42
0.0000001
 43
0.0000001
 44
0.0000000001
 40
0.0
 40
0.0
 40
0.0
 40
0.0
 40
0.5303918991
 40
0.7697317269
 40
1.0
 40
1.0
 40
1.0
 40
1.0
 10
77.1167584634
 20
64.0350435857
 30
0.0
 10
77.1036490125
 20
63.9727681677
 30
0.0
 10
77.0710676888
 20
63.8832363876
 30
0.0
 10
76.995041737
 20
63.789260618
 30
0.0
 10
76.9496193987
 20
63.754756087
 30
0.0
 10
76.9256854012
 20
63.7409524652
 30
0.0
  0
SPLINE
  5
489
100
AcDbEntity
  8
_1
100
AcDbSpline
 62
7
  6
CONTINUOUS
 70
0
 71
3
 72
11
 73
7
 74
0
 42
0.0000001
 43
0.0000001
 44
0.0000000001
 40
0.0
 40
0.0
 40
0.0
 40
0.0
 40
0.240031334
 40
0.5039081204
 40
0.7656610775
 40
1.0
 40
1.0
 40
1.0
 40
1.0
 10
50.2412643582
 20
79.5906746462
 30
0.0
 10
50.2386835254
 20
79.7059700045
 30
0.0
 10
50.1939556868
 20
79.9473520661
 30
0.0
 10
50.0470031223
 20
80.2872793064
 30
0.0
 10
49.835607257
 20
80.5879467995
 30
0.0
 10
49.6548166391
 20
80.7488927694
 30
0.0
 10
49.559089552
 20
80.8081605823
 30
0.0
  0
SPLINE
  5
48A
100
AcDbEntity
  8
_1
100
AcDbSpline
 62
7
  6
CONTINUOUS
 70
0
 71
3
 72
11
 73
7
 74
0
 42
0.0000001
 43
0.0000001
 44
0.0000000001
 40
0.0
 40
0.0
 40
0.0
 40
0.0
 40
0.2400269588
 40
0.5039043856
 40
0.7656595663
 40
1.0
 40
1.0
 40
1.0
 40
1.0
 10
58.8967922335
 20
83.9344481661
 30
0.0
 10
58.8942113558
 20
84.04974553
 30
0.0
 10
58.8494961688
 20
84.2911359477
 30
0.0
 10
58.7025457297
 20
84.631079436
 30
0.0
 10
58.4911427994
 20
84.9317600113
 30
0.0
 10
58.3103471481
 20
85.0927164354
 30
0.0
 10
58.2146160335
 20
85.1519867419
 30
0.0
  0
SPLINE
  5
48B
100
AcDbEntity
  8
_1
100
AcDbSpline
 62
7
  6
CONTINUOUS
 70
0
 71
3
 72
11
 73
7
 74
0
 42
0.0000001
 43
0.0000001
 44
0.0000000001
 40
0.0
 40
0.0
 40
0.0
 40
0.0
 40
0.2330619512
 40
0.4902425686
 40
0.7526064584
 40
1.0
 40
1.0
 40
1.0
 40
1.0
 10
62.2836165482
 20
77.2628978223
 30
0.0
 10
62.37007465
 20
77.213076496
 30
0.0
 10
62.5378294552
 20
77.0830219813
 30
0.0
 10
62.746052472
 20
76.8346056377
 30
0.0
 10
62.9087018069
 20
76.5473940107
 30
0.0
 10
62.9784914909
 20
76.338464822
 30
0.0
 10
62.9993743292
 20
76.2346220988
 30
0.0
  0
SPLINE
  5
48C
100
AcDbEntity
  8
_1
100
AcDbSpline
 62
7
  6
CONTINUOUS
 70
0
 71
3
 72
15
 73
11
 74
0
 42
0.0000001
 43
0.0000001
 44
0.0000000001
 40
0.0
 40
0.0
 40
0.0
 40
0.0
 40
0.1138288585
 40
0.2365674656
 40
0.365734979
 40
0.4983840604
 40
0.6312570233
 40
0.7610789876
 40
0.8848510797
 40
1.0
 40
1.0
 40
1.0
 40
1.0
 10
60.7258338724
 20
78.1622637677
 30
0.0
 10
60.6069237378
 20
78.2309150128
 30
0.0
 10
60.3719330844
 20
78.3951338815
 30
0.0
 10
60.0479079459
 20
78.6961744367
 30
0.0
 10
59.748490812
 20
79.0518930505
 30
0.0
 10
59.4845314544
 20
79.4492829568
 30
0.0
 10
59.2656056903
 20
79.8740353676
 30
0.0
 10
59.0995637944
 20
80.3107852083
 30
0.0
 10
58.9925265748
 20
80.7436377459
 30
0.0
 10
58.9617737005
 20
81.0314757633
 30
0.0
 10
58.9586653317
 20
81.1703381081
 30
0.0
  0
SPLINE
  5
48D
100
AcDbEntity
  8
_1
100
AcDbSpline
 62
7
  6
CONTINUOUS
 70
0
 71
3
 72
17
 73
13
 74
0
 42
0.0000001
 43
0.0000001
 44
0.0000000001
 40
0.0
 40
0.0
 40
0.0
 40
0.0
 40
0.0428581672
 40
0.0874869941
 40
0.1353186504
 40
0.1872840057
 40
0.3045444484
 40
0.4382116659
 40
0.5825549289
 40
0.7297154015
 40
0.8713049786
 40
1.0
 40
1.0
 40
1.0
 40
1.0
 10
48.34606692
 20
70.5496173519
 30
0.0
 10
48.2905929437
 20
70.517602108
 30
0.0
 10
48.168330698
 20
70.4667527174
 30
0.0
 10
47.9664880801
 20
70.4372206875
 30
0.0
 10
47.7497294169
 20
70.4531106071
 30
0.0
 10
47.4347968358
 20
70.5369369197
 30
0.0
 10
47.0321749657
 20
70.7570333708
 30
0.0
 10
46.5873643319
 20
71.1509835732
 30
0.0
 10
46.1941674895
 20
71.6542645328
 30
0.0
 10
45.8847256506
 20
72.2262376422
 30
0.0
 10
45.6838825707
 20
72.8199893204
 30
0.0
 10
45.6300815342
 20
73.2243793328
 30
0.0
 10
45.6300815342
 20
73.4167079308
 30
0.0
  0
SPLINE
  5
48E
100
AcDbEntity
  8
_1
100
AcDbSpline
 62
7
  6
CONTINUOUS
 70
0
 71
3
 72
12
 73
8
 74
0
 42
0.0000001
 43
0.0000001
 44
0.0000000001
 40
0.0
 40
0.0
 40
0.0
 40
0.0
 40
0.1086728623
 40
0.2193133824
 40
0.4527080035
 40
0.7114472275
 40
1.0
 40
1.0
 40
1.0
 40
1.0
 10
49.0317305958
 20
42.5610510721
 30
0.0
 10
49.0798197296
 20
42.5888135125
 30
0.0
 10
49.1723599427
 20
42.6531046863
 30
0.0
 10
49.3387624578
 20
42.8150490745
 30
0.0
 10
49.5051221414
 20
43.0799153788
 30
0.0
 10
49.623925184
 20
43.4641522406
 30
0.0
 10
49.6505057032
 20
43.7444053722
 30
0.0
 10
49.6527538283
 20
43.891827544
 30
0.0
  0
SPLINE
  5
48F
100
AcDbEntity
  8
_1
100
AcDbSpline
 62
7
  6
CONTINUOUS
 70
0
 71
3
 72
9
 73
5
 74
0
 42
0.0000001
 43
0.0000001
 44
0.0000000001
 40
0.0
 40
0.0
 40
0.0
 40
0.0
 40
0.2584514624
 40
1.0
 40
1.0
 40
1.0
 40
1.0
 10
77.7184719666
 20
68.8778229788
 30
0.0
 10
77.6987479016
 20
68.4576219853
 30
0.0
 10
77.5929155927
 20
66.8334374344
 30
0.0
 10
77.3653852946
 20
65.2161258416
 30
0.0
 10
77.1167584634
 20
64.0350435857
 30
0.0
  0
SPLINE
  5
490
100
AcDbEntity
  8
_1
100
AcDbSpline
 62
7
  6
CONTINUOUS
 70
0
 71
3
 72
9
 73
5
 74
0
 42
0.0000001
 43
0.0000001
 44
0.0000000001
 40
0.0
 40
0.0
 40
0.0
 40
0.0
 40
0.4707767023
 40
1.0
 40
1.0
 40
1.0
 40
1.0
 10
62.8094928342
 20
55.5914826191
 30
0.0
 10
62.8564386077
 20
55.6216591453
 30
0.0
 10
62.9412280219
 20
55.7104752388
 30
0.0
 10
62.9846788239
 20
55.8234256606
 30
0.0
 10
62.9993743292
 20
55.8844167082
 30
0.0
  0
SPLINE
  5
491
100
AcDbEntity
  8
_1
100
AcDbSpline
 62
7
  6
CONTINUOUS
 70
0
 71
3
 72
9
 73
5
 74
0
 42
0.0000001
 43
0.0000001
 44
0.0000000001
 40
0.0
 40
0.0
 40
0.0
 40
0.0
 40
0.4693609795
 40
1.0
 40
1.0
 40
1.0
 40
1.0
 10
54.8422032036
 20
51.5108932873
 30
0.0
 10
54.8894029998
 20
51.5426444611
 30
0.0
 10
54.9738636807
 20
51.6356060281
 30
0.0
 10
55.01545971
 20
51.752083332
 30
0.0
 10
55.0291256386
 20
51.8149268392
 30
0.0
  0
SPLINE
  5
492
100
AcDbEntity
  8
_1
100
AcDbSpline
 62
7
  6
CONTINUOUS
 70
0
 71
3
 72
12
 73
8
 74
0
 42
0.0000001
 43
0.0000001
 44
0.0000000001
 40
0.0
 40
0.0
 40
0.0
 40
0.0
 40
0.2895584497
 40
0.5486502143
 40
0.7816319468
 40
0.8918384854
 40
1.0
 40
1.0
 40
1.0
 40
1.0
 10
51.8409149019
 20
105.1328795771
 30
0.0
 10
51.709242814
 20
105.2088987727
 30
0.0
 10
51.4473344147
 20
105.333477482
 30
0.0
 10
51.0450863775
 20
105.4307832079
 30
0.0
 10
50.7238802462
 20
105.4221782789
 30
0.0
 10
50.4945497733
 20
105.3587506367
 30
0.0
 10
50.3901173059
 20
105.3098295724
 30
0.0
 10
50.3409320477
 20
105.2814343261
 30
0.0
  0
SPLINE
  5
493
100
AcDbEntity
  8
_1
100
AcDbSpline
 62
7
  6
CONTINUOUS
 70
0
 71
3
 72
12
 73
8
 74
0
 42
0.0000001
 43
0.0000001
 44
0.0000000001
 40
0.0
 40
0.0
 40
0.0
 40
0.0
 40
0.289554995
 40
0.5486516518
 40
0.7816333272
 40
0.8918403336
 40
1.0
 40
1.0
 40
1.0
 40
1.0
 10
77.523010202
 20
60.4077737302
 30
0.0
 10
77.523010202
 20
60.2557303608
 30
0.0
 10
77.4999450384
 20
59.9666134176
 30
0.0
 10
77.3830965089
 20
59.5695878733
 30
0.0
 10
77.2150315951
 20
59.2957104714
 30
0.0
 10
77.0454368241
 20
59.1288094841
 30
0.0
 10
76.950849339
 20
59.0628300772
 30
0.0
 10
76.9016640809
 20
59.0344336247
 30
0.0
  0
SPLINE
  5
494
100
AcDbEntity
  8
_1
100
AcDbSpline
 62
7
  6
CONTINUOUS
 70
0
 71
3
 72
11
 73
7
 74
0
 42
0.0000001
 43
0.0000001
 44
0.0000000001
 40
0.0
 40
0.0
 40
0.0
 40
0.0
 40
0.2870567164
 40
0.5463196537
 40
0.7807248723
 40
1.0
 40
1.0
 40
1.0
 40
1.0
 10
40.8538799116
 20
95.1749856646
 30
0.0
 10
40.8083363006
 20
95.1995046493
 30
0.0
 10
40.7176101745
 20
95.2393218843
 30
0.0
 10
40.578865484
 20
95.268932506
 30
0.0
 10
40.4488828388
 20
95.2631594847
 30
0.0
 10
40.3706558548
 20
95.2341385647
 30
0.0
 10
40.3364359299
 20
95.2143875615
 30
0.0
  0
SPLINE
  5
495
100
AcDbEntity
  8
_1
100
AcDbSpline
 62
7
  6
CONTINUOUS
 70
0
 71
3
 72
10
 73
6
 74
0
 42
0.0000001
 43
0.0000001
 44
0.0000000001
 40
0.0
 40
0.0
 40
0.0
 40
0.0
 40
0.2810439766
 40
0.5410656946
 40
1.0
 40
1.0
 40
1.0
 40
1.0
 10
33.3301168174
 20
90.1777503909
 30
0.0
 10
33.293897989
 20
90.1972492598
 30
0.0
 10
33.221498944
 20
90.230320387
 30
0.0
 10
33.0806377735
 20
90.2705224286
 30
0.0
 10
32.9712004702
 20
90.2716134381
 30
0.0
 10
32.9061152355
 20
90.2550071587
 30
0.0
  0
SPLINE
  5
496
100
AcDbEntity
  8
_1
100
AcDbSpline
 62
7
  6
CONTINUOUS
 70
0
 71
3
 72
9
 73
5
 74
0
 42
0.0000001
 43
0.0000001
 44
0.0000000001
 40
0.0
 40
0.0
 40
0.0
 40
0.0
 40
0.2534188941
 40
1.0
 40
1.0
 40
1.0
 40
1.0
 10
32.9061152355
 20
90.2550071587
 30
0.0
 10
32.89784865
 20
90.2528979671
 30
0.0
 10
32.8655119062
 20
90.2435062251
 30
0.0
 10
32.834441151
 20
90.2297166764
 30
0.0
 10
32.8126729504
 20
90.2171525713
 30
0.0
  0
SPLINE
  5
497
100
AcDbEntity
  8
_1
100
AcDbSpline
 62
7
  6
CONTINUOUS
 70
0
 71
3
 72
11
 73
7
 74
0
 42
0.0000001
 43
0.0000001
 44
0.0000000001
 40
0.0
 40
0.0
 40
0.0
 40
0.0
 40
0.2468233151
 40
0.4926620902
 40
0.742256382
 40
1.0
 40
1.0
 40
1.0
 40
1.0
 10
52.9122298997
 20
88.4770104373
 30
0.0
 10
52.9352083755
 20
88.5877399975
 30
0.0
 10
52.9628388531
 20
88.813061093
 30
0.0
 10
52.9454528492
 20
89.1543292706
 30
0.0
 10
52.8695185552
 20
89.4925569981
 30
0.0
 10
52.7821813747
 20
89.7091633378
 30
0.0
 10
52.7301569462
 20
89.8151784346
 30
0.0
  0
SPLINE
  5
498
100
AcDbEntity
  8
_1
100
AcDbSpline
 62
7
  6
CONTINUOUS
 70
0
 71
3
 72
13
 73
9
 74
0
 42
0.0000001
 43
0.0000001
 44
0.0000000001
 40
0.0
 40
0.0
 40
0.0
 40
0.0
 40
0.1003037706
 40
0.2071321899
 40
0.3213126323
 40
0.4431801948
 40
0.7089057909
 40
1.0
 40
1.0
 40
1.0
 40
1.0
 10
52.7301569462
 20
89.8151784346
 30
0.0
 10
52.6661427449
 20
89.9456262252
 30
0.0
 10
52.5095342336
 20
90.2035023777
 30
0.0
 10
52.2081827104
 20
90.5602541171
 30
0.0
 10
51.8383558719
 20
90.8939028332
 30
0.0
 10
51.2434986012
 20
91.314135534
 30
0.0
 10
50.3548006196
 20
91.7493461322
 30
0.0
 10
49.5783171174
 20
91.9802195548
 30
0.0
 10
49.1667124933
 20
92.0719506622
 30
0.0
  0
SPLINE
  5
499
100
AcDbEntity
  8
_1
100
AcDbSpline
 62
7
  6
CONTINUOUS
 70
0
 71
3
 72
9
 73
5
 74
0
 42
0.0000001
 43
0.0000001
 44
0.0000000001
 40
0.0
 40
0.0
 40
0.0
 40
0.0
 40
0.5162817145
 40
1.0
 40
1.0
 40
1.0
 40
1.0
 10
44.9208602718
 20
92.0759856945
 30
0.0
 10
44.5947616106
 20
92.0040295746
 30
0.0
 10
43.9702218401
 20
91.8294797821
 30
0.0
 10
43.3720842599
 20
91.5771565617
 30
0.0
 10
43.0939177747
 20
91.4339171857
 30
0.0
  0
SPLINE
  5
49A
100
AcDbEntity
  8
_1
100
AcDbSpline
 62
7
  6
CONTINUOUS
 70
0
 71
3
 72
15
 73
11
 74
0
 42
0.0000001
 43
0.0000001
 44
0.0000000001
 40
0.0
 40
0.0
 40
0.0
 40
0.0
 40
0.1123787435
 40
0.2229302595
 40
0.3349064045
 40
0.4513646847
 40
0.5747573648
 40
0.7068130127
 40
0.8485451299
 40
1.0
 40
1.0
 40
1.0
 40
1.0
 10
41.1433761125
 20
88.4723123807
 30
0.0
 10
41.0980153651
 20
88.6080506689
 30
0.0
 10
41.0340895509
 20
88.8870769235
 30
0.0
 10
41.0283505132
 20
89.3166748968
 30
0.0
 10
41.1143995955
 20
89.7429387171
 30
0.0
 10
41.2900877354
 20
90.1580815293
 30
0.0
 10
41.5512448945
 20
90.5559127553
 30
0.0
 10
41.8933561928
 20
90.9309938453
 30
0.0
 10
42.3108205207
 20
91.278195711
 30
0.0
 10
42.624993142
 20
91.4816309334
 30
0.0
 10
42.7920335813
 20
91.5780712004
 30
0.0
  0
SPLINE
  5
49B
100
AcDbEntity
  8
_1
100
AcDbSpline
 62
7
  6
CONTINUOUS
 70
0
 71
3
 72
11
 73
7
 74
0
 42
0.0000001
 43
0.0000001
 44
0.0000000001
 40
0.0
 40
0.0
 40
0.0
 40
0.0
 40
0.215198119
 40
0.4475928011
 40
0.7075380476
 40
1.0
 40
1.0
 40
1.0
 40
1.0
 10
58.7163231049
 20
53.1080729885
 30
0.0
 10
58.7469352945
 20
53.125763103
 30
0.0
 10
58.8043753152
 20
53.1742685352
 30
0.0
 10
58.8658590285
 20
53.2747501536
 30
0.0
 10
58.9030503831
 20
53.3993776742
 30
0.0
 10
58.9112061925
 20
53.490271173
 30
0.0
 10
58.9122701599
 20
53.538309454
 30
0.0
  0
SPLINE
  5
49C
100
AcDbEntity
  8
_1
100
AcDbSpline
 62
7
  6
CONTINUOUS
 70
0
 71
3
 72
11
 73
7
 74
0
 42
0.0000001
 43
0.0000001
 44
0.0000000001
 40
0.0
 40
0.0
 40
0.0
 40
0.0
 40
0.2177648073
 40
0.4508950352
 40
0.7103684932
 40
1.0
 40
1.0
 40
1.0
 40
1.0
 10
37.2994720879
 20
84.2296967424
 30
0.0
 10
37.2994909979
 20
84.2773027907
 30
0.0
 10
37.3170091644
 20
84.3765412665
 30
0.0
 10
37.3922808176
 20
84.5148183657
 30
0.0
 10
37.511226542
 20
84.6397812701
 30
0.0
 10
37.6107245237
 20
84.7083394156
 30
0.0
 10
37.6655587292
 20
84.73999777
 30
0.0
  0
SPLINE
  5
49D
100
AcDbEntity
  8
_1
100
AcDbSpline
 62
7
  6
CONTINUOUS
 70
0
 71
3
 72
11
 73
7
 74
0
 42
0.0000001
 43
0.0000001
 44
0.0000000001
 40
0.0
 40
0.0
 40
0.0
 40
0.0
 40
0.2184018267
 40
0.449863435
 40
0.7084588259
 40
1.0
 40
1.0
 40
1.0
 40
1.0
 10
56.101904009
 20
88.7918231376
 30
0.0
 10
56.110631773
 20
88.710754165
 30
0.0
 10
56.096842333
 20
88.5388178451
 30
0.0
 10
55.9818507238
 20
88.2955182106
 30
0.0
 10
55.7840408206
 20
88.0766812454
 30
0.0
 10
55.6142401677
 20
87.9583322259
 30
0.0
 10
55.5199791943
 20
87.9039109524
 30
0.0
  0
SPLINE
  5
49E
100
AcDbEntity
  8
_1
100
AcDbSpline
 62
7
  6
CONTINUOUS
 70
0
 71
3
 72
11
 73
7
 74
0
 42
0.0000001
 43
0.0000001
 44
0.0000000001
 40
0.0
 40
0.0
 40
0.0
 40
0.0
 40
0.2897467649
 40
0.5490797395
 40
0.7822221015
 40
1.0
 40
1.0
 40
1.0
 40
1.0
 10
45.6300815342
 20
46.8584057145
 30
0.0
 10
45.6300815342
 20
46.9724265934
 30
0.0
 10
45.6473408531
 20
47.1892371229
 30
0.0
 10
45.735176954
 20
47.4871200588
 30
0.0
 10
45.8830072871
 20
47.7288151122
 30
0.0
 10
46.0218644042
 20
47.845575736
 30
0.0
 10
46.0960899115
 20
47.888412898
 30
0.0
  0
SPLINE
  5
49F
100
AcDbEntity
  8
_1
100
AcDbSpline
 62
7
  6
CONTINUOUS
 70
0
 71
3
 72
14
 73
10
 74
0
 42
0.0000001
 43
0.0000001
 44
0.0000000001
 40
0.0
 40
0.0
 40
0.0
 40
0.0
 40
0.2892798622
 40
0.4225454988
 40
0.5484931881
 40
0.6678924045
 40
0.7818682188
 40
0.8919529192
 40
1.0
 40
1.0
 40
1.0
 40
1.0
 10
27.5892804735
 20
68.9202195204
 30
0.0
 10
27.5892804735
 20
69.4017485762
 30
0.0
 10
27.6454954785
 20
70.1085662828
 30
0.0
 10
27.8627888555
 20
70.9969488676
 30
0.0
 10
28.0838789994
 20
71.5889161064
 30
0.0
 10
28.3656164734
 20
72.1186706885
 30
0.0
 10
28.7059483561
 20
72.5808533503
 30
0.0
 10
29.1016082589
 20
72.9703074604
 30
0.0
 10
29.4010990387
 20
73.1792386646
 30
0.0
 10
29.5568562984
 20
73.2691648851
 30
0.0
  0
SPLINE
  5
4A0
100
AcDbEntity
  8
_1
100
AcDbSpline
 62
7
  6
CONTINUOUS
 70
0
 71
3
 72
23
 73
19
 74
0
 42
0.0000001
 43
0.0000001
 44
0.0000000001
 40
0.0
 40
0.0
 40
0.0
 40
0.0
 40
0.042942311
 40
0.0870174071
 40
0.1339138149
 40
0.1848136872
 40
0.2403268922
 40
0.3005557904
 40
0.3651981623
 40
0.4336461643
 40
0.5050683593
 40
0.5784779757
 40
0.6527911482
 40
0.7268802828
 40
0.7996342172
 40
0.8699929477
 40
0.9370428076
 40
1.0
 40
1.0
 40
1.0
 40
1.0
 10
34.4349348293
 20
86.1111215995
 30
0.0
 10
34.4133473916
 20
85.9101107527
 30
0.0
 10
34.4233778021
 20
85.4949399677
 30
0.0
 10
34.6034470392
 20
84.8841220209
 30
0.0
 10
34.9401158713
 20
84.300959685
 30
0.0
 10
35.4220619052
 20
83.7582010358
 30
0.0
 10
36.0368960852
 20
83.2658598419
 30
0.0
 10
36.7706357649
 20
82.8334576793
 30
0.0
 10
37.6070905885
 20
82.4697609405
 30
0.0
 10
38.5278083486
 20
82.1824947022
 30
0.0
 10
39.5123493563
 20
81.9779250838
 30
0.0
 10
40.5387330324
 20
81.860592506
 30
0.0
 10
41.5839469683
 20
81.8331343131
 30
0.0
 10
42.6245450261
 20
81.8961494756
 30
0.0
 10
43.6371274256
 20
82.0482592679
 30
0.0
 10
44.5991883349
 20
82.2860004851
 30
0.0
 10
45.4889457515
 20
82.6041738052
 30
0.0
 10
46.0400120502
 20
82.8746499846
 30
0.0
 10
46.2966972681
 20
83.0228463797
 30
0.0
  0
SPLINE
  5
4A1
100
AcDbEntity
  8
_1
100
AcDbSpline
 62
7
  6
CONTINUOUS
 70
0
 71
3
 72
12
 73
8
 74
0
 42
0.0000001
 43
0.0000001
 44
0.0000000001
 40
0.0
 40
0.0
 40
0.0
 40
0.0
 40
0.1086728623
 40
0.2193133824
 40
0.4527080035
 40
0.7114472275
 40
1.0
 40
1.0
 40
1.0
 40
1.0
 10
76.9623321657
 20
58.68669515
 30
0.0
 10
77.0104212995
 20
58.7144575904
 30
0.0
 10
77.1029615127
 20
58.7787487642
 30
0.0
 10
77.2693640278
 20
58.9406931524
 30
0.0
 10
77.4357237114
 20
59.2055594567
 30
0.0
 10
77.5545267539
 20
59.5897963185
 30
0.0
 10
77.5811072732
 20
59.8700494501
 30
0.0
 10
77.5833553982
 20
60.0174716219
 30
0.0
  0
SPLINE
  5
4A2
100
AcDbEntity
  8
_1
100
AcDbSpline
 62
7
  6
CONTINUOUS
 70
0
 71
3
 72
11
 73
7
 74
0
 42
0.0000001
 43
0.0000001
 44
0.0000000001
 40
0.0
 40
0.0
 40
0.0
 40
0.0
 40
0.2897467649
 40
0.5490797395
 40
0.7822221015
 40
1.0
 40
1.0
 40
1.0
 40
1.0
 10
45.6300815342
 20
73.4167079308
 30
0.0
 10
45.6300815342
 20
73.5307288098
 30
0.0
 10
45.6473408531
 20
73.7475393392
 30
0.0
 10
45.735176954
 20
74.0454222751
 30
0.0
 10
45.8830072871
 20
74.2871173285
 30
0.0
 10
46.0218644042
 20
74.4038779523
 30
0.0
 10
46.0960899115
 20
74.4467151144
 30
0.0
  0
SPLINE
  5
4A3
100
AcDbEntity
  8
_1
100
AcDbSpline
 62
7
  6
CONTINUOUS
 70
0
 71
3
 72
25
 73
21
 74
0
 42
0.0000001
 43
0.0000001
 44
0.0000000001
 40
0.0
 40
0.0
 40
0.0
 40
0.0
 40
0.0213325984
 40
0.04289342
 40
0.0648993162
 40
0.0875443307
 40
0.1353201532
 40
0.1872214989
 40
0.2436592777
 40
0.3046069895
 40
0.3696943314
 40
0.4382910447
 40
0.5095769246
 40
0.5826006543
 40
0.6563321479
 40
0.729708787
 40
0.8016843161
 40
0.8712758913
 40
0.9376169523
 40
1.0
 40
1.0
 40
1.0
 40
1.0
 10
28.2210675961
 20
78.8488150709
 30
0.0
 10
28.4053572129
 20
78.9552149138
 30
0.0
 10
28.7900885031
 20
79.1455696381
 30
0.0
 10
29.403442254
 20
79.3576560214
 30
0.0
 10
30.0510078274
 20
79.4957104785
 30
0.0
 10
30.9707359586
 20
79.5820692189
 30
0.0
 10
32.1970313026
 20
79.4920097208
 30
0.0
 10
33.7089874567
 20
79.0901384592
 30
0.0
 10
35.2589699945
 20
78.4051660237
 30
0.0
 10
36.815548772
 20
77.4528264661
 30
0.0
 10
38.3472818728
 20
76.253659955
 30
0.0
 10
39.8223156737
 20
74.8330685915
 30
0.0
 10
41.2096239843
 20
73.22116455
 30
0.0
 10
42.4797777334
 20
71.452211026
 30
0.0
 10
43.6057080377
 20
69.5639049373
 30
0.0
 10
44.563415401
 20
67.5965342238
 30
0.0
 10
45.3324350305
 20
65.5920681732
 30
0.0
 10
45.8964648939
 20
63.5929795477
 30
0.0
 10
46.2433601297
 20
61.6420198198
 30
0.0
 10
46.327676414
 20
60.35709996
 30
0.0
 10
46.327676414
 20
59.7348093424
 30
0.0
  0
SPLINE
  5
4A4
100
AcDbEntity
  8
_1
100
AcDbSpline
 62
7
  6
CONTINUOUS
 70
0
 71
3
 72
15
 73
11
 74
0
 42
0.0000001
 43
0.0000001
 44
0.0000000001
 40
0.0
 40
0.0
 40
0.0
 40
0.0
 40
0.1485721016
 40
0.2895075028
 40
0.4227238087
 40
0.5486378691
 40
0.6679992352
 40
0.7819357687
 40
0.8919846923
 40
1.0
 40
1.0
 40
1.0
 40
1.0
 10
46.327676414
 20
59.7348093424
 30
0.0
 10
46.327676414
 20
59.3441945497
 30
0.0
 10
46.2961496321
 20
58.5825200344
 30
0.0
 10
46.1462675637
 20
57.479514786
 30
0.0
 10
45.8958022775
 20
56.4557113823
 30
0.0
 10
45.5467383156
 20
55.5211134266
 30
0.0
 10
45.1018974236
 20
54.6846183826
 30
0.0
 10
44.5645487671
 20
53.9548497877
 30
0.0
 10
43.939757151
 20
53.339997466
 30
0.0
 10
43.4669323465
 20
53.010019366
 30
0.0
 10
43.2209934775
 20
52.8680262495
 30
0.0
  0
SPLINE
  5
4A5
100
AcDbEntity
  8
_1
100
AcDbSpline
 62
7
  6
CONTINUOUS
 70
0
 71
3
 72
22
 73
18
 74
0
 42
0.0000001
 43
0.0000001
 44
0.0000000001
 40
0.0
 40
0.0
 40
0.0
 40
0.0
 40
0.1426115397
 40
0.2083771118
 40
0.2706477609
 40
0.32983545
 40
0.386539219
 40
0.441534691
 40
0.4957372856
 40
0.5501305777
 40
0.6056797338
 40
0.6632539121
 40
0.7235673493
 40
0.7871387664
 40
0.85431466
 40
0.9252854465
 40
1.0
 40
1.0
 40
1.0
 40
1.0
 10
34.3306520506
 20
52.7886894739
 30
0.0
 10
34.9516947151
 20
52.456573275
 30
0.0
 10
35.9030649623
 20
52.0424389404
 30
0.0
 10
37.2010502524
 20
51.7139628227
 30
0.0
 10
38.1204361159
 20
51.5947058263
 30
0.0
 10
39.0030763016
 20
51.597635208
 30
0.0
 10
39.8408340136
 20
51.7235160192
 30
0.0
 10
40.6252812342
 20
51.9720230759
 30
0.0
 10
41.3481882054
 20
52.341015307
 30
0.0
 10
42.0017073422
 20
52.8268597629
 30
0.0
 10
42.5791963461
 20
53.4240321648
 30
0.0
 10
43.075333491
 20
54.1259952273
 30
0.0
 10
43.4858841763
 20
54.9255377301
 30
0.0
 10
43.8079360344
 20
55.814811126
 30
0.0
 10
44.038984338
 20
56.7857981263
 30
0.0
 10
44.1772326509
 20
57.8294340887
 30
0.0
 10
44.2063619584
 20
58.5493508641
 30
0.0
 10
44.2063619584
 20
58.9183193349
 30
0.0
  0
SPLINE
  5
4A6
100
AcDbEntity
  8
_1
100
AcDbSpline
 62
7
  6
CONTINUOUS
 70
0
 71
3
 72
30
 73
26
 74
0
 42
0.0000001
 43
0.0000001
 44
0.0000000001
 40
0.0
 40
0.0
 40
0.0
 40
0.0
 40
0.0665062724
 40
0.1382172091
 40
0.213701413
 40
0.2911967234
 40
0.3687847304
 40
0.4445394332
 40
0.5166789099
 40
0.583726752
 40
0.6150384164
 40
0.6447660893
 40
0.6729046041
 40
0.699513972
 40
0.7247274788
 40
0.7487572994
 40
0.7718968234
 40
0.794508324
 40
0.8169999829
 40
0.8397905022
 40
0.8632721093
 40
0.8877801928
 40
0.9135728325
 40
0.9408264413
 40
1.0
 40
1.0
 40
1.0
 40
1.0
 10
44.2063619584
 20
58.9183193349
 30
0.0
 10
44.2063619584
 20
59.7189385781
 30
0.0
 10
44.0615420385
 20
61.3843713943
 30
0.0
 10
43.4832382786
 20
63.8978876985
 30
0.0
 10
42.556238478
 20
66.4457950103
 30
0.0
 10
41.3142631191
 20
68.934482871
 30
0.0
 10
39.8028097203
 20
71.2732197283
 30
0.0
 10
38.0769916485
 20
73.3765078842
 30
0.0
 10
36.2000297826
 20
75.1673119433
 30
0.0
 10
34.5279951758
 20
76.3727178458
 30
0.0
 10
33.172785083
 20
77.1119159036
 30
0.0
 10
32.1860440206
 20
77.5390262542
 30
0.0
 10
31.2149200644
 20
77.8472570123
 30
0.0
 10
30.2681655809
 20
78.0334484457
 30
0.0
 10
29.354412757
 20
78.0953570773
 30
0.0
 10
28.4822293761
 20
78.031487244
 30
0.0
 10
27.6602490222
 20
77.8417416971
 30
0.0
 10
26.8971661217
 20
77.5272120938
 30
0.0
 10
26.2014418138
 20
77.0908937513
 30
0.0
 10
25.5805426474
 20
76.5377832442
 30
0.0
 10
25.0407745955
 20
75.8740908494
 30
0.0
 10
24.5868852631
 20
75.1071909853
 30
0.0
 10
24.2224378679
 20
74.2448069405
 30
0.0
 10
23.8495663429
 20
72.9438070387
 30
0.0
 10
23.7303475878
 20
71.9012786051
 30
0.0
 10
23.7071537556
 20
71.1893101079
 30
0.0
  0
SPLINE
  5
4A7
100
AcDbEntity
  8
_1
100
AcDbSpline
 62
7
  6
CONTINUOUS
 70
0
 71
3
 72
9
 73
5
 74
0
 42
0.0000001
 43
0.0000001
 44
0.0000000001
 40
0.0
 40
0.0
 40
0.0
 40
0.0
 40
0.5069110763
 40
1.0
 40
1.0
 40
1.0
 40
1.0
 10
39.8771043587
 20
57.4547584553
 30
0.0
 10
39.7801175671
 20
57.3174477277
 30
0.0
 10
39.5708766577
 20
57.0586764268
 30
0.0
 10
39.3270815318
 20
56.8319024286
 30
0.0
 10
39.1993757865
 20
56.7297665504
 30
0.0
  0
SPLINE
  5
4A8
100
AcDbEntity
  8
_1
100
AcDbSpline
 62
7
  6
CONTINUOUS
 70
0
 71
3
 72
15
 73
11
 74
0
 42
0.0000001
 43
0.0000001
 44
0.0000000001
 40
0.0
 40
0.0
 40
0.0
 40
0.0
 40
0.0996704522
 40
0.2013096745
 40
0.3090809861
 40
0.4259869412
 40
0.5536441646
 40
0.692417016
 40
0.8416678921
 40
1.0
 40
1.0
 40
1.0
 40
1.0
 10
39.1993757865
 20
56.7297665504
 30
0.0
 10
38.9766354416
 20
56.5516243634
 30
0.0
 10
38.4765637132
 20
56.2496182278
 30
0.0
 10
37.616193477
 20
56.0069876556
 30
0.0
 10
36.6746587873
 20
55.9786519416
 30
0.0
 10
35.67665006
 20
56.1601034445
 30
0.0
 10
34.6437791817
 20
56.5431830334
 30
0.0
 10
33.597952947
 20
57.1175195986
 30
0.0
 10
32.561922148
 20
57.8693760485
 30
0.0
 10
31.9093177907
 20
58.462770963
 30
0.0
 10
31.5892925419
 20
58.7834984589
 30
0.0
  0
SPLINE
  5
4A9
100
AcDbEntity
  8
_1
100
AcDbSpline
 62
7
  6
CONTINUOUS
 70
0
 71
3
 72
9
 73
5
 74
0
 42
0.0000001
 43
0.0000001
 44
0.0000000001
 40
0.0
 40
0.0
 40
0.0
 40
0.0
 40
0.5178280528
 40
1.0
 40
1.0
 40
1.0
 40
1.0
 10
27.5431780199
 20
65.762147632
 30
0.0
 10
27.4035160798
 20
66.2726441148
 30
0.0
 10
27.1891280999
 20
67.2747609254
 30
0.0
 10
27.1070451087
 20
68.2975780065
 30
0.0
 10
27.1070451087
 20
68.790391185
 30
0.0
  0
SPLINE
  5
4AA
100
AcDbEntity
  8
_1
100
AcDbSpline
 62
7
  6
CONTINUOUS
 70
0
 71
3
 72
15
 73
11
 74
0
 42
0.0000001
 43
0.0000001
 44
0.0000000001
 40
0.0
 40
0.0
 40
0.0
 40
0.0
 40
0.0988258309
 40
0.2014133315
 40
0.3108652256
 40
0.4292621411
 40
0.5576247353
 40
0.6960538166
 40
0.8439134763
 40
1.0
 40
1.0
 40
1.0
 40
1.0
 10
39.0567894263
 20
56.8146998197
 30
0.0
 10
38.8324129093
 20
56.6851563738
 30
0.0
 10
38.3402499039
 20
56.4773626906
 30
0.0
 10
37.5292495483
 20
56.345739784
 30
0.0
 10
36.6584129558
 20
56.3906552281
 30
0.0
 10
35.7457636505
 20
56.6081309881
 30
0.0
 10
34.8079649317
 20
56.9917536897
 30
0.0
 10
33.8622116924
 20
57.533232901
 30
0.0
 10
32.9262357088
 20
58.2216722228
 30
0.0
 10
32.3343322419
 20
58.7573207989
 30
0.0
 10
32.0436042281
 20
59.0452900571
 30
0.0
  0
SPLINE
  5
4AB
100
AcDbEntity
  8
_1
100
AcDbSpline
 62
7
  6
CONTINUOUS
 70
0
 71
3
 72
9
 73
5
 74
0
 42
0.0000001
 43
0.0000001
 44
0.0000000001
 40
0.0
 40
0.0
 40
0.0
 40
0.0
 40
0.5175350221
 40
1.0
 40
1.0
 40
1.0
 40
1.0
 10
27.9980562372
 20
66.0196689409
 30
0.0
 10
27.8670538305
 20
66.5088202539
 30
0.0
 10
27.6660255595
 20
67.4689813029
 30
0.0
 10
27.5892804735
 20
68.4481445166
 30
0.0
 10
27.5892804735
 20
68.9202195204
 30
0.0
  0
SPLINE
  5
4AC
100
AcDbEntity
  8
_1
100
AcDbSpline
 62
7
  6
CONTINUOUS
 70
0
 71
3
 72
11
 73
7
 74
0
 42
0.0000001
 43
0.0000001
 44
0.0000000001
 40
0.0
 40
0.0
 40
0.0
 40
0.0
 40
0.2212070039
 40
0.4596604657
 40
0.7189081591
 40
1.0
 40
1.0
 40
1.0
 40
1.0
 10
30.604886047
 20
73.6483835158
 30
0.0
 10
30.4204004451
 20
73.4312728353
 30
0.0
 10
30.0909452487
 20
72.9325243864
 30
0.0
 10
29.7465775932
 20
72.0675247424
 30
0.0
 10
29.5404360109
 20
71.0816180134
 30
0.0
 10
29.4984608339
 20
70.384515312
 30
0.0
 10
29.4984608339
 20
70.0224787358
 30
0.0
  0
SPLINE
  5
4AD
100
AcDbEntity
  8
_1
100
AcDbSpline
 62
7
  6
CONTINUOUS
 70
0
 71
3
 72
16
 73
12
 74
0
 42
0.0000001
 43
0.0000001
 44
0.0000000001
 40
0.0
 40
0.0
 40
0.0
 40
0.0
 40
0.0442767406
 40
0.0895326824
 40
0.1860117639
 40
0.294543731
 40
0.4167049994
 40
0.5515375432
 40
0.6963389844
 40
0.8472968868
 40
1.0
 40
1.0
 40
1.0
 40
1.0
 10
50.4016001325
 20
104.9336958515
 30
0.0
 10
50.4549310859
 20
104.9644857658
 30
0.0
 10
50.5688437727
 20
105.0168342208
 30
0.0
 10
50.8207665485
 20
105.0808446701
 30
0.0
 10
51.1750650962
 20
105.0765213614
 30
0.0
 10
51.6153914713
 20
104.9464082633
 30
0.0
 10
52.0646419841
 20
104.7020483744
 30
0.0
 10
52.5050499218
 20
104.3544793066
 30
0.0
 10
52.9186081785
 20
103.918796475
 30
0.0
 10
53.287481575
 20
103.4139441532
 30
0.0
 10
53.4939521103
 20
103.0440840889
 30
0.0
 10
53.5857791656
 20
102.8525793868
 30
0.0
  0
SPLINE
  5
4AE
100
AcDbEntity
  8
_1
100
AcDbSpline
 62
7
  6
CONTINUOUS
 70
0
 71
3
 72
16
 73
12
 74
0
 42
0.0000001
 43
0.0000001
 44
0.0000000001
 40
0.0
 40
0.0
 40
0.0
 40
0.0
 40
0.1527065931
 40
0.3036688261
 40
0.4484709218
 40
0.5832991729
 40
0.7054546272
 40
0.813983326
 40
0.9104630872
 40
0.955720645
 40
1.0
 40
1.0
 40
1.0
 40
1.0
 10
52.4543822805
 20
102.1991951577
 30
0.0
 10
52.3625541675
 20
102.3907139207
 30
0.0
 10
52.1560812818
 20
102.7606041229
 30
0.0
 10
51.7871958185
 20
103.2654928723
 30
0.0
 10
51.3736270845
 20
103.7011994537
 30
0.0
 10
50.9332176731
 20
104.0487806773
 30
0.0
 10
50.4839708919
 20
104.2931494233
 30
0.0
 10
50.043641953
 20
104.4232756545
 30
0.0
 10
49.6893311697
 20
104.4276068338
 30
0.0
 10
49.4373899661
 20
104.3635979084
 30
0.0
 10
49.3234685035
 20
104.3112426036
 30
0.0
 10
49.2701319411
 20
104.2804503206
 30
0.0
  0
SPLINE
  5
4AF
100
AcDbEntity
  8
_1
100
AcDbSpline
 62
7
  6
CONTINUOUS
 70
0
 71
3
 72
15
 73
11
 74
0
 42
0.0000001
 43
0.0000001
 44
0.0000000001
 40
0.0
 40
0.0
 40
0.0
 40
0.0
 40
0.149991854
 40
0.2915279951
 40
0.4245547072
 40
0.5496812562
 40
0.6679801603
 40
0.7810242137
 40
0.8908948909
 40
1.0
 40
1.0
 40
1.0
 40
1.0
 10
27.1070451087
 20
68.790391185
 30
0.0
 10
27.1070451087
 20
69.0657191584
 30
0.0
 10
27.1312543196
 20
69.6013037419
 30
0.0
 10
27.2469077408
 20
70.373526427
 30
0.0
 10
27.4402245078
 20
71.0832629026
 30
0.0
 10
27.7094514949
 20
71.7221647106
 30
0.0
 10
28.0520646337
 20
72.2828402729
 30
0.0
 10
28.4650724129
 20
72.7579833794
 30
0.0
 10
28.9435252491
 20
73.1408476987
 30
0.0
 10
29.3011516512
 20
73.3303213392
 30
0.0
 10
29.4859972646
 20
73.4074080559
 30
0.0
  0
SPLINE
  5
4B0
100
AcDbEntity
  8
_1
100
AcDbSpline
 62
7
  6
CONTINUOUS
 70
0
 71
3
 72
9
 73
5
 74
0
 42
0.0000001
 43
0.0000001
 44
0.0000000001
 40
0.0
 40
0.0
 40
0.0
 40
0.0
 40
0.4928114386
 40
1.0
 40
1.0
 40
1.0
 40
1.0
 10
29.4859972646
 20
73.4074080559
 30
0.0
 10
29.6480245697
 20
73.4749787855
 30
0.0
 10
29.988380732
 20
73.5856421321
 30
0.0
 10
30.341404933
 20
73.6430511457
 30
0.0
 10
30.5213250095
 20
73.659538532
 30
0.0
  0
SPLINE
  5
4B1
100
AcDbEntity
  8
_1
100
AcDbSpline
 62
7
  6
CONTINUOUS
 70
0
 71
3
 72
11
 73
7
 74
0
 42
0.0000001
 43
0.0000001
 44
0.0000000001
 40
0.0
 40
0.0
 40
0.0
 40
0.0
 40
0.2576955543
 40
0.5195403546
 40
0.7711461142
 40
1.0
 40
1.0
 40
1.0
 40
1.0
 10
76.2537191183
 20
63.3838097405
 30
0.0
 10
76.4459291784
 20
63.1755190993
 30
0.0
 10
76.7950236196
 20
62.7189270375
 30
0.0
 10
77.1948696045
 20
61.9667721738
 30
0.0
 10
77.4538798276
 20
61.1885045156
 30
0.0
 10
77.523010202
 20
60.6594773336
 30
0.0
 10
77.523010202
 20
60.4077737302
 30
0.0
  0
SPLINE
  5
4B2
100
AcDbEntity
  8
_1
100
AcDbSpline
 62
7
  6
CONTINUOUS
 70
0
 71
3
 72
11
 73
7
 74
0
 42
0.0000001
 43
0.0000001
 44
0.0000000001
 40
0.0
 40
0.0
 40
0.0
 40
0.0
 40
0.2915411606
 40
0.550136488
 40
0.7815981297
 40
1.0
 40
1.0
 40
1.0
 40
1.0
 10
55.4890471519
 20
88.33002038
 30
0.0
 10
55.5812464298
 20
88.3832513402
 30
0.0
 10
55.7473331731
 20
88.499011769
 30
0.0
 10
55.9408165148
 20
88.713062299
 30
0.0
 10
56.0532930509
 20
88.9510404325
 30
0.0
 10
56.0667808676
 20
89.1192161674
 30
0.0
 10
56.0582439944
 20
89.1985120018
 30
0.0
  0
SPLINE
  5
4B3
100
AcDbEntity
  8
_1
100
AcDbSpline
 62
7
  6
CONTINUOUS
 70
0
 71
3
 72
12
 73
8
 74
0
 42
0.0000001
 43
0.0000001
 44
0.0000000001
 40
0.0
 40
0.0
 40
0.0
 40
0.0
 40
0.1081649482
 40
0.2183777572
 40
0.4513705259
 40
0.7104640195
 40
1.0
 40
1.0
 40
1.0
 40
1.0
 10
75.7701989464
 20
58.3811818028
 30
0.0
 10
75.8193870615
 20
58.4095790228
 30
0.0
 10
75.9139801167
 20
58.4755614418
 30
0.0
 10
76.0835780533
 20
58.6424766751
 30
0.0
 10
76.2516409223
 20
58.9163637468
 30
0.0
 10
76.3684847808
 20
59.313385368
 30
0.0
 10
76.3915432903
 20
59.6024913124
 30
0.0
 10
76.3915433256
 20
59.7545249239
 30
0.0
  0
SPLINE
  5
4B4
100
AcDbEntity
  8
_1
100
AcDbSpline
 62
7
  6
CONTINUOUS
 70
0
 71
3
 72
17
 73
13
 74
0
 42
0.0000001
 43
0.0000001
 44
0.0000000001
 40
0.0
 40
0.0
 40
0.0
 40
0.0
 40
0.128688448
 40
0.2702796817
 40
0.4174325464
 40
0.5617749928
 40
0.6954478191
 40
0.8127119577
 40
0.8646769781
 40
0.912510124
 40
0.9571398159
 40
1.0
 40
1.0
 40
1.0
 40
1.0
 10
37.6655587292
 20
84.73999777
 30
0.0
 10
37.7580878403
 20
84.7934191583
 30
0.0
 10
37.9675905382
 20
84.8798592746
 30
0.0
 10
38.3090340715
 20
84.9481742054
 30
0.0
 10
38.6701737945
 20
84.9581714287
 30
0.0
 10
39.0215339072
 20
84.9087993546
 30
0.0
 10
39.3346329478
 20
84.8042207424
 30
0.0
 10
39.552393594
 20
84.6716672015
 30
0.0
 10
39.6801858892
 20
84.5434107872
 30
0.0
 10
39.7480772275
 20
84.4435569447
 30
0.0
 10
39.7899120359
 20
84.338231158
 30
0.0
 10
39.7994338181
 20
84.2652814666
 30
0.0
 10
39.7994196833
 20
84.2296969112
 30
0.0
  0
SPLINE
  5
4B5
100
AcDbEntity
  8
_1
100
AcDbSpline
 62
7
  6
CONTINUOUS
 70
0
 71
3
 72
24
 73
20
 74
0
 42
0.0000001
 43
0.0000001
 44
0.0000000001
 40
0.0
 40
0.0
 40
0.0
 40
0.0
 40
0.0640472518
 40
0.132435428
 40
0.2042621796
 40
0.2784781218
 40
0.3538719373
 40
0.4291842545
 40
0.503152718
 40
0.574587179
 40
0.6424381902
 40
0.7058735502
 40
0.7643709062
 40
0.791742413
 40
0.8178871777
 40
0.8667637844
 40
0.9121715796
 40
0.9558703878
 40
1.0
 40
1.0
 40
1.0
 40
1.0
 10
42.7920335813
 20
91.5780712004
 30
0.0
 10
43.0256188439
 20
91.7129309096
 30
0.0
 10
43.5288132644
 20
91.9576326347
 30
0.0
 10
44.3428253362
 20
92.240707661
 30
0.0
 10
45.2237501177
 20
92.4462930762
 30
0.0
 10
46.1495027264
 20
92.5694253054
 30
0.0
 10
47.0972978774
 20
92.6069809535
 30
0.0
 10
48.0435289346
 20
92.558058729
 30
0.0
 10
48.9647025324
 20
92.4238586363
 30
0.0
 10
49.8379645131
 20
92.2077161028
 30
0.0
 10
50.6418397066
 20
91.9148729021
 30
0.0
 10
51.3564891206
 20
91.5524049468
 30
0.0
 10
51.874566229
 20
91.1913186423
 30
0.0
 10
52.2245676307
 20
90.8741493641
 30
0.0
 10
52.5166305295
 20
90.5563066255
 30
0.0
 10
52.8038368315
 20
90.1331374543
 30
0.0
 10
53.0092386229
 20
89.5827232518
 30
0.0
 10
53.0578620424
 20
89.0166335216
 30
0.0
 10
52.9849238589
 20
88.6485692339
 30
0.0
 10
52.9260122353
 20
88.4723118832
 30
0.0
  0
SPLINE
  5
4B6
100
AcDbEntity
  8
_1
100
AcDbSpline
 62
7
  6
CONTINUOUS
 70
0
 71
3
 72
11
 73
7
 74
0
 42
0.0000001
 43
0.0000001
 44
0.0000000001
 40
0.0
 40
0.0
 40
0.0
 40
0.0
 40
0.2772197915
 40
0.5358085626
 40
0.7760084456
 40
1.0
 40
1.0
 40
1.0
 40
1.0
 10
42.8488744253
 20
91.3003041411
 30
0.0
 10
42.677139352
 20
91.2011534422
 30
0.0
 10
42.3550072296
 20
90.991616062
 30
0.0
 10
41.9298299493
 20
90.6321694091
 30
0.0
 10
41.5861056283
 20
90.2433162378
 30
0.0
 10
41.409974998
 20
89.9592876807
 30
0.0
 10
41.339368187
 20
89.8154568692
 30
0.0
  0
SPLINE
  5
4B7
100
AcDbEntity
  8
_1
100
AcDbSpline
 62
7
  6
CONTINUOUS
 70
0
 71
3
 72
11
 73
7
 74
0
 42
0.0000001
 43
0.0000001
 44
0.0000000001
 40
0.0
 40
0.0
 40
0.0
 40
0.0
 40
0.257753072
 40
0.5073402537
 40
0.7531722809
 40
1.0
 40
1.0
 40
1.0
 40
1.0
 10
41.339368187
 20
89.8154568692
 30
0.0
 10
41.2873143443
 20
89.709419699
 30
0.0
 10
41.1999208551
 20
89.4927740938
 30
0.0
 10
41.1239343293
 20
89.154472724
 30
0.0
 10
41.1065424215
 20
88.813125606
 30
0.0
 10
41.1341821224
 20
88.5877517474
 30
0.0
 10
41.1571670428
 20
88.4769936453
 30
0.0
  0
SPLINE
  5
4B8
100
AcDbEntity
  8
_1
100
AcDbSpline
 62
7
  6
CONTINUOUS
 70
0
 71
3
 72
9
 73
5
 74
0
 42
0.0000001
 43
0.0000001
 44
0.0000000001
 40
0.0
 40
0.0
 40
0.0
 40
0.0
 40
0.4810605668
 40
1.0
 40
1.0
 40
1.0
 40
1.0
 10
50.9806362645
 20
86.6055354641
 30
0.0
 10
50.7118264687
 20
86.4503389825
 30
0.0
 10
50.1243245131
 20
86.1764378289
 30
0.0
 10
49.505278915
 20
85.9876625713
 30
0.0
 10
49.1797165736
 20
85.9094092908
 30
0.0
  0
SPLINE
  5
4B9
100
AcDbEntity
  8
_1
100
AcDbSpline
 62
7
  6
CONTINUOUS
 70
0
 71
3
 72
15
 73
11
 74
0
 42
0.0000001
 43
0.0000001
 44
0.0000000001
 40
0.0
 40
0.0
 40
0.0
 40
0.0
 40
0.1607937037
 40
0.311664428
 40
0.4508114315
 40
0.5774889006
 40
0.6923831117
 40
0.7979822648
 40
0.8986564795
 40
1.0
 40
1.0
 40
1.0
 40
1.0
 10
44.8869744928
 20
85.9100620469
 30
0.0
 10
44.6012864367
 20
85.9788419457
 30
0.0
 10
44.0539786629
 20
86.1416653759
 30
0.0
 10
43.2963360227
 20
86.4708347662
 30
0.0
 10
42.6443037774
 20
86.8698468721
 30
0.0
 10
42.1162215876
 20
87.3287776385
 30
0.0
 10
41.7277736585
 20
87.8370794672
 30
0.0
 10
41.4936766697
 20
88.3831346261
 30
0.0
 10
41.4271518803
 20
88.9495361762
 30
0.0
 10
41.4966762759
 20
89.3184371007
 30
0.0
 10
41.5553863442
 20
89.4940907808
 30
0.0
  0
SPLINE
  5
4BA
100
AcDbEntity
  8
_1
100
AcDbSpline
 62
7
  6
CONTINUOUS
 70
0
 71
3
 72
9
 73
5
 74
0
 42
0.0000001
 43
0.0000001
 44
0.0000000001
 40
0.0
 40
0.0
 40
0.0
 40
0.0
 40
0.4824631493
 40
1.0
 40
1.0
 40
1.0
 40
1.0
 10
29.4984608339
 20
70.0224787358
 30
0.0
 10
29.4984608339
 20
69.5503918556
 30
0.0
 10
29.5752102603
 20
68.5712002865
 30
0.0
 10
29.7762495745
 20
67.6110123792
 30
0.0
 10
29.9072597356
 20
67.1218461149
 30
0.0
  0
SPLINE
  5
4BB
100
AcDbEntity
  8
_1
100
AcDbSpline
 62
7
  6
CONTINUOUS
 70
0
 71
3
 72
14
 73
10
 74
0
 42
0.0000001
 43
0.0000001
 44
0.0000000001
 40
0.0
 40
0.0
 40
0.0
 40
0.0
 40
0.2931666071
 40
0.4297656592
 40
0.5587581842
 40
0.6798898118
 40
0.793304443
 40
0.8996198514
 40
1.0
 40
1.0
 40
1.0
 40
1.0
 10
33.9529224848
 20
60.1474219229
 30
0.0
 10
34.4173316938
 20
59.6874303664
 30
0.0
 10
35.1487648066
 20
59.0595504716
 30
0.0
 10
36.1960150878
 20
58.3820513101
 30
0.0
 10
36.9641495519
 20
57.9867172027
 30
0.0
 10
37.7233810226
 20
57.6975545774
 30
0.0
 10
38.4644775861
 20
57.5186368409
 30
0.0
 10
39.1778637243
 20
57.4530477023
 30
0.0
 10
39.6402648575
 20
57.4870240575
 30
0.0
 10
39.8609613718
 20
57.5242384549
 30
0.0
  0
SPLINE
  5
4BC
100
AcDbEntity
  8
_1
100
AcDbSpline
 62
7
  6
CONTINUOUS
 70
0
 71
3
 72
15
 73
11
 74
0
 42
0.0000001
 43
0.0000001
 44
0.0000000001
 40
0.0
 40
0.0
 40
0.0
 40
0.0
 40
0.1514546936
 40
0.293184356
 40
0.4252388912
 40
0.5486318222
 40
0.6650902774
 40
0.7770670597
 40
0.8876196742
 40
1.0
 40
1.0
 40
1.0
 40
1.0
 10
50.9237954205
 20
86.8833025234
 30
0.0
 10
51.0769156722
 20
86.9717060142
 30
0.0
 10
51.364905664
 20
87.1581852818
 30
0.0
 10
51.7475770485
 20
87.4764520607
 30
0.0
 10
52.061178197
 20
87.8202717489
 30
0.0
 10
52.3005744604
 20
88.184948307
 30
0.0
 10
52.4616228772
 20
88.5654966287
 30
0.0
 10
52.5405069059
 20
88.9562399556
 30
0.0
 10
52.5352435286
 20
89.3500418996
 30
0.0
 10
52.4766480925
 20
89.6058200694
 30
0.0
 10
52.4350655772
 20
89.7302481944
 30
0.0
  0
SPLINE
  5
4BD
100
AcDbEntity
  8
_1
100
AcDbSpline
 62
7
  6
CONTINUOUS
 70
0
 71
3
 72
17
 73
13
 74
0
 42
0.0000001
 43
0.0000001
 44
0.0000000001
 40
0.0
 40
0.0
 40
0.0
 40
0.0
 40
0.0428581672
 40
0.0874869941
 40
0.1353186504
 40
0.1872840057
 40
0.3045444484
 40
0.4382116659
 40
0.5825549289
 40
0.7297154015
 40
0.8713049786
 40
1.0
 40
1.0
 40
1.0
 40
1.0
 10
25.3459711621
 20
83.8284284223
 30
0.0
 10
25.2904971857
 20
83.7964131784
 30
0.0
 10
25.1682349401
 20
83.7455637877
 30
0.0
 10
24.9663923222
 20
83.7160317579
 30
0.0
 10
24.749633659
 20
83.7319216775
 30
0.0
 10
24.4347010778
 20
83.81574799
 30
0.0
 10
24.0320792078
 20
84.0358444411
 30
0.0
 10
23.587268574
 20
84.4297946436
 30
0.0
 10
23.1940717316
 20
84.9330756032
 30
0.0
 10
22.8846298926
 20
85.5050487126
 30
0.0
 10
22.6837868128
 20
86.0988003908
 30
0.0
 10
22.6299857762
 20
86.5031904031
 30
0.0
 10
22.6299857762
 20
86.6955190012
 30
0.0
  0
SPLINE
  5
4BE
100
AcDbEntity
  8
_1
100
AcDbSpline
 62
7
  6
CONTINUOUS
 70
0
 71
3
 72
25
 73
21
 74
0
 42
0.0000001
 43
0.0000001
 44
0.0000000001
 40
0.0
 40
0.0
 40
0.0
 40
0.0
 40
0.0623824995
 40
0.1287229602
 40
0.1983146378
 40
0.2702914851
 40
0.3436683519
 40
0.417399768
 40
0.4904238675
 40
0.5617101834
 40
0.6303073026
 40
0.6953949005
 40
0.75634269
 40
0.812780358
 40
0.8646814171
 40
0.9124568102
 40
0.9351015597
 40
0.9571071977
 40
0.9786677427
 40
1.0
 40
1.0
 40
1.0
 40
1.0
 10
44.9134687396
 20
58.9183210346
 30
0.0
 10
44.9134687396
 20
59.5406064808
 30
0.0
 10
44.8291553714
 20
60.8255156142
 30
0.0
 10
44.482263087
 20
62.7764661187
 30
0.0
 10
43.9182370322
 20
64.7755654513
 30
0.0
 10
43.1492080854
 20
66.7800467711
 30
0.0
 10
42.1914972971
 20
68.747433215
 30
0.0
 10
41.065560948
 20
70.6357430804
 30
0.0
 10
39.795402449
 20
72.4047033756
 30
0.0
 10
38.4080832994
 20
74.0166155091
 30
0.0
 10
36.9330385096
 20
75.4372127245
 30
0.0
 10
35.4012955608
 20
76.6363802897
 30
0.0
 10
33.8447106198
 20
77.5887158266
 30
0.0
 10
32.2947269352
 20
78.2736800808
 30
0.0
 10
30.7827756396
 20
78.6755402926
 30
0.0
 10
29.5564888832
 20
78.7655918047
 30
0.0
 10
28.6367704834
 20
78.6792268514
 30
0.0
 10
27.989213136
 20
78.5411709969
 30
0.0
 10
27.3758682692
 20
78.3290845591
 30
0.0
 10
26.9911433701
 20
78.1387306871
 30
0.0
 10
26.8068564389
 20
78.0323327947
 30
0.0
  0
SPLINE
  5
4BF
100
AcDbEntity
  8
_1
100
AcDbSpline
 62
7
  6
CONTINUOUS
 70
0
 71
3
 72
11
 73
7
 74
0
 42
0.0000001
 43
0.0000001
 44
0.0000000001
 40
0.0
 40
0.0
 40
0.0
 40
0.0
 40
0.228836795
 40
0.4804428559
 40
0.7422964128
 40
1.0
 40
1.0
 40
1.0
 40
1.0
 10
76.3915437584
 20
59.7545251738
 30
0.0
 10
76.3915438169
 20
60.0062163009
 30
0.0
 10
76.3224157374
 20
60.5352378189
 30
0.0
 10
76.0634116853
 20
61.3135201943
 30
0.0
 10
75.6635447837
 20
62.0657102735
 30
0.0
 10
75.3144257524
 20
62.5223255424
 30
0.0
 10
75.1222011781
 20
62.7306244979
 30
0.0
  0
ELLIPSE
  5
4C0
100
AcDbEntity
  8
_1
100
AcDbEllipse
 62
7
  6
CONTINUOUS
 10
76.3795653768
 20
101.2505707834
 30
0.0
 11
2.0
 21
-0.0000000044
 31
0.0
 40
0.5775178928
 41
-2.356038031
 42
-0.7855462907
  0
ELLIPSE
  5
4C1
100
AcDbEntity
  8
_1
100
AcDbEllipse
 62
7
  6
CONTINUOUS
 10
60.9593513819
 20
110.1532340791
 30
0.0
 11
2.0006092658
 21
0.0000000044
 31
0.0
 40
0.5771661917
 41
8.6395362515
 42
10.2100279918
  0
ELLIPSE
  5
4C2
100
AcDbEntity
  8
_1
100
AcDbEllipse
 62
7
  6
CONTINUOUS
 10
91.7996509712
 20
110.1533082101
 30
0.0
 11
2.0006092658
 21
0.0000000044
 31
0.0
 40
0.5771661917
 41
-0.7852417093
 42
0.785250031
  0
ELLIPSE
  5
4C3
100
AcDbEntity
  8
_1
100
AcDbEllipse
 62
7
  6
CONTINUOUS
 10
95.579183334
 20
110.1728354063
 30
0.0
 11
3.0411449419
 21
1.3009143743
 31
0.0
 40
0.7117215449
 41
1.1032414322
 42
1.2752583056
  0
ELLIPSE
  5
4C4
100
AcDbEntity
  8
_1
100
AcDbEllipse
 62
7
  6
CONTINUOUS
 10
62.76322489
 20
109.4770431118
 30
0.0
 11
12.549738081
 21
29.3383535156
 31
0.0
 40
0.2280935929
 41
0.9355079442
 42
0.9835333213
  0
ELLIPSE
  5
4C5
100
AcDbEntity
  8
_1
100
AcDbEllipse
 62
7
  6
CONTINUOUS
 10
69.5625890943
 20
143.4553521666
 30
0.0
 11
6.2748690405
 21
14.6691767578
 31
0.0
 40
0.2280935929
 41
-2.7899717648
 42
-2.5638172456
  0
ELLIPSE
  5
4C6
100
AcDbEntity
  8
_1
100
AcDbEllipse
 62
7
  6
CONTINUOUS
 10
106.2198635868
 20
127.5449455094
 30
0.0
 11
11.8014029102
 21
-2.5023331815
 31
0.0
 40
0.0804922864
 41
0.7446872145
 42
0.8394071495
  0
ELLIPSE
  5
4C7
100
AcDbEntity
  8
_1
100
AcDbEllipse
 62
7
  6
CONTINUOUS
 10
63.0476733555
 20
118.6227894743
 30
0.0
 11
5.6473821365
 21
13.202259082
 31
0.0
 40
0.2280935929
 41
0.2955303376
 42
0.577775408
  0
ELLIPSE
  5
4C8
100
AcDbEntity
  8
_1
100
AcDbEllipse
 62
7
  6
CONTINUOUS
 10
84.1467276989
 20
100.7595987816
 30
0.0
 11
20.2742996127
 21
8.6727624952
 31
0.0
 40
0.7117215449
 41
1.0179876659
 42
1.187991843
  0
ELLIPSE
  5
4C9
100
AcDbEntity
  8
_1
100
AcDbEllipse
 62
7
  6
CONTINUOUS
 10
77.1898678584
 20
110.4579743839
 30
0.0
 11
19.0627685095
 21
4.289192816
 31
0.0
 40
0.36817193
 41
-0.082651315
 42
0.9850005705
  0
ELLIPSE
  5
4CA
100
AcDbEntity
  8
_1
100
AcDbEllipse
 62
7
  6
CONTINUOUS
 10
78.2525381655
 20
110.255008347
 30
0.0
 11
18.0037258145
 21
4.0509043262
 31
0.0
 40
0.36817193
 41
-0.2295645664
 42
-0.082651315
  0
ELLIPSE
  5
4CB
100
AcDbEntity
  8
_1
100
AcDbEllipse
 62
7
  6
CONTINUOUS
 10
76.3795011766
 20
130.4346874855
 30
0.0
 11
-9.1217548607
 21
15.799164163
 31
0.0
 40
0.5773470039
 41
-4.2148692823
 42
-4.2075467854
  0
ELLIPSE
  5
4CC
100
AcDbEntity
  8
_1
100
AcDbEllipse
 62
7
  6
CONTINUOUS
 10
109.6541956791
 20
129.5277462316
 30
0.0
 11
-4.5722757882
 21
7.0256935128
 31
0.0
 40
0.6097682468
 41
-1.5996187431
 42
-0.9529488772
  0
ELLIPSE
  5
4CD
100
AcDbEntity
  8
_1
100
AcDbEllipse
 62
7
  6
CONTINUOUS
 10
109.6541956791
 20
129.5277462316
 30
0.0
 11
-4.1491696705
 21
6.3755547101
 31
0.0
 40
0.6097682468
 41
-1.7067317425
 42
-0.9141328548
  0
ELLIPSE
  5
4CE
100
AcDbEntity
  8
_1
100
AcDbEllipse
 62
7
  6
CONTINUOUS
 10
96.6611137188
 20
127.8103656169
 30
0.0
 11
21.1808538995
 21
4.7657697956
 31
0.0
 40
0.36817193
 41
-2.3827466023
 42
-2.1565920831
  0
ELLIPSE
  5
4CF
100
AcDbEntity
  8
_1
100
AcDbEllipse
 62
7
  6
CONTINUOUS
 10
76.3397316128
 20
101.638820625
 30
0.0
 11
42.3617077989
 21
9.5315395911
 31
0.0
 40
0.36817193
 41
1.3427331067
 42
1.3907584837
  0
ELLIPSE
  5
4D0
100
AcDbEntity
  8
_1
100
AcDbEllipse
 62
7
  6
CONTINUOUS
 10
96.0776889563
 20
137.3659687184
 30
0.0
 11
-4.1491696705
 21
6.3755547101
 31
0.0
 40
0.6097682468
 41
-1.7067317425
 42
-0.9141328548
  0
ELLIPSE
  5
4D1
100
AcDbEntity
  8
_1
100
AcDbEllipse
 62
7
  6
CONTINUOUS
 10
96.0776889563
 20
137.3659687184
 30
0.0
 11
-4.5722757882
 21
7.0256935128
 31
0.0
 40
0.6097682468
 41
-1.5996187431
 42
-0.9529488772
  0
ENDSEC
  0
SECTION
  2
OBJECTS
  0
DICTIONARY
  5
C
100
AcDbDictionary
280
0
281
1
  3
ACAD_GROUP
350
D
  3
ACAD_MLINESTYLE
350
17
  3
ACAD_LAYOUT
350
1A
  3
ACAD_PLOTSETTINGS
350
19
  3
ACAD_PLOTSTYLENAME
350
E
  0
DICTIONARY
  5
D
102
{ACAD_REACTORS
330
C
102
}
100
AcDbDictionary
280
0
281
1
  0
ACDBDICTIONARYWDFLT
  5
E
102
{ACAD_REACTORS
330
C
102
}
100
AcDbDictionary
281
1
  3
Normal
350
F
100
AcDbDictionaryWithDefault
340
F
  0
DICTIONARY
  5
17
102
{ACAD_REACTORS
330
C
102
}
100
AcDbDictionary
280
0
281
1
  3
Standard
350
18
  0
DICTIONARY
  5
19
102
{ACAD_REACTORS
330
C
102
}
100
AcDbDictionary
281
1
  0
DICTIONARY
  5
1A
102
{ACAD_REACTORS
330
C
102
}
100
AcDbDictionary
281
1
  3
Model
350
4D2
  3
Layout1
350
4D3
  0
ACDBPLACEHOLDER
  5
F
102
{ACAD_REACTORS
330
E
102
}
  0
MLINESTYLE
  5
18
102
{ACAD_REACTORS
330
17
102
}
100
AcDbMlineStyle
  2
STANDARD
 70
0
  3

 62
256
 51
90.0
 52
90.0
 71
2
 49
0.5
 62
256
  6
BYLAYER
 49
-0.5
 62
256
  6
BYLAYER
  0
LAYOUT
  5
4D2
102
{ACAD_REACTORS
330
1A
102
}
100
AcDbPlotSettings
  1

  2
none_device
  4

  6

 40
0.0
 41
0.0
 42
0.0
 43
0.0
 44
210.0
 45
297.0
 46
0.0
 47
0.0
 48
0.0
 49
0.0
140
0.0
141
0.0
142
1.0
143
1.0
 70
1024
 72
1
 73
0
 74
0
  7

 75
0
147
1.0
148
0.0
149
0.0
100
AcDbLayout
  1
Model
 70
0
 71
0
 10
0.0
 20
0.0
 11
210.0
 21
297.0
 12
0.0
 22
0.0
 32
0.0
 14
0.0
 24
0.0
 34
0.0
 15
0.0
 25
0.0
 35
0.0
146
0.0
 13
0.0
 23
0.0
 33
0.0
 16
1.0
 26
0.0
 36
0.0
 17
0.0
 27
1.0
 37
0.0
 76
0
330
211
345
0
346
0
  0
LAYOUT
  5
4D3
102
{ACAD_REACTORS
330
1A
102
}
100
AcDbPlotSettings
  1

  2
none_device
  4

  6

 40
0.0
 41
0.0
 42
0.0
 43
0.0
 44
210.0
 45
297.0
 46
0.0
 47
0.0
 48
0.0
 49
0.0
140
0.0
141
0.0
142
1.0
143
1.0
 70
0
 72
1
 73
0
 74
0
  7

 75
0
147
1.0
148
0.0
149
0.0
100
AcDbLayout
  1
Layout1
 70
0
 71
1
 10
0.0
 20
0.0
 11
210.0
 21
297.0
 12
0.0
 22
0.0
 32
0.0
 14
0.0
 24
0.0
 34
0.0
 15
0.0
 25
0.0
 35
0.0
146
0.0
 13
0.0
 23
0.0
 33
0.0
 16
1.0
 26
0.0
 36
0.0
 17
0.0
 27
1.0
 37
0.0
 76
0
330
212
345
0
346
0
  0
ENDSEC
  0
EOF
