999
DXF file: C:\Users\sesa63760\Dev\_Creo\CAD\MCADID0000473_3D-CAD\drw0001_1.dxf
999
Pro/ENGINEER 2019471 by Parametric Technology Corporation
  0
SECTION
  2
HEADER
  9
$ACADVER
  1
AC1024
  9
$DWGCODEPAGE
  3
ANSI_1252
  9
$EXTMAX
 10
221.5611492022
 20
313.3507681575
 30
0.0
  9
$EXTMIN
 10
0.0
 20
0.0
 30
0.0
  9
$LIMMIN
 10
0.0
 20
0.0
  9
$LIMMAX
 10
221.5611492022
 20
313.3507681575
  9
$VIEWCTR
 10
110.7805746011
 20
156.6753840787
  9
$VIEWSIZE
 40
313.3507681575
  9
$CLAYER
  8
0
  9
$LTSCALE
 40
20.4258278503
  9
$CELTYPE
  6
BYLAYER
  9
$DIMSCALE
 40
1.0
  9
$DIMASZ
 40
2.6376327286
  9
$DIMEXO
 40
1.0
  9
$DIMDLI
 40
14.1123901511
  9
$DIMEXE
 40
1.0
  9
$DIMCEN
 40
3.3424081937
  9
$DIMLFAC
 40
1.0
  9
$DIMBLK
  1
_FILLED
  9
$DIMALT
 70
0
  9
$DIMALTF
 40
0.0393700787
  9
$DIMTXT
 40
3.69268582
  9
$DIMTOL
 70
1
  9
$DIMLIM
 70
0
  9
$DIMTFAC
 40
1.0
  9
$DIMTP
 40
0.01
  9
$DIMTM
 40
0.01
  9
$DIMGAP
 40
0.625
  9
$DIMDSEP
 70
46
  9
$AUNITS
 70
0
  9
$PDMODE
 70
3
  9
$PDSIZE
 40
0.3125
  9
$HANDSEED
  5
2BA
  9
$TILEMODE
 70
1
  9
$MEASUREMENT
 70
1
  9
$INSUNITS
 70
4
  0
ENDSEC
  0
SECTION
  2
CLASSES
  0
CLASS
  1
ACDBDICTIONARYWDFLT
  2
AcDbDictionaryWithDefault
  3
AutoCAD 2000
 90
0
 91
1
280
0
281
0
  0
CLASS
  1
ACDBPLACEHOLDER
  2
AcDbPlaceHolder
  3
AutoCAD 2000
 90
0
 91
1
280
0
281
0
  0
CLASS
  1
LAYOUT
  2
AcDbLayout
  3
AutoCAD 2000
 90
0
 91
0
280
0
281
0
  0
ENDSEC
  0
SECTION
  2
TABLES
  0
TABLE
  2
VPORT
  5
8
100
AcDbSymbolTable
 70
2
  0
VPORT
  5
1F4
100
AcDbSymbolTableRecord
100
AcDbViewportTableRecord
  2
*ACTIVE
 70
0
 10
0.0
 20
0.0
 11
1.0
 21
1.0
 12
110.7805746011
 22
156.6753840787
 13
0.0
 23
0.0
 14
1.0
 24
1.0
 15
0.0
 25
0.0
 16
0.0
 26
0.0
 36
1.0
 17
0.0
 27
0.0
 37
0.0
 40
313.3507681575
 41
0.7070707071
 42
50.0
 43
0.0
 44
0.0
 50
0.0
 51
0.0
 71
0
 72
100
 73
1
 74
1
 75
0
 76
0
 77
0
 78
0
  0
ENDTAB
  0
TABLE
  2
LTYPE
  5
5
100
AcDbSymbolTable
 70
6
  0
LTYPE
  5
14
100
AcDbSymbolTableRecord
100
AcDbLinetypeTableRecord
  2
BYBLOCK
 70
0
  3

 72
65
 73
0
 40
0.0
  0
LTYPE
  5
15
100
AcDbSymbolTableRecord
100
AcDbLinetypeTableRecord
  2
BYLAYER
 70
0
  3

 72
65
 73
0
 40
0.0
  0
LTYPE
  5
16
100
AcDbSymbolTableRecord
100
AcDbLinetypeTableRecord
  2
CONTINUOUS
 70
64
  3
Solid line
 72
65
 73
0
 40
0.0
  0
LTYPE
  5
1F5
100
AcDbSymbolTableRecord
100
AcDbLinetypeTableRecord
  2
CENTER
 70
64
  3
____ _ ____ _ ____ _ ____ _ ____ _ ____ _ ____
 72
65
 73
4
 40
0.6
 49
0.375
 74
0
 49
-0.075
 74
0
 49
0.075
 74
0
 49
-0.075
 74
0
  0
LTYPE
  5
1F6
100
AcDbSymbolTableRecord
100
AcDbLinetypeTableRecord
  2
HIDDEN
 70
64
  3
- - - - - - - - - - - - - - - - - - - -
 72
65
 73
2
 40
0.2
 49
0.1
 74
0
 49
-0.1
 74
0
  0
LTYPE
  5
1F7
100
AcDbSymbolTableRecord
100
AcDbLinetypeTableRecord
  2
PHANTOM
 70
64
  3
_____ _ _ _____ _ _ _____ _ _ _____
 72
65
 73
6
 40
0.8
 49
0.45
 74
0
 49
-0.05
 74
0
 49
0.1
 74
0
 49
-0.05
 74
0
 49
0.1
 74
0
 49
-0.05
 74
0
  0
LTYPE
  5
1F8
100
AcDbSymbolTableRecord
100
AcDbLinetypeTableRecord
  2
DOT
 70
64
  3
. . . . . . . . . . . . . . . . . . . .
 72
65
 73
2
 40
0.2
 49
0.1
 74
0
 49
-0.1
 74
0
  0
LTYPE
  5
1F9
100
AcDbSymbolTableRecord
100
AcDbLinetypeTableRecord
  2
DASHED
 70
64
  3
- - - - - - - - - - - - - - - - - - - -
 72
65
 73
2
 40
0.2
 49
0.1
 74
0
 49
-0.1
 74
0
  0
ENDTAB
  0
TABLE
  2
LAYER
  5
2
100
AcDbSymbolTable
 70
36
  0
LAYER
  5
10
100
AcDbSymbolTableRecord
100
AcDbLayerTableRecord
  2
0
 70
0
 62
7
  6
CONTINUOUS
370
-3
390
F
  0
LAYER
  5
1FA
100
AcDbSymbolTableRecord
100
AcDbLayerTableRecord
  2
DEFAULT_1
 70
0
 62
7
  6
CENTER
370
-3
390
F
  0
LAYER
  5
1FB
100
AcDbSymbolTableRecord
100
AcDbLayerTableRecord
  2
DEFAULT_2
 70
0
 62
8
  6
HIDDEN
370
-3
390
F
  0
LAYER
  5
1FC
100
AcDbSymbolTableRecord
100
AcDbLayerTableRecord
  2
DEFAULT_3
 70
0
 62
7
  6
PHANTOM
370
-3
390
F
  0
LAYER
  5
1FD
100
AcDbSymbolTableRecord
100
AcDbLayerTableRecord
  2
00_COMPONENTS
 70
0
 62
7
  6
CONTINUOUS
370
-3
390
F
  0
LAYER
  5
1FE
100
AcDbSymbolTableRecord
100
AcDbLayerTableRecord
  2
01_1_DEFAULT_DATUMS
 70
0
 62
7
  6
CONTINUOUS
370
-3
390
F
  0
LAYER
  5
1FF
100
AcDbSymbolTableRecord
100
AcDbLayerTableRecord
  2
01_PLANES
 70
0
 62
7
  6
CONTINUOUS
370
-3
390
F
  0
LAYER
  5
200
100
AcDbSymbolTableRecord
100
AcDbLayerTableRecord
  2
02_COORD_SYS
 70
0
 62
7
  6
CONTINUOUS
370
-3
390
F
  0
LAYER
  5
201
100
AcDbSymbolTableRecord
100
AcDbLayerTableRecord
  2
03_AXES
 70
0
 62
7
  6
CONTINUOUS
370
-3
390
F
  0
LAYER
  5
202
100
AcDbSymbolTableRecord
100
AcDbLayerTableRecord
  2
04_POINTS
 70
0
 62
7
  6
CONTINUOUS
370
-3
390
F
  0
LAYER
  5
203
100
AcDbSymbolTableRecord
100
AcDbLayerTableRecord
  2
05_CURVES
 70
0
 62
7
  6
CONTINUOUS
370
-3
390
F
  0
LAYER
  5
204
100
AcDbSymbolTableRecord
100
AcDbLayerTableRecord
  2
06_SURFS
 70
0
 62
7
  6
CONTINUOUS
370
-3
390
F
  0
LAYER
  5
205
100
AcDbSymbolTableRecord
100
AcDbLayerTableRecord
  2
07_COSMETICS
 70
0
 62
7
  6
CONTINUOUS
370
-3
390
F
  0
LAYER
  5
206
100
AcDbSymbolTableRecord
100
AcDbLayerTableRecord
  2
10_NOTES
 70
0
 62
7
  6
CONTINUOUS
370
-3
390
F
  0
LAYER
  5
207
100
AcDbSymbolTableRecord
100
AcDbLayerTableRecord
  2
11_NOTES_PUB
 70
0
 62
7
  6
CONTINUOUS
370
-3
390
F
  0
LAYER
  5
208
100
AcDbSymbolTableRecord
100
AcDbLayerTableRecord
  2
13_REF_GTOL
 70
0
 62
7
  6
CONTINUOUS
370
-3
390
F
  0
LAYER
  5
209
100
AcDbSymbolTableRecord
100
AcDbLayerTableRecord
  2
16_MISC
 70
0
 62
7
  6
CONTINUOUS
370
-3
390
F
  0
LAYER
  5
20A
100
AcDbSymbolTableRecord
100
AcDbLayerTableRecord
  2
17_NO_PRINT
 70
0
 62
7
  6
CONTINUOUS
370
-3
390
F
  0
LAYER
  5
20B
100
AcDbSymbolTableRecord
100
AcDbLayerTableRecord
  2
18_DATUM_CAMS_JOINTS
 70
0
 62
7
  6
CONTINUOUS
370
-3
390
F
  0
LAYER
  5
20C
100
AcDbSymbolTableRecord
100
AcDbLayerTableRecord
  2
19_DATUM_FUNCTIONAL
 70
0
 62
7
  6
CONTINUOUS
370
-3
390
F
  0
LAYER
  5
20D
100
AcDbSymbolTableRecord
100
AcDbLayerTableRecord
  2
20_DATUM_KINEMATIC_SCHEME
 70
0
 62
7
  6
CONTINUOUS
370
-3
390
F
  0
ENDTAB
  0
TABLE
  2
STYLE
  5
3
100
AcDbSymbolTable
 70
1
  0
STYLE
  5
11
100
AcDbSymbolTableRecord
100
AcDbTextStyleTableRecord
  2
STANDARD
 70
0
 40
0.0
 41
0.8
 50
0.0
 71
0
 42
0.2
  3
txt
  4

  0
STYLE
  5
20E
100
AcDbSymbolTableRecord
100
AcDbTextStyleTableRecord
  2
TEXTSTYLE_1
 70
0
 40
0.0
 41
0.8
 50
0.0
 71
0
 42
0.2
  3
gdt
  4

  0
ENDTAB
  0
TABLE
  2
VIEW
  5
6
100
AcDbSymbolTable
 70
0
  0
ENDTAB
  0
TABLE
  2
UCS
  5
7
100
AcDbSymbolTable
 70
0
  0
ENDTAB
  0
TABLE
  2
APPID
  5
9
100
AcDbSymbolTable
 70
1
  0
APPID
  5
20F
100
AcDbSymbolTableRecord
100
AcDbRegAppTableRecord
  2
ACAD
 70
0
  0
ENDTAB
  0
TABLE
  2
BLOCK_RECORD
  5
1
100
AcDbSymbolTable
 70
0
  0
BLOCK_RECORD
  5
210
100
AcDbSymbolTableRecord
100
AcDbBlockTableRecord
  2
*Model_Space
  0
BLOCK_RECORD
  5
211
100
AcDbSymbolTableRecord
100
AcDbBlockTableRecord
  2
*Paper_Space
  0
BLOCK_RECORD
  5
212
100
AcDbSymbolTableRecord
100
AcDbBlockTableRecord
  2
_FILLED
  0
ENDTAB
  0
TABLE
  2
DIMSTYLE
  5
A
100
AcDbSymbolTable
 70
1
100
AcDbDimStyleTable
 71
0
  0
DIMSTYLE
105
213
100
AcDbSymbolTableRecord
100
AcDbDimStyleTableRecord
  2
STANDARD
 70
0
  3

  4

 40
1.0
 41
2.6376327286
 42
1.0
 43
0.38
 44
1.0
 45
0.0
 46
0.0
 47
0.01
 48
0.01
140
3.69268582
141
0.09
142
0.0
143
25.4
144
1.0
145
0.0
146
1.0
147
0.625
 71
1
 72
0
 73
0
 74
0
 75
0
 76
0
 77
1
 78
8
 79
2
170
0
171
1
172
0
173
0
174
0
175
0
176
0
177
0
178
0
270
2
179
2
271
2
272
2
273
2
274
2
275
0
280
0
281
0
282
0
283
1
284
8
285
0
286
0
287
3
288
0
340
11
278
46
341
212
342
212
343
212
344
212
  0
ENDTAB
  0
ENDSEC
  0
SECTION
  2
BLOCKS
  0
BLOCK
  5
20
100
AcDbEntity
  8
0
100
AcDbBlockBegin
  2
*Model_Space
 70
0
 10
0.0
 20
0.0
 30
0.0
  3
*Model_Space
  1

  0
ENDBLK
  5
21
100
AcDbEntity
  8
0
100
AcDbBlockEnd
  0
BLOCK
  5
1C
100
AcDbEntity
  8
0
100
AcDbBlockBegin
  2
*Paper_Space
 70
0
 10
0.0
 20
0.0
 30
0.0
  3
*Paper_Space
  1

  0
ENDBLK
  5
1D
100
AcDbEntity
  8
0
100
AcDbBlockEnd
  0
BLOCK
  5
214
100
AcDbEntity
  8
0
100
AcDbBlockBegin
  2
_FILLED
 70
64
 10
0.0
 20
0.0
  3
_FILLED
  1

  0
SOLID
  5
215
100
AcDbEntity
  8
0
  6
BYBLOCK
 62
0
100
AcDbTrace
 10
0.0
 20
0.0
 11
-1.0
 21
0.25
 12
-1.0
 22
-0.25
 13
-1.0
 23
-0.25
  0
ENDBLK
  5
216
100
AcDbEntity
  8
0
  6
BYBLOCK
 62
0
100
AcDbBlockEnd
  0
ENDSEC
  0
SECTION
  2
ENTITIES
  0
LINE
  5
217
100
AcDbEntity
  8
0
100
AcDbLine
 62
7
  6
CONTINUOUS
 10
25.7036718687
 20
136.1182401895
 11
25.7036571489
 21
197.3558777024
  0
LINE
  5
218
100
AcDbEntity
  8
0
100
AcDbLine
 62
7
  6
CONTINUOUS
 10
88.2116510784
 20
233.4447046765
 11
25.7036571489
 21
197.3558777024
  0
LINE
  5
219
100
AcDbEntity
  8
0
100
AcDbLine
 62
7
  6
CONTINUOUS
 10
49.7453936918
 20
150.8618467722
 11
49.7453936918
 21
153.2188862238
  0
LINE
  5
21A
100
AcDbEntity
  8
0
100
AcDbLine
 62
7
  6
CONTINUOUS
 10
51.5131532848
 20
151.8824571568
 11
51.5131532848
 21
153.3768040633
  0
LINE
  5
21B
100
AcDbEntity
  8
0
100
AcDbLine
 62
7
  6
CONTINUOUS
 10
85.1008593414
 20
101.8259292661
 11
25.7036718687
 21
136.1182401895
  0
LINE
  5
21C
100
AcDbEntity
  8
0
100
AcDbLine
 62
7
  6
CONTINUOUS
 10
53.2809423175
 20
151.1776824512
 11
53.2809423175
 21
148.8206429996
  0
LWPOLYLINE
  5
21D
100
AcDbEntity
  8
0
100
AcDbPolyline
 62
7
  6
CONTINUOUS
 90
7
 70
0
 10
144.6513487683
 20
82.4955868262
 10
145.5035024098
 20
82.0427442629
 10
153.3404741189
 20
80.6708327076
 10
162.3752704113
 20
83.2680946691
 10
167.0365684614
 20
85.9698625089
 10
176.0291379463
 20
93.8047506054
 10
178.7601027344
 20
97.4429725988
  0
LINE
  5
21E
100
AcDbEntity
  8
0
100
AcDbLine
 62
7
  6
CONTINUOUS
 10
89.899832136
 20
114.2199622995
 11
133.7527395468
 21
88.9020471689
  0
LINE
  5
21F
100
AcDbEntity
  8
0
100
AcDbLine
 62
7
  6
CONTINUOUS
 10
144.6508366833
 20
82.494700794
 11
134.0239881937
 21
88.6300837929
  0
LINE
  5
220
100
AcDbEntity
  8
0
100
AcDbLine
 62
7
  6
CONTINUOUS
 10
51.5131680047
 20
148.66272516
 11
49.7453936918
 21
150.8618467722
  0
LINE
  5
221
100
AcDbEntity
  8
0
100
AcDbLine
 62
7
  6
CONTINUOUS
 10
51.5131532848
 20
151.8824571568
 11
53.2809275977
 21
149.6833355447
  0
LINE
  5
222
100
AcDbEntity
  8
0
100
AcDbLine
 62
7
  6
CONTINUOUS
 10
51.5131680047
 20
153.3768040633
 11
53.2809423175
 21
151.1776824512
  0
LINE
  5
223
100
AcDbEntity
  8
0
100
AcDbLine
 62
7
  6
CONTINUOUS
 10
151.7720810236
 20
89.9302815473
 11
149.6507518482
 21
91.1550038109
  0
LINE
  5
224
100
AcDbEntity
  8
0
100
AcDbLine
 62
7
  6
CONTINUOUS
 10
81.5653401553
 20
161.0223897815
 11
81.5653401553
 21
103.8672205824
  0
LINE
  5
225
100
AcDbEntity
  8
0
100
AcDbLine
 62
7
  6
CONTINUOUS
 10
86.87999128
 20
128.6415946195
 11
85.6552413095
 21
129.348688348
  0
LINE
  5
226
100
AcDbEntity
  8
0
100
AcDbLine
 62
7
  6
CONTINUOUS
 10
85.6552413095
 20
131.7981955994
 11
86.87999128
 21
131.0911018708
  0
LINE
  5
227
100
AcDbEntity
  8
0
100
AcDbLine
 62
7
  6
CONTINUOUS
 10
134.0446984217
 20
88.6191904845
 11
134.0273868516
 21
88.6359623444
  0
LINE
  5
228
100
AcDbEntity
  8
0
100
AcDbLine
 62
7
  6
CONTINUOUS
 10
85.6552413095
 20
129.348688348
 11
85.0428663243
 21
130.926988838
  0
LINE
  5
229
100
AcDbEntity
  8
0
100
AcDbLine
 62
7
  6
CONTINUOUS
 10
86.87999128
 20
131.0911018708
 11
87.4923662653
 21
129.5128013809
  0
LINE
  5
22A
100
AcDbEntity
  8
0
100
AcDbLine
 62
7
  6
CONTINUOUS
 10
85.1008593414
 20
167.1461226365
 11
81.5653401553
 21
161.0223897815
  0
LINE
  5
22B
100
AcDbEntity
  8
0
100
AcDbLine
 62
7
  6
CONTINUOUS
 10
137.7093318387
 20
204.8678518601
 11
128.5876923386
 21
199.6015022751
  0
LINE
  5
22C
100
AcDbEntity
  8
0
100
AcDbLine
 62
7
  6
CONTINUOUS
 10
51.5131532848
 20
151.8824571568
 11
49.7453936918
 21
150.8618467722
  0
LINE
  5
22D
100
AcDbEntity
  8
0
100
AcDbLine
 62
7
  6
CONTINUOUS
 10
53.2809275977
 20
149.6833355447
 11
51.5131680047
 21
148.66272516
  0
LINE
  5
22E
100
AcDbEntity
  8
0
100
AcDbLine
 62
7
  6
CONTINUOUS
 10
134.9516798649
 20
195.9273354844
 11
85.1008593414
 21
167.1461226365
  0
LINE
  5
22F
100
AcDbEntity
  8
0
100
AcDbLine
 62
7
  6
CONTINUOUS
 10
141.2448804644
 20
198.7441360018
 11
135.6587601504
 21
195.5190071862
  0
LINE
  5
230
100
AcDbEntity
  8
0
100
AcDbLine
 62
7
  6
CONTINUOUS
 10
161.2290422873
 20
104.6775710723
 11
160.5219325621
 21
105.0858118268
  0
LINE
  5
231
100
AcDbEntity
  8
0
100
AcDbLine
 62
7
  6
CONTINUOUS
 10
187.2278614586
 20
92.5542204183
 11
162.4790210785
 21
106.8426468265
  0
LINE
  5
232
100
AcDbEntity
  8
0
100
AcDbLine
 62
7
  6
CONTINUOUS
 10
112.4544767399
 20
178.2160906404
 11
112.9027575105
 21
179.1820037354
  0
LINE
  5
233
100
AcDbEntity
  8
0
100
AcDbLine
 62
7
  6
CONTINUOUS
 10
85.0428663243
 20
130.926988838
 11
85.6552413095
 21
131.7981955994
  0
LINE
  5
234
100
AcDbEntity
  8
0
100
AcDbLine
 62
7
  6
CONTINUOUS
 10
81.5653401553
 20
161.0223897815
 11
25.7036718687
 21
193.2734093886
  0
LINE
  5
235
100
AcDbEntity
  8
0
100
AcDbLine
 62
7
  6
CONTINUOUS
 10
112.9027575105
 20
177.9572814718
 11
112.9027575105
 21
179.1820037354
  0
LINE
  5
236
100
AcDbEntity
  8
0
100
AcDbLine
 62
7
  6
CONTINUOUS
 10
115.8005382221
 20
178.7337293734
 11
115.3522574515
 21
177.7678162783
  0
LINE
  5
237
100
AcDbEntity
  8
0
100
AcDbLine
 62
7
  6
CONTINUOUS
 10
87.4923662653
 20
129.5128013809
 11
86.87999128
 21
128.6415946195
  0
LINE
  5
238
100
AcDbEntity
  8
0
100
AcDbLine
 62
7
  6
CONTINUOUS
 10
53.2809423175
 20
148.8206429996
 11
51.5131680047
 21
148.66272516
  0
LINE
  5
239
100
AcDbEntity
  8
0
100
AcDbLine
 62
7
  6
CONTINUOUS
 10
85.1008593414
 20
167.1461226365
 11
29.2391910548
 21
199.3971422436
  0
LINE
  5
23A
100
AcDbEntity
  8
0
100
AcDbLine
 62
7
  6
CONTINUOUS
 10
114.5757882516
 20
177.6476957919
 11
114.5757882516
 21
179.440823102
  0
LINE
  5
23B
100
AcDbEntity
  8
0
100
AcDbLine
 62
7
  6
CONTINUOUS
 10
49.7453936918
 20
153.2188862238
 11
51.5131680047
 21
153.3768040633
  0
LINE
  5
23C
100
AcDbEntity
  8
0
100
AcDbLine
 62
7
  6
CONTINUOUS
 10
197.2276917883
 20
109.8748264521
 11
172.4788514082
 21
124.1632528603
  0
LINE
  5
23D
100
AcDbEntity
  8
0
100
AcDbLine
 62
7
  6
CONTINUOUS
 10
196.8239162378
 20
111.2165271371
 11
181.2675022845
 21
120.1978237366
  0
LINE
  5
23E
100
AcDbEntity
  8
0
100
AcDbLine
 62
7
  6
CONTINUOUS
 10
173.7288301994
 20
126.3283286145
 11
173.0217204743
 21
126.736569369
  0
LINE
  5
23F
100
AcDbEntity
  8
0
100
AcDbLine
 62
7
  6
CONTINUOUS
 10
86.1035492408
 20
131.53937075
 11
85.0428663243
 21
130.926988838
  0
LINE
  5
240
100
AcDbEntity
  8
0
100
AcDbLine
 62
7
  6
CONTINUOUS
 10
87.2081718678
 20
130.245267872
 11
85.6552413095
 21
129.348688348
  0
LINE
  5
241
100
AcDbEntity
  8
0
100
AcDbLine
 62
7
  6
CONTINUOUS
 10
115.3522574515
 20
177.7678162783
 11
113.6792267104
 21
177.5089969118
  0
LINE
  5
242
100
AcDbEntity
  8
0
100
AcDbLine
 62
7
  6
CONTINUOUS
 10
112.9027575105
 20
179.1820037354
 11
114.5757882516
 21
179.440823102
  0
LINE
  5
243
100
AcDbEntity
  8
0
100
AcDbLine
 62
7
  6
CONTINUOUS
 10
113.6792267104
 20
177.5089969118
 11
112.4544767399
 21
178.2160906404
  0
LINE
  5
244
100
AcDbEntity
  8
0
100
AcDbLine
 62
7
  6
CONTINUOUS
 10
114.5757882516
 20
179.440823102
 11
115.8005382221
 21
178.7337293734
  0
LINE
  5
245
100
AcDbEntity
  8
0
100
AcDbLine
 62
7
  6
CONTINUOUS
 10
181.7715720128
 20
141.8920996486
 11
179.6502428373
 21
143.1168219121
  0
LINE
  5
246
100
AcDbEntity
  8
0
100
AcDbLine
 62
7
  6
CONTINUOUS
 10
138.487199051
 20
193.8860441681
 11
138.487199051
 21
178.3132493657
  0
LINE
  5
247
100
AcDbEntity
  8
0
100
AcDbLine
 62
7
  6
CONTINUOUS
 10
141.2448804644
 20
176.7211372777
 11
141.2448798756
 21
198.7919638551
  0
LINE
  5
248
100
AcDbEntity
  8
0
100
AcDbLine
 62
7
  6
CONTINUOUS
 10
129.7991551517
 20
183.3291803742
 11
173.0083432155
 21
158.3829083741
  0
LINE
  5
249
100
AcDbEntity
  8
0
100
AcDbLine
 62
7
  6
CONTINUOUS
 10
184.6501580022
 20
151.777124929
 11
174.043512125
 21
157.9007362468
  0
LINE
  5
24A
100
AcDbEntity
  8
0
100
AcDbLine
 62
7
  6
CONTINUOUS
 10
85.1008593414
 20
101.8259292661
 11
98.2340266681
 21
109.4083216968
  0
LINE
  5
24B
100
AcDbEntity
  8
0
100
AcDbLine
 62
7
  6
CONTINUOUS
 10
128.5876923386
 20
199.6015022751
 11
138.487199051
 21
193.8860441681
  0
LINE
  5
24C
100
AcDbEntity
  8
0
100
AcDbLine
 62
7
  6
CONTINUOUS
 10
137.7093318387
 20
204.86785186
 11
141.2448804644
 21
198.7441360018
  0
LINE
  5
24D
100
AcDbEntity
  8
0
100
AcDbLine
 62
7
  6
CONTINUOUS
 10
141.2448798756
 20
198.7919638551
 11
137.7507527786
 21
204.8439359194
  0
LINE
  5
24E
100
AcDbEntity
  8
0
100
AcDbLine
 62
7
  6
CONTINUOUS
 10
137.7507527786
 20
204.8439359194
 11
88.2116510784
 21
233.4447046765
  0
LINE
  5
24F
100
AcDbEntity
  8
0
100
AcDbLine
 62
7
  6
CONTINUOUS
 10
179.7675089999
 20
120.3463965736
 11
179.428752312
 21
120.1508164761
  0
LINE
  5
250
100
AcDbEntity
  8
0
100
AcDbLine
 62
7
  6
CONTINUOUS
 10
180.30742489
 20
119.6435261031
 11
181.2675022845
 21
120.1978237366
  0
LWPOLYLINE
  5
251
100
AcDbEntity
  8
0
100
AcDbPolyline
 62
7
  6
CONTINUOUS
 90
5
 70
0
 10
185.9962522015
 20
117.4677404618
 10
187.6684812239
 20
123.7607091227
 10
187.6602955292
 20
132.2399401123
 10
185.1486384946
 20
138.7570347658
 10
181.7709030057
 20
141.8909407242
  0
LINE
  5
252
100
AcDbEntity
  8
0
100
AcDbLine
 62
7
  6
CONTINUOUS
 10
196.8239162378
 20
111.2165271371
 11
195.8638388432
 21
110.6622295036
  0
LINE
  5
253
100
AcDbEntity
  8
0
100
AcDbLine
 62
7
  6
CONTINUOUS
 10
192.9348863486
 20
104.7254942829
 11
193.3177551394
 21
104.920976485
  0
ARC
  5
254
100
AcDbEntity
  8
0
100
AcDbCircle
 62
7
  6
CONTINUOUS
 10
201.8392003485
 20
95.6662813926
 40
15.4775622625
100
AcDbArc
 50
143.8343386478
 51
156.7390838704
  0
ARC
  5
255
100
AcDbEntity
  8
0
100
AcDbCircle
 62
7
  6
CONTINUOUS
 10
201.1613829588
 20
95.9673174155
 40
14.735958454
100
AcDbArc
 50
156.7736251634
 51
159.7279842786
  0
ARC
  5
256
100
AcDbEntity
  8
0
100
AcDbCircle
 62
7
  6
CONTINUOUS
 10
201.1485865361
 20
96.1688022807
 40
14.6234714932
100
AcDbArc
 50
139.8387893372
 51
143.8270739843
  0
ARC
  5
257
100
AcDbEntity
  8
0
100
AcDbCircle
 62
7
  6
CONTINUOUS
 10
200.692192704
 20
96.1454359105
 40
14.2341173164
100
AcDbArc
 50
159.7461850096
 51
160.1735611565
  0
ARC
  5
258
100
AcDbEntity
  8
0
100
AcDbCircle
 62
7
  6
CONTINUOUS
 10
45.6864885447
 20
148.6252455732
 40
9.2388289376
100
AcDbArc
 50
50.2146674105
 51
51.6720835779
  0
ARC
  5
259
100
AcDbEntity
  8
0
100
AcDbCircle
 62
7
  6
CONTINUOUS
 10
189.3635663599
 20
99.483280798
 40
7.0009421136
100
AcDbArc
 50
293.4820821804
 51
293.9639579914
  0
ARC
  5
25A
100
AcDbEntity
  8
0
100
AcDbCircle
 62
7
  6
CONTINUOUS
 10
54.7911861905
 20
151.3919394323
 40
6.1432671026
100
AcDbArc
 50
238.4069722923
 51
242.6686072145
  0
ARC
  5
25B
100
AcDbEntity
  8
0
100
AcDbCircle
 62
7
  6
CONTINUOUS
 10
49.0229365287
 20
151.200455963
 40
4.9777477795
100
AcDbArc
 50
59.9819546209
 51
62.7159863954
  0
ARC
  5
25C
100
AcDbEntity
  8
0
100
AcDbCircle
 62
7
  6
CONTINUOUS
 10
54.0291040363
 20
149.4778090735
 40
4.075146694
100
AcDbArc
 50
257.4016392991
 51
259.2636902591
  0
ARC
  5
25D
100
AcDbEntity
  8
0
100
AcDbCircle
 62
7
  6
CONTINUOUS
 10
55.6737027663
 20
148.8806663736
 40
3.6875483032
100
AcDbArc
 50
263.2828034669
 51
265.1818764084
  0
ARC
  5
25E
100
AcDbEntity
  8
0
100
AcDbCircle
 62
7
  6
CONTINUOUS
 10
50.3882677563
 20
154.6011707373
 40
2.8359590793
100
AcDbArc
 50
120.0000425723
 51
121.9470752771
  0
ARC
  5
25F
100
AcDbEntity
  8
0
100
AcDbCircle
 62
7
  6
CONTINUOUS
 10
54.0531509745
 20
148.2533862878
 40
2.8342567206
100
AcDbArc
 50
297.7353967333
 51
299.9994854599
  0
ARC
  5
260
100
AcDbEntity
  8
0
100
AcDbCircle
 62
7
  6
CONTINUOUS
 10
84.4049771815
 20
132.9391434021
 40
2.213742889
100
AcDbArc
 50
113.6458724114
 51
119.9911572322
  0
ARC
  5
261
100
AcDbEntity
  8
0
100
AcDbCircle
 62
7
  6
CONTINUOUS
 10
110.841109124
 20
178.7284039623
 40
2.2136016146
100
AcDbArc
 50
180.0095680546
 51
186.365750807
  0
ARC
  5
262
100
AcDbEntity
  8
0
100
AcDbCircle
 62
7
  6
CONTINUOUS
 10
88.0430175662
 20
126.6363858117
 40
1.5088888575
100
AcDbArc
 50
300.040036386
 51
309.1682582862
  0
ARC
  5
263
100
AcDbEntity
  8
0
100
AcDbCircle
 62
7
  6
CONTINUOUS
 10
118.1187185873
 20
178.7291178203
 40
1.5087891701
100
AcDbArc
 50
350.834762446
 51
359.9598543157
  0
ARC
  5
264
100
AcDbEntity
  8
0
100
AcDbCircle
 62
7
  6
CONTINUOUS
 10
191.9974916832
 20
103.7655559752
 40
1.1062611315
100
AcDbArc
 50
47.1549240619
 51
50.4507898147
  0
SPLINE
  5
265
100
AcDbEntity
  8
0
100
AcDbSpline
 62
7
  6
CONTINUOUS
 70
0
 71
3
 72
11
 73
7
 74
0
 42
0.0000001
 43
0.0000001
 44
0.0000000001
 40
0.0
 40
0.0
 40
0.0
 40
0.0
 40
0.2177460211
 40
0.4508843679
 40
0.7104607696
 40
1.0
 40
1.0
 40
1.0
 40
1.0
 10
179.767592928
 20
120.3462512028
 30
0.0
 10
179.8665311782
 20
120.4033728641
 30
0.0
 10
180.0937826915
 20
120.486135204
 30
0.0
 10
180.4715769225
 20
120.4956253805
 30
0.0
 10
180.8740094526
 20
120.3982184078
 30
0.0
 10
181.1359424928
 20
120.2737780994
 30
0.0
 10
181.2675022845
 20
120.1978237366
 30
0.0
  0
SPLINE
  5
266
100
AcDbEntity
  8
0
100
AcDbSpline
 62
7
  6
CONTINUOUS
 70
0
 71
3
 72
11
 73
7
 74
0
 42
0.0000001
 43
0.0000001
 44
0.0000000001
 40
0.0
 40
0.0
 40
0.0
 40
0.0
 40
0.2897728319
 40
0.5490651401
 40
0.7822238182
 40
1.0
 40
1.0
 40
1.0
 40
1.0
 10
199.2988149956
 20
105.2969649739
 30
0.0
 10
199.2988149956
 20
105.8037738777
 30
0.0
 10
199.2221933811
 20
106.7673787998
 30
0.0
 10
198.8316791694
 20
108.0912546015
 30
0.0
 10
198.1748099719
 20
109.1655392558
 30
0.0
 10
197.5575287139
 20
109.6843453612
 30
0.0
 10
197.2276684303
 20
109.8747859938
 30
0.0
  0
SPLINE
  5
267
100
AcDbEntity
  8
0
100
AcDbSpline
 62
7
  6
CONTINUOUS
 70
0
 71
3
 72
15
 73
11
 74
0
 42
0.0000001
 43
0.0000001
 44
0.0000000001
 40
0.0
 40
0.0
 40
0.0
 40
0.0
 40
0.0869269787
 40
0.1863918984
 40
0.3037797627
 40
0.4375877569
 40
0.5820839034
 40
0.7293916416
 40
0.8711748496
 40
1.0
 40
1.0
 40
1.0
 40
1.0
 10
180.9004971462
 20
145.2818573036
 30
0.0
 10
180.7756275454
 20
145.353946148
 30
0.0
 10
180.548915358
 20
145.5852894418
 30
0.0
 10
180.3840310347
 20
146.0731867977
 30
0.0
 10
180.3700966445
 20
146.6608503749
 30
0.0
 10
180.5020740977
 20
147.3082961809
 30
0.0
 10
180.7678912016
 20
147.9660312063
 30
0.0
 10
181.1462917106
 20
148.5816904587
 30
0.0
 10
181.6061305568
 20
149.1047636465
 30
0.0
 10
181.9653713524
 20
149.3812602628
 30
0.0
 10
182.1504244831
 20
149.4881001
 30
0.0
  0
SPLINE
  5
268
100
AcDbEntity
  8
0
100
AcDbSpline
 62
7
  6
CONTINUOUS
 70
0
 71
3
 72
11
 73
7
 74
0
 42
0.0000001
 43
0.0000001
 44
0.0000000001
 40
0.0
 40
0.0
 40
0.0
 40
0.0
 40
0.2177231375
 40
0.4508717887
 40
0.7104673698
 40
1.0
 40
1.0
 40
1.0
 40
1.0
 10
145.9006458708
 20
125.0748083227
 30
0.0
 10
145.8182012316
 20
125.1224024527
 30
0.0
 10
145.6638138841
 20
125.2519595586
 30
0.0
 10
145.4995223307
 20
125.5206448772
 30
0.0
 10
145.4021430789
 20
125.8516896622
 30
0.0
 10
145.3828106093
 20
126.0925851476
 30
0.0
 10
145.3828106093
 20
126.2191790017
 30
0.0
  0
SPLINE
  5
269
100
AcDbEntity
  8
0
100
AcDbSpline
 62
7
  6
CONTINUOUS
 70
0
 71
3
 72
11
 73
7
 74
0
 42
0.0000001
 43
0.0000001
 44
0.0000000001
 40
0.0
 40
0.0
 40
0.0
 40
0.0
 40
0.2802128713
 40
0.5363656784
 40
0.7735032978
 40
1.0
 40
1.0
 40
1.0
 40
1.0
 10
176.2118867244
 20
122.1193311021
 30
0.0
 10
176.1434271348
 20
122.5858769398
 30
0.0
 10
175.9438784131
 20
123.4715699655
 30
0.0
 10
175.4165734466
 20
124.6719849973
 30
0.0
 10
174.682851789
 20
125.6505993294
 30
0.0
 10
174.0589103586
 20
126.1377474868
 30
0.0
 10
173.7288054415
 20
126.3282857275
 30
0.0
  0
SPLINE
  5
26A
100
AcDbEntity
  8
0
100
AcDbSpline
 62
7
  6
CONTINUOUS
 70
0
 71
3
 72
15
 73
11
 74
0
 42
0.0000001
 43
0.0000001
 44
0.0000000001
 40
0.0
 40
0.0
 40
0.0
 40
0.0
 40
0.0869269787
 40
0.1863918984
 40
0.3037797627
 40
0.4375877569
 40
0.5820839034
 40
0.7293916416
 40
0.8711748496
 40
1.0
 40
1.0
 40
1.0
 40
1.0
 10
145.9006428655
 20
84.6599949123
 30
0.0
 10
145.7757732646
 20
84.7320837567
 30
0.0
 10
145.5490610772
 20
84.9634270505
 30
0.0
 10
145.3841767539
 20
85.4513244064
 30
0.0
 10
145.3702423637
 20
86.0389879836
 30
0.0
 10
145.5022198169
 20
86.6864337896
 30
0.0
 10
145.7680369208
 20
87.344168815
 30
0.0
 10
146.1464374298
 20
87.9598280674
 30
0.0
 10
146.606276276
 20
88.4829012552
 30
0.0
 10
146.9655170716
 20
88.7593978716
 30
0.0
 10
147.1505702024
 20
88.8662377087
 30
0.0
  0
SPLINE
  5
26B
100
AcDbEntity
  8
0
100
AcDbSpline
 62
7
  6
CONTINUOUS
 70
0
 71
3
 72
9
 73
5
 74
0
 42
0.0000001
 43
0.0000001
 44
0.0000000001
 40
0.0
 40
0.0
 40
0.0
 40
0.0
 40
0.4795125889
 40
1.0
 40
1.0
 40
1.0
 40
1.0
 10
166.7718265182
 20
91.416118084
 30
0.0
 10
168.4121056211
 20
92.3631280127
 30
0.0
 10
171.6399413562
 20
94.6791087185
 30
0.0
 10
174.4657201352
 20
97.4595170662
 30
0.0
 10
175.8330339665
 20
98.9947937756
 30
0.0
  0
SPLINE
  5
26C
100
AcDbEntity
  8
0
100
AcDbSpline
 62
7
  6
CONTINUOUS
 70
0
 71
3
 72
14
 73
10
 74
0
 42
0.0000001
 43
0.0000001
 44
0.0000000001
 40
0.0
 40
0.0
 40
0.0
 40
0.0
 40
0.2892808833
 40
0.4225428216
 40
0.5484942008
 40
0.6678946614
 40
0.7818675751
 40
0.8919509115
 40
1.0
 40
1.0
 40
1.0
 40
1.0
 10
192.9346508313
 20
133.4656790164
 30
0.0
 10
192.9346508313
 20
135.4931791779
 30
0.0
 10
192.6979377055
 20
138.4692324738
 30
0.0
 10
191.7830581226
 20
142.2098160807
 30
0.0
 10
190.8520915788
 20
144.7022954378
 30
0.0
 10
189.6659218523
 20
146.9329103847
 30
0.0
 10
188.2328920285
 20
148.8788892664
 30
0.0
 10
186.5669248049
 20
150.5186388367
 30
0.0
 10
185.305932483
 20
151.3983803849
 30
0.0
 10
184.6501211904
 20
151.7770620711
 30
0.0
  0
SPLINE
  5
26D
100
AcDbEntity
  8
0
100
AcDbSpline
 62
7
  6
CONTINUOUS
 70
0
 71
3
 72
11
 73
7
 74
0
 42
0.0000001
 43
0.0000001
 44
0.0000000001
 40
0.0
 40
0.0
 40
0.0
 40
0.0
 40
0.2895448512
 40
0.5491358493
 40
0.7822770651
 40
1.0
 40
1.0
 40
1.0
 40
1.0
 10
147.1505702024
 20
88.8662377087
 30
0.0
 10
147.2602043945
 20
88.9295346612
 30
0.0
 10
147.4784869362
 20
89.0332390068
 30
0.0
 10
147.8138583298
 20
89.1144192501
 30
0.0
 10
148.1286757614
 20
89.1064841761
 30
0.0
 10
148.3180570209
 20
89.0375624028
 30
0.0
 10
148.4004975393
 20
88.9899684194
 30
0.0
  0
SPLINE
  5
26E
100
AcDbEntity
  8
0
100
AcDbSpline
 62
7
  6
CONTINUOUS
 70
0
 71
3
 72
15
 73
11
 74
0
 42
0.0000001
 43
0.0000001
 44
0.0000000001
 40
0.0
 40
0.0
 40
0.0
 40
0.0
 40
0.128825143
 40
0.2705983408
 40
0.4178987517
 40
0.5623942948
 40
0.6962070879
 40
0.8135986172
 40
0.913066896
 40
1.0
 40
1.0
 40
1.0
 40
1.0
 10
145.3828106093
 20
126.2191790017
 30
0.0
 10
145.3828106093
 20
126.4328574416
 30
0.0
 10
145.4426363031
 20
126.8821965304
 30
0.0
 10
145.6656912757
 20
127.5419332011
 30
0.0
 10
146.009625314
 20
128.1774474447
 30
0.0
 10
146.4463084408
 20
128.7365218787
 30
0.0
 10
146.9410131708
 20
129.1745634591
 30
0.0
 10
147.4569119723
 20
129.4563520466
 30
0.0
 10
147.9619016583
 20
129.5575368327
 30
0.0
 10
148.2756159432
 20
129.476861103
 30
0.0
 10
148.4004945339
 20
129.40477045
 30
0.0
  0
SPLINE
  5
26F
100
AcDbEntity
  8
0
100
AcDbSpline
 62
7
  6
CONTINUOUS
 70
0
 71
3
 72
11
 73
7
 74
0
 42
0.0000001
 43
0.0000001
 44
0.0000000001
 40
0.0
 40
0.0
 40
0.0
 40
0.0
 40
0.2895448512
 40
0.5491358493
 40
0.7822770651
 40
1.0
 40
1.0
 40
1.0
 40
1.0
 10
182.1504244831
 20
149.4881001
 30
0.0
 10
182.2600586753
 20
149.5513970525
 30
0.0
 10
182.4783412169
 20
149.6551013981
 30
0.0
 10
182.8137126106
 20
149.7362816414
 30
0.0
 10
183.1285300422
 20
149.7283465674
 30
0.0
 10
183.3179113017
 20
149.6594247941
 30
0.0
 10
183.40035182
 20
149.6118308107
 30
0.0
  0
SPLINE
  5
270
100
AcDbEntity
  8
0
100
AcDbSpline
 62
7
  6
CONTINUOUS
 70
0
 71
3
 72
23
 73
19
 74
0
 42
0.0000001
 43
0.0000001
 44
0.0000000001
 40
0.0
 40
0.0
 40
0.0
 40
0.0
 40
0.062391164
 40
0.1287447366
 40
0.1983469008
 40
0.2703351266
 40
0.3437239087
 40
0.4174686131
 40
0.4905053941
 40
0.5618039036
 40
0.6304123825
 40
0.695510293
 40
0.7564673286
 40
0.8129132871
 40
0.8648218436
 40
0.9126041545
 40
0.9571857047
 40
1.0
 40
1.0
 40
1.0
 40
1.0
 10
125.759697977
 20
106.9297580244
 30
0.0
 10
125.759697977
 20
108.5891424635
 30
0.0
 10
125.9845638201
 20
112.0155770009
 30
0.0
 10
126.9095411115
 20
117.2181122839
 30
0.0
 10
128.4136760189
 20
122.5490438819
 30
0.0
 10
130.4643350201
 20
127.8943094745
 30
0.0
 10
133.0182363285
 20
133.1406840933
 30
0.0
 10
136.0207012212
 20
138.1762427327
 30
0.0
 10
139.4077933992
 20
142.8935404314
 30
0.0
 10
143.1072922209
 20
147.1920256821
 30
0.0
 10
147.0407291679
 20
150.9803098127
 30
0.0
 10
151.1253186164
 20
154.1780859039
 30
0.0
 10
155.2762410243
 20
156.7176060976
 30
0.0
 10
159.4091837633
 20
158.5441912119
 30
0.0
 10
163.4418810477
 20
159.6156601293
 30
0.0
 10
167.2951671734
 20
159.8993435128
 30
0.0
 10
170.8834844915
 20
159.3734575497
 30
0.0
 10
173.0573565418
 20
158.470083343
 30
0.0
 10
174.0434760271
 20
157.9006745444
 30
0.0
  0
SPLINE
  5
271
100
AcDbEntity
  8
0
100
AcDbSpline
 62
7
  6
CONTINUOUS
 70
0
 71
3
 72
11
 73
7
 74
0
 42
0.0000001
 43
0.0000001
 44
0.0000000001
 40
0.0
 40
0.0
 40
0.0
 40
0.0
 40
0.2271297438
 40
0.4657403813
 40
0.7223677355
 40
1.0
 40
1.0
 40
1.0
 40
1.0
 10
108.6411557504
 20
178.4829711568
 30
0.0
 10
108.664458114
 20
178.2739112479
 30
0.0
 10
108.7741952398
 20
177.8500730443
 30
0.0
 10
109.1108142075
 20
177.2640054206
 30
0.0
 10
109.6069763232
 20
176.7402143026
 30
0.0
 10
110.0157565025
 20
176.45538157
 30
0.0
 10
110.2384363763
 20
176.3268201933
 30
0.0
  0
SPLINE
  5
272
100
AcDbEntity
  8
0
100
AcDbSpline
 62
7
  6
CONTINUOUS
 70
0
 71
3
 72
11
 73
7
 74
0
 42
0.0000001
 43
0.0000001
 44
0.0000000001
 40
0.0
 40
0.0
 40
0.0
 40
0.0
 40
0.2080220267
 40
0.4395732042
 40
0.7030909799
 40
1.0
 40
1.0
 40
1.0
 40
1.0
 10
88.9960316003
 20
125.4665525607
 30
0.0
 10
89.1312610865
 20
125.576626372
 30
0.0
 10
89.3775736829
 20
125.859975093
 30
0.0
 10
89.6275338961
 20
126.399725467
 30
0.0
 10
89.7745298504
 20
127.0508709807
 30
0.0
 10
89.8031678645
 20
127.5215779761
 30
0.0
 10
89.8031678645
 20
127.7704488826
 30
0.0
  0
SPLINE
  5
273
100
AcDbEntity
  8
0
100
AcDbSpline
 62
7
  6
CONTINUOUS
 70
0
 71
3
 72
9
 73
5
 74
0
 42
0.0000001
 43
0.0000001
 44
0.0000000001
 40
0.0
 40
0.0
 40
0.0
 40
0.0
 40
0.2419299259
 40
1.0
 40
1.0
 40
1.0
 40
1.0
 10
50.4525122488
 20
156.5311665093
 30
0.0
 10
50.5340522737
 20
156.484090419
 30
0.0
 10
50.86714999
 20
156.2827102166
 30
0.0
 10
51.1845999472
 20
156.055814043
 30
0.0
 10
51.4160529635
 20
155.8728694396
 30
0.0
  0
SPLINE
  5
274
100
AcDbEntity
  8
0
100
AcDbSpline
 62
7
  6
CONTINUOUS
 70
0
 71
3
 72
13
 73
9
 74
0
 42
0.0000001
 43
0.0000001
 44
0.0000000001
 40
0.0
 40
0.0
 40
0.0
 40
0.0
 40
0.2605869998
 40
0.5325401608
 40
0.6636157441
 40
0.7866869175
 40
0.8992301279
 40
1.0
 40
1.0
 40
1.0
 40
1.0
 10
51.5985353058
 20
155.7247993079
 30
0.0
 10
52.3504467212
 20
155.098753759
 30
0.0
 10
53.6955552379
 20
153.5845193695
 30
0.0
 10
54.8929973923
 20
151.373528648
 30
0.0
 10
55.5043328427
 20
149.4900751658
 30
0.0
 10
55.7496390113
 20
148.1301581956
 30
0.0
 10
55.7774871242
 20
146.8619124177
 30
0.0
 10
55.640114144
 20
146.0650220792
 30
0.0
 10
55.5285548767
 20
145.7034847202
 30
0.0
  0
SPLINE
  5
275
100
AcDbEntity
  8
0
100
AcDbSpline
 62
7
  6
CONTINUOUS
 70
0
 71
3
 72
10
 73
6
 74
0
 42
0.0000001
 43
0.0000001
 44
0.0000000001
 40
0.0
 40
0.0
 40
0.0
 40
0.0
 40
0.5238185393
 40
0.7653301938
 40
1.0
 40
1.0
 40
1.0
 40
1.0
 10
55.5285548767
 20
145.7034847202
 30
0.0
 10
55.4114336772
 20
145.3239224462
 30
0.0
 10
55.1596539087
 20
144.7841637454
 30
0.0
 10
54.6507242862
 20
144.2163294201
 30
0.0
 10
54.3565709682
 20
144.0012406454
 30
0.0
 10
54.2024732295
 20
143.9122366915
 30
0.0
  0
SPLINE
  5
276
100
AcDbEntity
  8
0
100
AcDbSpline
 62
7
  6
CONTINUOUS
 70
0
 71
3
 72
16
 73
12
 74
0
 42
0.0000001
 43
0.0000001
 44
0.0000000001
 40
0.0
 40
0.0
 40
0.0
 40
0.0
 40
0.0518512241
 40
0.1040285
 40
0.2123362938
 40
0.3300631396
 40
0.4588959174
 40
0.5961192339
 40
0.7361550944
 40
0.8724825159
 40
1.0
 40
1.0
 40
1.0
 40
1.0
 10
48.8876606
 20
157.0075875885
 30
0.0
 10
48.7002665314
 20
156.8907315533
 30
0.0
 10
48.3506301541
 20
156.6108716064
 30
0.0
 10
47.7855830441
 20
155.8965312734
 30
0.0
 10
47.3587786226
 20
154.7600418959
 30
0.0
 10
47.2862360442
 20
153.2341249846
 30
0.0
 10
47.5798258347
 20
151.614593649
 30
0.0
 10
48.2025710604
 20
149.9915194655
 30
0.0
 10
49.1051160757
 20
148.4689622663
 30
0.0
 10
50.2243941041
 20
147.1519712259
 30
0.0
 10
51.1101095724
 20
146.4435235091
 30
0.0
 10
51.5728375622
 20
146.1591616995
 30
0.0
  0
SPLINE
  5
277
100
AcDbEntity
  8
0
100
AcDbSpline
 62
7
  6
CONTINUOUS
 70
0
 71
3
 72
9
 73
5
 74
0
 42
0.0000001
 43
0.0000001
 44
0.0000000001
 40
0.0
 40
0.0
 40
0.0
 40
0.0
 40
0.257211927
 40
1.0
 40
1.0
 40
1.0
 40
1.0
 10
51.9705888599
 20
145.9344710272
 30
0.0
 10
52.0658015506
 20
145.8854016892
 30
0.0
 10
52.4410563029
 20
145.7049138232
 30
0.0
 10
52.8383670967
 20
145.5682210379
 30
0.0
 10
53.1402521144
 20
145.5007796748
 30
0.0
  0
SPLINE
  5
278
100
AcDbEntity
  8
0
100
AcDbSpline
 62
7
  6
CONTINUOUS
 70
0
 71
3
 72
9
 73
5
 74
0
 42
0.0000001
 43
0.0000001
 44
0.0000000001
 40
0.0
 40
0.0
 40
0.0
 40
0.0
 40
0.5073116128
 40
1.0
 40
1.0
 40
1.0
 40
1.0
 10
53.2699478769
 20
145.4739980761
 30
0.0
 10
53.6272337136
 20
145.4062881839
 30
0.0
 10
54.3557547457
 20
145.3671381972
 30
0.0
 10
55.0595962501
 20
145.5804088605
 30
0.0
 10
55.3721827165
 20
145.7447678589
 30
0.0
  0
SPLINE
  5
279
100
AcDbEntity
  8
0
100
AcDbSpline
 62
7
  6
CONTINUOUS
 70
0
 71
3
 72
10
 73
6
 74
0
 42
0.0000001
 43
0.0000001
 44
0.0000000001
 40
0.0
 40
0.0
 40
0.0
 40
0.0
 40
0.2348465951
 40
0.4764682063
 40
1.0
 40
1.0
 40
1.0
 40
1.0
 10
46.7025512681
 20
156.9025600702
 30
0.0
 10
46.8556657024
 20
156.990996086
 30
0.0
 10
47.1867616968
 20
157.1373263175
 30
0.0
 10
47.9272667125
 20
157.2945889478
 30
0.0
 10
48.5162894018
 20
157.245178458
 30
0.0
 10
48.9009307603
 20
157.1590158883
 30
0.0
  0
SPLINE
  5
27A
100
AcDbEntity
  8
0
100
AcDbSpline
 62
7
  6
CONTINUOUS
 70
0
 71
3
 72
9
 73
5
 74
0
 42
0.0000001
 43
0.0000001
 44
0.0000000001
 40
0.0
 40
0.0
 40
0.0
 40
0.0
 40
0.2349917391
 40
1.0
 40
1.0
 40
1.0
 40
1.0
 10
48.9009307603
 20
157.1590158883
 30
0.0
 10
49.0291541099
 20
157.1302928894
 30
0.0
 10
49.5691713738
 20
156.9830253494
 30
0.0
 10
50.0820487028
 20
156.7450488987
 30
0.0
 10
50.4525122488
 20
156.5311665093
 30
0.0
  0
SPLINE
  5
27B
100
AcDbEntity
  8
0
100
AcDbSpline
 62
7
  6
CONTINUOUS
 70
0
 71
3
 72
14
 73
10
 74
0
 42
0.0000001
 43
0.0000001
 44
0.0000000001
 40
0.0
 40
0.0
 40
0.0
 40
0.0
 40
0.1080381681
 40
0.2181256745
 40
0.3321106477
 40
0.4515240919
 40
0.577483867
 40
0.7107469722
 40
1.0
 40
1.0
 40
1.0
 40
1.0
 10
134.0239881937
 20
88.6300837929
 30
0.0
 10
133.3696332487
 20
89.0094550272
 30
0.0
 10
132.1115462509
 20
89.8902531419
 30
0.0
 10
130.4496659004
 20
91.5304631583
 30
0.0
 10
129.0202076564
 20
93.4759559508
 30
0.0
 10
127.8370109386
 20
95.705213456
 30
0.0
 10
126.9083963033
 20
98.1955676523
 30
0.0
 10
125.9958517696
 20
101.9321754697
 30
0.0
 10
125.759697977
 20
104.9046985292
 30
0.0
 10
125.759697977
 20
106.9297580244
 30
0.0
  0
SPLINE
  5
27C
100
AcDbEntity
  8
0
100
AcDbSpline
 62
7
  6
CONTINUOUS
 70
0
 71
3
 72
10
 73
6
 74
0
 42
0.0000001
 43
0.0000001
 44
0.0000000001
 40
0.0
 40
0.0
 40
0.0
 40
0.0
 40
0.5219276336
 40
0.7675090719
 40
1.0
 40
1.0
 40
1.0
 40
1.0
 10
189.371516828
 20
115.5395388216
 30
0.0
 10
190.4975628121
 20
118.5285677491
 30
0.0
 10
191.8341399994
 20
123.0611579312
 30
0.0
 10
192.7695993928
 20
129.1153026774
 30
0.0
 10
192.9346508313
 20
132.0428778892
 30
0.0
 10
192.9346508313
 20
133.4656790164
 30
0.0
  0
SPLINE
  5
27D
100
AcDbEntity
  8
0
100
AcDbSpline
 62
7
  6
CONTINUOUS
 70
0
 71
3
 72
13
 73
9
 74
0
 42
0.0000001
 43
0.0000001
 44
0.0000000001
 40
0.0
 40
0.0
 40
0.0
 40
0.0
 40
0.1080952865
 40
0.2182274631
 40
0.3322531502
 40
0.4517057637
 40
0.7105880283
 40
1.0
 40
1.0
 40
1.0
 40
1.0
 10
151.7721316256
 20
89.9303693402
 30
0.0
 10
152.2639776646
 20
89.64640695
 30
0.0
 10
153.3082002713
 20
89.1572775554
 30
0.0
 10
154.9979120417
 20
88.6901674424
 30
0.0
 10
156.7992300581
 20
88.4892009115
 30
0.0
 10
159.3924062038
 20
88.5795748176
 30
0.0
 10
162.8382033963
 20
89.4093485153
 30
0.0
 10
165.454972512
 20
90.6558366074
 30
0.0
 10
166.7718265182
 20
91.416118084
 30
0.0
  0
SPLINE
  5
27E
100
AcDbEntity
  8
0
100
AcDbSpline
 62
7
  6
CONTINUOUS
 70
0
 71
3
 72
11
 73
7
 74
0
 42
0.0000001
 43
0.0000001
 44
0.0000000001
 40
0.0
 40
0.0
 40
0.0
 40
0.0
 40
0.2260960376
 40
0.4630413561
 40
0.7192652661
 40
1.0
 40
1.0
 40
1.0
 40
1.0
 10
161.2290670451
 20
104.6776139593
 30
0.0
 10
161.5627088494
 20
104.4850342093
 30
0.0
 10
162.3053789739
 20
104.1857715514
 30
0.0
 10
163.5349088988
 20
104.0432573142
 30
0.0
 10
164.8543539742
 20
104.1962222194
 30
0.0
 10
165.7311922998
 20
104.4757907209
 30
0.0
 10
166.1745108133
 20
104.6554189247
 30
0.0
  0
SPLINE
  5
27F
100
AcDbEntity
  8
0
100
AcDbSpline
 62
7
  6
CONTINUOUS
 70
0
 71
3
 72
11
 73
7
 74
0
 42
0.0000001
 43
0.0000001
 44
0.0000000001
 40
0.0
 40
0.0
 40
0.0
 40
0.0
 40
0.2177775995
 40
0.4509368668
 40
0.7102286427
 40
1.0
 40
1.0
 40
1.0
 40
1.0
 10
187.2278848167
 20
92.5542608766
 30
0.0
 10
187.5577341802
 20
92.3638265485
 30
0.0
 10
188.3156501309
 20
92.0886687325
 30
0.0
 10
189.5743946108
 20
92.0569520961
 30
0.0
 10
190.9161060006
 20
92.3806810018
 30
0.0
 10
191.7888862037
 20
92.7961072745
 30
0.0
 10
192.2277766235
 20
93.0494992639
 30
0.0
  0
SPLINE
  5
280
100
AcDbEntity
  8
0
100
AcDbSpline
 62
7
  6
CONTINUOUS
 70
0
 71
3
 72
13
 73
9
 74
0
 42
0.0000001
 43
0.0000001
 44
0.0000000001
 40
0.0
 40
0.0
 40
0.0
 40
0.0
 40
0.1142514734
 40
0.237528499
 40
0.4999848735
 40
0.7624422186
 40
0.8857605185
 40
1.0
 40
1.0
 40
1.0
 40
1.0
 10
192.9349963132
 20
93.4579214199
 30
0.0
 10
193.3706313157
 20
93.7094394455
 30
0.0
 10
194.2312031616
 20
94.3126058345
 30
0.0
 10
195.8422190548
 20
95.8205331936
 30
0.0
 10
197.5440405591
 20
98.1450102658
 30
0.0
 10
198.7063525829
 20
100.7812235857
 30
0.0
 10
199.2066415185
 20
102.9305242954
 30
0.0
 10
199.2988208836
 20
103.9775028721
 30
0.0
 10
199.2988208836
 20
104.4804800655
 30
0.0
  0
SPLINE
  5
281
100
AcDbEntity
  8
0
100
AcDbSpline
 62
7
  6
CONTINUOUS
 70
0
 71
3
 72
11
 73
7
 74
0
 42
0.0000001
 43
0.0000001
 44
0.0000000001
 40
0.0
 40
0.0
 40
0.0
 40
0.0
 40
0.2298651074
 40
0.4923773823
 40
0.7590907652
 40
1.0
 40
1.0
 40
1.0
 40
1.0
 10
189.5625249681
 20
98.4170034988
 30
0.0
 10
189.5032044762
 20
98.9855898759
 30
0.0
 10
189.6403876389
 20
100.2299673289
 30
0.0
 10
190.3407642975
 20
101.9999338215
 30
0.0
 10
191.442657246
 20
103.5859923714
 30
0.0
 10
192.4160158984
 20
104.425926077
 30
0.0
 10
192.9348863486
 20
104.7254942829
 30
0.0
  0
SPLINE
  5
282
100
AcDbEntity
  8
0
100
AcDbSpline
 62
7
  6
CONTINUOUS
 70
0
 71
3
 72
9
 73
5
 74
0
 42
0.0000001
 43
0.0000001
 44
0.0000000001
 40
0.0
 40
0.0
 40
0.0
 40
0.0
 40
0.2337055546
 40
1.0
 40
1.0
 40
1.0
 40
1.0
 10
196.8239162378
 20
111.2165271371
 30
0.0
 10
196.9050979396
 20
111.16965792
 30
0.0
 10
197.242301743
 20
110.9516203577
 30
0.0
 10
197.5393626401
 20
110.6746576967
 30
0.0
 10
197.7428143202
 20
110.4442678538
 30
0.0
  0
SPLINE
  5
283
100
AcDbEntity
  8
0
100
AcDbSpline
 62
7
  6
CONTINUOUS
 70
0
 71
3
 72
10
 73
6
 74
0
 42
0.0000001
 43
0.0000001
 44
0.0000000001
 40
0.0
 40
0.0
 40
0.0
 40
0.0
 40
0.5196892478
 40
0.7711152509
 40
1.0
 40
1.0
 40
1.0
 40
1.0
 10
197.7428143202
 20
110.4442678538
 30
0.0
 10
198.1091258994
 20
110.0294545324
 30
0.0
 10
198.5514510032
 20
109.3142251099
 30
0.0
 10
198.8802417869
 20
108.2983417216
 30
0.0
 10
198.9452454132
 20
107.7860305453
 30
0.0
 10
198.9452454132
 20
107.5422976222
 30
0.0
  0
SPLINE
  5
284
100
AcDbEntity
  8
0
100
AcDbSpline
 62
7
  6
CONTINUOUS
 70
0
 71
3
 72
16
 73
12
 74
0
 42
0.0000001
 43
0.0000001
 44
0.0000000001
 40
0.0
 40
0.0
 40
0.0
 40
0.0
 40
0.1269071913
 40
0.266600305
 40
0.4110384617
 40
0.5523019946
 40
0.6838817428
 40
0.8017886007
 40
0.905648514
 40
0.9536400561
 40
1.0
 40
1.0
 40
1.0
 40
1.0
 10
89.8031678645
 20
127.7704488826
 30
0.0
 10
89.8031678645
 20
128.229605013
 30
0.0
 10
89.6966097836
 20
129.194966606
 30
0.0
 10
89.2944063666
 20
130.6321541656
 30
0.0
 10
88.6566719498
 20
132.040049931
 30
0.0
 10
87.8115808791
 20
133.300649282
 30
0.0
 10
86.8032686427
 20
134.3076295768
 30
0.0
 10
85.6944062385
 20
134.9743299548
 30
0.0
 10
84.7194683848
 20
135.1958543109
 30
0.0
 10
84.0000653804
 20
135.1360543376
 30
0.0
 10
83.6707268066
 20
135.0343143699
 30
0.0
 10
83.5170835015
 20
134.967024659
 30
0.0
  0
SPLINE
  5
285
100
AcDbEntity
  8
0
100
AcDbSpline
 62
7
  6
CONTINUOUS
 70
0
 71
3
 72
11
 73
7
 74
0
 42
0.0000001
 43
0.0000001
 44
0.0000000001
 40
0.0
 40
0.0
 40
0.0
 40
0.0
 40
0.2969047558
 40
0.5604146864
 40
0.7919761577
 40
1.0
 40
1.0
 40
1.0
 40
1.0
 10
118.0166109693
 20
176.6378370656
 30
0.0
 10
118.2321363732
 20
176.7622699728
 30
0.0
 10
118.6254628704
 20
177.0224047883
 30
0.0
 10
119.1158572512
 20
177.4752934357
 30
0.0
 10
119.458320179
 20
177.9616399134
 30
0.0
 10
119.5805419822
 20
178.3166427518
 30
0.0
 10
119.6082451764
 20
178.4887944958
 30
0.0
  0
SPLINE
  5
286
100
AcDbEntity
  8
0
100
AcDbSpline
 62
7
  6
CONTINUOUS
 70
0
 71
3
 72
11
 73
7
 74
0
 42
0.0000001
 43
0.0000001
 44
0.0000000001
 40
0.0
 40
0.0
 40
0.0
 40
0.0
 40
0.2352737402
 40
0.4964170371
 40
0.7606527431
 40
1.0
 40
1.0
 40
1.0
 40
1.0
 10
110.2384363763
 20
176.3268201933
 30
0.0
 10
110.7864364903
 20
176.0104393375
 30
0.0
 10
112.0808467665
 20
175.5800467668
 30
0.0
 10
114.1408692115
 20
175.4770722198
 30
0.0
 10
116.1829074911
 20
175.816383623
 30
0.0
 10
117.4591251323
 20
176.3159743888
 30
0.0
 10
118.0166109693
 20
176.6378370656
 30
0.0
  0
SPLINE
  5
287
100
AcDbEntity
  8
0
100
AcDbSpline
 62
7
  6
CONTINUOUS
 70
0
 71
3
 72
11
 73
7
 74
0
 42
0.0000001
 43
0.0000001
 44
0.0000000001
 40
0.0
 40
0.0
 40
0.0
 40
0.0
 40
0.2177816173
 40
0.4509264672
 40
0.7102616501
 40
1.0
 40
1.0
 40
1.0
 40
1.0
 10
54.2024732295
 20
143.9122366915
 30
0.0
 10
53.9551066482
 20
143.7693624093
 30
0.0
 10
53.3866232987
 20
143.5631299729
 30
0.0
 10
52.4425425287
 20
143.5392005551
 30
0.0
 10
51.4362661711
 20
143.7821005974
 30
0.0
 10
50.7816454362
 20
144.0936094169
 30
0.0
 10
50.4525122488
 20
144.2836302524
 30
0.0
  0
SPLINE
  5
288
100
AcDbEntity
  8
0
100
AcDbSpline
 62
7
  6
CONTINUOUS
 70
0
 71
3
 72
9
 73
5
 74
0
 42
0.0000001
 43
0.0000001
 44
0.0000000001
 40
0.0
 40
0.0
 40
0.0
 40
0.0
 40
0.2361079035
 40
1.0
 40
1.0
 40
1.0
 40
1.0
 10
48.3921508327
 20
157.2362549679
 30
0.0
 10
48.3452130164
 20
157.1344801191
 30
0.0
 10
48.1664153165
 20
156.6942245412
 30
0.0
 10
48.0649869198
 20
156.224720188
 30
0.0
 10
48.021716126
 20
155.8647023764
 30
0.0
  0
SPLINE
  5
289
100
AcDbEntity
  8
0
100
AcDbSpline
 62
7
  6
CONTINUOUS
 70
0
 71
3
 72
18
 73
14
 74
0
 42
0.0000001
 43
0.0000001
 44
0.0000000001
 40
0.0
 40
0.0
 40
0.0
 40
0.0
 40
0.0430708055
 40
0.0885607334
 40
0.1375834315
 40
0.1907873296
 40
0.3099593412
 40
0.4441719023
 40
0.5152822062
 40
0.587842103
 40
0.7333042142
 40
0.8729289699
 40
1.0
 40
1.0
 40
1.0
 40
1.0
 10
119.6113969091
 20
178.7173678554
 30
0.0
 10
119.5911283615
 20
178.8699337061
 30
0.0
 10
119.5099425327
 20
179.1794713558
 30
0.0
 10
119.2790655995
 20
179.6174788892
 30
0.0
 10
118.9445870154
 20
180.0296544219
 30
0.0
 10
118.3479528173
 20
180.5537437765
 30
0.0
 10
117.3774418363
 20
181.0883006123
 30
0.0
 10
116.261553458
 20
181.4267528915
 30
0.0
 10
115.2811583268
 20
181.5905638545
 30
0.0
 10
114.2503691989
 20
181.6742425253
 30
0.0
 10
112.9670990772
 20
181.6213773104
 30
0.0
 10
111.519320034
 20
181.3180022005
 30
0.0
 10
110.6316381793
 20
180.947266665
 30
0.0
 10
110.2384039927
 20
180.7202341567
 30
0.0
  0
SPLINE
  5
28A
100
AcDbEntity
  8
0
100
AcDbSpline
 62
7
  6
CONTINUOUS
 70
0
 71
3
 72
9
 73
5
 74
0
 42
0.0000001
 43
0.0000001
 44
0.0000000001
 40
0.0
 40
0.0
 40
0.0
 40
0.0
 40
0.5453692986
 40
1.0
 40
1.0
 40
1.0
 40
1.0
 10
190.9549791182
 20
99.3365490585
 30
0.0
 10
190.7289164522
 20
99.2060324966
 30
0.0
 10
190.280747614
 20
99.0137934161
 30
0.0
 10
189.7797442623
 20
99.0176348331
 30
0.0
 10
189.5721688735
 20
99.0829317668
 30
0.0
  0
SPLINE
  5
28B
100
AcDbEntity
  8
0
100
AcDbSpline
 62
7
  6
CONTINUOUS
 70
0
 71
3
 72
14
 73
10
 74
0
 42
0.0000001
 43
0.0000001
 44
0.0000000001
 40
0.0
 40
0.0
 40
0.0
 40
0.0
 40
0.1080476121
 40
0.2181297477
 40
0.3321018187
 40
0.4515016916
 40
0.5774527013
 40
0.710715469
 40
1.0
 40
1.0
 40
1.0
 40
1.0
 10
89.8998681423
 20
114.2200238519
 30
0.0
 10
89.2457050387
 20
114.5977531404
 30
0.0
 10
87.987880693
 20
115.4752842376
 30
0.0
 10
86.3260911645
 20
117.110911961
 30
0.0
 10
84.8966506916
 20
119.0520075068
 30
0.0
 10
83.7134374425
 20
121.2770266836
 30
0.0
 10
82.7847912659
 20
123.7632713874
 30
0.0
 10
81.8721753237
 20
127.4945272044
 30
0.0
 10
81.636050539
 20
130.4631727526
 30
0.0
 10
81.636050539
 20
132.4856295973
 30
0.0
  0
SPLINE
  5
28C
100
AcDbEntity
  8
0
100
AcDbSpline
 62
7
  6
CONTINUOUS
 70
0
 71
3
 72
11
 73
7
 74
0
 42
0.0000001
 43
0.0000001
 44
0.0000000001
 40
0.0
 40
0.0
 40
0.0
 40
0.0
 40
0.2271698949
 40
0.4645419744
 40
0.7206808581
 40
1.0
 40
1.0
 40
1.0
 40
1.0
 10
83.2984016354
 20
134.8564717881
 30
0.0
 10
83.1002844194
 20
134.7420810147
 30
0.0
 10
82.7299845897
 20
134.442031726
 30
0.0
 10
82.3224223018
 20
133.8300484949
 30
0.0
 10
82.0751783561
 20
133.0838427845
 30
0.0
 10
82.0249608879
 20
132.5423836628
 30
0.0
 10
82.0249608879
 20
132.2610971824
 30
0.0
  0
SPLINE
  5
28D
100
AcDbEntity
  8
0
100
AcDbSpline
 62
7
  6
CONTINUOUS
 70
0
 71
3
 72
11
 73
7
 74
0
 42
0.0000001
 43
0.0000001
 44
0.0000000001
 40
0.0
 40
0.0
 40
0.0
 40
0.0
 40
0.2181568308
 40
0.453346237
 40
0.7131868261
 40
1.0
 40
1.0
 40
1.0
 40
1.0
 10
83.3155339851
 20
134.8476759335
 30
0.0
 10
83.1631071745
 20
134.7303825752
 30
0.0
 10
82.8834364496
 20
134.4354277784
 30
0.0
 10
82.5890975277
 20
133.8727194605
 30
0.0
 10
82.4136264634
 20
133.2012977712
 30
0.0
 10
82.3785128065
 20
132.7180804719
 30
0.0
 10
82.3785128065
 20
132.4652192593
 30
0.0
  0
SPLINE
  5
28E
100
AcDbEntity
  8
0
100
AcDbSpline
 62
7
  6
CONTINUOUS
 70
0
 71
3
 72
23
 73
19
 74
0
 42
0.0000001
 43
0.0000001
 44
0.0000000001
 40
0.0
 40
0.0
 40
0.0
 40
0.0
 40
0.0428149861
 40
0.0873973233
 40
0.1351804461
 40
0.1870897233
 40
0.2435362001
 40
0.304493465
 40
0.3695912179
 40
0.4381990682
 40
0.5094965703
 40
0.5825321762
 40
0.6562757738
 40
0.7296637263
 40
0.8016515748
 40
0.8712536856
 40
0.937608075
 40
1.0
 40
1.0
 40
1.0
 40
1.0
 10
184.6501211904
 20
151.7770620711
 30
0.0
 10
183.6639862675
 20
152.3464808044
 30
0.0
 10
181.4900723759
 20
153.2498610515
 30
0.0
 10
177.9016912925
 20
153.7757353488
 30
0.0
 10
174.0483450113
 20
153.4920185303
 30
0.0
 10
170.0156033837
 20
152.4205035974
 30
0.0
 10
165.8826395931
 20
150.5938696069
 30
0.0
 10
161.7317229995
 20
148.0543102779
 30
0.0
 10
157.6471673096
 20
144.8565157868
 30
0.0
 10
153.7137836044
 20
141.068246066
 30
0.0
 10
150.0143464065
 20
136.7698071843
 30
0.0
 10
146.6273122576
 20
132.0525761252
 30
0.0
 10
143.6248916295
 20
127.0170880179
 30
0.0
 10
141.0710137847
 20
121.7707707259
 30
0.0
 10
139.020362212
 20
116.4255387755
 30
0.0
 10
137.5162083025
 20
111.0946019072
 30
0.0
 10
136.5912212015
 20
105.8920272758
 30
0.0
 10
136.3663438542
 20
102.465551333
 30
0.0
 10
136.3663438542
 20
100.8061467066
 30
0.0
  0
SPLINE
  5
28F
100
AcDbEntity
  8
0
100
AcDbSpline
 62
7
  6
CONTINUOUS
 70
0
 71
3
 72
9
 73
5
 74
0
 42
0.0000001
 43
0.0000001
 44
0.0000000001
 40
0.0
 40
0.0
 40
0.0
 40
0.0
 40
0.2559731247
 40
1.0
 40
1.0
 40
1.0
 40
1.0
 10
54.6976586399
 20
145.3212147857
 30
0.0
 10
54.7434839124
 20
145.3094252509
 30
0.0
 10
54.9232139439
 20
145.2661873905
 30
0.0
 10
55.1057809156
 20
145.2345029956
 30
0.0
 10
55.2423745991
 20
145.2184309223
 30
0.0
  0
SPLINE
  5
290
100
AcDbEntity
  8
0
100
AcDbSpline
 62
7
  6
CONTINUOUS
 70
0
 71
3
 72
13
 73
9
 74
0
 42
0.0000001
 43
0.0000001
 44
0.0000000001
 40
0.0
 40
0.0
 40
0.0
 40
0.0
 40
0.1080952865
 40
0.2182274631
 40
0.3322531502
 40
0.4517057637
 40
0.7105880283
 40
1.0
 40
1.0
 40
1.0
 40
1.0
 10
181.7715214107
 20
141.8920118557
 30
0.0
 10
181.2796753718
 20
142.1759742459
 30
0.0
 10
180.235452765
 20
142.6651036405
 30
0.0
 10
178.5457409947
 20
143.1322137534
 30
0.0
 10
176.7444229783
 20
143.3331802844
 30
0.0
 10
174.1512468326
 20
143.2428063783
 30
0.0
 10
170.70544964
 20
142.4130326805
 30
0.0
 10
168.0886805244
 20
141.1665445885
 30
0.0
 10
166.7718265182
 20
140.4062631118
 30
0.0
  0
SPLINE
  5
291
100
AcDbEntity
  8
0
100
AcDbSpline
 62
7
  6
CONTINUOUS
 70
0
 71
3
 72
9
 73
5
 74
0
 42
0.0000001
 43
0.0000001
 44
0.0000000001
 40
0.0
 40
0.0
 40
0.0
 40
0.0
 40
0.2558132796
 40
1.0
 40
1.0
 40
1.0
 40
1.0
 10
199.2988208836
 20
104.4804800655
 30
0.0
 10
199.2988208836
 20
104.5549207355
 30
0.0
 10
199.2949531722
 20
104.8458958366
 30
0.0
 10
199.2753648957
 20
105.1367257219
 30
0.0
 10
199.2508776551
 20
105.3518922503
 30
0.0
  0
SPLINE
  5
292
100
AcDbEntity
  8
0
100
AcDbSpline
 62
7
  6
CONTINUOUS
 70
0
 71
3
 72
17
 73
13
 74
0
 42
0.0000001
 43
0.0000001
 44
0.0000000001
 40
0.0
 40
0.0
 40
0.0
 40
0.0
 40
0.12405617
 40
0.2326293257
 40
0.283515177
 40
0.3336922381
 40
0.3846087263
 40
0.4376146595
 40
0.5535211984
 40
0.6865240539
 40
0.8364888743
 40
1.0
 40
1.0
 40
1.0
 40
1.0
 10
199.2508776551
 20
105.3518922503
 30
0.0
 10
199.1924387136
 20
105.8653884165
 30
0.0
 10
198.9784439837
 20
106.823748648
 30
0.0
 10
198.3618011369
 20
107.8634607667
 30
0.0
 10
197.7071541064
 20
108.4505171709
 30
0.0
 10
197.1538096608
 20
108.7678647255
 30
0.0
 10
196.538341793
 20
108.9657417292
 30
0.0
 10
195.623142357
 20
109.0695138376
 30
0.0
 10
194.3586684256
 20
108.8643784194
 30
0.0
 10
192.8356445852
 20
108.1664191648
 30
0.0
 10
191.3272990963
 20
107.0607708626
 30
0.0
 10
190.4122539775
 20
106.1205770725
 30
0.0
 10
189.97284954
 20
105.6000705467
 30
0.0
  0
SPLINE
  5
293
100
AcDbEntity
  8
0
100
AcDbSpline
 62
7
  6
CONTINUOUS
 70
0
 71
3
 72
9
 73
5
 74
0
 42
0.0000001
 43
0.0000001
 44
0.0000000001
 40
0.0
 40
0.0
 40
0.0
 40
0.0
 40
0.521674826
 40
1.0
 40
1.0
 40
1.0
 40
1.0
 10
187.3018118026
 20
100.9732506432
 30
0.0
 10
187.0703605188
 20
100.331289203
 30
0.0
 10
186.7135213447
 20
99.0671002423
 30
0.0
 10
186.5709518137
 20
97.7577895446
 30
0.0
 10
186.5709518137
 20
97.1320852958
 30
0.0
  0
SPLINE
  5
294
100
AcDbEntity
  8
0
100
AcDbSpline
 62
7
  6
CONTINUOUS
 70
0
 71
3
 72
21
 73
17
 74
0
 42
0.0000001
 43
0.0000001
 44
0.0000000001
 40
0.0
 40
0.0
 40
0.0
 40
0.0
 40
0.0428266782
 40
0.0874212294
 40
0.1352176249
 40
0.1871416428
 40
0.2436041444
 40
0.3045784041
 40
0.3696939777
 40
0.438320549
 40
0.5825521021
 40
0.729590017
 40
0.8015983004
 40
0.8712180849
 40
0.9375934613
 40
1.0
 40
1.0
 40
1.0
 40
1.0
 10
149.6508025202
 20
91.1550919061
 30
0.0
 10
148.9111674769
 20
91.5821109404
 30
0.0
 10
147.5090920114
 20
92.6552207038
 30
0.0
 10
145.8218185847
 20
94.7887430121
 30
0.0
 10
144.5610123742
 20
97.3979606639
 30
0.0
 10
143.744685343
 20
100.4191735591
 30
0.0
 10
143.3812477865
 20
103.7886661576
 30
0.0
 10
143.4741465174
 20
107.4371054121
 30
0.0
 10
144.0193486616
 20
111.2894988746
 30
0.0
 10
145.3556269215
 20
116.6775637606
 30
0.0
 10
148.060945854
 20
123.3684096623
 30
0.0
 10
151.8731650505
 20
129.5713088082
 30
0.0
 10
155.50050415
 20
134.0496950326
 30
0.0
 10
158.3991744099
 20
137.0259743814
 30
0.0
 10
161.4314687327
 20
139.5776893068
 30
0.0
 10
163.5727140955
 20
141.0087306418
 30
0.0
 10
164.6504973427
 20
141.6309853754
 30
0.0
  0
SPLINE
  5
295
100
AcDbEntity
  8
0
100
AcDbSpline
 62
7
  6
CONTINUOUS
 70
0
 71
3
 72
9
 73
5
 74
0
 42
0.0000001
 43
0.0000001
 44
0.0000000001
 40
0.0
 40
0.0
 40
0.0
 40
0.0
 40
0.2543119193
 40
1.0
 40
1.0
 40
1.0
 40
1.0
 10
51.7215919396
 20
146.4151239724
 30
0.0
 10
51.7501816042
 20
146.400389845
 30
0.0
 10
51.863189068
 20
146.3436035081
 30
0.0
 10
51.9785576707
 20
146.2914905675
 30
0.0
 10
52.0657765575
 20
146.2556179445
 30
0.0
  0
SPLINE
  5
296
100
AcDbEntity
  8
0
100
AcDbSpline
 62
7
  6
CONTINUOUS
 70
0
 71
3
 72
15
 73
11
 74
0
 42
0.0000001
 43
0.0000001
 44
0.0000000001
 40
0.0
 40
0.0
 40
0.0
 40
0.0
 40
0.1256190645
 40
0.2364503615
 40
0.3391904463
 40
0.4436486851
 40
0.5589049561
 40
0.690023843
 40
0.8378242679
 40
1.0
 40
1.0
 40
1.0
 40
1.0
 10
52.0657765575
 20
146.2556179445
 30
0.0
 10
52.3383044958
 20
146.1435287818
 30
0.0
 10
52.8770473251
 20
145.9848297791
 30
0.0
 10
53.6875167452
 20
145.9921036535
 30
0.0
 10
54.3973848887
 20
146.2806722261
 30
0.0
 10
54.9402445204
 20
146.834390731
 30
0.0
 10
55.2843267868
 20
147.5962698352
 30
0.0
 10
55.429614523
 20
148.5178578964
 30
0.0
 10
55.378124538
 20
149.5569188301
 30
0.0
 10
55.2216183891
 20
150.2704400389
 30
0.0
 10
55.1145580773
 20
150.6354986774
 30
0.0
  0
SPLINE
  5
297
100
AcDbEntity
  8
0
100
AcDbSpline
 62
7
  6
CONTINUOUS
 70
0
 71
3
 72
9
 73
5
 74
0
 42
0.0000001
 43
0.0000001
 44
0.0000000001
 40
0.0
 40
0.0
 40
0.0
 40
0.0
 40
0.2647601547
 40
1.0
 40
1.0
 40
1.0
 40
1.0
 10
53.1377145335
 20
154.1620495887
 30
0.0
 10
53.0126155779
 20
154.3006823553
 30
0.0
 10
52.5230875965
 20
154.8080815117
 30
0.0
 10
51.9622523869
 20
155.2512547825
 30
0.0
 10
51.5131680047
 20
155.5105279059
 30
0.0
  0
SPLINE
  5
298
100
AcDbEntity
  8
0
100
AcDbSpline
 62
7
  6
CONTINUOUS
 70
0
 71
3
 72
19
 73
15
 74
0
 42
0.0000001
 43
0.0000001
 44
0.0000000001
 40
0.0
 40
0.0
 40
0.0
 40
0.0
 40
0.0586686005
 40
0.1111463779
 40
0.158626974
 40
0.2037160892
 40
0.249730912
 40
0.2996916632
 40
0.3554689367
 40
0.4176709815
 40
0.5586932869
 40
0.7127682008
 40
0.8646972231
 40
1.0
 40
1.0
 40
1.0
 40
1.0
 10
51.3047440697
 20
155.6244052509
 30
0.0
 10
51.0642681585
 20
155.7483382443
 30
0.0
 10
50.5870875673
 20
155.9455791414
 30
0.0
 10
49.8591698194
 20
156.0716800217
 30
0.0
 10
49.1835572834
 20
155.9982657771
 30
0.0
 10
48.5945354661
 20
155.7186957315
 30
0.0
 10
48.1293947168
 20
155.2468733191
 30
0.0
 10
47.8077613831
 20
154.6154647038
 30
0.0
 10
47.6332490028
 20
153.8546649661
 30
0.0
 10
47.5973362921
 20
152.6550777749
 30
0.0
 10
47.9495213142
 20
151.0217856618
 30
0.0
 10
48.8437326938
 20
149.147096644
 30
0.0
 10
50.1040171321
 20
147.5302192102
 30
0.0
 10
51.1670012675
 20
146.7009408833
 30
0.0
 10
51.7215919396
 20
146.4151239724
 30
0.0
  0
SPLINE
  5
299
100
AcDbEntity
  8
0
100
AcDbSpline
 62
7
  6
CONTINUOUS
 70
0
 71
3
 72
15
 73
11
 74
0
 42
0.0000001
 43
0.0000001
 44
0.0000000001
 40
0.0
 40
0.0
 40
0.0
 40
0.0
 40
0.1477258311
 40
0.2811914891
 40
0.4018394187
 40
0.513860745
 40
0.6234816125
 40
0.7376660739
 40
0.8620786149
 40
1.0
 40
1.0
 40
1.0
 40
1.0
 10
186.5709518137
 20
97.1320852958
 30
0.0
 10
186.5709518137
 20
96.7099442584
 30
0.0
 10
186.6305691018
 20
95.9041386315
 30
0.0
 10
186.9296414316
 20
94.7870878176
 30
0.0
 10
187.4324112429
 20
93.8562191555
 30
0.0
 10
188.1305490832
 20
93.1495415526
 30
0.0
 10
189.0001122565
 20
92.705921072
 30
0.0
 10
189.9966121217
 20
92.5454447345
 30
0.0
 10
191.0763578118
 20
92.6630184287
 30
0.0
 10
191.7916915232
 20
92.9050839615
 30
0.0
 10
192.1531775897
 20
93.0621236075
 30
0.0
  0
SPLINE
  5
29A
100
AcDbEntity
  8
0
100
AcDbSpline
 62
7
  6
CONTINUOUS
 70
0
 71
3
 72
9
 73
5
 74
0
 42
0.0000001
 43
0.0000001
 44
0.0000000001
 40
0.0
 40
0.0
 40
0.0
 40
0.0
 40
0.244367263
 40
1.0
 40
1.0
 40
1.0
 40
1.0
 10
192.2070822777
 20
93.0858119467
 30
0.0
 10
192.2679495349
 20
93.1128651575
 30
0.0
 10
192.5154555883
 20
93.2270980405
 30
0.0
 10
192.7566243378
 20
93.3549366578
 30
0.0
 10
192.9349963132
 20
93.4579214199
 30
0.0
  0
SPLINE
  5
29B
100
AcDbEntity
  8
0
100
AcDbSpline
 62
7
  6
CONTINUOUS
 70
0
 71
3
 72
15
 73
11
 74
0
 42
0.0000001
 43
0.0000001
 44
0.0000000001
 40
0.0
 40
0.0
 40
0.0
 40
0.0
 40
0.1474851525
 40
0.2806851882
 40
0.4010031393
 40
0.5127548083
 40
0.6222931777
 40
0.73664606
 40
0.8614806624
 40
1.0
 40
1.0
 40
1.0
 40
1.0
 10
192.9348863486
 20
96.8870710785
 30
0.0
 10
192.7386570646
 20
96.7737787248
 30
0.0
 10
192.3480084594
 20
96.5854837033
 30
0.0
 10
191.7483873982
 20
96.4259167778
 30
0.0
 10
191.18095351
 20
96.4122376003
 30
0.0
 10
190.6661666105
 20
96.5510278141
 30
0.0
 10
190.2289362756
 20
96.8409880253
 30
0.0
 10
189.8905972462
 20
97.2662854086
 30
0.0
 10
189.660313877
 20
97.8048774597
 30
0.0
 10
189.5846076657
 20
98.2053410425
 30
0.0
 10
189.5625249681
 20
98.4170034988
 30
0.0
  0
SPLINE
  5
29C
100
AcDbEntity
  8
0
100
AcDbSpline
 62
7
  6
CONTINUOUS
 70
0
 71
3
 72
13
 73
9
 74
0
 42
0.0000001
 43
0.0000001
 44
0.0000000001
 40
0.0
 40
0.0
 40
0.0
 40
0.0
 40
0.1142459881
 40
0.2375429414
 40
0.499998393
 40
0.7624547242
 40
0.8857527048
 40
1.0
 40
1.0
 40
1.0
 40
1.0
 10
192.2277766235
 20
109.3795476065
 30
0.0
 10
191.7437509028
 20
109.1000968945
 30
0.0
 10
190.7875148982
 20
108.4298226777
 30
0.0
 10
188.9973812651
 20
106.7543228488
 30
0.0
 10
187.1064407045
 20
104.1714050929
 30
0.0
 10
185.8150520845
 20
101.2423328264
 30
0.0
 10
185.2590960157
 20
98.8542651478
 30
0.0
 10
185.1567382513
 20
97.6909922173
 30
0.0
 10
185.1567382513
 20
97.1320818965
 30
0.0
  0
SPLINE
  5
29D
100
AcDbEntity
  8
0
100
AcDbSpline
 62
7
  6
CONTINUOUS
 70
0
 71
3
 72
11
 73
7
 74
0
 42
0.0000001
 43
0.0000001
 44
0.0000000001
 40
0.0
 40
0.0
 40
0.0
 40
0.0
 40
0.217769602
 40
0.4509413408
 40
0.7102107771
 40
1.0
 40
1.0
 40
1.0
 40
1.0
 10
173.7288054415
 20
126.3282857275
 30
0.0
 10
173.3164839269
 20
126.5662798074
 30
0.0
 10
172.3691364255
 20
126.9103765957
 30
0.0
 10
170.7957133289
 20
126.9498652718
 30
0.0
 10
169.1185418855
 20
126.5453273405
 30
0.0
 10
168.0275848984
 20
126.0259906154
 30
0.0
 10
167.4789362433
 20
125.7092300575
 30
0.0
  0
SPLINE
  5
29E
100
AcDbEntity
  8
0
100
AcDbSpline
 62
7
  6
CONTINUOUS
 70
0
 71
3
 72
17
 73
13
 74
0
 42
0.0000001
 43
0.0000001
 44
0.0000000001
 40
0.0
 40
0.0
 40
0.0
 40
0.0
 40
0.0428589516
 40
0.0874879197
 40
0.1353222222
 40
0.1872879034
 40
0.3045518988
 40
0.4382225954
 40
0.5825681897
 40
0.7297218625
 40
0.8713099082
 40
1.0
 40
1.0
 40
1.0
 40
1.0
 10
160.5219536459
 20
105.0858483647
 30
0.0
 10
160.2137672869
 20
105.263734416
 30
0.0
 10
159.6296620859
 20
105.7109600287
 30
0.0
 10
158.9265907893
 20
106.5998159335
 30
0.0
 10
158.4011495764
 20
107.6870169308
 30
0.0
 10
157.9295288835
 20
109.4350967359
 30
0.0
 10
157.8701671491
 20
111.9837155468
 30
0.0
 10
158.5300467749
 20
115.218193804
 30
0.0
 10
159.8592410384
 20
118.5079901095
 30
0.0
 10
161.7515186645
 20
121.585639414
 30
0.0
 10
164.0503978446
 20
124.2010727784
 30
0.0
 10
165.8465108631
 20
125.5832427584
 30
0.0
 10
166.7718265182
 20
126.1174708121
 30
0.0
  0
SPLINE
  5
29F
100
AcDbEntity
  8
0
100
AcDbSpline
 62
7
  6
CONTINUOUS
 70
0
 71
3
 72
17
 73
13
 74
0
 42
0.0000001
 43
0.0000001
 44
0.0000000001
 40
0.0
 40
0.0
 40
0.0
 40
0.0
 40
0.0428578625
 40
0.0874872126
 40
0.1353216823
 40
0.1872853075
 40
0.3045511348
 40
0.438220534
 40
0.5825652046
 40
0.7297210455
 40
0.8713082519
 40
1.0
 40
1.0
 40
1.0
 40
1.0
 10
162.4790552425
 20
106.8427060014
 30
0.0
 10
162.2325281158
 20
106.9850378056
 30
0.0
 10
161.7651656852
 20
107.3426977698
 30
0.0
 10
161.2027695046
 20
108.0538545855
 30
0.0
 10
160.7824842732
 20
108.9236161821
 30
0.0
 10
160.4049983201
 20
110.3220307018
 30
0.0
 10
160.3577291058
 20
112.3609426308
 30
0.0
 10
160.8854703399
 20
114.9485209389
 30
0.0
 10
161.9488353247
 20
117.5803743367
 30
0.0
 10
163.4627206978
 20
120.0424432324
 30
0.0
 10
165.3017660752
 20
122.1348625135
 30
0.0
 10
166.738674983
 20
123.2405865279
 30
0.0
 10
167.4789362433
 20
123.6679740147
 30
0.0
  0
SPLINE
  5
2A0
100
AcDbEntity
  8
0
100
AcDbSpline
 62
7
  6
CONTINUOUS
 70
0
 71
3
 72
11
 73
7
 74
0
 42
0.0000001
 43
0.0000001
 44
0.0000000001
 40
0.0
 40
0.0
 40
0.0
 40
0.0
 40
0.2897728319
 40
0.5490651401
 40
0.7822238182
 40
1.0
 40
1.0
 40
1.0
 40
1.0
 10
185.1567382513
 20
97.1320818965
 30
0.0
 10
185.1567382513
 20
96.6252729928
 30
0.0
 10
185.2333598659
 20
95.6616680706
 30
0.0
 10
185.6238740776
 20
94.3377922689
 30
0.0
 10
186.2807432751
 20
93.2635076146
 30
0.0
 10
186.898024533
 20
92.7447015092
 30
0.0
 10
187.2278848167
 20
92.5542608766
 30
0.0
  0
SPLINE
  5
2A1
100
AcDbEntity
  8
0
100
AcDbSpline
 62
7
  6
CONTINUOUS
 70
0
 71
3
 72
11
 73
7
 74
0
 42
0.0000001
 43
0.0000001
 44
0.0000000001
 40
0.0
 40
0.0
 40
0.0
 40
0.0
 40
0.2177775995
 40
0.4509368668
 40
0.7102286427
 40
1.0
 40
1.0
 40
1.0
 40
1.0
 10
197.2276684303
 20
109.8747859938
 30
0.0
 10
196.8978190667
 20
110.0652203219
 30
0.0
 10
196.1399031161
 20
110.3403781379
 30
0.0
 10
194.8811586362
 20
110.3720947743
 30
0.0
 10
193.5394472464
 20
110.0483658686
 30
0.0
 10
192.6666670432
 20
109.6329395959
 30
0.0
 10
192.2277766235
 20
109.3795476065
 30
0.0
  0
SPLINE
  5
2A2
100
AcDbEntity
  8
0
100
AcDbSpline
 62
7
  6
CONTINUOUS
 70
0
 71
3
 72
15
 73
11
 74
0
 42
0.0000001
 43
0.0000001
 44
0.0000000001
 40
0.0
 40
0.0
 40
0.0
 40
0.0
 40
0.0869269787
 40
0.1863918984
 40
0.3037797627
 40
0.4375877569
 40
0.5820839034
 40
0.7293916416
 40
0.8711748496
 40
1.0
 40
1.0
 40
1.0
 40
1.0
 10
183.40035182
 20
149.6118308107
 30
0.0
 10
183.5252214209
 20
149.5397419662
 30
0.0
 10
183.7519336083
 20
149.3083986725
 30
0.0
 10
183.9168179316
 20
148.8205013166
 30
0.0
 10
183.9307523218
 20
148.2328377394
 30
0.0
 10
183.7987748686
 20
147.5853919334
 30
0.0
 10
183.5329577646
 20
146.927656908
 30
0.0
 10
183.1545572557
 20
146.3119976555
 30
0.0
 10
182.6947184095
 20
145.7889244678
 30
0.0
 10
182.3354776139
 20
145.5124278514
 30
0.0
 10
182.1504244831
 20
145.4055880143
 30
0.0
  0
SPLINE
  5
2A3
100
AcDbEntity
  8
0
100
AcDbSpline
 62
7
  6
CONTINUOUS
 70
0
 71
3
 72
19
 73
15
 74
0
 42
0.0000001
 43
0.0000001
 44
0.0000000001
 40
0.0
 40
0.0
 40
0.0
 40
0.0
 40
0.0568677031
 40
0.107875912
 40
0.1545668334
 40
0.1995421224
 40
0.2459224287
 40
0.296401097
 40
0.3525846782
 40
0.4149591588
 40
0.5557396198
 40
0.7094913073
 40
0.8621487595
 40
1.0
 40
1.0
 40
1.0
 40
1.0
 10
193.3177985362
 20
104.9214422765
 30
0.0
 10
193.5194164315
 20
105.0113755915
 30
0.0
 10
193.9181869068
 20
105.1497869545
 30
0.0
 10
194.5211022305
 20
105.2140935555
 30
0.0
 10
195.0750904026
 20
105.1151768195
 30
0.0
 10
195.5527403721
 20
104.8505466815
 30
0.0
 10
195.926988914
 20
104.434357472
 30
0.0
 10
196.1847998295
 20
103.8917059508
 30
0.0
 10
196.3234125957
 20
103.2454808789
 30
0.0
 10
196.3485568666
 20
102.2345237308
 30
0.0
 10
196.0581527737
 20
100.861058432
 30
0.0
 10
195.3220118537
 20
99.2751243081
 30
0.0
 10
194.2790152723
 20
97.8865690174
 30
0.0
 10
193.3983430102
 20
97.1546463095
 30
0.0
 10
192.9348863486
 20
96.8870710785
 30
0.0
  0
SPLINE
  5
2A4
100
AcDbEntity
  8
0
100
AcDbSpline
 62
7
  6
CONTINUOUS
 70
0
 71
3
 72
15
 73
11
 74
0
 42
0.0000001
 43
0.0000001
 44
0.0000000001
 40
0.0
 40
0.0
 40
0.0
 40
0.0
 40
0.0892976453
 40
0.1930857234
 40
0.3136388175
 40
0.4482589425
 40
0.5912911501
 40
0.7356309641
 40
0.8739783901
 40
1.0
 40
1.0
 40
1.0
 40
1.0
 10
192.7497695376
 20
104.5766612217
 30
0.0
 10
192.8835886631
 20
104.4525771932
 30
0.0
 10
193.1058049408
 20
104.1096877483
 30
0.0
 10
193.2391714529
 20
103.4734177082
 30
0.0
 10
193.20282458
 20
102.7345909536
 30
0.0
 10
193.0014544977
 20
101.9415174133
 30
0.0
 10
192.6508408428
 20
101.1495493834
 30
0.0
 10
192.1761195083
 20
100.4159456846
 30
0.0
 10
191.6124909264
 20
99.7945992275
 30
0.0
 10
191.1780213655
 20
99.4653217914
 30
0.0
 10
190.9549791182
 20
99.3365490585
 30
0.0
  0
SPLINE
  5
2A5
100
AcDbEntity
  8
0
100
AcDbSpline
 62
7
  6
CONTINUOUS
 70
0
 71
3
 72
23
 73
19
 74
0
 42
0.0000001
 43
0.0000001
 44
0.0000000001
 40
0.0
 40
0.0
 40
0.0
 40
0.0
 40
0.0623911629
 40
0.1287447346
 40
0.1983469014
 40
0.2703351311
 40
0.3437239114
 40
0.4174686129
 40
0.490505396
 40
0.5618039059
 40
0.6304123842
 40
0.695510293
 40
0.7564673266
 40
0.8129132836
 40
0.8648218399
 40
0.9126041516
 40
0.9571857038
 40
1.0
 40
1.0
 40
1.0
 40
1.0
 10
81.636050539
 20
132.4856295973
 30
0.0
 10
81.636050539
 20
134.1408655452
 30
0.0
 10
81.8603541982
 20
137.5587339433
 30
0.0
 10
82.7830190486
 20
142.748262903
 30
0.0
 10
84.2833936463
 20
148.0658673206
 30
0.0
 10
86.3289260977
 20
153.3977698439
 30
0.0
 10
88.8764425974
 20
158.6310285275
 30
0.0
 10
91.8714013599
 20
163.6539981712
 30
0.0
 10
95.2500257746
 20
168.3595026377
 30
0.0
 10
98.9402759082
 20
172.6472416977
 30
0.0
 10
102.8638792325
 20
176.426055073
 30
0.0
 10
106.9382571169
 20
179.6158366484
 30
0.0
 10
111.0788020928
 20
182.1490079793
 30
0.0
 10
115.201412372
 20
183.9710266261
 30
0.0
 10
119.2240278836
 20
185.0398168911
 30
0.0
 10
123.0676808583
 20
185.3227911354
 30
0.0
 10
126.64702748
 20
184.7982198623
 30
0.0
 10
128.8154649278
 20
183.8971040929
 30
0.0
 10
129.7991191454
 20
183.3291188218
 30
0.0
  0
SPLINE
  5
2A6
100
AcDbEntity
  8
0
100
AcDbSpline
 62
7
  6
CONTINUOUS
 70
0
 71
3
 72
11
 73
7
 74
0
 42
0.0000001
 43
0.0000001
 44
0.0000000001
 40
0.0
 40
0.0
 40
0.0
 40
0.0
 40
0.2177231375
 40
0.4508717887
 40
0.7104673698
 40
1.0
 40
1.0
 40
1.0
 40
1.0
 10
148.4004945339
 20
129.40477045
 30
0.0
 10
148.4829391731
 20
129.3571763201
 30
0.0
 10
148.6373265206
 20
129.2276192141
 30
0.0
 10
148.801618074
 20
128.9589338956
 30
0.0
 10
148.8989973258
 20
128.6278891105
 30
0.0
 10
148.9183297954
 20
128.3869936252
 30
0.0
 10
148.9183297954
 20
128.2603997711
 30
0.0
  0
SPLINE
  5
2A7
100
AcDbEntity
  8
0
100
AcDbSpline
 62
7
  6
CONTINUOUS
 70
0
 71
3
 72
17
 73
13
 74
0
 42
0.0000001
 43
0.0000001
 44
0.0000000001
 40
0.0
 40
0.0
 40
0.0
 40
0.0
 40
0.1286883504
 40
0.2702740891
 40
0.4174267909
 40
0.561774462
 40
0.6954473553
 40
0.8127119542
 40
0.8646774068
 40
0.9125116015
 40
0.9571406402
 40
1.0
 40
1.0
 40
1.0
 40
1.0
 10
167.4789362433
 20
125.7092300575
 30
0.0
 10
166.5536331463
 20
125.1750092542
 30
0.0
 10
164.7575459884
 20
123.7928630969
 30
0.0
 10
162.4586776327
 20
121.1774758668
 30
0.0
 10
160.5663998188
 20
118.0998390201
 30
0.0
 10
159.2371712784
 20
114.8100265464
 30
0.0
 10
158.5772800225
 20
111.5755092316
 30
0.0
 10
158.6366339739
 20
109.0268671337
 30
0.0
 10
159.1082624776
 20
107.2787879845
 30
0.0
 10
159.6336911975
 20
106.1915838011
 30
0.0
 10
160.3367666034
 20
105.3027254811
 30
0.0
 10
160.9208780605
 20
104.8555022121
 30
0.0
 10
161.2290670451
 20
104.6776139593
 30
0.0
  0
SPLINE
  5
2A8
100
AcDbEntity
  8
0
100
AcDbSpline
 62
7
  6
CONTINUOUS
 70
0
 71
3
 72
11
 73
7
 74
0
 42
0.0000001
 43
0.0000001
 44
0.0000000001
 40
0.0
 40
0.0
 40
0.0
 40
0.0
 40
0.2897742159
 40
0.5490673896
 40
0.7822264285
 40
1.0
 40
1.0
 40
1.0
 40
1.0
 10
167.4789362433
 20
123.6679740147
 30
0.0
 10
167.9178302561
 20
123.9213680786
 30
0.0
 10
168.7906173391
 20
124.336794454
 30
0.0
 10
170.1323347677
 20
124.6605177069
 30
0.0
 10
171.3910731937
 20
124.6287935609
 30
0.0
 10
172.1489759881
 20
124.3536266884
 30
0.0
 10
172.4788172442
 20
124.1631936854
 30
0.0
  0
SPLINE
  5
2A9
100
AcDbEntity
  8
0
100
AcDbSpline
 62
7
  6
CONTINUOUS
 70
0
 71
3
 72
21
 73
17
 74
0
 42
0.0000001
 43
0.0000001
 44
0.0000000001
 40
0.0
 40
0.0
 40
0.0
 40
0.0
 40
0.0624058426
 40
0.1287802076
 40
0.1983998494
 40
0.2704082443
 40
0.4174477676
 40
0.561681593
 40
0.6303089133
 40
0.6954248109
 40
0.7563989886
 40
0.8128610616
 40
0.8647843911
 40
0.9125800204
 40
0.9571738729
 40
1.0
 40
1.0
 40
1.0
 40
1.0
 10
166.7718265182
 20
140.4062631118
 30
0.0
 10
165.6940552692
 20
139.7840153054
 30
0.0
 10
163.5528340244
 20
138.352999304
 30
0.0
 10
160.520567298
 20
135.8013088706
 30
0.0
 10
157.6219013339
 20
132.8250544759
 30
0.0
 10
153.9945362267
 20
128.3466483659
 30
0.0
 10
150.1822654992
 20
122.1436862221
 30
0.0
 10
147.4769222665
 20
115.4527480053
 30
0.0
 10
146.1406469862
 20
110.0646133334
 30
0.0
 10
145.5954590536
 20
106.2121976032
 30
0.0
 10
145.5025813728
 20
102.5637612744
 30
0.0
 10
145.866040793
 20
99.1942947572
 30
0.0
 10
146.6823853812
 20
96.1731255131
 30
0.0
 10
147.9431913125
 20
93.5639566426
 30
0.0
 10
149.6304474615
 20
91.4304722274
 30
0.0
 10
151.0325068874
 20
90.3573842836
 30
0.0
 10
151.7721316256
 20
89.9303693402
 30
0.0
  0
SPLINE
  5
2AA
100
AcDbEntity
  8
0
100
AcDbSpline
 62
7
  6
CONTINUOUS
 70
0
 71
3
 72
11
 73
7
 74
0
 42
0.0000001
 43
0.0000001
 44
0.0000000001
 40
0.0
 40
0.0
 40
0.0
 40
0.0
 40
0.2897908274
 40
0.5490578524
 40
0.782229861
 40
1.0
 40
1.0
 40
1.0
 40
1.0
 10
166.7718265182
 20
126.1174708121
 30
0.0
 10
167.3204785861
 20
126.4342333403
 30
0.0
 10
168.4114340171
 20
126.9535727408
 30
0.0
 10
170.0886057344
 20
127.3581042972
 30
0.0
 10
171.6620270406
 20
127.318628177
 30
0.0
 10
172.6093761799
 20
126.9745269723
 30
0.0
 10
173.0216993905
 20
126.7365328312
 30
0.0
  0
SPLINE
  5
2AB
100
AcDbEntity
  8
0
100
AcDbSpline
 62
7
  6
CONTINUOUS
 70
0
 71
3
 72
14
 73
10
 74
0
 42
0.0000001
 43
0.0000001
 44
0.0000000001
 40
0.0
 40
0.0
 40
0.0
 40
0.0
 40
0.2892808833
 40
0.4225428216
 40
0.5484942008
 40
0.6678946614
 40
0.7818675751
 40
0.8919509115
 40
1.0
 40
1.0
 40
1.0
 40
1.0
 10
136.3663438542
 20
100.8061467066
 30
0.0
 10
136.3663438542
 20
98.7786465451
 30
0.0
 10
136.60305698
 20
95.8025932492
 30
0.0
 10
137.5179365629
 20
92.0620096423
 30
0.0
 10
138.4489031067
 20
89.5695302852
 30
0.0
 10
139.6350728332
 20
87.3389153382
 30
0.0
 10
141.068102657
 20
85.3929364566
 30
0.0
 10
142.7340698806
 20
83.7531868863
 30
0.0
 10
143.9950622025
 20
82.8734453381
 30
0.0
 10
144.6508734951
 20
82.4947636519
 30
0.0
  0
SPLINE
  5
2AC
100
AcDbEntity
  8
0
100
AcDbSpline
 62
7
  6
CONTINUOUS
 70
0
 71
3
 72
17
 73
13
 74
0
 42
0.0000001
 43
0.0000001
 44
0.0000000001
 40
0.0
 40
0.0
 40
0.0
 40
0.0
 40
0.1286927684
 40
0.2702768693
 40
0.4174326534
 40
0.5617768258
 40
0.695447592
 40
0.812710456
 40
0.8646767683
 40
0.9125094927
 40
0.9571396037
 40
1.0
 40
1.0
 40
1.0
 40
1.0
 10
50.4525122488
 20
144.2836302524
 30
0.0
 10
49.8973101443
 20
144.6041690853
 30
0.0
 10
48.819621396
 20
145.4334359021
 30
0.0
 10
47.4403629634
 20
147.0027564343
 30
0.0
 10
46.3049480069
 20
148.84928484
 30
0.0
 10
45.5073951335
 20
150.8231490961
 30
0.0
 10
45.1114822173
 20
152.7638354026
 30
0.0
 10
45.1471418203
 20
154.2929755583
 30
0.0
 10
45.4300226415
 20
155.3418542854
 30
0.0
 10
45.7454190354
 20
155.9940906799
 30
0.0
 10
46.1670956849
 20
156.5275574635
 30
0.0
 10
46.5176638926
 20
156.7957726014
 30
0.0
 10
46.7025512681
 20
156.9025600702
 30
0.0
  0
SPLINE
  5
2AD
100
AcDbEntity
  8
0
100
AcDbSpline
 62
7
  6
CONTINUOUS
 70
0
 71
3
 72
15
 73
11
 74
0
 42
0.0000001
 43
0.0000001
 44
0.0000000001
 40
0.0
 40
0.0
 40
0.0
 40
0.0
 40
0.0869269787
 40
0.1863918984
 40
0.3037797627
 40
0.4375877569
 40
0.5820839034
 40
0.7293916416
 40
0.8711748496
 40
1.0
 40
1.0
 40
1.0
 40
1.0
 10
148.4004975393
 20
88.9899684194
 30
0.0
 10
148.5253671401
 20
88.917879575
 30
0.0
 10
148.7520793275
 20
88.6865362812
 30
0.0
 10
148.9169636508
 20
88.1986389253
 30
0.0
 10
148.930898041
 20
87.6109753481
 30
0.0
 10
148.7989205878
 20
86.9635295421
 30
0.0
 10
148.5331034839
 20
86.3057945167
 30
0.0
 10
148.1547029749
 20
85.6901352643
 30
0.0
 10
147.6948641287
 20
85.1670620765
 30
0.0
 10
147.3356233331
 20
84.8905654601
 30
0.0
 10
147.1505702024
 20
84.783725623
 30
0.0
  0
SPLINE
  5
2AE
100
AcDbEntity
  8
0
100
AcDbSpline
 62
7
  6
CONTINUOUS
 70
0
 71
3
 72
13
 73
9
 74
0
 42
0.0000001
 43
0.0000001
 44
0.0000000001
 40
0.0
 40
0.0
 40
0.0
 40
0.0
 40
0.2894090207
 40
0.5482904385
 40
0.6677436531
 40
0.7817699424
 40
0.8919032333
 40
1.0
 40
1.0
 40
1.0
 40
1.0
 10
164.6504973427
 20
141.6309853754
 30
0.0
 10
165.9673380453
 20
142.3912591712
 30
0.0
 10
168.5840876475
 20
143.6377437737
 30
0.0
 10
172.0298659332
 20
144.4675139453
 30
0.0
 10
174.623043979
 20
144.5579135128
 30
0.0
 10
176.4243737006
 20
144.3569408205
 30
0.0
 10
178.114105664
 20
143.8898395478
 30
0.0
 10
179.1583388099
 20
143.4006991952
 30
0.0
 10
179.6501921653
 20
143.1167338169
 30
0.0
  0
SPLINE
  5
2AF
100
AcDbEntity
  8
0
100
AcDbSpline
 62
7
  6
CONTINUOUS
 70
0
 71
3
 72
11
 73
7
 74
0
 42
0.0000001
 43
0.0000001
 44
0.0000000001
 40
0.0
 40
0.0
 40
0.0
 40
0.0
 40
0.2895448512
 40
0.5491358493
 40
0.7822770651
 40
1.0
 40
1.0
 40
1.0
 40
1.0
 10
147.1505702024
 20
84.783725623
 30
0.0
 10
147.0409360102
 20
84.7204286705
 30
0.0
 10
146.8226534685
 20
84.6167243249
 30
0.0
 10
146.4872820749
 20
84.5355440816
 30
0.0
 10
146.1724646433
 20
84.5434791556
 30
0.0
 10
145.9830833838
 20
84.6124009289
 30
0.0
 10
145.9006428655
 20
84.6599949123
 30
0.0
  0
SPLINE
  5
2B0
100
AcDbEntity
  8
0
100
AcDbSpline
 62
7
  6
CONTINUOUS
 70
0
 71
3
 72
15
 73
11
 74
0
 42
0.0000001
 43
0.0000001
 44
0.0000000001
 40
0.0
 40
0.0
 40
0.0
 40
0.0
 40
0.128825143
 40
0.2705983408
 40
0.4178987517
 40
0.5623942948
 40
0.6962070879
 40
0.8135986172
 40
0.913066896
 40
1.0
 40
1.0
 40
1.0
 40
1.0
 10
148.9183297954
 20
128.2603997711
 30
0.0
 10
148.9183297954
 20
128.0467213311
 30
0.0
 10
148.8585041016
 20
127.5973822423
 30
0.0
 10
148.635449129
 20
126.9376455716
 30
0.0
 10
148.2915150907
 20
126.3021313281
 30
0.0
 10
147.8548319639
 20
125.743056894
 30
0.0
 10
147.3601272339
 20
125.3050153137
 30
0.0
 10
146.8442284324
 20
125.0232267262
 30
0.0
 10
146.3392387464
 20
124.9220419401
 30
0.0
 10
146.0255244615
 20
125.0027176698
 30
0.0
 10
145.9006458708
 20
125.0748083227
 30
0.0
  0
SPLINE
  5
2B1
100
AcDbEntity
  8
0
100
AcDbSpline
 62
7
  6
CONTINUOUS
 70
0
 71
3
 72
11
 73
7
 74
0
 42
0.0000001
 43
0.0000001
 44
0.0000000001
 40
0.0
 40
0.0
 40
0.0
 40
0.0
 40
0.2868277548
 40
0.5466662645
 40
0.7818475317
 40
1.0
 40
1.0
 40
1.0
 40
1.0
 10
110.2384039927
 20
180.7202341567
 30
0.0
 10
110.0193915782
 20
180.5937880351
 30
0.0
 10
109.6184310889
 20
180.3217408999
 30
0.0
 10
109.1246723745
 20
179.8340091963
 30
0.0
 10
108.784551861
 20
179.2976880799
 30
0.0
 10
108.6689805148
 20
178.907976793
 30
0.0
 10
108.643640465
 20
178.7173102886
 30
0.0
  0
SPLINE
  5
2B2
100
AcDbEntity
  8
0
100
AcDbSpline
 62
7
  6
CONTINUOUS
 70
0
 71
3
 72
17
 73
13
 74
0
 42
0.0000001
 43
0.0000001
 44
0.0000000001
 40
0.0
 40
0.0
 40
0.0
 40
0.0
 40
0.1293882457
 40
0.2714630183
 40
0.4201717507
 40
0.5673525154
 40
0.7040253729
 40
0.8223441211
 40
0.8734049084
 40
0.919230786
 40
0.9608173294
 40
1.0
 40
1.0
 40
1.0
 40
1.0
 10
82.0249608879
 20
132.2610971824
 30
0.0
 10
82.0249608879
 20
131.7939036561
 30
0.0
 10
82.1749673853
 20
130.8121697171
 30
0.0
 10
82.7319178678
 20
129.3913986023
 30
0.0
 10
83.5693745976
 20
128.040833727
 30
0.0
 10
84.5982385418
 20
126.8567287999
 30
0.0
 10
85.7183116349
 20
125.9233210615
 30
0.0
 10
86.6944947296
 20
125.3812392872
 30
0.0
 10
87.4417443723
 20
125.15713866
 30
0.0
 10
87.9418397471
 20
125.099966839
 30
0.0
 10
88.4006103722
 20
125.1500762064
 30
0.0
 10
88.6758519302
 20
125.2594326291
 30
0.0
 10
88.7983749145
 20
125.3301772293
 30
0.0
  0
SPLINE
  5
2B3
100
AcDbEntity
  8
0
100
AcDbSpline
 62
7
  6
CONTINUOUS
 70
0
 71
3
 72
11
 73
7
 74
0
 42
0.0000001
 43
0.0000001
 44
0.0000000001
 40
0.0
 40
0.0
 40
0.0
 40
0.0
 40
0.2895448512
 40
0.5491358493
 40
0.7822770651
 40
1.0
 40
1.0
 40
1.0
 40
1.0
 10
182.1504244831
 20
145.4055880143
 30
0.0
 10
182.040790291
 20
145.3422910618
 30
0.0
 10
181.8225077493
 20
145.2385867162
 30
0.0
 10
181.4871363556
 20
145.1574064729
 30
0.0
 10
181.172318924
 20
145.1653415469
 30
0.0
 10
180.9829376646
 20
145.2342633202
 30
0.0
 10
180.9004971462
 20
145.2818573036
 30
0.0
  0
SPLINE
  5
2B4
100
AcDbEntity
  8
0
100
AcDbSpline
 62
7
  6
CONTINUOUS
 70
0
 71
3
 72
18
 73
14
 74
0
 42
0.0000001
 43
0.0000001
 44
0.0000000001
 40
0.0
 40
0.0
 40
0.0
 40
0.0
 40
0.1270756318
 40
0.2666997668
 40
0.4121602993
 40
0.4847199946
 40
0.555831139
 40
0.6900455317
 40
0.8092154525
 40
0.8624167475
 40
0.9114379029
 40
0.9569269074
 40
1.0
 40
1.0
 40
1.0
 40
1.0
 10
82.3785128065
 20
132.4652192593
 30
0.0
 10
82.3785128065
 20
132.0111066368
 30
0.0
 10
82.5013039837
 20
131.0569078863
 30
0.0
 10
82.9625235235
 20
129.6513165218
 30
0.0
 10
83.5584488226
 20
128.51349456
 30
0.0
 10
84.146368674
 20
127.6626067937
 30
0.0
 10
84.7785302049
 20
126.8954520573
 30
0.0
 10
85.6296912258
 20
126.0982951924
 30
0.0
 10
86.5780096379
 20
125.5251517917
 30
0.0
 10
87.3302800926
 20
125.270640379
 30
0.0
 10
87.8545085111
 20
125.1871574059
 30
0.0
 10
88.3492990223
 20
125.2063874277
 30
0.0
 10
88.6579580438
 20
125.2909492452
 30
0.0
 10
88.8002138048
 20
125.3497370536
 30
0.0
  0
SPLINE
  5
2B5
100
AcDbEntity
  8
0
100
AcDbSpline
 62
7
  6
CONTINUOUS
 70
0
 71
3
 72
10
 73
6
 74
0
 42
0.0000001
 43
0.0000001
 44
0.0000000001
 40
0.0
 40
0.0
 40
0.0
 40
0.0
 40
0.2436574622
 40
0.5003775796
 40
1.0
 40
1.0
 40
1.0
 40
1.0
 10
189.9005069605
 20
100.5889849275
 30
0.0
 10
190.1139066989
 20
100.7680581653
 30
0.0
 10
190.5154255898
 20
101.1813988922
 30
0.0
 10
191.1669387393
 20
102.1231504637
 30
0.0
 10
191.4955004519
 20
102.9470909472
 30
0.0
 10
191.5996908996
 20
103.5087395528
 30
0.0
  0
SPLINE
  5
2B6
100
AcDbEntity
  8
0
100
AcDbSpline
 62
7
  6
CONTINUOUS
 70
0
 71
3
 72
11
 73
7
 74
0
 42
0.0000001
 43
0.0000001
 44
0.0000000001
 40
0.0
 40
0.0
 40
0.0
 40
0.0
 40
0.2793238805
 40
0.5354603081
 40
0.7728252814
 40
1.0
 40
1.0
 40
1.0
 40
1.0
 10
110.2384039927
 20
181.1284853653
 30
0.0
 10
109.9948040911
 20
180.9878437361
 30
0.0
 10
109.5510175571
 20
180.6736163081
 30
0.0
 10
109.0283841278
 20
180.0864467597
 30
0.0
 10
108.7021901665
 20
179.4275056806
 30
0.0
 10
108.627511511
 20
178.9568036131
 30
0.0
 10
108.6275075403
 20
178.728034304
 30
0.0
  0
SPLINE
  5
2B7
100
AcDbEntity
  8
0
100
AcDbSpline
 62
7
  6
CONTINUOUS
 70
0
 71
3
 72
17
 73
13
 74
0
 42
0.0000001
 43
0.0000001
 44
0.0000000001
 40
0.0
 40
0.0
 40
0.0
 40
0.0
 40
0.0391807462
 40
0.0807659327
 40
0.1265911113
 40
0.1776520692
 40
0.2959712069
 40
0.4326419951
 40
0.5798252245
 40
0.7285355243
 40
0.8706069434
 40
1.0
 40
1.0
 40
1.0
 40
1.0
 10
119.6275073871
 20
178.7280606505
 30
0.0
 10
119.6275129044
 20
178.8695339087
 30
0.0
 10
119.5846059195
 20
179.1625675252
 30
0.0
 10
119.3986134096
 20
179.5849124232
 30
0.0
 10
119.099057134
 20
179.9894150281
 30
0.0
 10
118.5313448197
 20
180.5244895288
 30
0.0
 10
117.5738023461
 20
181.0988428077
 30
0.0
 10
116.2054024912
 20
181.6021339215
 30
0.0
 10
114.6655002764
 20
181.9011044389
 30
0.0
 10
113.0771479983
 20
181.9510786026
 30
0.0
 10
111.5682358843
 20
181.7230498756
 30
0.0
 10
110.6430207869
 20
181.3620895859
 30
0.0
 10
110.2384039927
 20
181.1284853653
 30
0.0
  0
ENDSEC
  0
SECTION
  2
OBJECTS
  0
DICTIONARY
  5
C
100
AcDbDictionary
280
0
281
1
  3
ACAD_GROUP
350
D
  3
ACAD_MLINESTYLE
350
17
  3
ACAD_LAYOUT
350
1A
  3
ACAD_PLOTSETTINGS
350
19
  3
ACAD_PLOTSTYLENAME
350
E
  0
DICTIONARY
  5
D
102
{ACAD_REACTORS
330
C
102
}
100
AcDbDictionary
280
0
281
1
  0
ACDBDICTIONARYWDFLT
  5
E
102
{ACAD_REACTORS
330
C
102
}
100
AcDbDictionary
281
1
  3
Normal
350
F
100
AcDbDictionaryWithDefault
340
F
  0
DICTIONARY
  5
17
102
{ACAD_REACTORS
330
C
102
}
100
AcDbDictionary
280
0
281
1
  3
Standard
350
18
  0
DICTIONARY
  5
19
102
{ACAD_REACTORS
330
C
102
}
100
AcDbDictionary
281
1
  0
DICTIONARY
  5
1A
102
{ACAD_REACTORS
330
C
102
}
100
AcDbDictionary
281
1
  3
Model
350
2B8
  3
Layout1
350
2B9
  0
ACDBPLACEHOLDER
  5
F
102
{ACAD_REACTORS
330
E
102
}
  0
MLINESTYLE
  5
18
102
{ACAD_REACTORS
330
17
102
}
100
AcDbMlineStyle
  2
STANDARD
 70
0
  3

 62
256
 51
90.0
 52
90.0
 71
2
 49
0.5
 62
256
  6
BYLAYER
 49
-0.5
 62
256
  6
BYLAYER
  0
LAYOUT
  5
2B8
102
{ACAD_REACTORS
330
1A
102
}
100
AcDbPlotSettings
  1

  2
none_device
  4

  6

 40
0.0
 41
0.0
 42
0.0
 43
0.0
 44
210.0
 45
297.0
 46
0.0
 47
0.0
 48
0.0
 49
0.0
140
0.0
141
0.0
142
1.0
143
1.0
 70
1024
 72
1
 73
0
 74
0
  7

 75
0
147
1.0
148
0.0
149
0.0
100
AcDbLayout
  1
Model
 70
0
 71
0
 10
0.0
 20
0.0
 11
210.0
 21
297.0
 12
0.0
 22
0.0
 32
0.0
 14
0.0
 24
0.0
 34
0.0
 15
0.0
 25
0.0
 35
0.0
146
0.0
 13
0.0
 23
0.0
 33
0.0
 16
1.0
 26
0.0
 36
0.0
 17
0.0
 27
1.0
 37
0.0
 76
0
330
210
345
0
346
0
  0
LAYOUT
  5
2B9
102
{ACAD_REACTORS
330
1A
102
}
100
AcDbPlotSettings
  1

  2
none_device
  4

  6

 40
0.0
 41
0.0
 42
0.0
 43
0.0
 44
210.0
 45
297.0
 46
0.0
 47
0.0
 48
0.0
 49
0.0
140
0.0
141
0.0
142
1.0
143
1.0
 70
0
 72
1
 73
0
 74
0
  7

 75
0
147
1.0
148
0.0
149
0.0
100
AcDbLayout
  1
Layout1
 70
0
 71
1
 10
0.0
 20
0.0
 11
210.0
 21
297.0
 12
0.0
 22
0.0
 32
0.0
 14
0.0
 24
0.0
 34
0.0
 15
0.0
 25
0.0
 35
0.0
146
0.0
 13
0.0
 23
0.0
 33
0.0
 16
1.0
 26
0.0
 36
0.0
 17
0.0
 27
1.0
 37
0.0
 76
0
330
211
345
0
346
0
  0
ENDSEC
  0
EOF
