999
DXF file: C:\Users\sesa63760\Dev\_Creo\CAD\MCADID0000485_3D-CAD\drw0001_1.dxf
999
Pro/ENGINEER 2019471 by Parametric Technology Corporation
  0
SECTION
  2
HEADER
  9
$ACADVER
  1
AC1024
  9
$DWGCODEPAGE
  3
ANSI_1252
  9
$EXTMAX
 10
290.5114425114
 20
410.8661829804
 30
0.0
  9
$EXTMIN
 10
0.0
 20
0.0
 30
0.0
  9
$LIMMIN
 10
0.0
 20
0.0
  9
$LIMMAX
 10
290.5114425114
 20
410.8661829804
  9
$VIEWCTR
 10
145.2557212557
 20
205.4330914902
  9
$VIEWSIZE
 40
410.8661829804
  9
$CLAYER
  8
0
  9
$LTSCALE
 40
26.7823882239
  9
$CELTYPE
  6
BYLAYER
  9
$DIMSCALE
 40
1.0
  9
$DIMASZ
 40
3.4584695537
  9
$DIMEXO
 40
1.0
  9
$DIMDLI
 40
18.5041955002
  9
$DIMEXE
 40
1.0
  9
$DIMCEN
 40
4.3825726185
  9
$DIMLFAC
 40
1.0
  9
$DIMBLK
  1
_FILLED
  9
$DIMALT
 70
0
  9
$DIMALTF
 40
0.0393700787
  9
$DIMTXT
 40
4.8418573752
  9
$DIMTOL
 70
1
  9
$DIMLIM
 70
0
  9
$DIMTFAC
 40
1.0
  9
$DIMTP
 40
0.01
  9
$DIMTM
 40
0.01
  9
$DIMGAP
 40
0.625
  9
$DIMDSEP
 70
46
  9
$AUNITS
 70
0
  9
$PDMODE
 70
3
  9
$PDSIZE
 40
0.3125
  9
$HANDSEED
  5
3FC
  9
$TILEMODE
 70
1
  9
$MEASUREMENT
 70
1
  9
$INSUNITS
 70
4
  0
ENDSEC
  0
SECTION
  2
CLASSES
  0
CLASS
  1
ACDBDICTIONARYWDFLT
  2
AcDbDictionaryWithDefault
  3
AutoCAD 2000
 90
0
 91
1
280
0
281
0
  0
CLASS
  1
ACDBPLACEHOLDER
  2
AcDbPlaceHolder
  3
AutoCAD 2000
 90
0
 91
1
280
0
281
0
  0
CLASS
  1
LAYOUT
  2
AcDbLayout
  3
AutoCAD 2000
 90
0
 91
0
280
0
281
0
  0
ENDSEC
  0
SECTION
  2
TABLES
  0
TABLE
  2
VPORT
  5
8
100
AcDbSymbolTable
 70
2
  0
VPORT
  5
1F4
100
AcDbSymbolTableRecord
100
AcDbViewportTableRecord
  2
*ACTIVE
 70
0
 10
0.0
 20
0.0
 11
1.0
 21
1.0
 12
145.2557212557
 22
205.4330914902
 13
0.0
 23
0.0
 14
1.0
 24
1.0
 15
0.0
 25
0.0
 16
0.0
 26
0.0
 36
1.0
 17
0.0
 27
0.0
 37
0.0
 40
410.8661829804
 41
0.7070707071
 42
50.0
 43
0.0
 44
0.0
 50
0.0
 51
0.0
 71
0
 72
100
 73
1
 74
1
 75
0
 76
0
 77
0
 78
0
  0
ENDTAB
  0
TABLE
  2
LTYPE
  5
5
100
AcDbSymbolTable
 70
6
  0
LTYPE
  5
14
100
AcDbSymbolTableRecord
100
AcDbLinetypeTableRecord
  2
BYBLOCK
 70
0
  3

 72
65
 73
0
 40
0.0
  0
LTYPE
  5
15
100
AcDbSymbolTableRecord
100
AcDbLinetypeTableRecord
  2
BYLAYER
 70
0
  3

 72
65
 73
0
 40
0.0
  0
LTYPE
  5
16
100
AcDbSymbolTableRecord
100
AcDbLinetypeTableRecord
  2
CONTINUOUS
 70
64
  3
Solid line
 72
65
 73
0
 40
0.0
  0
LTYPE
  5
1F5
100
AcDbSymbolTableRecord
100
AcDbLinetypeTableRecord
  2
CENTER
 70
64
  3
____ _ ____ _ ____ _ ____ _ ____ _ ____ _ ____
 72
65
 73
4
 40
0.6
 49
0.375
 74
0
 49
-0.075
 74
0
 49
0.075
 74
0
 49
-0.075
 74
0
  0
LTYPE
  5
1F6
100
AcDbSymbolTableRecord
100
AcDbLinetypeTableRecord
  2
HIDDEN
 70
64
  3
- - - - - - - - - - - - - - - - - - - -
 72
65
 73
2
 40
0.2
 49
0.1
 74
0
 49
-0.1
 74
0
  0
LTYPE
  5
1F7
100
AcDbSymbolTableRecord
100
AcDbLinetypeTableRecord
  2
PHANTOM
 70
64
  3
_____ _ _ _____ _ _ _____ _ _ _____
 72
65
 73
6
 40
0.8
 49
0.45
 74
0
 49
-0.05
 74
0
 49
0.1
 74
0
 49
-0.05
 74
0
 49
0.1
 74
0
 49
-0.05
 74
0
  0
LTYPE
  5
1F8
100
AcDbSymbolTableRecord
100
AcDbLinetypeTableRecord
  2
DOT
 70
64
  3
. . . . . . . . . . . . . . . . . . . .
 72
65
 73
2
 40
0.2
 49
0.1
 74
0
 49
-0.1
 74
0
  0
LTYPE
  5
1F9
100
AcDbSymbolTableRecord
100
AcDbLinetypeTableRecord
  2
DASHED
 70
64
  3
- - - - - - - - - - - - - - - - - - - -
 72
65
 73
2
 40
0.2
 49
0.1
 74
0
 49
-0.1
 74
0
  0
ENDTAB
  0
TABLE
  2
LAYER
  5
2
100
AcDbSymbolTable
 70
36
  0
LAYER
  5
10
100
AcDbSymbolTableRecord
100
AcDbLayerTableRecord
  2
0
 70
0
 62
7
  6
CONTINUOUS
370
-3
390
F
  0
LAYER
  5
1FA
100
AcDbSymbolTableRecord
100
AcDbLayerTableRecord
  2
DEFAULT_1
 70
0
 62
7
  6
CENTER
370
-3
390
F
  0
LAYER
  5
1FB
100
AcDbSymbolTableRecord
100
AcDbLayerTableRecord
  2
DEFAULT_2
 70
0
 62
8
  6
HIDDEN
370
-3
390
F
  0
LAYER
  5
1FC
100
AcDbSymbolTableRecord
100
AcDbLayerTableRecord
  2
DEFAULT_3
 70
0
 62
7
  6
PHANTOM
370
-3
390
F
  0
LAYER
  5
1FD
100
AcDbSymbolTableRecord
100
AcDbLayerTableRecord
  2
00_COMPONENTS
 70
0
 62
7
  6
CONTINUOUS
370
-3
390
F
  0
LAYER
  5
1FE
100
AcDbSymbolTableRecord
100
AcDbLayerTableRecord
  2
01_1_DEFAULT_DATUMS
 70
0
 62
7
  6
CONTINUOUS
370
-3
390
F
  0
LAYER
  5
1FF
100
AcDbSymbolTableRecord
100
AcDbLayerTableRecord
  2
01_PLANES
 70
0
 62
7
  6
CONTINUOUS
370
-3
390
F
  0
LAYER
  5
200
100
AcDbSymbolTableRecord
100
AcDbLayerTableRecord
  2
02_COORD_SYS
 70
0
 62
7
  6
CONTINUOUS
370
-3
390
F
  0
LAYER
  5
201
100
AcDbSymbolTableRecord
100
AcDbLayerTableRecord
  2
03_AXES
 70
0
 62
7
  6
CONTINUOUS
370
-3
390
F
  0
LAYER
  5
202
100
AcDbSymbolTableRecord
100
AcDbLayerTableRecord
  2
04_POINTS
 70
0
 62
7
  6
CONTINUOUS
370
-3
390
F
  0
LAYER
  5
203
100
AcDbSymbolTableRecord
100
AcDbLayerTableRecord
  2
05_CURVES
 70
0
 62
7
  6
CONTINUOUS
370
-3
390
F
  0
LAYER
  5
204
100
AcDbSymbolTableRecord
100
AcDbLayerTableRecord
  2
06_SURFS
 70
0
 62
7
  6
CONTINUOUS
370
-3
390
F
  0
LAYER
  5
205
100
AcDbSymbolTableRecord
100
AcDbLayerTableRecord
  2
07_COSMETICS
 70
0
 62
7
  6
CONTINUOUS
370
-3
390
F
  0
LAYER
  5
206
100
AcDbSymbolTableRecord
100
AcDbLayerTableRecord
  2
10_NOTES
 70
0
 62
7
  6
CONTINUOUS
370
-3
390
F
  0
LAYER
  5
207
100
AcDbSymbolTableRecord
100
AcDbLayerTableRecord
  2
11_NOTES_PUB
 70
0
 62
7
  6
CONTINUOUS
370
-3
390
F
  0
LAYER
  5
208
100
AcDbSymbolTableRecord
100
AcDbLayerTableRecord
  2
13_REF_GTOL
 70
0
 62
7
  6
CONTINUOUS
370
-3
390
F
  0
LAYER
  5
209
100
AcDbSymbolTableRecord
100
AcDbLayerTableRecord
  2
16_MISC
 70
0
 62
7
  6
CONTINUOUS
370
-3
390
F
  0
LAYER
  5
20A
100
AcDbSymbolTableRecord
100
AcDbLayerTableRecord
  2
17_NO_PRINT
 70
0
 62
7
  6
CONTINUOUS
370
-3
390
F
  0
LAYER
  5
20B
100
AcDbSymbolTableRecord
100
AcDbLayerTableRecord
  2
18_DATUM_CAMS_JOINTS
 70
0
 62
7
  6
CONTINUOUS
370
-3
390
F
  0
LAYER
  5
20C
100
AcDbSymbolTableRecord
100
AcDbLayerTableRecord
  2
19_DATUM_FUNCTIONAL
 70
0
 62
7
  6
CONTINUOUS
370
-3
390
F
  0
LAYER
  5
20D
100
AcDbSymbolTableRecord
100
AcDbLayerTableRecord
  2
20_DATUM_KINEMATIC_SCHEME
 70
0
 62
7
  6
CONTINUOUS
370
-3
390
F
  0
ENDTAB
  0
TABLE
  2
STYLE
  5
3
100
AcDbSymbolTable
 70
1
  0
STYLE
  5
11
100
AcDbSymbolTableRecord
100
AcDbTextStyleTableRecord
  2
STANDARD
 70
0
 40
0.0
 41
0.8
 50
0.0
 71
0
 42
0.2
  3
txt
  4

  0
STYLE
  5
20E
100
AcDbSymbolTableRecord
100
AcDbTextStyleTableRecord
  2
TEXTSTYLE_1
 70
0
 40
0.0
 41
0.8
 50
0.0
 71
0
 42
0.2
  3
gdt
  4

  0
ENDTAB
  0
TABLE
  2
VIEW
  5
6
100
AcDbSymbolTable
 70
0
  0
ENDTAB
  0
TABLE
  2
UCS
  5
7
100
AcDbSymbolTable
 70
0
  0
ENDTAB
  0
TABLE
  2
APPID
  5
9
100
AcDbSymbolTable
 70
1
  0
APPID
  5
20F
100
AcDbSymbolTableRecord
100
AcDbRegAppTableRecord
  2
ACAD
 70
0
  0
ENDTAB
  0
TABLE
  2
BLOCK_RECORD
  5
1
100
AcDbSymbolTable
 70
0
  0
BLOCK_RECORD
  5
210
100
AcDbSymbolTableRecord
100
AcDbBlockTableRecord
  2
*Model_Space
  0
BLOCK_RECORD
  5
211
100
AcDbSymbolTableRecord
100
AcDbBlockTableRecord
  2
*Paper_Space
  0
BLOCK_RECORD
  5
212
100
AcDbSymbolTableRecord
100
AcDbBlockTableRecord
  2
_FILLED
  0
ENDTAB
  0
TABLE
  2
DIMSTYLE
  5
A
100
AcDbSymbolTable
 70
1
100
AcDbDimStyleTable
 71
0
  0
DIMSTYLE
105
213
100
AcDbSymbolTableRecord
100
AcDbDimStyleTableRecord
  2
STANDARD
 70
0
  3

  4

 40
1.0
 41
3.4584695537
 42
1.0
 43
0.38
 44
1.0
 45
0.0
 46
0.0
 47
0.01
 48
0.01
140
4.8418573752
141
0.09
142
0.0
143
25.4
144
1.0
145
0.0
146
1.0
147
0.625
 71
1
 72
0
 73
0
 74
0
 75
0
 76
0
 77
1
 78
8
 79
2
170
0
171
1
172
0
173
0
174
0
175
0
176
0
177
0
178
0
270
2
179
2
271
2
272
2
273
2
274
2
275
0
280
0
281
0
282
0
283
1
284
8
285
0
286
0
287
3
288
0
340
11
278
46
341
212
342
212
343
212
344
212
  0
ENDTAB
  0
ENDSEC
  0
SECTION
  2
BLOCKS
  0
BLOCK
  5
20
100
AcDbEntity
  8
0
100
AcDbBlockBegin
  2
*Model_Space
 70
0
 10
0.0
 20
0.0
 30
0.0
  3
*Model_Space
  1

  0
ENDBLK
  5
21
100
AcDbEntity
  8
0
100
AcDbBlockEnd
  0
BLOCK
  5
1C
100
AcDbEntity
  8
0
100
AcDbBlockBegin
  2
*Paper_Space
 70
0
 10
0.0
 20
0.0
 30
0.0
  3
*Paper_Space
  1

  0
ENDBLK
  5
1D
100
AcDbEntity
  8
0
100
AcDbBlockEnd
  0
BLOCK
  5
214
100
AcDbEntity
  8
0
100
AcDbBlockBegin
  2
_FILLED
 70
64
 10
0.0
 20
0.0
  3
_FILLED
  1

  0
SOLID
  5
215
100
AcDbEntity
  8
0
  6
BYBLOCK
 62
0
100
AcDbTrace
 10
0.0
 20
0.0
 11
-1.0
 21
0.25
 12
-1.0
 22
-0.25
 13
-1.0
 23
-0.25
  0
ENDBLK
  5
216
100
AcDbEntity
  8
0
  6
BYBLOCK
 62
0
100
AcDbBlockEnd
  0
ENDSEC
  0
SECTION
  2
ENTITIES
  0
LINE
  5
217
100
AcDbEntity
  8
0
100
AcDbLine
 62
7
  6
CONTINUOUS
 10
39.4555609455
 20
339.0925114911
 11
34.9231664042
 21
336.0450375784
  0
LINE
  5
218
100
AcDbEntity
  8
0
100
AcDbLine
 62
7
  6
CONTINUOUS
 10
38.2988829587
 20
335.8017929215
 11
43.3230934349
 21
338.8138279586
  0
LINE
  5
219
100
AcDbEntity
  8
0
100
AcDbLine
 62
7
  6
CONTINUOUS
 10
34.5331709482
 20
332.1178810284
 11
34.8867228669
 21
332.3220031054
  0
LINE
  5
21A
100
AcDbEntity
  8
0
100
AcDbLine
 62
7
  6
CONTINUOUS
 10
39.3113207916
 20
333.8881702045
 11
39.557392927
 21
334.0302391701
  0
LINE
  5
21B
100
AcDbEntity
  8
0
100
AcDbLine
 62
7
  6
CONTINUOUS
 10
63.6015605961
 20
341.5105320603
 11
63.3951270347
 21
341.3913482995
  0
LINE
  5
21C
100
AcDbEntity
  8
0
100
AcDbLine
 62
7
  6
CONTINUOUS
 10
62.4025582044
 20
333.7754957019
 11
64.8774216346
 21
335.2043502405
  0
LINE
  5
21D
100
AcDbEntity
  8
0
100
AcDbLine
 62
7
  6
CONTINUOUS
 10
65.2264052986
 20
335.2903649686
 11
65.7052356317
 21
335.5668161401
  0
LINE
  5
21E
100
AcDbEntity
  8
0
100
AcDbLine
 62
7
  6
CONTINUOUS
 10
68.7457821317
 20
337.3222660018
 11
71.6449078643
 21
338.9960670327
  0
LINE
  5
21F
100
AcDbEntity
  8
0
100
AcDbLine
 62
7
  6
CONTINUOUS
 10
63.9525512652
 20
333.621970437
 11
66.4274146955
 21
335.0508249755
  0
LINE
  5
220
100
AcDbEntity
  8
0
100
AcDbLine
 62
7
  6
CONTINUOUS
 10
62.9525557421
 20
332.8228663362
 11
59.3910478266
 21
330.7666410565
  0
LINE
  5
221
100
AcDbEntity
  8
0
100
AcDbLine
 62
7
  6
CONTINUOUS
 10
64.3767900158
 20
336.7180833209
 11
56.5279374227
 21
332.4196212234
  0
LINE
  5
222
100
AcDbEntity
  8
0
100
AcDbLine
 62
7
  6
CONTINUOUS
 10
71.4478325095
 20
340.0337289825
 11
67.2052094862
 21
337.7102359569
  0
LINE
  5
223
100
AcDbEntity
  8
0
100
AcDbLine
 62
7
  6
CONTINUOUS
 10
68.1244521289
 20
337.179522976
 11
65.7910094661
 21
335.9016018118
  0
LINE
  5
224
100
AcDbEntity
  8
0
100
AcDbLine
 62
7
  6
CONTINUOUS
 10
67.1005882894
 20
339.3616100522
 11
69.9541197485
 21
340.8961049377
  0
LINE
  5
225
100
AcDbEntity
  8
0
100
AcDbLine
 62
7
  6
CONTINUOUS
 10
63.686843273
 20
341.3324920691
 11
50.8544577457
 21
334.4656911144
  0
LINE
  5
226
100
AcDbEntity
  8
0
100
AcDbLine
 62
7
  6
CONTINUOUS
 10
62.1558554759
 20
341.5062127356
 11
49.8919170721
 21
335.0214016595
  0
LINE
  5
227
100
AcDbEntity
  8
0
100
AcDbLine
 62
7
  6
CONTINUOUS
 10
65.7054945547
 20
335.5663684282
 11
65.7910094661
 21
335.6109724692
  0
LINE
  5
228
100
AcDbEntity
  8
0
100
AcDbLine
 62
7
  6
CONTINUOUS
 10
67.5409933001
 20
335.1833114785
 11
69.3707793337
 21
336.2397326316
  0
LINE
  5
229
100
AcDbEntity
  8
0
100
AcDbLine
 62
7
  6
CONTINUOUS
 10
60.1893994893
 20
330.3057229343
 11
59.1246571089
 21
329.6909973038
  0
LINE
  5
22A
100
AcDbEntity
  8
0
100
AcDbLine
 62
7
  6
CONTINUOUS
 10
60.9077860361
 20
328.6615306273
 11
66.6121166689
 21
331.9549077949
  0
LINE
  5
22B
100
AcDbEntity
  8
0
100
AcDbLine
 62
7
  6
CONTINUOUS
 10
61.0689591808
 20
328.5684793739
 11
66.8872574218
 21
331.927655378
  0
LINE
  5
22C
100
AcDbEntity
  8
0
100
AcDbLine
 62
7
  6
CONTINUOUS
 10
71.4424885004
 20
332.1554362667
 11
63.150136811
 21
327.3669380914
  0
LINE
  5
22D
100
AcDbEntity
  8
0
100
AcDbLine
 62
7
  6
CONTINUOUS
 10
71.8014486066
 20
331.4493724208
 11
69.3265851763
 21
330.0205178822
  0
LINE
  5
22E
100
AcDbEntity
  8
0
100
AcDbLine
 62
7
  6
CONTINUOUS
 10
69.3265851763
 20
329.9906974565
 11
65.6977045487
 21
327.8955747555
  0
LINE
  5
22F
100
AcDbEntity
  8
0
100
AcDbLine
 62
7
  6
CONTINUOUS
 10
51.6000111101
 20
313.6651382149
 11
51.6707214939
 21
313.7059626302
  0
LINE
  5
230
100
AcDbEntity
  8
0
100
AcDbLine
 62
7
  6
CONTINUOUS
 10
53.0999610208
 20
313.5166405013
 11
53.1706714045
 21
313.5574649168
  0
LINE
  5
231
100
AcDbEntity
  8
0
100
AcDbLine
 62
7
  6
CONTINUOUS
 10
63.8664679238
 20
326.9533734867
 11
71.8014486066
 21
331.5337025759
  0
LINE
  5
232
100
AcDbEntity
  8
0
100
AcDbLine
 62
7
  6
CONTINUOUS
 10
60.1893994893
 20
330.3057229343
 11
59.0965552975
 21
329.7072215251
  0
LINE
  5
233
100
AcDbEntity
  8
0
100
AcDbLine
 62
7
  6
CONTINUOUS
 10
68.6194483667
 20
334.2686387938
 11
70.9528910295
 21
335.5465599579
  0
LINE
  5
234
100
AcDbEntity
  8
0
100
AcDbLine
 62
7
  6
CONTINUOUS
 10
71.8721336715
 20
335.0158469774
 11
76.1147566948
 21
337.3393400031
  0
LINE
  5
235
100
AcDbEntity
  8
0
100
AcDbLine
 62
7
  6
CONTINUOUS
 10
63.9204099308
 20
326.922230759
 11
72.8621067176
 21
331.8191942666
  0
LINE
  5
236
100
AcDbEntity
  8
0
100
AcDbLine
 62
7
  6
CONTINUOUS
 10
51.0493422284
 20
303.1878528574
 11
51.1200526121
 21
303.2286772727
  0
LINE
  5
237
100
AcDbEntity
  8
0
100
AcDbLine
 62
7
  6
CONTINUOUS
 10
63.9894501993
 20
307.3113813728
 11
63.9187398156
 21
307.2705569573
  0
LINE
  5
238
100
AcDbEntity
  8
0
100
AcDbLine
 62
7
  6
CONTINUOUS
 10
51.0493422284
 20
303.1878528574
 11
51.2564650384
 21
303.6456200123
  0
LINE
  5
239
100
AcDbEntity
  8
0
100
AcDbLine
 62
7
  6
CONTINUOUS
 10
66.040068991
 20
303.5963274421
 11
66.1107793747
 21
303.6371518575
  0
LINE
  5
23A
100
AcDbEntity
  8
0
100
AcDbLine
 62
7
  6
CONTINUOUS
 10
66.1107793747
 20
301.024344123
 11
66.040068991
 21
300.9835197076
  0
LINE
  5
23B
100
AcDbEntity
  8
0
100
AcDbLine
 62
7
  6
CONTINUOUS
 10
65.4186897262
 20
299.6102370062
 11
65.48940011
 21
299.6510614216
  0
LINE
  5
23C
100
AcDbEntity
  8
0
100
AcDbLine
 62
7
  6
CONTINUOUS
 10
33.7026697449
 20
182.6180353482
 11
33.7026697449
 21
333.1480921147
  0
LINE
  5
23D
100
AcDbEntity
  8
0
100
AcDbLine
 62
7
  6
CONTINUOUS
 10
34.5331709482
 20
182.6892879422
 11
34.5331709482
 21
332.1178810284
  0
LINE
  5
23E
100
AcDbEntity
  8
0
100
AcDbLine
 62
7
  6
CONTINUOUS
 10
34.8867228669
 20
182.8934100192
 11
34.8867228669
 21
332.3220031054
  0
LINE
  5
23F
100
AcDbEntity
  8
0
100
AcDbLine
 62
7
  6
CONTINUOUS
 10
35.0686624408
 20
182.9984607941
 11
35.0686624408
 21
331.4386002289
  0
LINE
  5
240
100
AcDbEntity
  8
0
100
AcDbLine
 62
7
  6
CONTINUOUS
 10
50.9786318447
 20
309.6790477798
 11
50.9786318447
 21
312.2918555138
  0
LINE
  5
241
100
AcDbEntity
  8
0
100
AcDbLine
 62
7
  6
CONTINUOUS
 10
51.0493422284
 20
192.7967260621
 11
51.0493422284
 21
303.1878528574
  0
LINE
  5
242
100
AcDbEntity
  8
0
100
AcDbLine
 62
7
  6
CONTINUOUS
 10
51.1200526121
 20
192.8375504775
 11
51.1200526121
 21
303.2286772727
  0
LINE
  5
243
100
AcDbEntity
  8
0
100
AcDbLine
 62
7
  6
CONTINUOUS
 10
117.8557785555
 20
308.4868338447
 11
117.4807386177
 21
308.2703057282
  0
LINE
  5
244
100
AcDbEntity
  8
0
100
AcDbLine
 62
7
  6
CONTINUOUS
 10
119.2699980077
 20
307.6703523368
 11
118.8949580668
 21
307.4538242184
  0
LINE
  5
245
100
AcDbEntity
  8
0
100
AcDbLine
 62
7
  6
CONTINUOUS
 10
117.7636154795
 20
300.5952852376
 11
117.9050362477
 21
300.6769340688
  0
LINE
  5
246
100
AcDbEntity
  8
0
100
AcDbLine
 62
7
  6
CONTINUOUS
 10
118.6121400849
 20
301.0851782227
 11
118.7535608518
 21
301.1668270531
  0
LINE
  5
247
100
AcDbEntity
  8
0
100
AcDbLine
 62
7
  6
CONTINUOUS
 10
119.460664689
 20
301.575071207
 11
119.6020854572
 21
301.6567200382
  0
LINE
  5
248
100
AcDbEntity
  8
0
100
AcDbLine
 62
7
  6
CONTINUOUS
 10
120.3091892944
 20
302.0649641921
 11
120.4506100613
 21
302.1466130226
  0
LINE
  5
249
100
AcDbEntity
  8
0
100
AcDbLine
 62
7
  6
CONTINUOUS
 10
122.0962096786
 20
307.8709486934
 11
121.4139751581
 21
307.4973196573
  0
LINE
  5
24A
100
AcDbEntity
  8
0
100
AcDbLine
 62
7
  6
CONTINUOUS
 10
117.5620369544
 20
305.3877870634
 11
111.8267679086
 21
302.2468392216
  0
LINE
  5
24B
100
AcDbEntity
  8
0
100
AcDbLine
 62
7
  6
CONTINUOUS
 10
113.9388727988
 20
301.0170652336
 11
124.2113761472
 21
306.6428513935
  0
LINE
  5
24C
100
AcDbEntity
  8
0
100
AcDbLine
 62
7
  6
CONTINUOUS
 10
120.2767512708
 20
302.4993030014
 11
115.6834374058
 21
299.9837524396
  0
LINE
  5
24D
100
AcDbEntity
  8
0
100
AcDbLine
 62
7
  6
CONTINUOUS
 10
205.4164053369
 20
103.0975299682
 11
204.9164184218
 21
103.1470354605
  0
LINE
  5
24E
100
AcDbEntity
  8
0
100
AcDbLine
 62
7
  6
CONTINUOUS
 10
64.3767900158
 20
336.7180833209
 11
64.3767900158
 21
334.9153121659
  0
LINE
  5
24F
100
AcDbEntity
  8
0
100
AcDbLine
 62
7
  6
CONTINUOUS
 10
65.7910094661
 20
335.6109724692
 11
65.7910094661
 21
335.9016018118
  0
LINE
  5
250
100
AcDbEntity
  8
0
100
AcDbLine
 62
7
  6
CONTINUOUS
 10
66.040068991
 20
303.5963274421
 11
66.040068991
 21
300.9835197076
  0
LINE
  5
251
100
AcDbEntity
  8
0
100
AcDbLine
 62
7
  6
CONTINUOUS
 10
66.1107793747
 20
303.6371518575
 11
66.1107793747
 21
301.024344123
  0
LINE
  5
252
100
AcDbEntity
  8
0
100
AcDbLine
 62
7
  6
CONTINUOUS
 10
124.1276030058
 20
296.9211184469
 11
124.269023774
 21
297.0027672781
  0
LINE
  5
253
100
AcDbEntity
  8
0
100
AcDbLine
 62
7
  6
CONTINUOUS
 10
124.9761276112
 20
297.411011432
 11
125.1175483781
 21
297.4926602624
  0
LINE
  5
254
100
AcDbEntity
  8
0
100
AcDbLine
 62
7
  6
CONTINUOUS
 10
125.8246522153
 20
297.9009044163
 11
125.9660729835
 21
297.9825532475
  0
LINE
  5
255
100
AcDbEntity
  8
0
100
AcDbLine
 62
7
  6
CONTINUOUS
 10
126.6731768207
 20
298.3907974014
 11
126.8145975877
 21
298.4724462319
  0
LINE
  5
256
100
AcDbEntity
  8
0
100
AcDbLine
 62
7
  6
CONTINUOUS
 10
130.9158233957
 20
300.5137313924
 11
131.2908633333
 21
300.7302595088
  0
LINE
  5
257
100
AcDbEntity
  8
0
100
AcDbLine
 62
7
  6
CONTINUOUS
 10
132.330042846
 20
299.6972498834
 11
132.7050827836
 21
299.9137779998
  0
LINE
  5
258
100
AcDbEntity
  8
0
100
AcDbLine
 62
7
  6
CONTINUOUS
 10
123.553278062
 20
295.5432877679
 11
128.086265734
 21
298.0258003983
  0
LINE
  5
259
100
AcDbEntity
  8
0
100
AcDbLine
 62
7
  6
CONTINUOUS
 10
135.551481697
 20
300.1254299974
 11
134.849059936
 21
299.7407453215
  0
LINE
  5
25A
100
AcDbEntity
  8
0
100
AcDbLine
 62
7
  6
CONTINUOUS
 10
130.9971217328
 20
297.6312127278
 11
125.2471883653
 21
294.4822338993
  0
LINE
  5
25B
100
AcDbEntity
  8
0
100
AcDbLine
 62
7
  6
CONTINUOUS
 10
127.4253632038
 20
293.2886434381
 11
137.6478094321
 21
298.8870155741
  0
LINE
  5
25C
100
AcDbEntity
  8
0
100
AcDbLine
 62
7
  6
CONTINUOUS
 10
218.1590278501
 20
70.8172508363
 11
38.2988829583
 21
174.6572047324
  0
LINE
  5
25D
100
AcDbEntity
  8
0
100
AcDbLine
 62
7
  6
CONTINUOUS
 10
68.1244521289
 20
337.179522976
 11
68.1244521289
 21
335.5201695796
  0
LINE
  5
25E
100
AcDbEntity
  8
0
100
AcDbLine
 62
7
  6
CONTINUOUS
 10
68.6194483667
 20
334.2686387938
 11
68.6194483667
 21
333.9780094512
  0
LINE
  5
25F
100
AcDbEntity
  8
0
100
AcDbLine
 62
7
  6
CONTINUOUS
 10
69.3265851763
 20
329.9906974565
 11
69.3265851763
 21
330.0205178822
  0
LINE
  5
260
100
AcDbEntity
  8
0
100
AcDbLine
 62
7
  6
CONTINUOUS
 10
71.4478325095
 20
340.0337289826
 11
71.4478325095
 21
338.8822862027
  0
LINE
  5
261
100
AcDbEntity
  8
0
100
AcDbLine
 62
7
  6
CONTINUOUS
 10
71.8014486066
 20
331.5337025773
 11
71.8014486066
 21
331.4493724195
  0
LINE
  5
262
100
AcDbEntity
  8
0
100
AcDbLine
 62
7
  6
CONTINUOUS
 10
117.366816332
 20
306.8981291913
 11
117.6076851413
 21
307.4087249636
  0
LINE
  5
263
100
AcDbEntity
  8
0
100
AcDbLine
 62
7
  6
CONTINUOUS
 10
117.512729017
 20
305.7692624128
 11
117.7535978274
 21
306.2798581896
  0
LINE
  5
264
100
AcDbEntity
  8
0
100
AcDbLine
 62
7
  6
CONTINUOUS
 10
117.1828567139
 20
299.5893759635
 11
117.7636154795
 21
300.5952852376
  0
LINE
  5
265
100
AcDbEntity
  8
0
100
AcDbLine
 62
7
  6
CONTINUOUS
 10
118.2585881663
 20
300.4728049372
 11
118.6121400849
 21
301.0851782227
  0
LINE
  5
266
100
AcDbEntity
  8
0
100
AcDbLine
 62
7
  6
CONTINUOUS
 10
119.1071127704
 20
300.9626979215
 11
119.460664689
 21
301.575071207
  0
LINE
  5
267
100
AcDbEntity
  8
0
100
AcDbLine
 62
7
  6
CONTINUOUS
 10
119.9556373758
 20
301.4525909066
 11
120.3091892944
 21
302.0649641921
  0
LINE
  5
268
100
AcDbEntity
  8
0
100
AcDbLine
 62
7
  6
CONTINUOUS
 10
38.7758292991
 20
175.3408289123
 11
217.6820815097
 21
72.0515927536
  0
LINE
  5
269
100
AcDbEntity
  8
0
100
AcDbLine
 62
7
  6
CONTINUOUS
 10
218.0356334283
 20
72.2557148306
 11
39.1293812177
 21
175.5449509893
  0
LINE
  5
26A
100
AcDbEntity
  8
0
100
AcDbLine
 62
7
  6
CONTINUOUS
 10
217.3615495837
 20
72.854979776
 11
39.3113207916
 21
175.6500017642
  0
LINE
  5
26B
100
AcDbEntity
  8
0
100
AcDbLine
 62
7
  6
CONTINUOUS
 10
217.2908391999
 20
75.2636626125
 11
192.5419988198
 21
89.5520890212
  0
LINE
  5
26C
100
AcDbEntity
  8
0
100
AcDbLine
 62
7
  6
CONTINUOUS
 10
119.0219045916
 20
306.5922434546
 11
118.7810357823
 21
306.0816476823
  0
LINE
  5
26D
100
AcDbEntity
  8
0
100
AcDbLine
 62
7
  6
CONTINUOUS
 10
119.1678172777
 20
305.4633766806
 11
118.9269484673
 21
304.9527809038
  0
LINE
  5
26E
100
AcDbEntity
  8
0
100
AcDbLine
 62
7
  6
CONTINUOUS
 10
124.1276030058
 20
296.9211184469
 11
123.5468442402
 21
295.9152091728
  0
LINE
  5
26F
100
AcDbEntity
  8
0
100
AcDbLine
 62
7
  6
CONTINUOUS
 10
124.9761276112
 20
297.411011432
 11
124.6225756926
 21
296.7986381465
  0
LINE
  5
270
100
AcDbEntity
  8
0
100
AcDbLine
 62
7
  6
CONTINUOUS
 10
125.8246522153
 20
297.9009044163
 11
125.4711002967
 21
297.2885311308
  0
LINE
  5
271
100
AcDbEntity
  8
0
100
AcDbLine
 62
7
  6
CONTINUOUS
 10
126.6731768207
 20
298.3907974014
 11
126.3196249021
 21
297.7784241159
  0
LINE
  5
272
100
AcDbEntity
  8
0
100
AcDbLine
 62
7
  6
CONTINUOUS
 10
192.5419988198
 20
102.9427286614
 11
217.2908391999
 21
88.6543022536
  0
LINE
  5
273
100
AcDbEntity
  8
0
100
AcDbLine
 62
7
  6
CONTINUOUS
 10
192.6127092045
 20
102.9835530758
 11
217.3615495833
 21
88.6951266688
  0
LINE
  5
274
100
AcDbEntity
  8
0
100
AcDbLine
 62
7
  6
CONTINUOUS
 10
204.9164184218
 20
103.1470354605
 11
51.7564519535
 21
191.5719828904
  0
LINE
  5
275
100
AcDbEntity
  8
0
100
AcDbLine
 62
7
  6
CONTINUOUS
 10
204.9871288055
 20
103.1878598759
 11
51.8271623372
 21
191.6128073058
  0
LINE
  5
276
100
AcDbEntity
  8
0
100
AcDbLine
 62
7
  6
CONTINUOUS
 10
130.8019011098
 20
299.1415548555
 11
131.0427699191
 21
299.6521506278
  0
LINE
  5
277
100
AcDbEntity
  8
0
100
AcDbLine
 62
7
  6
CONTINUOUS
 10
130.9478137953
 20
298.0126880781
 11
131.1886826033
 21
298.5232838498
  0
LINE
  5
278
100
AcDbEntity
  8
0
100
AcDbLine
 62
7
  6
CONTINUOUS
 10
132.4569893694
 20
298.8356691188
 11
132.2161205601
 21
298.3250733464
  0
LINE
  5
279
100
AcDbEntity
  8
0
100
AcDbLine
 62
7
  6
CONTINUOUS
 10
132.6029020536
 20
297.7068023407
 11
132.3620332456
 21
297.1962065691
  0
LINE
  5
27A
100
AcDbEntity
  8
0
100
AcDbLine
 62
7
  6
CONTINUOUS
 10
111.8267679086
 20
302.2468392216
 11
111.8181507934
 21
301.8548995638
  0
LINE
  5
27B
100
AcDbEntity
  8
0
100
AcDbLine
 62
7
  6
CONTINUOUS
 10
115.6834374058
 20
299.9837524396
 11
115.6756224593
 21
299.6282985057
  0
LINE
  5
27C
100
AcDbEntity
  8
0
100
AcDbLine
 62
7
  6
CONTINUOUS
 10
51.1200526121
 20
192.8375504775
 11
51.0493422284
 21
192.7967260621
  0
LINE
  5
27D
100
AcDbEntity
  8
0
100
AcDbLine
 62
7
  6
CONTINUOUS
 10
34.8867228669
 20
182.8934100192
 11
34.5331709482
 21
182.6892879422
  0
LINE
  5
27E
100
AcDbEntity
  8
0
100
AcDbLine
 62
7
  6
CONTINUOUS
 10
51.7564519535
 20
191.5719828904
 11
51.8271623372
 21
191.6128073058
  0
LINE
  5
27F
100
AcDbEntity
  8
0
100
AcDbLine
 62
7
  6
CONTINUOUS
 10
117.2686074663
 20
307.9028817574
 11
117.2686074663
 21
307.6579310319
  0
LINE
  5
280
100
AcDbEntity
  8
0
100
AcDbLine
 62
7
  6
CONTINUOUS
 10
118.6828269166
 20
307.0864002484
 11
118.6828269166
 21
306.8414495229
  0
LINE
  5
281
100
AcDbEntity
  8
0
100
AcDbLine
 62
7
  6
CONTINUOUS
 10
120.2672222614
 20
302.0658868718
 11
120.2767512708
 21
302.4993030014
  0
LINE
  5
282
100
AcDbEntity
  8
0
100
AcDbLine
 62
7
  6
CONTINUOUS
 10
121.0532843919
 20
301.7986667072
 11
121.0684284764
 21
302.4874781227
  0
LINE
  5
283
100
AcDbEntity
  8
0
100
AcDbLine
 62
7
  6
CONTINUOUS
 10
122.0834850125
 20
307.2921817598
 11
122.0962096786
 21
307.8709486934
  0
LINE
  5
284
100
AcDbEntity
  8
0
100
AcDbLine
 62
7
  6
CONTINUOUS
 10
122.7659835462
 20
306.9008903859
 11
122.7870841966
 21
307.8606294135
  0
LINE
  5
285
100
AcDbEntity
  8
0
100
AcDbLine
 62
7
  6
CONTINUOUS
 10
124.2112571083
 20
307.0384010128
 11
124.2025648841
 21
306.6430451059
  0
LINE
  5
286
100
AcDbEntity
  8
0
100
AcDbLine
 62
7
  6
CONTINUOUS
 10
125.2471883653
 20
294.4822338993
 11
125.2389338394
 21
294.1067862012
  0
LINE
  5
287
100
AcDbEntity
  8
0
100
AcDbLine
 62
7
  6
CONTINUOUS
 10
38.7758292991
 20
175.3408289123
 11
39.1293812177
 21
175.5449509893
  0
LINE
  5
288
100
AcDbEntity
  8
0
100
AcDbLine
 62
7
  6
CONTINUOUS
 10
197.6313718513
 20
267.1832766736
 11
201.1704265565
 21
269.1214571059
  0
LINE
  5
289
100
AcDbEntity
  8
0
100
AcDbLine
 62
7
  6
CONTINUOUS
 10
127.1681495063
 20
298.2683171003
 11
127.1681495063
 21
297.5229896041
  0
LINE
  5
28A
100
AcDbEntity
  8
0
100
AcDbLine
 62
7
  6
CONTINUOUS
 10
130.7036922441
 20
299.901356696
 11
130.7036922441
 21
300.1463074217
  0
LINE
  5
28B
100
AcDbEntity
  8
0
100
AcDbLine
 62
7
  6
CONTINUOUS
 10
132.1179116944
 20
299.084875187
 11
132.1179116944
 21
299.3298259127
  0
LINE
  5
28C
100
AcDbEntity
  8
0
100
AcDbLine
 62
7
  6
CONTINUOUS
 10
128.0771304985
 20
298.0260012439
 11
128.0861422495
 21
298.4358904633
  0
LINE
  5
28D
100
AcDbEntity
  8
0
100
AcDbLine
 62
7
  6
CONTINUOUS
 10
135.5382001829
 20
299.5213354677
 11
135.551481697
 21
300.1254299974
  0
LINE
  5
28E
100
AcDbEntity
  8
0
100
AcDbLine
 62
7
  6
CONTINUOUS
 10
136.180874213
 20
299.1559748609
 11
136.2019748634
 21
300.1157138921
  0
LINE
  5
28F
100
AcDbEntity
  8
0
100
AcDbLine
 62
7
  6
CONTINUOUS
 10
137.6476908183
 20
299.2810480262
 11
137.6390319341
 21
298.8872085479
  0
LINE
  5
290
100
AcDbEntity
  8
0
100
AcDbLine
 62
7
  6
CONTINUOUS
 10
251.5455580978
 20
256.4286564983
 11
233.1608583303
 21
250.6521905406
  0
LINE
  5
291
100
AcDbEntity
  8
0
100
AcDbLine
 62
7
  6
CONTINUOUS
 10
117.8087562306
 20
303.4790209106
 11
117.512729017
 21
305.7692624128
  0
LINE
  5
292
100
AcDbEntity
  8
0
100
AcDbLine
 62
7
  6
CONTINUOUS
 10
117.4145201505
 20
306.5290642538
 11
117.366816332
 21
306.8981291913
  0
LINE
  5
293
100
AcDbEntity
  8
0
100
AcDbLine
 62
7
  6
CONTINUOUS
 10
117.7535978274
 20
306.2798581896
 11
117.746132817
 21
306.3376119224
  0
LINE
  5
294
100
AcDbEntity
  8
0
100
AcDbLine
 62
7
  6
CONTINUOUS
 10
117.6076851413
 20
307.4087249636
 11
117.6002201301
 21
307.4664787024
  0
LINE
  5
295
100
AcDbEntity
  8
0
100
AcDbLine
 62
7
  6
CONTINUOUS
 10
118.7810357823
 20
306.0816476823
 11
118.8287396008
 21
305.7125827448
  0
LINE
  5
296
100
AcDbEntity
  8
0
100
AcDbLine
 62
7
  6
CONTINUOUS
 10
118.9269484673
 20
304.9527809038
 11
119.0722811756
 21
303.828401168
  0
LINE
  5
297
100
AcDbEntity
  8
0
100
AcDbLine
 62
7
  6
CONTINUOUS
 10
119.0022628182
 20
306.744203822
 11
119.0219045916
 21
306.5922434546
  0
LINE
  5
298
100
AcDbEntity
  8
0
100
AcDbLine
 62
7
  6
CONTINUOUS
 10
119.1481755049
 20
305.6153370432
 11
119.1678172777
 21
305.4633766806
  0
LINE
  5
299
100
AcDbEntity
  8
0
100
AcDbLine
 62
7
  6
CONTINUOUS
 10
234.793685098
 20
249.0481960043
 11
251.5455580978
 21
256.3945319354
  0
LINE
  5
29A
100
AcDbEntity
  8
0
100
AcDbLine
 62
7
  6
CONTINUOUS
 10
131.2851960449
 20
295.4024995685
 11
130.9478137953
 21
298.0126880781
  0
LINE
  5
29B
100
AcDbEntity
  8
0
100
AcDbLine
 62
7
  6
CONTINUOUS
 10
130.8496049283
 20
298.7724899179
 11
130.8019011098
 21
299.1415548555
  0
LINE
  5
29C
100
AcDbEntity
  8
0
100
AcDbLine
 62
7
  6
CONTINUOUS
 10
131.1886826033
 20
298.5232838498
 11
131.1812175921
 21
298.5810375884
  0
LINE
  5
29D
100
AcDbEntity
  8
0
100
AcDbLine
 62
7
  6
CONTINUOUS
 10
131.0427699191
 20
299.6521506278
 11
131.0353049079
 21
299.7099043665
  0
LINE
  5
29E
100
AcDbEntity
  8
0
100
AcDbLine
 62
7
  6
CONTINUOUS
 10
132.3620332456
 20
297.1962065691
 11
132.5073659538
 21
296.0718268323
  0
LINE
  5
29F
100
AcDbEntity
  8
0
100
AcDbLine
 62
7
  6
CONTINUOUS
 10
132.2638243786
 20
297.9560084089
 11
132.21612056
 21
298.3250733464
  0
LINE
  5
2A0
100
AcDbEntity
  8
0
100
AcDbLine
 62
7
  6
CONTINUOUS
 10
132.6029020558
 20
297.7068023423
 11
132.5832602824
 21
297.8587627097
  0
LINE
  5
2A1
100
AcDbEntity
  8
0
100
AcDbLine
 62
7
  6
CONTINUOUS
 10
132.4569893694
 20
298.8356691188
 11
132.437347596
 21
298.9876294861
  0
LINE
  5
2A2
100
AcDbEntity
  8
0
100
AcDbLine
 62
7
  6
CONTINUOUS
 10
241.1106342144
 20
246.0624891268
 11
234.9655229658
 21
242.4469373321
  0
LINE
  5
2A3
100
AcDbEntity
  8
0
100
AcDbLine
 62
7
  6
CONTINUOUS
 10
222.2093560876
 20
241.5130851804
 11
224.6842195178
 21
242.9419397189
  0
LINE
  5
2A4
100
AcDbEntity
  8
0
100
AcDbLine
 62
7
  6
CONTINUOUS
 10
225.0295896423
 20
243.0258681815
 11
225.5120335149
 21
243.3044056185
  0
LINE
  5
2A5
100
AcDbEntity
  8
0
100
AcDbLine
 62
7
  6
CONTINUOUS
 10
228.552580015
 20
245.0598554802
 11
231.4517057475
 21
246.7336565111
  0
LINE
  5
2A6
100
AcDbEntity
  8
0
100
AcDbLine
 62
7
  6
CONTINUOUS
 10
234.793685098
 20
247.8934526412
 11
232.8204586431
 21
246.7542166166
  0
LINE
  5
2A7
100
AcDbEntity
  8
0
100
AcDbLine
 62
7
  6
CONTINUOUS
 10
223.7593491484
 20
241.3595599154
 11
226.2342125787
 21
242.788414454
  0
LINE
  5
2A8
100
AcDbEntity
  8
0
100
AcDbLine
 62
7
  6
CONTINUOUS
 10
219.1978457097
 20
238.5042305348
 11
222.7593536253
 21
240.5604558146
  0
LINE
  5
2A9
100
AcDbEntity
  8
0
100
AcDbLine
 62
7
  6
CONTINUOUS
 10
227.3477911833
 20
242.920900957
 11
229.1775772169
 21
243.97732211
  0
LINE
  5
2AA
100
AcDbEntity
  8
0
100
AcDbLine
 62
7
  6
CONTINUOUS
 10
219.9961973753
 20
238.0433124142
 11
218.9314549922
 21
237.4285867821
  0
LINE
  5
2AB
100
AcDbEntity
  8
0
100
AcDbLine
 62
7
  6
CONTINUOUS
 10
220.6776706661
 20
236.4204315003
 11
226.4004577001
 21
239.7244644125
  0
LINE
  5
2AC
100
AcDbEntity
  8
0
100
AcDbLine
 62
7
  6
CONTINUOUS
 10
220.8127427433
 20
236.3424493644
 11
226.6310409843
 21
239.7016253684
  0
LINE
  5
2AD
100
AcDbEntity
  8
0
100
AcDbLine
 62
7
  6
CONTINUOUS
 10
231.2546916272
 20
239.8899050969
 11
222.8872418966
 21
235.0589845792
  0
LINE
  5
2AE
100
AcDbEntity
  8
0
100
AcDbLine
 62
7
  6
CONTINUOUS
 10
217.607621719
 20
231.2352171819
 11
217.3615495837
 21
231.0931482163
  0
LINE
  5
2AF
100
AcDbEntity
  8
0
100
AcDbLine
 62
7
  6
CONTINUOUS
 10
223.6023498773
 20
234.6553545374
 11
231.6082464898
 21
239.277533511
  0
LINE
  5
2B0
100
AcDbEntity
  8
0
100
AcDbLine
 62
7
  6
CONTINUOUS
 10
231.6082464898
 20
239.188035214
 11
224.4640283463
 21
235.0633435668
  0
LINE
  5
2B1
100
AcDbEntity
  8
0
100
AcDbLine
 62
7
  6
CONTINUOUS
 10
224.183587899
 20
244.4556727993
 11
216.334735306
 21
240.1572107017
  0
LINE
  5
2B2
100
AcDbEntity
  8
0
100
AcDbLine
 62
7
  6
CONTINUOUS
 10
234.793685098
 20
249.7094988932
 11
227.0120073694
 21
245.4478254353
  0
LINE
  5
2B3
100
AcDbEntity
  8
0
100
AcDbLine
 62
7
  6
CONTINUOUS
 10
227.9312500121
 20
244.9171124544
 11
225.5978073493
 21
243.6391912902
  0
LINE
  5
2B4
100
AcDbEntity
  8
0
100
AcDbLine
 62
7
  6
CONTINUOUS
 10
219.9961973753
 20
238.0433124142
 11
218.9033531807
 21
237.4448110036
  0
LINE
  5
2B5
100
AcDbEntity
  8
0
100
AcDbLine
 62
7
  6
CONTINUOUS
 10
228.4262462499
 20
242.0062282722
 11
230.7596889127
 21
243.2841494363
  0
LINE
  5
2B6
100
AcDbEntity
  8
0
100
AcDbLine
 62
7
  6
CONTINUOUS
 10
231.6789315547
 20
242.7534364558
 11
239.4606092832
 21
247.0151099138
  0
LINE
  5
2B7
100
AcDbEntity
  8
0
100
AcDbLine
 62
7
  6
CONTINUOUS
 10
223.6371279546
 20
234.6104875665
 11
232.6689046008
 21
239.556783745
  0
LINE
  5
2B8
100
AcDbEntity
  8
0
100
AcDbLine
 62
7
  6
CONTINUOUS
 10
225.5122924379
 20
243.3039579066
 11
225.5978073493
 21
243.3485619476
  0
LINE
  5
2B9
100
AcDbEntity
  8
0
100
AcDbLine
 62
7
  6
CONTINUOUS
 10
222.7552410639
 20
224.0010084097
 11
227.875854916
 21
226.1841584018
  0
LINE
  5
2BA
100
AcDbEntity
  8
0
100
AcDbLine
 62
7
  6
CONTINUOUS
 10
218.1590278501
 20
231.9618390256
 11
222.6100087925
 21
235.3048208013
  0
LINE
  5
2BB
100
AcDbEntity
  8
0
100
AcDbLine
 62
7
  6
CONTINUOUS
 10
252.4902156441
 20
254.7583461413
 11
240.4512172229
 21
246.4431950916
  0
LINE
  5
2BC
100
AcDbEntity
  8
0
100
AcDbLine
 62
7
  6
CONTINUOUS
 10
243.829603405
 20
238.8724685582
 11
261.3210310299
 21
249.6599878623
  0
LINE
  5
2BD
100
AcDbEntity
  8
0
100
AcDbLine
 62
7
  6
CONTINUOUS
 10
240.1464136413
 20
236.9001265318
 11
227.2648025697
 21
229.16698664
  0
LINE
  5
2BE
100
AcDbEntity
  8
0
100
AcDbLine
 62
7
  6
CONTINUOUS
 10
236.9362900502
 20
241.3091401658
 11
241.1106342144
 21
243.8064154962
  0
LINE
  5
2BF
100
AcDbEntity
  8
0
100
AcDbLine
 62
7
  6
CONTINUOUS
 10
244.0241567889
 20
238.7600743816
 11
240.7117589682
 21
236.7784530688
  0
LINE
  5
2C0
100
AcDbEntity
  8
0
100
AcDbLine
 62
7
  6
CONTINUOUS
 10
246.3192720979
 20
237.4350189169
 11
240.1464136413
 21
233.7747639798
  0
LINE
  5
2C1
100
AcDbEntity
  8
0
100
AcDbLine
 62
7
  6
CONTINUOUS
 10
237.5505529822
 20
241.0833064482
 11
237.439004606
 21
241.0189043476
  0
LINE
  5
2C2
100
AcDbEntity
  8
0
100
AcDbLine
 62
7
  6
CONTINUOUS
 10
240.350540447
 20
236.2335569498
 11
240.1464136414
 21
236.1157049871
  0
LINE
  5
2C3
100
AcDbEntity
  8
0
100
AcDbLine
 62
7
  6
CONTINUOUS
 10
221.6042079345
 20
223.7446891864
 11
221.8502800699
 21
223.886758152
  0
LINE
  5
2C4
100
AcDbEntity
  8
0
100
AcDbLine
 62
7
  6
CONTINUOUS
 10
237.9331279177
 20
240.7336285744
 11
224.8433342493
 21
233.3236414081
  0
LINE
  5
2C5
100
AcDbEntity
  8
0
100
AcDbLine
 62
7
  6
CONTINUOUS
 10
51.7564519535
 20
303.59611452
 11
204.9164184218
 21
215.1711670901
  0
LINE
  5
2C6
100
AcDbEntity
  8
0
100
AcDbLine
 62
7
  6
CONTINUOUS
 10
190.4206696443
 20
93.2263185358
 11
190.4206696443
 21
101.717943673
  0
LINE
  5
2C7
100
AcDbEntity
  8
0
100
AcDbLine
 62
7
  6
CONTINUOUS
 10
200.9032821447
 20
269.2756895149
 11
220.2161873506
 21
274.5162679363
  0
LINE
  5
2C8
100
AcDbEntity
  8
0
100
AcDbLine
 62
7
  6
CONTINUOUS
 10
63.9187398157
 20
299.7587347199
 11
53.0999610208
 21
306.0048182643
  0
LINE
  5
2C9
100
AcDbEntity
  8
0
100
AcDbLine
 62
7
  6
CONTINUOUS
 10
53.0999610208
 20
313.5166405013
 11
63.9187398156
 21
307.2705569573
  0
LINE
  5
2CA
100
AcDbEntity
  8
0
100
AcDbLine
 62
7
  6
CONTINUOUS
 10
53.1706714049
 20
313.5574649166
 11
63.9894501992
 21
307.3113813729
  0
LINE
  5
2CB
100
AcDbEntity
  8
0
100
AcDbLine
 62
7
  6
CONTINUOUS
 10
200.9032821447
 20
268.9751541762
 11
200.9032821447
 21
269.2756895149
  0
LINE
  5
2CC
100
AcDbEntity
  8
0
100
AcDbLine
 62
7
  6
CONTINUOUS
 10
205.6235281469
 20
213.9464239184
 11
205.6235281469
 21
103.5552971231
  0
LINE
  5
2CD
100
AcDbEntity
  8
0
100
AcDbLine
 62
7
  6
CONTINUOUS
 10
39.3113207916
 20
333.8881702045
 11
217.3615495837
 21
231.0931482163
  0
LINE
  5
2CE
100
AcDbEntity
  8
0
100
AcDbLine
 62
7
  6
CONTINUOUS
 10
39.557392927
 20
334.0302391701
 11
217.607621719
 21
231.2352171819
  0
LINE
  5
2CF
100
AcDbEntity
  8
0
100
AcDbLine
 62
7
  6
CONTINUOUS
 10
217.6820815097
 20
231.2782148454
 11
38.7758292991
 21
334.5674510041
  0
LINE
  5
2D0
100
AcDbEntity
  8
0
100
AcDbLine
 62
7
  6
CONTINUOUS
 10
38.2988829587
 20
335.8017929215
 11
218.1590278501
 21
231.9618390256
  0
LINE
  5
2D1
100
AcDbEntity
  8
0
100
AcDbLine
 62
7
  6
CONTINUOUS
 10
219.4121683754
 20
84.9800727383
 11
219.4121683754
 21
76.4884476001
  0
LINE
  5
2D2
100
AcDbEntity
  8
0
100
AcDbLine
 62
7
  6
CONTINUOUS
 10
219.4828787591
 20
85.0208971537
 11
219.4828787591
 21
76.5292720155
  0
LINE
  5
2D3
100
AcDbEntity
  8
0
100
AcDbLine
 62
7
  6
CONTINUOUS
 10
43.3229386166
 20
338.8139173409
 11
222.6103655801
 21
235.3046148146
  0
LINE
  5
2D4
100
AcDbEntity
  8
0
100
AcDbLine
 62
7
  6
CONTINUOUS
 10
56.5279374227
 20
332.4196212234
 11
60.189399491
 21
330.3057229354
  0
LINE
  5
2D5
100
AcDbEntity
  8
0
100
AcDbLine
 62
7
  6
CONTINUOUS
 10
216.334735306
 20
240.1572107018
 11
219.9961973744
 21
238.0433124137
  0
LINE
  5
2D6
100
AcDbEntity
  8
0
100
AcDbLine
 62
7
  6
CONTINUOUS
 10
122.7377509082
 20
295.5554688616
 11
115.6835445101
 21
299.6281243329
  0
LINE
  5
2D7
100
AcDbEntity
  8
0
100
AcDbLine
 62
7
  6
CONTINUOUS
 10
126.6438752788
 20
293.300315145
 11
125.2473014943
 21
294.1066022314
  0
LINE
  5
2D8
100
AcDbEntity
  8
0
100
AcDbLine
 62
7
  6
CONTINUOUS
 10
113.260213775
 20
301.0272011664
 11
111.8268860069
 21
301.8547075129
  0
LINE
  5
2D9
100
AcDbEntity
  8
0
100
AcDbLine
 62
7
  6
CONTINUOUS
 10
123.5468442402
 20
295.9152091729
 11
117.1828567139
 21
299.5893759635
  0
LINE
  5
2DA
100
AcDbEntity
  8
0
100
AcDbLine
 62
7
  6
CONTINUOUS
 10
117.7636154794
 20
300.5952852376
 11
124.1276030058
 21
296.9211184469
  0
LINE
  5
2DB
100
AcDbEntity
  8
0
100
AcDbLine
 62
7
  6
CONTINUOUS
 10
124.6225756926
 20
296.7986381465
 11
124.269023774
 21
297.0027672781
  0
LINE
  5
2DC
100
AcDbEntity
  8
0
100
AcDbLine
 62
7
  6
CONTINUOUS
 10
117.9050362477
 20
300.6769340688
 11
124.269023774
 21
297.0027672781
  0
LINE
  5
2DD
100
AcDbEntity
  8
0
100
AcDbLine
 62
7
  6
CONTINUOUS
 10
118.6121400849
 20
301.0851782227
 11
124.9761276112
 21
297.411011432
  0
LINE
  5
2DE
100
AcDbEntity
  8
0
100
AcDbLine
 62
7
  6
CONTINUOUS
 10
125.4711002967
 20
297.2885311308
 11
125.1175483781
 21
297.4926602624
  0
LINE
  5
2DF
100
AcDbEntity
  8
0
100
AcDbLine
 62
7
  6
CONTINUOUS
 10
118.7535608518
 20
301.1668270531
 11
125.1175483781
 21
297.4926602624
  0
LINE
  5
2E0
100
AcDbEntity
  8
0
100
AcDbLine
 62
7
  6
CONTINUOUS
 10
63.9525512652
 20
333.621970437
 11
66.8872574218
 21
331.927655378
  0
LINE
  5
2E1
100
AcDbEntity
  8
0
100
AcDbLine
 62
7
  6
CONTINUOUS
 10
119.460664689
 20
301.575071207
 11
125.8246522153
 21
297.9009044163
  0
LINE
  5
2E2
100
AcDbEntity
  8
0
100
AcDbLine
 62
7
  6
CONTINUOUS
 10
223.7593491484
 20
241.3595599154
 11
226.6310409843
 21
239.7016253684
  0
LINE
  5
2E3
100
AcDbEntity
  8
0
100
AcDbLine
 62
7
  6
CONTINUOUS
 10
126.3196249021
 20
297.7784241159
 11
125.9660729835
 21
297.9825532475
  0
LINE
  5
2E4
100
AcDbEntity
  8
0
100
AcDbLine
 62
7
  6
CONTINUOUS
 10
119.6020854572
 20
301.6567200382
 11
125.9660729835
 21
297.9825532475
  0
LINE
  5
2E5
100
AcDbEntity
  8
0
100
AcDbLine
 62
7
  6
CONTINUOUS
 10
127.344378542
 20
297.6195022881
 11
127.1681495063
 21
297.7212458769
  0
LINE
  5
2E6
100
AcDbEntity
  8
0
100
AcDbLine
 62
7
  6
CONTINUOUS
 10
117.8087562306
 20
303.4790209106
 11
118.1132875321
 21
303.3032036592
  0
LINE
  5
2E7
100
AcDbEntity
  8
0
100
AcDbLine
 62
7
  6
CONTINUOUS
 10
120.3091892944
 20
302.0649641921
 11
126.6731768207
 21
298.3907974014
  0
LINE
  5
2E8
100
AcDbEntity
  8
0
100
AcDbLine
 62
7
  6
CONTINUOUS
 10
127.1681495063
 20
298.2683171003
 11
126.8145975877
 21
298.4724462319
  0
LINE
  5
2E9
100
AcDbEntity
  8
0
100
AcDbLine
 62
7
  6
CONTINUOUS
 10
120.4506100613
 20
302.1466130226
 11
126.8145975877
 21
298.4724462319
  0
LINE
  5
2EA
100
AcDbEntity
  8
0
100
AcDbLine
 62
7
  6
CONTINUOUS
 10
121.0684284524
 20
302.4874781365
 11
128.0861422272
 21
298.4358904762
  0
LINE
  5
2EB
100
AcDbEntity
  8
0
100
AcDbLine
 62
7
  6
CONTINUOUS
 10
66.4274146955
 20
335.0508249755
 11
71.4424885003
 21
332.1554362667
  0
LINE
  5
2EC
100
AcDbEntity
  8
0
100
AcDbLine
 62
7
  6
CONTINUOUS
 10
226.2342125787
 20
242.788414454
 11
231.2546916272
 21
239.8899050969
  0
LINE
  5
2ED
100
AcDbEntity
  8
0
100
AcDbLine
 62
7
  6
CONTINUOUS
 10
117.5127290173
 20
305.7692624135
 11
118.9269484676
 21
304.9527809045
  0
LINE
  5
2EE
100
AcDbEntity
  8
0
100
AcDbLine
 62
7
  6
CONTINUOUS
 10
130.9478137953
 20
298.0126880781
 11
132.3620332456
 21
297.1962065691
  0
LINE
  5
2EF
100
AcDbEntity
  8
0
100
AcDbLine
 62
7
  6
CONTINUOUS
 10
232.6689046008
 20
239.5567837451
 11
228.4262462499
 21
242.0062282722
  0
LINE
  5
2F0
100
AcDbEntity
  8
0
100
AcDbLine
 62
7
  6
CONTINUOUS
 10
225.5978073493
 20
243.6391912903
 11
224.183587899
 21
244.4556727993
  0
LINE
  5
2F1
100
AcDbEntity
  8
0
100
AcDbLine
 62
7
  6
CONTINUOUS
 10
64.3767900158
 20
336.7180833209
 11
65.7910094661
 21
335.9016018119
  0
LINE
  5
2F2
100
AcDbEntity
  8
0
100
AcDbLine
 62
7
  6
CONTINUOUS
 10
68.6194483667
 20
334.2686387938
 11
72.8621067176
 21
331.8191942667
  0
LINE
  5
2F3
100
AcDbEntity
  8
0
100
AcDbLine
 62
7
  6
CONTINUOUS
 10
117.7535978277
 20
306.2798581872
 11
119.167817278
 21
305.4633766782
  0
LINE
  5
2F4
100
AcDbEntity
  8
0
100
AcDbLine
 62
7
  6
CONTINUOUS
 10
131.1886826055
 20
298.5232838513
 11
132.6029020558
 21
297.7068023423
  0
LINE
  5
2F5
100
AcDbEntity
  8
0
100
AcDbLine
 62
7
  6
CONTINUOUS
 10
117.4145201506
 20
306.5290642534
 11
118.8287396009
 21
305.7125827443
  0
LINE
  5
2F6
100
AcDbEntity
  8
0
100
AcDbLine
 62
7
  6
CONTINUOUS
 10
130.8496049283
 20
298.7724899179
 11
132.2638243786
 21
297.9560084089
  0
LINE
  5
2F7
100
AcDbEntity
  8
0
100
AcDbLine
 62
7
  6
CONTINUOUS
 10
117.3668163321
 20
306.8981291915
 11
118.7810357823
 21
306.0816476824
  0
LINE
  5
2F8
100
AcDbEntity
  8
0
100
AcDbLine
 62
7
  6
CONTINUOUS
 10
130.8019011098
 20
299.1415548555
 11
132.2161205601
 21
298.3250733464
  0
LINE
  5
2F9
100
AcDbEntity
  8
0
100
AcDbLine
 62
7
  6
CONTINUOUS
 10
221.6042079345
 20
223.7446891864
 11
221.6042079345
 21
75.3045497516
  0
LINE
  5
2FA
100
AcDbEntity
  8
0
100
AcDbLine
 62
7
  6
CONTINUOUS
 10
221.8502800699
 20
223.886758152
 11
221.8502800699
 21
75.4466187172
  0
LINE
  5
2FB
100
AcDbEntity
  8
0
100
AcDbLine
 62
7
  6
CONTINUOUS
 10
221.9247398605
 20
223.9297558155
 11
221.9247398605
 21
74.5011627293
  0
LINE
  5
2FC
100
AcDbEntity
  8
0
100
AcDbLine
 62
7
  6
CONTINUOUS
 10
222.7552410639
 20
224.0010084097
 11
222.7552410639
 21
73.4709516431
  0
LINE
  5
2FD
100
AcDbEntity
  8
0
100
AcDbLine
 62
7
  6
CONTINUOUS
 10
224.183587899
 20
244.4556727993
 11
224.183587899
 21
242.6529016443
  0
LINE
  5
2FE
100
AcDbEntity
  8
0
100
AcDbLine
 62
7
  6
CONTINUOUS
 10
225.5978073493
 20
243.3485619476
 11
225.5978073493
 21
243.6391912903
  0
LINE
  5
2FF
100
AcDbEntity
  8
0
100
AcDbLine
 62
7
  6
CONTINUOUS
 10
227.8758549157
 20
226.1845539554
 11
227.8758549157
 21
76.3154587704
  0
LINE
  5
300
100
AcDbEntity
  8
0
100
AcDbLine
 62
7
  6
CONTINUOUS
 10
227.9312500121
 20
243.257759058
 11
227.9312500121
 21
244.9171124544
  0
LINE
  5
301
100
AcDbEntity
  8
0
100
AcDbLine
 62
7
  6
CONTINUOUS
 10
228.4262462499
 20
242.0062282722
 11
228.4262462499
 21
241.7155989296
  0
LINE
  5
302
100
AcDbEntity
  8
0
100
AcDbLine
 62
7
  6
CONTINUOUS
 10
231.6082464898
 20
239.188035214
 11
231.6082464898
 21
239.277533511
  0
LINE
  5
303
100
AcDbEntity
  8
0
100
AcDbLine
 62
7
  6
CONTINUOUS
 10
132.2638243786
 20
297.9560084089
 11
132.5832602802
 21
297.8587627081
  0
LINE
  5
304
100
AcDbEntity
  8
0
100
AcDbLine
 62
7
  6
CONTINUOUS
 10
123.5275386471
 20
306.4611649201
 11
123.4941140007
 21
306.47577919
  0
LINE
  5
305
100
AcDbEntity
  8
0
100
AcDbLine
 62
7
  6
CONTINUOUS
 10
122.0798945504
 20
307.2922606991
 11
122.1133191968
 21
307.2776464292
  0
LINE
  5
306
100
AcDbEntity
  8
0
100
AcDbLine
 62
7
  6
CONTINUOUS
 10
136.9625033871
 20
298.7043822614
 11
136.9291987761
 21
298.7192048549
  0
LINE
  5
307
100
AcDbEntity
  8
0
100
AcDbLine
 62
7
  6
CONTINUOUS
 10
135.5149793258
 20
299.535686364
 11
135.5482839368
 21
299.5208637705
  0
LINE
  5
308
100
AcDbEntity
  8
0
100
AcDbLine
 62
7
  6
CONTINUOUS
 10
117.6076851413
 20
307.4087249637
 11
119.0219045916
 21
306.5922434547
  0
LINE
  5
309
100
AcDbEntity
  8
0
100
AcDbLine
 62
7
  6
CONTINUOUS
 10
131.0427699191
 20
299.6521506278
 11
132.4569893694
 21
298.8356691188
  0
LINE
  5
30A
100
AcDbEntity
  8
0
100
AcDbLine
 62
7
  6
CONTINUOUS
 10
117.2686074663
 20
307.6579310319
 11
118.6828269166
 21
306.8414495228
  0
LINE
  5
30B
100
AcDbEntity
  8
0
100
AcDbLine
 62
7
  6
CONTINUOUS
 10
130.7036922441
 20
299.901356696
 11
132.1179116944
 21
299.084875187
  0
LINE
  5
30C
100
AcDbEntity
  8
0
100
AcDbLine
 62
7
  6
CONTINUOUS
 10
117.2686074663
 20
307.9028817574
 11
118.6828269166
 21
307.0864002484
  0
LINE
  5
30D
100
AcDbEntity
  8
0
100
AcDbLine
 62
7
  6
CONTINUOUS
 10
130.7036922441
 20
300.1463074217
 11
132.1179116944
 21
299.3298259127
  0
LINE
  5
30E
100
AcDbEntity
  8
0
100
AcDbLine
 62
7
  6
CONTINUOUS
 10
132.330042846
 20
299.6972498834
 11
130.9158233957
 21
300.5137313924
  0
LINE
  5
30F
100
AcDbEntity
  8
0
100
AcDbLine
 62
7
  6
CONTINUOUS
 10
118.894958068
 20
307.4538242191
 11
117.4807386177
 21
308.2703057282
  0
LINE
  5
310
100
AcDbEntity
  8
0
100
AcDbLine
 62
7
  6
CONTINUOUS
 10
67.2052094862
 20
337.7102359569
 11
68.1244521289
 21
337.179522976
  0
LINE
  5
311
100
AcDbEntity
  8
0
100
AcDbLine
 62
7
  6
CONTINUOUS
 10
70.9528910295
 20
335.5465599579
 11
71.8721336715
 21
335.0158469775
  0
LINE
  5
312
100
AcDbEntity
  8
0
100
AcDbLine
 62
7
  6
CONTINUOUS
 10
227.0120073694
 20
245.4478254352
 11
227.9312500121
 21
244.9171124544
  0
LINE
  5
313
100
AcDbEntity
  8
0
100
AcDbLine
 62
7
  6
CONTINUOUS
 10
230.7596889127
 20
243.2841494363
 11
231.6789315547
 21
242.7534364558
  0
LINE
  5
314
100
AcDbEntity
  8
0
100
AcDbLine
 62
7
  6
CONTINUOUS
 10
117.8557785555
 20
308.4868338447
 11
119.2699980058
 21
307.6703523357
  0
LINE
  5
315
100
AcDbEntity
  8
0
100
AcDbLine
 62
7
  6
CONTINUOUS
 10
131.2908633333
 20
300.7302595088
 11
132.7050827836
 21
299.9137779998
  0
LINE
  5
316
100
AcDbEntity
  8
0
100
AcDbLine
 62
7
  6
CONTINUOUS
 10
132.9201949234
 20
299.9537118586
 11
131.5059754731
 21
300.7701933676
  0
LINE
  5
317
100
AcDbEntity
  8
0
100
AcDbLine
 62
7
  6
CONTINUOUS
 10
119.4851101457
 20
307.7102861945
 11
118.0708906954
 21
308.5267677035
  0
LINE
  5
318
100
AcDbEntity
  8
0
100
AcDbLine
 62
7
  6
CONTINUOUS
 10
122.0798945476
 20
307.2922607
 11
123.4941139979
 21
306.4757791909
  0
LINE
  5
319
100
AcDbEntity
  8
0
100
AcDbLine
 62
7
  6
CONTINUOUS
 10
135.5149793258
 20
299.535686364
 11
136.929198776
 21
298.7192048549
  0
LINE
  5
31A
100
AcDbEntity
  8
0
100
AcDbLine
 62
7
  6
CONTINUOUS
 10
136.9626456334
 20
298.7046291316
 11
135.5484261832
 21
299.5211106406
  0
LINE
  5
31B
100
AcDbEntity
  8
0
100
AcDbLine
 62
7
  6
CONTINUOUS
 10
123.5275608567
 20
306.4612034677
 11
122.1133414064
 21
307.2776849767
  0
LINE
  5
31C
100
AcDbEntity
  8
0
100
AcDbLine
 62
7
  6
CONTINUOUS
 10
237.9331279177
 20
240.7336285744
 11
234.9655229663
 21
242.4469373318
  0
LINE
  5
31D
100
AcDbEntity
  8
0
100
AcDbLine
 62
7
  6
CONTINUOUS
 10
63.686915221
 20
341.3324505307
 11
67.1005882893
 21
339.3616100522
  0
LINE
  5
31E
100
AcDbEntity
  8
0
100
AcDbLine
 62
7
  6
CONTINUOUS
 10
122.7870840912
 20
307.8606294744
 11
124.211257001
 21
307.0384010748
  0
LINE
  5
31F
100
AcDbEntity
  8
0
100
AcDbLine
 62
7
  6
CONTINUOUS
 10
136.2019747995
 20
300.115713929
 11
137.6476907496
 21
299.2810480658
  0
LINE
  5
320
100
AcDbEntity
  8
0
100
AcDbLine
 62
7
  6
CONTINUOUS
 10
246.3192720975
 20
237.4350189171
 11
244.0241567889
 21
238.7600743816
  0
LINE
  5
321
100
AcDbEntity
  8
0
100
AcDbLine
 62
7
  6
CONTINUOUS
 10
69.9541197485
 20
340.8961049377
 11
71.4478325095
 21
340.0337289826
  0
LINE
  5
322
100
AcDbEntity
  8
0
100
AcDbLine
 62
7
  6
CONTINUOUS
 10
76.1147566948
 20
337.3393400032
 11
197.6313718513
 21
267.1832766737
  0
LINE
  5
323
100
AcDbEntity
  8
0
100
AcDbLine
 62
7
  6
CONTINUOUS
 10
241.1106342148
 20
246.0624891265
 11
239.4606092832
 21
247.0151099137
  0
LINE
  5
324
100
AcDbEntity
  8
0
100
AcDbLine
 62
7
  6
CONTINUOUS
 10
200.9032821447
 20
269.2756895149
 11
234.793685098
 21
249.7094988932
  0
LINE
  5
325
100
AcDbEntity
  8
0
100
AcDbLine
 62
7
  6
CONTINUOUS
 10
243.8296034052
 20
238.8799063356
 11
244.0241567894
 21
238.7600743813
  0
LINE
  5
326
100
AcDbEntity
  8
0
100
AcDbLine
 62
7
  6
CONTINUOUS
 10
234.793685098
 20
249.7094988931
 11
234.793685098
 21
247.8934526406
  0
LINE
  5
327
100
AcDbEntity
  8
0
100
AcDbLine
 62
7
  6
CONTINUOUS
 10
240.1464136414
 20
236.9000451095
 11
240.1464136414
 21
233.7747639797
  0
LINE
  5
328
100
AcDbEntity
  8
0
100
AcDbLine
 62
7
  6
CONTINUOUS
 10
240.1464136413
 20
92.8524165597
 11
240.1464136413
 21
95.8708706281
  0
LINE
  5
329
100
AcDbEntity
  8
0
100
AcDbLine
 62
7
  6
CONTINUOUS
 10
241.1106342146
 20
246.0624891266
 11
241.1106342146
 21
243.8064154962
  0
LINE
  5
32A
100
AcDbEntity
  8
0
100
AcDbLine
 62
7
  6
CONTINUOUS
 10
205.6235281469
 20
103.5552971231
 11
205.4164053369
 21
103.0975299682
  0
LINE
  5
32B
100
AcDbEntity
  8
0
100
AcDbLine
 62
7
  6
CONTINUOUS
 10
51.2564650384
 20
303.6456200123
 11
51.7564519535
 21
303.59611452
  0
LINE
  5
32C
100
AcDbEntity
  8
0
100
AcDbLine
 62
7
  6
CONTINUOUS
 10
132.1179116944
 20
299.084875187
 11
132.437347596
 21
298.9876294861
  0
LINE
  5
32D
100
AcDbEntity
  8
0
100
AcDbLine
 62
7
  6
CONTINUOUS
 10
118.8287396008
 20
305.7125827448
 11
119.1481755049
 21
305.6153370432
  0
LINE
  5
32E
100
AcDbEntity
  8
0
100
AcDbLine
 62
7
  6
CONTINUOUS
 10
118.6828269166
 20
306.8414495229
 11
119.0022628182
 21
306.744203822
  0
LINE
  5
32F
100
AcDbEntity
  8
0
100
AcDbLine
 62
7
  6
CONTINUOUS
 10
136.9291987761
 20
298.7192048549
 11
132.9201949234
 21
299.9537118586
  0
LINE
  5
330
100
AcDbEntity
  8
0
100
AcDbLine
 62
7
  6
CONTINUOUS
 10
131.5059754731
 20
300.7701933676
 11
135.5149793258
 21
299.535686364
  0
LINE
  5
331
100
AcDbEntity
  8
0
100
AcDbLine
 62
7
  6
CONTINUOUS
 10
123.4941140007
 20
306.47577919
 11
119.4851101482
 21
307.7102861937
  0
LINE
  5
332
100
AcDbEntity
  8
0
100
AcDbLine
 62
7
  6
CONTINUOUS
 10
118.0708906979
 20
308.5267677027
 11
122.0798945504
 21
307.2922606991
  0
LINE
  5
333
100
AcDbEntity
  8
0
100
AcDbLine
 62
7
  6
CONTINUOUS
 10
252.4902156896
 20
254.7583461153
 11
261.3210310298
 21
249.6599878622
  0
LINE
  5
334
100
AcDbEntity
  8
0
100
AcDbLine
 62
7
  6
CONTINUOUS
 10
220.2161873506
 20
274.5162679363
 11
251.5455580978
 21
256.4286564983
  0
LINE
  5
335
100
AcDbEntity
  8
0
100
AcDbLine
 62
7
  6
CONTINUOUS
 10
246.3192720979
 20
99.6594657488
 11
246.3192720979
 21
237.4350189169
  0
LINE
  5
336
100
AcDbEntity
  8
0
100
AcDbLine
 62
7
  6
CONTINUOUS
 10
251.5455580978
 20
256.4286564983
 11
251.5455580978
 21
256.3945319354
  0
LINE
  5
337
100
AcDbEntity
  8
0
100
AcDbLine
 62
7
  6
CONTINUOUS
 10
261.3210310298
 20
249.6599878622
 11
261.3210310298
 21
112.6977282115
  0
LINE
  5
338
100
AcDbEntity
  8
0
100
AcDbLine
 62
7
  6
CONTINUOUS
 10
191.0420489091
 20
103.0912263744
 11
191.1127592928
 21
103.1320507898
  0
LINE
  5
339
100
AcDbEntity
  8
0
100
AcDbLine
 62
7
  6
CONTINUOUS
 10
192.5419988198
 20
102.9427286614
 11
192.6127092035
 21
102.9835530765
  0
LINE
  5
33A
100
AcDbEntity
  8
0
100
AcDbLine
 62
7
  6
CONTINUOUS
 10
204.9871288055
 20
103.1878598759
 11
204.9164184218
 21
103.1470354605
  0
LINE
  5
33B
100
AcDbEntity
  8
0
100
AcDbLine
 62
7
  6
CONTINUOUS
 10
246.3192720979
 20
102.8580849868
 11
261.3210310298
 21
112.6977282116
  0
LINE
  5
33C
100
AcDbEntity
  8
0
100
AcDbLine
 62
7
  6
CONTINUOUS
 10
246.3192720975
 20
99.659465749
 11
240.1464136409
 21
95.8708706282
  0
LINE
  5
33D
100
AcDbEntity
  8
0
100
AcDbLine
 62
7
  6
CONTINUOUS
 10
217.3615495837
 20
88.6951266687
 11
217.2908391999
 21
88.6543022536
  0
LINE
  5
33E
100
AcDbEntity
  8
0
100
AcDbLine
 62
7
  6
CONTINUOUS
 10
219.4121683754
 20
84.9800727383
 11
219.4828787591
 21
85.0208971537
  0
LINE
  5
33F
100
AcDbEntity
  8
0
100
AcDbLine
 62
7
  6
CONTINUOUS
 10
227.8758549157
 20
83.9822437588
 11
239.5387631309
 21
91.4443345772
  0
LINE
  5
340
100
AcDbEntity
  8
0
100
AcDbLine
 62
7
  6
CONTINUOUS
 10
227.8758549157
 20
85.085725551
 11
240.1464136413
 21
92.8524165597
  0
LINE
  5
341
100
AcDbEntity
  8
0
100
AcDbLine
 62
7
  6
CONTINUOUS
 10
240.3505404475
 20
92.5291315353
 11
239.9623400735
 21
92.3050052827
  0
LINE
  5
342
100
AcDbEntity
  8
0
100
AcDbLine
 62
7
  6
CONTINUOUS
 10
219.4828787591
 20
76.5292720155
 11
219.4121683754
 21
76.4884476001
  0
LINE
  5
343
100
AcDbEntity
  8
0
100
AcDbLine
 62
7
  6
CONTINUOUS
 10
218.7907891106
 20
75.1151648987
 11
218.8614994943
 21
75.1559893141
  0
LINE
  5
344
100
AcDbEntity
  8
0
100
AcDbLine
 62
7
  6
CONTINUOUS
 10
221.8502800699
 20
75.4466187172
 11
221.6042079345
 21
75.3045497516
  0
LINE
  5
345
100
AcDbEntity
  8
0
100
AcDbLine
 62
7
  6
CONTINUOUS
 10
218.0356334283
 20
72.2557148306
 11
217.6820815097
 21
72.0515927536
  0
LINE
  5
346
100
AcDbEntity
  8
0
100
AcDbLine
 62
7
  6
CONTINUOUS
 10
222.7552410639
 20
73.4709516431
 11
227.875854916
 21
76.3158707447
  0
LINE
  5
347
100
AcDbEntity
  8
0
100
AcDbLine
 62
7
  6
CONTINUOUS
 10
221.277997392
 20
70.4257763641
 11
226.1834275394
 21
72.8271179363
  0
ARC
  5
348
100
AcDbEntity
  8
0
100
AcDbCircle
 62
7
  6
CONTINUOUS
 10
215.9106644016
 20
223.7443837345
 40
5.6935435411
100
AcDbArc
 50
0.0030738516
 51
1.0308092225
  0
ARC
  5
349
100
AcDbEntity
  8
0
100
AcDbCircle
 62
7
  6
CONTINUOUS
 10
214.5146459379
 20
226.1626656849
 40
5.6933749535
100
AcDbArc
 50
58.9698557273
 51
59.9974879908
  0
ARC
  5
34A
100
AcDbEntity
  8
0
100
AcDbCircle
 62
7
  6
CONTINUOUS
 10
64.2224345662
 20
331.2478257227
 40
5.1756771106
100
AcDbArc
 50
28.4151987346
 51
31.8368781178
  0
ARC
  5
34B
100
AcDbEntity
  8
0
100
AcDbCircle
 62
7
  6
CONTINUOUS
 10
224.0292324493
 20
238.9854152011
 40
5.1756771107
100
AcDbArc
 50
28.4151987346
 51
31.8368781178
  0
ARC
  5
34C
100
AcDbEntity
  8
0
100
AcDbCircle
 62
7
  6
CONTINUOUS
 10
67.2664017043
 20
333.004052732
 40
5.1723534765
100
AcDbArc
 50
24.9016018297
 51
34.8246279992
  0
ARC
  5
34D
100
AcDbEntity
  8
0
100
AcDbCircle
 62
7
  6
CONTINUOUS
 10
227.0731995875
 20
240.7416422105
 40
5.1723534765
100
AcDbArc
 50
24.9016018297
 51
34.8246279984
  0
ARC
  5
34E
100
AcDbEntity
  8
0
100
AcDbCircle
 62
7
  6
CONTINUOUS
 10
64.2708373515
 20
331.2771808036
 40
5.119071512
100
AcDbArc
 50
31.8435253378
 51
34.3023370381
  0
ARC
  5
34F
100
AcDbEntity
  8
0
100
AcDbCircle
 62
7
  6
CONTINUOUS
 10
224.0776352347
 20
239.0147702819
 40
5.1190715121
100
AcDbArc
 50
31.8435253379
 51
34.3023370381
  0
ARC
  5
350
100
AcDbEntity
  8
0
100
AcDbCircle
 62
7
  6
CONTINUOUS
 10
127.9229246981
 20
293.3912656778
 40
5.0518060629
100
AcDbArc
 50
153.8200661383
 51
155.5860446012
  0
ARC
  5
351
100
AcDbEntity
  8
0
100
AcDbCircle
 62
7
  6
CONTINUOUS
 10
121.5378953643
 20
297.0756107334
 40
5.0284567493
100
AcDbArc
 50
150.0060934112
 51
158.2078640366
  0
ARC
  5
352
100
AcDbEntity
  8
0
100
AcDbCircle
 62
7
  6
CONTINUOUS
 10
127.8940999264
 20
293.4060131923
 40
5.0194318872
100
AcDbArc
 50
150.0068532234
 51
153.8259717364
  0
ARC
  5
353
100
AcDbEntity
  8
0
100
AcDbCircle
 62
7
  6
CONTINUOUS
 10
67.4113829682
 20
333.0722779597
 40
5.0121238711
100
AcDbArc
 50
23.2346391632
 51
24.8920394274
  0
ARC
  5
354
100
AcDbEntity
  8
0
100
AcDbCircle
 62
7
  6
CONTINUOUS
 10
227.2181808517
 20
240.8098674382
 40
5.0121238708
100
AcDbArc
 50
23.234639163
 51
24.8920394275
  0
ARC
  5
355
100
AcDbEntity
  8
0
100
AcDbCircle
 62
7
  6
CONTINUOUS
 10
64.8080250526
 20
332.3580352282
 40
3.0475143962
100
AcDbArc
 50
180.0315091537
 51
183.2975276266
  0
ARC
  5
356
100
AcDbEntity
  8
0
100
AcDbCircle
 62
7
  6
CONTINUOUS
 10
224.6145768867
 20
240.0956236622
 40
3.0472683465
100
AcDbArc
 50
180.0314920602
 51
183.2959837011
  0
ARC
  5
357
100
AcDbEntity
  8
0
100
AcDbCircle
 62
7
  6
CONTINUOUS
 10
62.2817930653
 20
338.9001203903
 40
2.8090208637
100
AcDbArc
 50
59.9855912985
 51
62.7381273992
  0
ARC
  5
358
100
AcDbEntity
  8
0
100
AcDbCircle
 62
7
  6
CONTINUOUS
 10
65.3340334317
 20
332.8374440343
 40
2.6049066182
100
AcDbArc
 50
60.4264573443
 51
64.9241349556
  0
ARC
  5
359
100
AcDbEntity
  8
0
100
AcDbCircle
 62
7
  6
CONTINUOUS
 10
225.140831315
 20
240.5750335127
 40
2.6049066182
100
AcDbArc
 50
60.4264573443
 51
64.9241349556
  0
ARC
  5
35A
100
AcDbEntity
  8
0
100
AcDbCircle
 62
7
  6
CONTINUOUS
 10
239.7841418763
 20
93.5095069691
 40
1.1322293639
100
AcDbArc
 50
300.0165898645
 51
307.58323556
  0
ARC
  5
35B
100
AcDbEntity
  8
0
100
AcDbCircle
 62
7
  6
CONTINUOUS
 10
65.4247872922
 20
334.218226642
 40
1.1297981364
100
AcDbArc
 50
100.9429099324
 51
104.1413500318
  0
ARC
  5
35C
100
AcDbEntity
  8
0
100
AcDbCircle
 62
7
  6
CONTINUOUS
 10
225.2311650282
 20
241.9574259244
 40
1.1281327223
100
AcDbArc
 50
101.1559322008
 51
104.2351336026
  0
ARC
  5
35D
100
AcDbEntity
  8
0
100
AcDbCircle
 62
7
  6
CONTINUOUS
 10
64.164282922
 20
340.5357633018
 40
1.1255356718
100
AcDbArc
 50
116.2421309423
 51
119.9973249362
  0
ARC
  5
35E
100
AcDbEntity
  8
0
100
AcDbCircle
 62
7
  6
CONTINUOUS
 10
64.070993761
 20
340.6961820354
 40
0.9398667533
100
AcDbArc
 50
115.6504866638
 51
119.9613536288
  0
ARC
  5
35F
100
AcDbEntity
  8
0
100
AcDbCircle
 62
7
  6
CONTINUOUS
 10
239.8811398419
 20
93.3426875093
 40
0.9391875474
100
AcDbArc
 50
299.9838257529
 51
307.4256936736
  0
SPLINE
  5
360
100
AcDbEntity
  8
0
100
AcDbSpline
 62
7
  6
CONTINUOUS
 70
0
 71
3
 72
10
 73
6
 74
0
 42
0.0000001
 43
0.0000001
 44
0.0000000001
 40
0.0
 40
0.0
 40
0.0
 40
0.0
 40
0.527900348
 40
0.7681989846
 40
1.0
 40
1.0
 40
1.0
 40
1.0
 10
123.6222329964
 20
306.3218672591
 30
0.0
 10
123.614981342
 20
306.3513401601
 30
0.0
 10
123.5980189373
 20
306.3935026376
 30
0.0
 10
123.5610033074
 20
306.4379791821
 30
0.0
 10
123.5391029268
 20
306.4545397975
 30
0.0
 10
123.5275608907
 20
306.4612034481
 30
0.0
  0
SPLINE
  5
361
100
AcDbEntity
  8
0
100
AcDbSpline
 62
7
  6
CONTINUOUS
 70
0
 71
3
 72
11
 73
7
 74
0
 42
0.0000001
 43
0.0000001
 44
0.0000000001
 40
0.0
 40
0.0
 40
0.0
 40
0.0
 40
0.2843552353
 40
0.5438361706
 40
0.7807094914
 40
1.0
 40
1.0
 40
1.0
 40
1.0
 10
117.8557785574
 20
308.4868338461
 30
0.0
 10
117.8742059591
 20
308.4974728477
 30
0.0
 10
117.9109426939
 20
308.5154135328
 30
0.0
 10
117.9672723161
 20
308.5320511345
 30
0.0
 10
118.0210031817
 20
308.5368619153
 30
0.0
 10
118.0552080478
 20
308.5315969174
 30
0.0
 10
118.0708906977
 20
308.5267677023
 30
0.0
  0
SPLINE
  5
362
100
AcDbEntity
  8
0
100
AcDbSpline
 62
7
  6
CONTINUOUS
 70
0
 71
3
 72
11
 73
7
 74
0
 42
0.0000001
 43
0.0000001
 44
0.0000000001
 40
0.0
 40
0.0
 40
0.0
 40
0.0
 40
0.237231407
 40
0.5000016178
 40
0.7627709483
 40
1.0
 40
1.0
 40
1.0
 40
1.0
 10
117.2686074663
 20
307.9028817574
 30
0.0
 10
117.268618236
 20
307.9376560879
 30
0.0
 10
117.2816492337
 20
308.0109954728
 30
0.0
 10
117.3271206587
 20
308.1140486864
 30
0.0
 10
117.3936309674
 20
308.2049547701
 30
0.0
 10
117.4506288018
 20
308.2529094858
 30
0.0
 10
117.4807386165
 20
308.2703057274
 30
0.0
  0
SPLINE
  5
363
100
AcDbEntity
  8
0
100
AcDbSpline
 62
7
  6
CONTINUOUS
 70
0
 71
3
 72
11
 73
7
 74
0
 42
0.0000001
 43
0.0000001
 44
0.0000000001
 40
0.0
 40
0.0
 40
0.0
 40
0.0
 40
0.2372290517
 40
0.4999983822
 40
0.762768593
 40
1.0
 40
1.0
 40
1.0
 40
1.0
 10
118.8949580668
 20
307.4538242184
 30
0.0
 10
118.8648482521
 20
307.4364279767
 30
0.0
 10
118.8078504176
 20
307.3884732611
 30
0.0
 10
118.741340109
 20
307.2975671774
 30
0.0
 10
118.695868684
 20
307.1945139637
 30
0.0
 10
118.6828376863
 20
307.1211745789
 30
0.0
 10
118.6828269166
 20
307.0864002484
 30
0.0
  0
SPLINE
  5
364
100
AcDbEntity
  8
0
100
AcDbSpline
 62
7
  6
CONTINUOUS
 70
0
 71
3
 72
11
 73
7
 74
0
 42
0.0000001
 43
0.0000001
 44
0.0000000001
 40
0.0
 40
0.0
 40
0.0
 40
0.0
 40
0.2192905086
 40
0.4561638294
 40
0.7156447647
 40
1.0
 40
1.0
 40
1.0
 40
1.0
 10
119.485110148
 20
307.7102861932
 30
0.0
 10
119.4694274981
 20
307.7151154084
 30
0.0
 10
119.435222632
 20
307.7203804063
 30
0.0
 10
119.3814917664
 20
307.7155696255
 30
0.0
 10
119.3251621442
 20
307.6989320237
 30
0.0
 10
119.2884254094
 20
307.6809913387
 30
0.0
 10
119.2699980077
 20
307.670352337
 30
0.0
  0
SPLINE
  5
365
100
AcDbEntity
  8
0
100
AcDbSpline
 62
7
  6
CONTINUOUS
 70
0
 71
3
 72
11
 73
7
 74
0
 42
0.0000001
 43
0.0000001
 44
0.0000000001
 40
0.0
 40
0.0
 40
0.0
 40
0.0
 40
0.2375793991
 40
0.5000010958
 40
0.7624221896
 40
1.0
 40
1.0
 40
1.0
 40
1.0
 10
251.5455580978
 20
256.3945319354
 30
0.0
 10
251.5455674709
 20
256.2394852333
 30
0.0
 10
251.6054240556
 20
255.9133814718
 30
0.0
 10
251.8053709508
 20
255.4537400559
 30
0.0
 10
252.1034598647
 20
255.0507624648
 30
0.0
 10
252.3559461285
 20
254.8358757547
 30
0.0
 10
252.4902156896
 20
254.7583461258
 30
0.0
  0
SPLINE
  5
366
100
AcDbEntity
  8
0
100
AcDbSpline
 62
7
  6
CONTINUOUS
 70
0
 71
3
 72
9
 73
5
 74
0
 42
0.0000001
 43
0.0000001
 44
0.0000000001
 40
0.0
 40
0.0
 40
0.0
 40
0.0
 40
0.2195712736
 40
1.0
 40
1.0
 40
1.0
 40
1.0
 10
137.7928370875
 20
299.0783725812
 30
0.0
 10
137.7924394912
 20
299.0602901948
 30
0.0
 10
137.7756350948
 20
298.9777020037
 30
0.0
 10
137.7041938432
 20
298.9178947718
 30
0.0
 10
137.6478094203
 20
298.8870155676
 30
0.0
  0
SPLINE
  5
367
100
AcDbEntity
  8
0
100
AcDbSpline
 62
7
  6
CONTINUOUS
 70
0
 71
3
 72
9
 73
5
 74
0
 42
0.0000001
 43
0.0000001
 44
0.0000000001
 40
0.0
 40
0.0
 40
0.0
 40
0.0
 40
0.2195712748
 40
1.0
 40
1.0
 40
1.0
 40
1.0
 10
124.3569622152
 20
306.8349452031
 30
0.0
 10
124.3565630878
 20
306.8167931916
 30
0.0
 10
124.339693986
 20
306.7338870009
 30
0.0
 10
124.2679776552
 20
306.6738494866
 30
0.0
 10
124.2113761288
 20
306.6428513835
 30
0.0
  0
SPLINE
  5
368
100
AcDbEntity
  8
0
100
AcDbSpline
 62
7
  6
CONTINUOUS
 70
0
 71
3
 72
9
 73
5
 74
0
 42
0.0000001
 43
0.0000001
 44
0.0000000001
 40
0.0
 40
0.0
 40
0.0
 40
0.0
 40
0.4480641654
 40
1.0
 40
1.0
 40
1.0
 40
1.0
 10
128.2372035555
 20
298.224955577
 30
0.0
 10
128.2363545785
 20
298.1863447112
 30
0.0
 10
128.1996879656
 20
298.1010090643
 30
0.0
 10
128.1279914303
 20
298.0486516782
 30
0.0
 10
128.086265734
 20
298.0258003983
 30
0.0
  0
SPLINE
  5
369
100
AcDbEntity
  8
0
100
AcDbSpline
 62
7
  6
CONTINUOUS
 70
0
 71
3
 72
12
 73
8
 74
0
 42
0.0000001
 43
0.0000001
 44
0.0000000001
 40
0.0
 40
0.0
 40
0.0
 40
0.0
 40
0.2689005044
 40
0.526931924
 40
0.7654818787
 40
0.8824659022
 40
1.0
 40
1.0
 40
1.0
 40
1.0
 10
235.1083066138
 20
244.6080786348
 30
0.0
 10
234.954526057
 20
245.0040959253
 30
0.0
 10
234.5358686715
 20
245.7388747351
 30
0.0
 10
233.6587701792
 20
246.5962147133
 30
0.0
 10
232.7256080823
 20
246.9816538558
 30
0.0
 10
231.9676085628
 20
246.9582227923
 30
0.0
 10
231.6125167876
 20
246.8265002542
 30
0.0
 10
231.4517057475
 20
246.7336565111
 30
0.0
  0
SPLINE
  5
36A
100
AcDbEntity
  8
0
100
AcDbSpline
 62
7
  6
CONTINUOUS
 70
0
 71
3
 72
9
 73
5
 74
0
 42
0.0000001
 43
0.0000001
 44
0.0000000001
 40
0.0
 40
0.0
 40
0.0
 40
0.0
 40
0.7451183082
 40
1.0
 40
1.0
 40
1.0
 40
1.0
 10
228.5526453673
 20
245.0597418522
 30
0.0
 10
228.4751312942
 20
245.0149933272
 30
0.0
 10
228.378659335
 20
244.940290601
 30
0.0
 10
228.2975764921
 20
244.8516121276
 30
0.0
 10
228.2778445586
 20
244.8282025133
 30
0.0
  0
SPLINE
  5
36B
100
AcDbEntity
  8
0
100
AcDbSpline
 62
7
  6
CONTINUOUS
 70
0
 71
3
 72
9
 73
5
 74
0
 42
0.0000001
 43
0.0000001
 44
0.0000000001
 40
0.0
 40
0.0
 40
0.0
 40
0.0
 40
0.2226885516
 40
1.0
 40
1.0
 40
1.0
 40
1.0
 10
228.2778445586
 20
244.8282025133
 30
0.0
 10
228.220060304
 20
244.7596483035
 30
0.0
 10
227.9974107118
 20
244.4200753395
 30
0.0
 10
227.9312441242
 20
243.9994585521
 30
0.0
 10
227.9312441242
 20
243.6864976553
 30
0.0
  0
SPLINE
  5
36C
100
AcDbEntity
  8
0
100
AcDbSpline
 62
7
  6
CONTINUOUS
 70
0
 71
3
 72
8
 73
4
 74
0
 42
0.0000001
 43
0.0000001
 44
0.0000000001
 40
0.0
 40
0.0
 40
0.0
 40
0.0
 40
1.0
 40
1.0
 40
1.0
 40
1.0
 10
224.6842874362
 20
242.9418225285
 30
0.0
 10
224.7682077279
 20
242.9902779672
 30
0.0
 10
224.8598297492
 20
243.0270745051
 30
0.0
 10
224.9537551603
 20
243.0509190448
 30
0.0
  0
SPLINE
  5
36D
100
AcDbEntity
  8
0
100
AcDbSpline
 62
7
  6
CONTINUOUS
 70
0
 71
3
 72
9
 73
5
 74
0
 42
0.0000001
 43
0.0000001
 44
0.0000000001
 40
0.0
 40
0.0
 40
0.0
 40
0.0
 40
0.2399570178
 40
1.0
 40
1.0
 40
1.0
 40
1.0
 10
225.0128941194
 20
243.0642417399
 30
0.0
 10
225.0494847432
 20
243.0714635284
 30
0.0
 10
225.2034212539
 20
243.0941483608
 30
0.0
 10
225.3610247877
 20
243.0875086688
 30
0.0
 10
225.4778013846
 20
243.0696558833
 30
0.0
  0
SPLINE
  5
36E
100
AcDbEntity
  8
0
100
AcDbSpline
 62
7
  6
CONTINUOUS
 70
0
 71
3
 72
9
 73
5
 74
0
 42
0.0000001
 43
0.0000001
 44
0.0000000001
 40
0.0
 40
0.0
 40
0.0
 40
0.0
 40
0.2323575929
 40
1.0
 40
1.0
 40
1.0
 40
1.0
 10
225.4778013846
 20
243.0696558833
 30
0.0
 10
225.5397950947
 20
243.0601782959
 30
0.0
 10
225.804196231
 20
243.0037168474
 30
0.0
 10
226.0547806926
 20
242.8920071581
 30
0.0
 10
226.2342125787
 20
242.788414454
 30
0.0
  0
SPLINE
  5
36F
100
AcDbEntity
  8
0
100
AcDbSpline
 62
7
  6
CONTINUOUS
 70
0
 71
3
 72
11
 73
7
 74
0
 42
0.0000001
 43
0.0000001
 44
0.0000000001
 40
0.0
 40
0.0
 40
0.0
 40
0.0
 40
0.217745073
 40
0.4508830113
 40
0.7104597664
 40
1.0
 40
1.0
 40
1.0
 40
1.0
 10
222.2094428154
 20
241.5129349651
 30
0.0
 10
222.107204367
 20
241.4539078729
 30
0.0
 10
221.9157227471
 20
241.2932989134
 30
0.0
 10
221.7120328738
 20
240.9601071386
 30
0.0
 10
221.5912781678
 20
240.5496336699
 30
0.0
 10
221.5673090005
 20
240.250928515
 30
0.0
 10
221.5673090005
 20
240.0939487613
 30
0.0
  0
SPLINE
  5
370
100
AcDbEntity
  8
0
100
AcDbSpline
 62
7
  6
CONTINUOUS
 70
0
 71
3
 72
9
 73
5
 74
0
 42
0.0000001
 43
0.0000001
 44
0.0000000001
 40
0.0
 40
0.0
 40
0.0
 40
0.0
 40
0.5335165704
 40
1.0
 40
1.0
 40
1.0
 40
1.0
 10
240.3536457102
 20
95.9960853731
 30
0.0
 10
240.6067941651
 20
95.5986948933
 30
0.0
 10
240.9738850997
 20
94.7821480194
 30
0.0
 10
241.0549236968
 20
93.8682859224
 30
0.0
 10
240.9709190224
 20
93.4649691458
 30
0.0
  0
SPLINE
  5
371
100
AcDbEntity
  8
0
100
AcDbSpline
 62
7
  6
CONTINUOUS
 70
0
 71
3
 72
9
 73
5
 74
0
 42
0.0000001
 43
0.0000001
 44
0.0000000001
 40
0.0
 40
0.0
 40
0.0
 40
0.0
 40
0.5164786592
 40
1.0
 40
1.0
 40
1.0
 40
1.0
 10
240.9709190224
 20
93.4649691458
 30
0.0
 10
240.9357237417
 20
93.2959922735
 30
0.0
 10
240.8245711181
 20
92.9744181408
 30
0.0
 10
240.602772499
 20
92.7107877403
 30
0.0
 10
240.4747036445
 20
92.612251277
 30
0.0
  0
SPLINE
  5
372
100
AcDbEntity
  8
0
100
AcDbSpline
 62
7
  6
CONTINUOUS
 70
0
 71
3
 72
8
 73
4
 74
0
 42
0.0000001
 43
0.0000001
 44
0.0000000001
 40
0.0
 40
0.0
 40
0.0
 40
0.0
 40
1.0
 40
1.0
 40
1.0
 40
1.0
 10
237.5505529822
 20
241.0833064482
 30
0.0
 10
237.6540648719
 20
241.1430687089
 30
0.0
 10
237.7685556303
 20
241.1863885759
 30
0.0
 10
237.885391366
 20
241.2116006752
 30
0.0
  0
SPLINE
  5
373
100
AcDbEntity
  8
0
100
AcDbSpline
 62
7
  6
CONTINUOUS
 70
0
 71
3
 72
9
 73
5
 74
0
 42
0.0000001
 43
0.0000001
 44
0.0000000001
 40
0.0
 40
0.0
 40
0.0
 40
0.0
 40
0.2398458984
 40
1.0
 40
1.0
 40
1.0
 40
1.0
 10
237.885391366
 20
241.2116006752
 30
0.0
 10
237.9532727516
 20
241.2262488667
 30
0.0
 10
238.2416625105
 20
241.263214352
 30
0.0
 10
238.536552749
 20
241.2041287381
 30
0.0
 10
238.7428668441
 20
241.1274816888
 30
0.0
  0
SPLINE
  5
374
100
AcDbEntity
  8
0
100
AcDbSpline
 62
7
  6
CONTINUOUS
 70
0
 71
3
 72
9
 73
5
 74
0
 42
0.0000001
 43
0.0000001
 44
0.0000000001
 40
0.0
 40
0.0
 40
0.0
 40
0.0
 40
0.2297543379
 40
1.0
 40
1.0
 40
1.0
 40
1.0
 10
238.7428668441
 20
241.1274816888
 30
0.0
 10
238.8594136092
 20
241.0841837957
 30
0.0
 10
239.3496087002
 20
240.84983283
 30
0.0
 10
239.760545478
 20
240.4721047344
 30
0.0
 10
240.0263146212
 20
240.1510144498
 30
0.0
  0
SPLINE
  5
375
100
AcDbEntity
  8
0
100
AcDbSpline
 62
7
  6
CONTINUOUS
 70
0
 71
3
 72
11
 73
7
 74
0
 42
0.0000001
 43
0.0000001
 44
0.0000000001
 40
0.0
 40
0.0
 40
0.0
 40
0.0
 40
0.2799919479
 40
0.5515000258
 40
0.7926667879
 40
1.0
 40
1.0
 40
1.0
 40
1.0
 10
240.0263146212
 20
240.1510144498
 30
0.0
 10
240.2597951452
 20
239.8689338177
 30
0.0
 10
240.6517900206
 20
239.253912646
 30
0.0
 10
240.9946733589
 20
238.2650139061
 30
0.0
 10
241.0585698838
 20
237.3116103685
 30
0.0
 10
240.8483824319
 20
236.7303543533
 30
0.0
 10
240.6792659956
 20
236.5184063575
 30
0.0
  0
SPLINE
  5
376
100
AcDbEntity
  8
0
100
AcDbSpline
 62
7
  6
CONTINUOUS
 70
0
 71
3
 72
8
 73
4
 74
0
 42
0.0000001
 43
0.0000001
 44
0.0000000001
 40
0.0
 40
0.0
 40
0.0
 40
0.0
 40
1.0
 40
1.0
 40
1.0
 40
1.0
 10
240.6792659956
 20
236.5184063575
 30
0.0
 10
240.5888354512
 20
236.4050727687
 30
0.0
 10
240.4761059133
 20
236.3060517729
 30
0.0
 10
240.350540447
 20
236.2335569498
 30
0.0
  0
SPLINE
  5
377
100
AcDbEntity
  8
0
100
AcDbSpline
 62
7
  6
CONTINUOUS
 70
0
 71
3
 72
9
 73
5
 74
0
 42
0.0000001
 43
0.0000001
 44
0.0000000001
 40
0.0
 40
0.0
 40
0.0
 40
0.0
 40
0.2470917651
 40
1.0
 40
1.0
 40
1.0
 40
1.0
 10
66.077322235
 20
340.5782400618
 30
0.0
 10
66.1331424946
 20
340.5108005434
 30
0.0
 10
66.3505324201
 20
340.230919942
 30
0.0
 10
66.5351865199
 20
339.9256684503
 30
0.0
 10
66.652977206
 20
339.6863294665
 30
0.0
  0
SPLINE
  5
378
100
AcDbEntity
  8
0
100
AcDbSpline
 62
7
  6
CONTINUOUS
 70
0
 71
3
 72
11
 73
7
 74
0
 42
0.0000001
 43
0.0000001
 44
0.0000000001
 40
0.0
 40
0.0
 40
0.0
 40
0.0
 40
0.2142267615
 40
0.4473494266
 40
0.7097890633
 40
1.0
 40
1.0
 40
1.0
 40
1.0
 10
63.6666098691
 20
341.5452939259
 30
0.0
 10
63.8444603279
 20
341.6329755601
 30
0.0
 10
64.2710373908
 20
341.7132861688
 30
0.0
 10
64.9198157956
 20
341.541676127
 30
0.0
 10
65.5421264846
 20
341.1506162701
 30
0.0
 10
65.9060429394
 20
340.7851719769
 30
0.0
 10
66.077322235
 20
340.5782400618
 30
0.0
  0
SPLINE
  5
379
100
AcDbEntity
  8
0
100
AcDbSpline
 62
7
  6
CONTINUOUS
 70
0
 71
3
 72
9
 73
5
 74
0
 42
0.0000001
 43
0.0000001
 44
0.0000000001
 40
0.0
 40
0.0
 40
0.0
 40
0.0
 40
0.4544406101
 40
1.0
 40
1.0
 40
1.0
 40
1.0
 10
62.1558599327
 20
341.5062053651
 30
0.0
 10
62.3512799064
 20
341.6094332639
 30
0.0
 10
62.8621920664
 20
341.6882583528
 30
0.0
 10
63.3325999598
 20
341.5185840509
 30
0.0
 10
63.568487892
 20
341.3971215188
 30
0.0
  0
SPLINE
  5
37A
100
AcDbEntity
  8
0
100
AcDbSpline
 62
7
  6
CONTINUOUS
 70
0
 71
3
 72
11
 73
7
 74
0
 42
0.0000001
 43
0.0000001
 44
0.0000000001
 40
0.0
 40
0.0
 40
0.0
 40
0.0
 40
0.2177489406
 40
0.4508885058
 40
0.7104637156
 40
1.0
 40
1.0
 40
1.0
 40
1.0
 10
191.0421328158
 20
103.0910810454
 30
0.0
 10
190.9431944012
 20
103.0339592188
 30
0.0
 10
190.7578925858
 20
102.8785388349
 30
0.0
 10
190.560766608
 20
102.5561145244
 30
0.0
 10
190.4438907659
 20
102.1589058288
 30
0.0
 10
190.4206788284
 20
101.8698516928
 30
0.0
 10
190.4206696443
 20
101.717943673
 30
0.0
  0
SPLINE
  5
37B
100
AcDbEntity
  8
0
100
AcDbSpline
 62
7
  6
CONTINUOUS
 70
0
 71
3
 72
11
 73
7
 74
0
 42
0.0000001
 43
0.0000001
 44
0.0000000001
 40
0.0
 40
0.0
 40
0.0
 40
0.0
 40
0.2177489406
 40
0.4508885058
 40
0.7104637156
 40
1.0
 40
1.0
 40
1.0
 40
1.0
 10
51.6000950169
 20
313.6649928858
 30
0.0
 10
51.5011566022
 20
313.6078710592
 30
0.0
 10
51.3158547868
 20
313.4524506754
 30
0.0
 10
51.118728809
 20
313.1300263648
 30
0.0
 10
51.0018529669
 20
312.7328176692
 30
0.0
 10
50.9786410294
 20
312.4437635332
 30
0.0
 10
50.9786318454
 20
312.2918555134
 30
0.0
  0
SPLINE
  5
37C
100
AcDbEntity
  8
0
100
AcDbSpline
 62
7
  6
CONTINUOUS
 70
0
 71
3
 72
11
 73
7
 74
0
 42
0.0000001
 43
0.0000001
 44
0.0000000001
 40
0.0
 40
0.0
 40
0.0
 40
0.0
 40
0.2177833598
 40
0.4509104088
 40
0.7102966711
 40
1.0
 40
1.0
 40
1.0
 40
1.0
 10
36.3113491919
 20
334.1852899505
 30
0.0
 10
36.1134296378
 20
334.0710216893
 30
0.0
 10
35.7431302869
 20
333.7597117638
 30
0.0
 10
35.3489027403
 20
333.1151317746
 30
0.0
 10
35.1147547612
 20
332.3207695921
 30
0.0
 10
35.0686624408
 20
331.7426090952
 30
0.0
 10
35.0686624408
 20
331.4386002289
 30
0.0
  0
SPLINE
  5
37D
100
AcDbEntity
  8
0
100
AcDbSpline
 62
7
  6
CONTINUOUS
 70
0
 71
3
 72
11
 73
7
 74
0
 42
0.0000001
 43
0.0000001
 44
0.0000000001
 40
0.0
 40
0.0
 40
0.0
 40
0.0
 40
0.2177843137
 40
0.4509117637
 40
0.7102976701
 40
1.0
 40
1.0
 40
1.0
 40
1.0
 10
35.7758576993
 20
334.86457075
 30
0.0
 10
35.9737728827
 20
334.9788363649
 30
0.0
 10
36.428513786
 20
335.1438655631
 30
0.0
 10
37.1838306772
 20
335.1629900411
 30
0.0
 10
37.9888214665
 20
334.9685991162
 30
0.0
 10
38.5125563548
 20
334.7194482708
 30
0.0
 10
38.7758292991
 20
334.5674510041
 30
0.0
  0
SPLINE
  5
37E
100
AcDbEntity
  8
0
100
AcDbSpline
 62
7
  6
CONTINUOUS
 70
0
 71
3
 72
11
 73
7
 74
0
 42
0.0000001
 43
0.0000001
 44
0.0000000001
 40
0.0
 40
0.0
 40
0.0
 40
0.0
 40
0.2180809718
 40
0.4501784832
 40
0.7090276526
 40
1.0
 40
1.0
 40
1.0
 40
1.0
 10
39.4555935315
 20
339.0924579476
 30
0.0
 10
39.7012893544
 20
339.2578919645
 30
0.0
 10
40.2768834681
 20
339.5063052687
 30
0.0
 10
41.2533322547
 20
339.5672118429
 30
0.0
 10
42.3000346148
 20
339.3316293663
 30
0.0
 10
42.9806639723
 20
339.011485854
 30
0.0
 10
43.3229386166
 20
338.8139173258
 30
0.0
  0
SPLINE
  5
37F
100
AcDbEntity
  8
0
100
AcDbSpline
 62
7
  6
CONTINUOUS
 70
0
 71
3
 72
11
 73
7
 74
0
 42
0.0000001
 43
0.0000001
 44
0.0000000001
 40
0.0
 40
0.0
 40
0.0
 40
0.0
 40
0.2178578161
 40
0.4520580361
 40
0.7116284661
 40
1.0
 40
1.0
 40
1.0
 40
1.0
 10
221.2779712065
 20
70.4258244641
 30
0.0
 10
221.0650536109
 20
70.3217685515
 30
0.0
 10
220.5844403232
 20
70.1793165506
 30
0.0
 10
219.801350197
 20
70.1860962118
 30
0.0
 10
218.9713513234
 20
70.4013554145
 30
0.0
 10
218.4307011601
 20
70.6604256252
 30
0.0
 10
218.1590278501
 20
70.8172508364
 30
0.0
  0
SPLINE
  5
380
100
AcDbEntity
  8
0
100
AcDbSpline
 62
7
  6
CONTINUOUS
 70
0
 71
3
 72
12
 73
8
 74
0
 42
0.0000001
 43
0.0000001
 44
0.0000000001
 40
0.0
 40
0.0
 40
0.0
 40
0.0
 40
0.2689005044
 40
0.526931924
 40
0.7654818787
 40
0.8824659022
 40
1.0
 40
1.0
 40
1.0
 40
1.0
 10
75.3015087306
 20
336.8704891564
 30
0.0
 10
75.1477281738
 20
337.2665064469
 30
0.0
 10
74.7290707882
 20
338.0012852567
 30
0.0
 10
73.851972296
 20
338.8586252349
 30
0.0
 10
72.9188101991
 20
339.2440643774
 30
0.0
 10
72.1608106796
 20
339.2206333139
 30
0.0
 10
71.8057189044
 20
339.0889107758
 30
0.0
 10
71.6449078643
 20
338.9960670327
 30
0.0
  0
SPLINE
  5
381
100
AcDbEntity
  8
0
100
AcDbSpline
 62
7
  6
CONTINUOUS
 70
0
 71
3
 72
9
 73
5
 74
0
 42
0.0000001
 43
0.0000001
 44
0.0000000001
 40
0.0
 40
0.0
 40
0.0
 40
0.0
 40
0.7451183082
 40
1.0
 40
1.0
 40
1.0
 40
1.0
 10
68.745847484
 20
337.3221523738
 30
0.0
 10
68.668333411
 20
337.2774038488
 30
0.0
 10
68.5718614518
 20
337.2027011226
 30
0.0
 10
68.4907786089
 20
337.1140226492
 30
0.0
 10
68.4710466754
 20
337.090613035
 30
0.0
  0
SPLINE
  5
382
100
AcDbEntity
  8
0
100
AcDbSpline
 62
7
  6
CONTINUOUS
 70
0
 71
3
 72
9
 73
5
 74
0
 42
0.0000001
 43
0.0000001
 44
0.0000000001
 40
0.0
 40
0.0
 40
0.0
 40
0.0
 40
0.2226885516
 40
1.0
 40
1.0
 40
1.0
 40
1.0
 10
68.4710466754
 20
337.090613035
 30
0.0
 10
68.4132624208
 20
337.0220588252
 30
0.0
 10
68.1906128286
 20
336.6824858611
 30
0.0
 10
68.124446241
 20
336.2618690737
 30
0.0
 10
68.124446241
 20
335.9489081769
 30
0.0
  0
SPLINE
  5
383
100
AcDbEntity
  8
0
100
AcDbSpline
 62
7
  6
CONTINUOUS
 70
0
 71
3
 72
8
 73
4
 74
0
 42
0.0000001
 43
0.0000001
 44
0.0000000001
 40
0.0
 40
0.0
 40
0.0
 40
0.0
 40
1.0
 40
1.0
 40
1.0
 40
1.0
 10
64.8774896911
 20
335.2042327589
 30
0.0
 10
64.9619438814
 20
335.2529924978
 30
0.0
 10
65.0542009316
 20
335.289944947
 30
0.0
 10
65.1487607743
 20
335.3137873161
 30
0.0
  0
SPLINE
  5
384
100
AcDbEntity
  8
0
100
AcDbSpline
 62
7
  6
CONTINUOUS
 70
0
 71
3
 72
9
 73
5
 74
0
 42
0.0000001
 43
0.0000001
 44
0.0000000001
 40
0.0
 40
0.0
 40
0.0
 40
0.0
 40
0.2400220059
 40
1.0
 40
1.0
 40
1.0
 40
1.0
 10
65.2103168103
 20
335.3274814556
 30
0.0
 10
65.2465969421
 20
335.3345024236
 30
0.0
 10
65.399141204
 20
335.3564914143
 30
0.0
 10
65.5551961616
 20
335.3497633462
 30
0.0
 10
65.6708582193
 20
335.3320903154
 30
0.0
  0
SPLINE
  5
385
100
AcDbEntity
  8
0
100
AcDbSpline
 62
7
  6
CONTINUOUS
 70
0
 71
3
 72
9
 73
5
 74
0
 42
0.0000001
 43
0.0000001
 44
0.0000000001
 40
0.0
 40
0.0
 40
0.0
 40
0.0
 40
0.2323449461
 40
1.0
 40
1.0
 40
1.0
 40
1.0
 10
65.6708582193
 20
335.3320903154
 30
0.0
 10
65.7328604973
 20
335.3226164379
 30
0.0
 10
65.9973138329
 20
335.2661648957
 30
0.0
 10
66.2479474565
 20
335.1544380902
 30
0.0
 10
66.4274146955
 20
335.0508249755
 30
0.0
  0
SPLINE
  5
386
100
AcDbEntity
  8
0
100
AcDbSpline
 62
7
  6
CONTINUOUS
 70
0
 71
3
 72
11
 73
7
 74
0
 42
0.0000001
 43
0.0000001
 44
0.0000000001
 40
0.0
 40
0.0
 40
0.0
 40
0.0
 40
0.217745073
 40
0.4508830113
 40
0.7104597664
 40
1.0
 40
1.0
 40
1.0
 40
1.0
 10
62.4026449322
 20
333.7753454867
 30
0.0
 10
62.3004064838
 20
333.7163183945
 30
0.0
 10
62.1089248638
 20
333.555709435
 30
0.0
 10
61.9052349906
 20
333.2225176602
 30
0.0
 10
61.7844802845
 20
332.8120441915
 30
0.0
 10
61.7605111173
 20
332.5133390366
 30
0.0
 10
61.7605111173
 20
332.3563592829
 30
0.0
  0
SPLINE
  5
387
100
AcDbEntity
  8
0
100
AcDbSpline
 62
7
  6
CONTINUOUS
 70
0
 71
3
 72
9
 73
5
 74
0
 42
0.0000001
 43
0.0000001
 44
0.0000000001
 40
0.0
 40
0.0
 40
0.0
 40
0.0
 40
0.297294097
 40
1.0
 40
1.0
 40
1.0
 40
1.0
 10
115.6835445101
 20
299.6281243329
 30
0.0
 10
115.6637724389
 20
299.6395394843
 30
0.0
 10
115.6008815659
 20
299.6817875231
 30
0.0
 10
115.551358586
 20
299.7570948047
 30
0.0
 10
115.5525448672
 20
299.8110460441
 30
0.0
  0
SPLINE
  5
388
100
AcDbEntity
  8
0
100
AcDbSpline
 62
7
  6
CONTINUOUS
 70
0
 71
3
 72
9
 73
5
 74
0
 42
0.0000001
 43
0.0000001
 44
0.0000000001
 40
0.0
 40
0.0
 40
0.0
 40
0.0
 40
0.4983142454
 40
1.0
 40
1.0
 40
1.0
 40
1.0
 10
123.553278066
 20
295.54328777
 30
0.0
 10
123.4312693002
 20
295.4764690804
 30
0.0
 10
123.1440068757
 20
295.4277555978
 30
0.0
 10
122.8590372456
 20
295.4854457523
 30
0.0
 10
122.7377509082
 20
295.5554688616
 30
0.0
  0
SPLINE
  5
389
100
AcDbEntity
  8
0
100
AcDbSpline
 62
7
  6
CONTINUOUS
 70
0
 71
3
 72
9
 73
5
 74
0
 42
0.0000001
 43
0.0000001
 44
0.0000000001
 40
0.0
 40
0.0
 40
0.0
 40
0.0
 40
0.5542426661
 40
1.0
 40
1.0
 40
1.0
 40
1.0
 10
111.8268860069
 20
301.8547075129
 30
0.0
 10
111.7857584794
 20
301.8784517609
 30
0.0
 10
111.715543662
 20
301.9319786453
 30
0.0
 10
111.6816002841
 20
302.0182203573
 30
0.0
 10
111.6824398795
 20
302.0564053021
 30
0.0
  0
SPLINE
  5
38A
100
AcDbEntity
  8
0
100
AcDbSpline
 62
7
  6
CONTINUOUS
 70
0
 71
3
 72
9
 73
5
 74
0
 42
0.0000001
 43
0.0000001
 44
0.0000000001
 40
0.0
 40
0.0
 40
0.0
 40
0.0
 40
0.498313957
 40
1.0
 40
1.0
 40
1.0
 40
1.0
 10
113.9388727988
 20
301.0170652336
 30
0.0
 10
113.8373405736
 20
300.9614606192
 30
0.0
 10
113.5982888679
 20
300.9209224428
 30
0.0
 10
113.3611451472
 20
300.9689302301
 30
0.0
 10
113.260213775
 20
301.0272011664
 30
0.0
  0
SPLINE
  5
38B
100
AcDbEntity
  8
0
100
AcDbSpline
 62
7
  6
CONTINUOUS
 70
0
 71
3
 72
9
 73
5
 74
0
 42
0.0000001
 43
0.0000001
 44
0.0000000001
 40
0.0
 40
0.0
 40
0.0
 40
0.0
 40
0.5542426661
 40
1.0
 40
1.0
 40
1.0
 40
1.0
 10
125.2473014943
 20
294.1066022314
 30
0.0
 10
125.2079045228
 20
294.1293473736
 30
0.0
 10
125.1406441906
 20
294.1806219643
 30
0.0
 10
125.1081290756
 20
294.2632348146
 30
0.0
 10
125.1089333426
 20
294.2998130209
 30
0.0
  0
SPLINE
  5
38C
100
AcDbEntity
  8
0
100
AcDbSpline
 62
7
  6
CONTINUOUS
 70
0
 71
3
 72
9
 73
5
 74
0
 42
0.0000001
 43
0.0000001
 44
0.0000000001
 40
0.0
 40
0.0
 40
0.0
 40
0.0
 40
0.498313957
 40
1.0
 40
1.0
 40
1.0
 40
1.0
 10
127.4253632037
 20
293.2886434381
 30
0.0
 10
127.3084470422
 20
293.2246137366
 30
0.0
 10
127.0331747554
 20
293.1779333063
 30
0.0
 10
126.7600995473
 20
293.2332151264
 30
0.0
 10
126.6438752788
 20
293.300315145
 30
0.0
  0
SPLINE
  5
38D
100
AcDbEntity
  8
0
100
AcDbSpline
 62
7
  6
CONTINUOUS
 70
0
 71
3
 72
9
 73
5
 74
0
 42
0.0000001
 43
0.0000001
 44
0.0000000001
 40
0.0
 40
0.0
 40
0.0
 40
0.0
 40
0.2392308985
 40
1.0
 40
1.0
 40
1.0
 40
1.0
 10
65.7910094661
 20
335.6109724692
 30
0.0
 10
65.8370611655
 20
335.6319472422
 30
0.0
 10
66.0362288506
 20
335.7050511641
 30
0.0
 10
66.2551048525
 20
335.7163823797
 30
0.0
 10
66.414993642
 20
335.6981777263
 30
0.0
  0
SPLINE
  5
38E
100
AcDbEntity
  8
0
100
AcDbSpline
 62
7
  6
CONTINUOUS
 70
0
 71
3
 72
9
 73
5
 74
0
 42
0.0000001
 43
0.0000001
 44
0.0000000001
 40
0.0
 40
0.0
 40
0.0
 40
0.0
 40
0.2377946496
 40
1.0
 40
1.0
 40
1.0
 40
1.0
 10
66.414993642
 20
335.6981777263
 30
0.0
 10
66.454393925
 20
335.6936916801
 30
0.0
 10
66.6193222325
 20
335.6682253776
 30
0.0
 10
66.7799477703
 20
335.6179812919
 30
0.0
 10
66.8976212347
 20
335.5699302595
 30
0.0
  0
SPLINE
  5
38F
100
AcDbEntity
  8
0
100
AcDbSpline
 62
7
  6
CONTINUOUS
 70
0
 71
3
 72
9
 73
5
 74
0
 42
0.0000001
 43
0.0000001
 44
0.0000000001
 40
0.0
 40
0.0
 40
0.0
 40
0.0
 40
0.4649469535
 40
1.0
 40
1.0
 40
1.0
 40
1.0
 10
66.8976212347
 20
335.5699302595
 30
0.0
 10
67.2066792249
 20
335.4437288633
 30
0.0
 10
67.8126454022
 20
335.0303942988
 30
0.0
 10
68.2830757442
 20
334.4794359858
 30
0.0
 10
68.4995759282
 20
334.1620834354
 30
0.0
  0
SPLINE
  5
390
100
AcDbEntity
  8
0
100
AcDbSpline
 62
7
  6
CONTINUOUS
 70
0
 71
3
 72
9
 73
5
 74
0
 42
0.0000001
 43
0.0000001
 44
0.0000000001
 40
0.0
 40
0.0
 40
0.0
 40
0.0
 40
0.5506238749
 40
1.0
 40
1.0
 40
1.0
 40
1.0
 10
71.8014486066
 20
331.4493724195
 30
0.0
 10
71.8014486066
 20
331.4017986584
 30
0.0
 10
71.7898083487
 20
331.3134241457
 30
0.0
 10
71.7318851784
 20
331.2406285421
 30
0.0
 10
71.6982518637
 20
331.2212311973
 30
0.0
  0
SPLINE
  5
391
100
AcDbEntity
  8
0
100
AcDbSpline
 62
7
  6
CONTINUOUS
 70
0
 71
3
 72
9
 73
5
 74
0
 42
0.0000001
 43
0.0000001
 44
0.0000000001
 40
0.0
 40
0.0
 40
0.0
 40
0.0
 40
0.4999970032
 40
1.0
 40
1.0
 40
1.0
 40
1.0
 10
71.4424885003
 20
332.1554362667
 30
0.0
 10
71.5490347081
 20
332.0939231766
 30
0.0
 10
71.7174285403
 20
331.8996844218
 30
0.0
 10
71.8014486066
 20
331.6567323197
 30
0.0
 10
71.8014486066
 20
331.5337025773
 30
0.0
  0
SPLINE
  5
392
100
AcDbEntity
  8
0
100
AcDbSpline
 62
7
  6
CONTINUOUS
 70
0
 71
3
 72
9
 73
5
 74
0
 42
0.0000001
 43
0.0000001
 44
0.0000000001
 40
0.0
 40
0.0
 40
0.0
 40
0.0
 40
0.4754868062
 40
1.0
 40
1.0
 40
1.0
 40
1.0
 10
60.189399491
 20
330.3057229354
 30
0.0
 10
60.4110965651
 20
330.1777289656
 30
0.0
 10
60.8198297097
 20
329.8096374757
 30
0.0
 10
61.1116909266
 20
329.3498612265
 30
0.0
 10
61.2303285167
 20
329.093604355
 30
0.0
  0
SPLINE
  5
393
100
AcDbEntity
  8
0
100
AcDbSpline
 62
7
  6
CONTINUOUS
 70
0
 71
3
 72
11
 73
7
 74
0
 42
0.0000001
 43
0.0000001
 44
0.0000000001
 40
0.0
 40
0.0
 40
0.0
 40
0.0
 40
0.2354318807
 40
0.4961804266
 40
0.7589928822
 40
1.0
 40
1.0
 40
1.0
 40
1.0
 10
241.1106342147
 20
243.8064154961
 30
0.0
 10
241.1106342146
 20
243.3490849349
 30
0.0
 10
241.2753070709
 20
242.3845024662
 30
0.0
 10
241.8556709866
 20
241.0180510249
 30
0.0
 10
242.7126730798
 20
239.7925320431
 30
0.0
 10
243.448852753
 20
239.1273096386
 30
0.0
 10
243.8414056011
 20
238.8722085436
 30
0.0
  0
SPLINE
  5
394
100
AcDbEntity
  8
0
100
AcDbSpline
 62
7
  6
CONTINUOUS
 70
0
 71
3
 72
9
 73
5
 74
0
 42
0.0000001
 43
0.0000001
 44
0.0000000001
 40
0.0
 40
0.0
 40
0.0
 40
0.0
 40
0.4763782366
 40
1.0
 40
1.0
 40
1.0
 40
1.0
 10
234.793685098
 20
247.8934526406
 30
0.0
 10
234.793685098
 20
247.3986240504
 30
0.0
 10
235.027983508
 20
246.3611875866
 30
0.0
 10
235.5374692664
 20
245.4405900587
 30
0.0
 10
235.8661263445
 20
245.007215185
 30
0.0
  0
SPLINE
  5
395
100
AcDbEntity
  8
0
100
AcDbSpline
 62
7
  6
CONTINUOUS
 70
0
 71
3
 72
11
 73
7
 74
0
 42
0.0000001
 43
0.0000001
 44
0.0000000001
 40
0.0
 40
0.0
 40
0.0
 40
0.0
 40
0.237222277
 40
0.4999990789
 40
0.762776382
 40
1.0
 40
1.0
 40
1.0
 40
1.0
 10
222.6103655801
 20
235.3046147717
 30
0.0
 10
223.3578014914
 20
234.8729727315
 30
0.0
 10
224.7723665702
 20
233.6823517285
 30
0.0
 10
226.4234402041
 20
231.4260608665
 30
0.0
 10
227.5519182586
 20
228.8680426411
 30
0.0
 10
227.8757534557
 20
227.0476783611
 30
0.0
 10
227.8758548805
 20
226.1845539757
 30
0.0
  0
SPLINE
  5
396
100
AcDbEntity
  8
0
100
AcDbSpline
 62
7
  6
CONTINUOUS
 70
0
 71
3
 72
11
 73
7
 74
0
 42
0.0000001
 43
0.0000001
 44
0.0000000001
 40
0.0
 40
0.0
 40
0.0
 40
0.0
 40
0.290971324
 40
0.5498199185
 40
0.7819177576
 40
1.0
 40
1.0
 40
1.0
 40
1.0
 10
227.8758548786
 20
76.3154587918
 30
0.0
 10
227.8758074979
 20
75.9202757741
 30
0.0
 10
227.812730744
 20
75.1708001955
 30
0.0
 10
227.493389551
 20
74.1465954026
 30
0.0
 10
226.9524226031
 20
73.3314696205
 30
0.0
 10
226.449506994
 20
72.9572245724
 30
0.0
 10
226.1833974404
 20
72.8271729943
 30
0.0
  0
SPLINE
  5
397
100
AcDbEntity
  8
0
100
AcDbSpline
 62
7
  6
CONTINUOUS
 70
0
 71
3
 72
11
 73
7
 74
0
 42
0.0000001
 43
0.0000001
 44
0.0000000001
 40
0.0
 40
0.0
 40
0.0
 40
0.0
 40
0.2372200201
 40
0.4999989082
 40
0.7627783905
 40
1.0
 40
1.0
 40
1.0
 40
1.0
 10
38.2988829587
 20
174.6572047323
 30
0.0
 10
37.6464310461
 20
175.0339420909
 30
0.0
 10
36.4116224377
 20
176.0731993135
 30
0.0
 10
34.9703794684
 20
178.0427063582
 30
0.0
 10
33.9853456638
 20
180.275613087
 30
0.0
 10
33.7027152919
 20
181.8646216904
 30
0.0
 10
33.7026697452
 20
182.618035348
 30
0.0
  0
SPLINE
  5
398
100
AcDbEntity
  8
0
100
AcDbSpline
 62
7
  6
CONTINUOUS
 70
0
 71
3
 72
11
 73
7
 74
0
 42
0.0000001
 43
0.0000001
 44
0.0000000001
 40
0.0
 40
0.0
 40
0.0
 40
0.0
 40
0.2883727814
 40
0.5479435277
 40
0.7821431653
 40
1.0
 40
1.0
 40
1.0
 40
1.0
 10
33.7026697452
 20
333.1480921145
 30
0.0
 10
33.702688711
 20
333.4617935584
 30
0.0
 10
33.7486490051
 20
334.0595695602
 30
0.0
 10
33.9772331822
 20
334.8860320235
 30
0.0
 10
34.3629218895
 20
335.5676213285
 30
0.0
 10
34.7266122982
 20
335.912626212
 30
0.0
 10
34.9231949353
 20
336.0449909036
 30
0.0
  0
SPLINE
  5
399
100
AcDbEntity
  8
0
100
AcDbSpline
 62
7
  6
CONTINUOUS
 70
0
 71
3
 72
11
 73
7
 74
0
 42
0.0000001
 43
0.0000001
 44
0.0000000001
 40
0.0
 40
0.0
 40
0.0
 40
0.0
 40
0.237239768
 40
0.4999988393
 40
0.7627585384
 40
1.0
 40
1.0
 40
1.0
 40
1.0
 10
217.6820815097
 20
231.2782148454
 30
0.0
 10
218.2844194708
 20
230.9304627286
 30
0.0
 10
219.4242621124
 20
229.9711410703
 30
0.0
 10
220.7546133851
 20
228.1531757665
 30
0.0
 10
221.6638534343
 20
226.0920747624
 30
0.0
 10
221.9247398605
 20
224.6252768148
 30
0.0
 10
221.9247398605
 20
223.9297558155
 30
0.0
  0
SPLINE
  5
39A
100
AcDbEntity
  8
0
100
AcDbSpline
 62
7
  6
CONTINUOUS
 70
0
 71
3
 72
11
 73
7
 74
0
 42
0.0000001
 43
0.0000001
 44
0.0000000001
 40
0.0
 40
0.0
 40
0.0
 40
0.0
 40
0.2897033281
 40
0.5490895198
 40
0.7822165953
 40
1.0
 40
1.0
 40
1.0
 40
1.0
 10
221.9247398605
 20
74.5011627293
 30
0.0
 10
221.9247398605
 20
74.1971538629
 30
0.0
 10
221.8786476436
 20
73.6189934308
 30
0.0
 10
221.6444996052
 20
72.824631295
 30
0.0
 10
221.250272072
 20
72.1800513441
 30
0.0
 10
220.8799727582
 20
71.8687412006
 30
0.0
 10
220.6820531095
 20
71.7544730077
 30
0.0
  0
SPLINE
  5
39B
100
AcDbEntity
  8
0
100
AcDbSpline
 62
7
  6
CONTINUOUS
 70
0
 71
3
 72
11
 73
7
 74
0
 42
0.0000001
 43
0.0000001
 44
0.0000000001
 40
0.0
 40
0.0
 40
0.0
 40
0.0
 40
0.289702329
 40
0.5490881649
 40
0.7822156415
 40
1.0
 40
1.0
 40
1.0
 40
1.0
 10
217.3615495837
 20
72.854979776
 30
0.0
 10
217.6248225281
 20
72.7029825093
 30
0.0
 10
218.1485573084
 20
72.4538316066
 30
0.0
 10
218.953548087
 20
72.2594407564
 30
0.0
 10
219.7088649383
 20
72.278565242
 30
0.0
 10
220.1636060118
 20
72.443594299
 30
0.0
 10
220.3615211834
 20
72.55786003
 30
0.0
  0
SPLINE
  5
39C
100
AcDbEntity
  8
0
100
AcDbSpline
 62
7
  6
CONTINUOUS
 70
0
 71
3
 72
11
 73
7
 74
0
 42
0.0000001
 43
0.0000001
 44
0.0000000001
 40
0.0
 40
0.0
 40
0.0
 40
0.0
 40
0.2372413576
 40
0.5000010231
 40
0.762760128
 40
1.0
 40
1.0
 40
1.0
 40
1.0
 10
35.0686624408
 20
182.9984607941
 30
0.0
 10
35.0686624408
 20
182.3029400996
 30
0.0
 10
35.3295486805
 20
180.8361425538
 30
0.0
 10
36.2387884011
 20
178.7750417351
 30
0.0
 10
37.5691396702
 20
176.9570760541
 30
0.0
 10
38.7089825665
 20
175.9977540334
 30
0.0
 10
39.3113207916
 20
175.6500017642
 30
0.0
  0
SPLINE
  5
39D
100
AcDbEntity
  8
0
100
AcDbSpline
 62
7
  6
CONTINUOUS
 70
0
 71
3
 72
9
 73
5
 74
0
 42
0.0000001
 43
0.0000001
 44
0.0000000001
 40
0.0
 40
0.0
 40
0.0
 40
0.0
 40
0.4999988717
 40
1.0
 40
1.0
 40
1.0
 40
1.0
 10
204.9164184218
 20
215.1711670901
 30
0.0
 10
205.1262984438
 20
215.0499955441
 30
0.0
 10
205.4579071407
 20
214.6673001777
 30
0.0
 10
205.6235281469
 20
214.188772216
 30
0.0
 10
205.6235281469
 20
213.9464239184
 30
0.0
  0
SPLINE
  5
39E
100
AcDbEntity
  8
0
100
AcDbSpline
 62
7
  6
CONTINUOUS
 70
0
 71
3
 72
11
 73
7
 74
0
 42
0.0000001
 43
0.0000001
 44
0.0000000001
 40
0.0
 40
0.0
 40
0.0
 40
0.0
 40
0.2895352454
 40
0.5491102999
 40
0.7822502503
 40
1.0
 40
1.0
 40
1.0
 40
1.0
 10
63.9187398161
 20
299.7587347196
 30
0.0
 10
64.0502973647
 20
299.6827922564
 30
0.0
 10
64.3122252135
 20
299.5583735934
 30
0.0
 10
64.7146454749
 20
299.4609924835
 30
0.0
 10
65.0924263297
 20
299.4704983606
 30
0.0
 10
65.3196696839
 20
299.5532618245
 30
0.0
 10
65.4186058195
 20
299.6103823353
 30
0.0
  0
SPLINE
  5
39F
100
AcDbEntity
  8
0
100
AcDbSpline
 62
7
  6
CONTINUOUS
 70
0
 71
3
 72
11
 73
7
 74
0
 42
0.0000001
 43
0.0000001
 44
0.0000000001
 40
0.0
 40
0.0
 40
0.0
 40
0.0
 40
0.237256205
 40
0.5000012589
 40
0.7627456297
 40
1.0
 40
1.0
 40
1.0
 40
1.0
 10
50.9786318454
 20
309.6790477794
 30
0.0
 10
50.9786528699
 20
309.3312693154
 30
0.0
 10
51.1090676949
 20
308.5978627474
 30
0.0
 10
51.563888718
 20
307.5674491877
 30
0.0
 10
52.2288452727
 20
306.6583612029
 30
0.0
 10
52.7987871739
 20
306.1787214093
 30
0.0
 10
53.0999610207
 20
306.0048182643
 30
0.0
  0
SPLINE
  5
3A0
100
AcDbEntity
  8
0
100
AcDbSpline
 62
7
  6
CONTINUOUS
 70
0
 71
3
 72
11
 73
7
 74
0
 42
0.0000001
 43
0.0000001
 44
0.0000000001
 40
0.0
 40
0.0
 40
0.0
 40
0.0
 40
0.2895352454
 40
0.5491102999
 40
0.7822502503
 40
1.0
 40
1.0
 40
1.0
 40
1.0
 10
217.2908391999
 20
75.2636626123
 30
0.0
 10
217.4223967487
 20
75.187720149
 30
0.0
 10
217.6843245975
 20
75.063301486
 30
0.0
 10
218.086744859
 20
74.965920376
 30
0.0
 10
218.4645257139
 20
74.9754262531
 30
0.0
 10
218.6917690683
 20
75.058189717
 30
0.0
 10
218.7907052039
 20
75.1153102278
 30
0.0
  0
SPLINE
  5
3A1
100
AcDbEntity
  8
0
100
AcDbSpline
 62
7
  6
CONTINUOUS
 70
0
 71
3
 72
11
 73
7
 74
0
 42
0.0000001
 43
0.0000001
 44
0.0000000001
 40
0.0
 40
0.0
 40
0.0
 40
0.0
 40
0.237256205
 40
0.500001259
 40
0.7627456297
 40
1.0
 40
1.0
 40
1.0
 40
1.0
 10
190.4206696443
 20
93.2263185358
 30
0.0
 10
190.4206906689
 20
92.8785400718
 30
0.0
 10
190.551105494
 20
92.1451335038
 30
0.0
 10
191.0059265171
 20
91.1147199442
 30
0.0
 10
191.6708830718
 20
90.2056319596
 30
0.0
 10
192.240824973
 20
89.7259921661
 30
0.0
 10
192.5419988198
 20
89.5520890211
 30
0.0
  0
SPLINE
  5
3A2
100
AcDbEntity
  8
0
100
AcDbSpline
 62
7
  6
CONTINUOUS
 70
0
 71
3
 72
11
 73
7
 74
0
 42
0.0000001
 43
0.0000001
 44
0.0000000001
 40
0.0
 40
0.0
 40
0.0
 40
0.0
 40
0.2372263943
 40
0.5000063096
 40
0.7627827853
 40
1.0
 40
1.0
 40
1.0
 40
1.0
 10
237.9341077809
 20
240.7339569337
 30
0.0
 10
238.2482749857
 20
240.5525183628
 30
0.0
 10
238.8428482838
 20
240.0520510146
 30
0.0
 10
239.5368139569
 20
239.1036502519
 30
0.0
 10
240.0110984689
 20
238.0284419035
 30
0.0
 10
240.1471710481
 20
237.263300011
 30
0.0
 10
240.1471841136
 20
236.900517981
 30
0.0
  0
SPLINE
  5
3A3
100
AcDbEntity
  8
0
100
AcDbSpline
 62
7
  6
CONTINUOUS
 70
0
 71
3
 72
9
 73
5
 74
0
 42
0.0000001
 43
0.0000001
 44
0.0000000001
 40
0.0
 40
0.0
 40
0.0
 40
0.0
 40
0.2773568015
 40
1.0
 40
1.0
 40
1.0
 40
1.0
 10
137.0574846527
 20
298.5646114464
 30
0.0
 10
137.0537281008
 20
298.5800252342
 30
0.0
 10
137.0364751046
 20
298.6343702699
 30
0.0
 10
136.9984436522
 20
298.6839615322
 30
0.0
 10
136.9626458443
 20
298.7046290099
 30
0.0
  0
SPLINE
  5
3A4
100
AcDbEntity
  8
0
100
AcDbSpline
 62
7
  6
CONTINUOUS
 70
0
 71
3
 72
9
 73
5
 74
0
 42
0.0000001
 43
0.0000001
 44
0.0000000001
 40
0.0
 40
0.0
 40
0.0
 40
0.0
 40
0.550623875
 40
1.0
 40
1.0
 40
1.0
 40
1.0
 10
231.6082464898
 20
239.188035214
 30
0.0
 10
231.6082464898
 20
239.1403007196
 30
0.0
 10
231.5965669041
 20
239.0516276237
 30
0.0
 10
231.538448034
 20
238.9785860719
 30
0.0
 10
231.5047010854
 20
238.9591231909
 30
0.0
  0
SPLINE
  5
3A5
100
AcDbEntity
  8
0
100
AcDbSpline
 62
7
  6
CONTINUOUS
 70
0
 71
3
 72
9
 73
5
 74
0
 42
0.0000001
 43
0.0000001
 44
0.0000000001
 40
0.0
 40
0.0
 40
0.0
 40
0.0
 40
0.4999970033
 40
1.0
 40
1.0
 40
1.0
 40
1.0
 10
231.2546916272
 20
239.8899050969
 30
0.0
 10
231.3596334557
 20
239.8293182746
 30
0.0
 10
231.5254916032
 20
239.6380043786
 30
0.0
 10
231.6082464898
 20
239.398710664
 30
0.0
 10
231.6082464898
 20
239.277533511
 30
0.0
  0
SPLINE
  5
3A6
100
AcDbEntity
  8
0
100
AcDbSpline
 62
7
  6
CONTINUOUS
 70
0
 71
3
 72
9
 73
5
 74
0
 42
0.0000001
 43
0.0000001
 44
0.0000000001
 40
0.0
 40
0.0
 40
0.0
 40
0.0
 40
0.5000015945
 40
1.0
 40
1.0
 40
1.0
 40
1.0
 10
130.7036922441
 20
300.1463074217
 30
0.0
 10
130.7036922445
 20
300.2188129801
 30
0.0
 10
130.7578493103
 20
300.3599887896
 30
0.0
 10
130.853032047
 20
300.4774790067
 30
0.0
 10
130.9158233957
 20
300.5137313924
 30
0.0
  0
SPLINE
  5
3A7
100
AcDbEntity
  8
0
100
AcDbSpline
 62
7
  6
CONTINUOUS
 70
0
 71
3
 72
9
 73
5
 74
0
 42
0.0000001
 43
0.0000001
 44
0.0000000001
 40
0.0
 40
0.0
 40
0.0
 40
0.0
 40
0.2876780185
 40
1.0
 40
1.0
 40
1.0
 40
1.0
 10
131.2908633333
 20
300.7302595088
 30
0.0
 10
131.3092907348
 20
300.7408985105
 30
0.0
 10
131.3751480841
 20
300.7733925429
 30
0.0
 10
131.4556218748
 20
300.785698932
 30
0.0
 10
131.5059754731
 20
300.7701933676
 30
0.0
  0
SPLINE
  5
3A8
100
AcDbEntity
  8
0
100
AcDbSpline
 62
7
  6
CONTINUOUS
 70
0
 71
3
 72
9
 73
5
 74
0
 42
0.0000001
 43
0.0000001
 44
0.0000000001
 40
0.0
 40
0.0
 40
0.0
 40
0.0
 40
0.4754868062
 40
1.0
 40
1.0
 40
1.0
 40
1.0
 10
219.9961973744
 20
238.0433124137
 30
0.0
 10
220.2178944484
 20
237.9153184439
 30
0.0
 10
220.6266275929
 20
237.547226954
 30
0.0
 10
220.9184888098
 20
237.0874507049
 30
0.0
 10
221.0371263999
 20
236.8311938334
 30
0.0
  0
SPLINE
  5
3A9
100
AcDbEntity
  8
0
100
AcDbSpline
 62
7
  6
CONTINUOUS
 70
0
 71
3
 72
9
 73
5
 74
0
 42
0.0000001
 43
0.0000001
 44
0.0000000001
 40
0.0
 40
0.0
 40
0.0
 40
0.0
 40
0.2392308985
 40
1.0
 40
1.0
 40
1.0
 40
1.0
 10
225.5978073493
 20
243.3485619476
 30
0.0
 10
225.6438590487
 20
243.3695367207
 30
0.0
 10
225.8430267339
 20
243.4426406425
 30
0.0
 10
226.0619027357
 20
243.4539718581
 30
0.0
 10
226.2217915252
 20
243.4357672047
 30
0.0
  0
SPLINE
  5
3AA
100
AcDbEntity
  8
0
100
AcDbSpline
 62
7
  6
CONTINUOUS
 70
0
 71
3
 72
9
 73
5
 74
0
 42
0.0000001
 43
0.0000001
 44
0.0000000001
 40
0.0
 40
0.0
 40
0.0
 40
0.0
 40
0.2377946496
 40
1.0
 40
1.0
 40
1.0
 40
1.0
 10
226.2217915252
 20
243.4357672047
 30
0.0
 10
226.2611918082
 20
243.4312811585
 30
0.0
 10
226.4261201157
 20
243.405814856
 30
0.0
 10
226.5867456535
 20
243.3555707703
 30
0.0
 10
226.7044191179
 20
243.3075197379
 30
0.0
  0
SPLINE
  5
3AB
100
AcDbEntity
  8
0
100
AcDbSpline
 62
7
  6
CONTINUOUS
 70
0
 71
3
 72
9
 73
5
 74
0
 42
0.0000001
 43
0.0000001
 44
0.0000000001
 40
0.0
 40
0.0
 40
0.0
 40
0.0
 40
0.4649469535
 40
1.0
 40
1.0
 40
1.0
 40
1.0
 10
226.7044191179
 20
243.3075197379
 30
0.0
 10
227.0134771081
 20
243.1813183417
 30
0.0
 10
227.6194432854
 20
242.7679837772
 30
0.0
 10
228.0898736274
 20
242.2170254642
 30
0.0
 10
228.3063738114
 20
241.8996729138
 30
0.0
  0
SPLINE
  5
3AC
100
AcDbEntity
  8
0
100
AcDbSpline
 62
7
  6
CONTINUOUS
 70
0
 71
3
 72
11
 73
7
 74
0
 42
0.0000001
 43
0.0000001
 44
0.0000000001
 40
0.0
 40
0.0
 40
0.0
 40
0.0
 40
0.2895391946
 40
0.5491157945
 40
0.7822541179
 40
1.0
 40
1.0
 40
1.0
 40
1.0
 10
63.9525512652
 20
333.621970437
 30
0.0
 10
63.816606166
 20
333.700456601
 30
0.0
 10
63.5459418856
 20
333.8290447838
 30
0.0
 10
63.1300949105
 20
333.9296988924
 30
0.0
 10
62.7397075357
 20
333.9198921824
 30
0.0
 10
62.5048810258
 20
333.8343712193
 30
0.0
 10
62.4026449322
 20
333.7753454867
 30
0.0
  0
SPLINE
  5
3AD
100
AcDbEntity
  8
0
100
AcDbSpline
 62
7
  6
CONTINUOUS
 70
0
 71
3
 72
9
 73
5
 74
0
 42
0.0000001
 43
0.0000001
 44
0.0000000001
 40
0.0
 40
0.0
 40
0.0
 40
0.0
 40
0.2195712201
 40
1.0
 40
1.0
 40
1.0
 40
1.0
 10
125.1089333426
 20
294.2998130209
 30
0.0
 10
125.1093123639
 20
294.3170509775
 30
0.0
 10
125.125331963
 20
294.3957824119
 30
0.0
 10
125.193437022
 20
294.4527967175
 30
0.0
 10
125.2471883652
 20
294.4822338993
 30
0.0
  0
SPLINE
  5
3AE
100
AcDbEntity
  8
0
100
AcDbSpline
 62
7
  6
CONTINUOUS
 70
0
 71
3
 72
12
 73
8
 74
0
 42
0.0000001
 43
0.0000001
 44
0.0000000001
 40
0.0
 40
0.0
 40
0.0
 40
0.0
 40
0.3078390225
 40
0.5814098308
 40
0.8082465816
 40
0.9068771081
 40
1.0
 40
1.0
 40
1.0
 40
1.0
 10
71.512406421
 20
335.957810412
 30
0.0
 10
71.3169199165
 20
336.2387432612
 30
0.0
 10
70.8928289058
 20
336.7347566033
 30
0.0
 10
70.1617831919
 20
337.2714119599
 30
0.0
 10
69.5081396299
 20
337.4838032059
 30
0.0
 10
69.0382536264
 20
337.4517110058
 30
0.0
 10
68.8355125064
 20
337.3739155871
 30
0.0
 10
68.745847484
 20
337.3221523738
 30
0.0
  0
SPLINE
  5
3AF
100
AcDbEntity
  8
0
100
AcDbSpline
 62
7
  6
CONTINUOUS
 70
0
 71
3
 72
9
 73
5
 74
0
 42
0.0000001
 43
0.0000001
 44
0.0000000001
 40
0.0
 40
0.0
 40
0.0
 40
0.0
 40
0.2195712201
 40
1.0
 40
1.0
 40
1.0
 40
1.0
 10
111.6824398795
 20
302.0564053021
 30
0.0
 10
111.6828355497
 20
302.0744004553
 30
0.0
 10
111.6995588276
 20
302.1565902559
 30
0.0
 10
111.7706554774
 20
302.2161089787
 30
0.0
 10
111.8267679085
 20
302.2468392215
 30
0.0
  0
SPLINE
  5
3B0
100
AcDbEntity
  8
0
100
AcDbSpline
 62
7
  6
CONTINUOUS
 70
0
 71
3
 72
13
 73
9
 74
0
 42
0.0000001
 43
0.0000001
 44
0.0000000001
 40
0.0
 40
0.0
 40
0.0
 40
0.0
 40
0.0885277357
 40
0.1849862038
 40
0.294307395
 40
0.4178073696
 40
0.6989920609
 40
1.0
 40
1.0
 40
1.0
 40
1.0
 10
71.6449622067
 20
338.9959729117
 30
0.0
 10
71.7579341993
 20
339.0612041253
 30
0.0
 10
72.0239054982
 20
339.1501031639
 30
0.0
 10
72.4643120017
 20
339.1326332173
 30
0.0
 10
72.9297892554
 20
338.9794060548
 30
0.0
 10
73.5859632303
 20
338.5924462489
 30
0.0
 10
74.3272872806
 20
337.8399056981
 30
0.0
 10
74.7631640162
 20
337.0897094669
 30
0.0
 10
74.9343032325
 20
336.6804971021
 30
0.0
  0
SPLINE
  5
3B1
100
AcDbEntity
  8
0
100
AcDbSpline
 62
7
  6
CONTINUOUS
 70
0
 71
3
 72
11
 73
7
 74
0
 42
0.0000001
 43
0.0000001
 44
0.0000000001
 40
0.0
 40
0.0
 40
0.0
 40
0.0
 40
0.1924216893
 40
0.4194215823
 40
0.6917487907
 40
1.0
 40
1.0
 40
1.0
 40
1.0
 10
69.3707928093
 20
336.2397093179
 30
0.0
 10
69.4714665889
 20
336.2977562944
 30
0.0
 10
69.7342586668
 20
336.3530429786
 30
0.0
 10
70.1450244351
 20
336.232421843
 30
0.0
 10
70.553753143
 20
335.957230569
 30
0.0
 10
70.7941276729
 20
335.6976796554
 30
0.0
 10
70.9071947342
 20
335.5497865116
 30
0.0
  0
SPLINE
  5
3B2
100
AcDbEntity
  8
0
100
AcDbSpline
 62
7
  6
CONTINUOUS
 70
0
 71
3
 72
9
 73
5
 74
0
 42
0.0000001
 43
0.0000001
 44
0.0000000001
 40
0.0
 40
0.0
 40
0.0
 40
0.0
 40
0.219571271
 40
1.0
 40
1.0
 40
1.0
 40
1.0
 10
115.5525448672
 20
299.8110460441
 30
0.0
 10
115.5529037114
 20
299.8273660299
 30
0.0
 10
115.5680702638
 20
299.9019047602
 30
0.0
 10
115.6325484916
 20
299.95588288
 30
0.0
 10
115.6834374058
 20
299.9837524396
 30
0.0
  0
SPLINE
  5
3B3
100
AcDbEntity
  8
0
100
AcDbSpline
 62
7
  6
CONTINUOUS
 70
0
 71
3
 72
9
 73
5
 74
0
 42
0.0000001
 43
0.0000001
 44
0.0000000001
 40
0.0
 40
0.0
 40
0.0
 40
0.0
 40
0.7448074796
 40
1.0
 40
1.0
 40
1.0
 40
1.0
 10
237.5506018909
 20
241.0832216958
 30
0.0
 10
237.6252926781
 20
241.1262835698
 30
0.0
 10
237.7344402555
 20
241.1702676311
 30
0.0
 10
237.8477255506
 20
241.1942335962
 30
0.0
 10
237.8768548117
 20
241.199141157
 30
0.0
  0
SPLINE
  5
3B4
100
AcDbEntity
  8
0
100
AcDbSpline
 62
7
  6
CONTINUOUS
 70
0
 71
3
 72
9
 73
5
 74
0
 42
0.0000001
 43
0.0000001
 44
0.0000000001
 40
0.0
 40
0.0
 40
0.0
 40
0.0
 40
0.2324225185
 40
1.0
 40
1.0
 40
1.0
 40
1.0
 10
237.8768548117
 20
241.199141157
 30
0.0
 10
237.9309628609
 20
241.2082570266
 30
0.0
 10
238.1669147198
 20
241.22916116
 30
0.0
 10
238.4053227019
 20
241.1801383665
 30
0.0
 10
238.5761075427
 20
241.1195594044
 30
0.0
  0
SPLINE
  5
3B5
100
AcDbEntity
  8
0
100
AcDbSpline
 62
7
  6
CONTINUOUS
 70
0
 71
3
 72
9
 73
5
 74
0
 42
0.0000001
 43
0.0000001
 44
0.0000000001
 40
0.0
 40
0.0
 40
0.0
 40
0.0
 40
0.4645976385
 40
1.0
 40
1.0
 40
1.0
 40
1.0
 10
238.5761075427
 20
241.1195594044
 30
0.0
 10
238.820567601
 20
241.0328471615
 30
0.0
 10
239.3101660197
 20
240.7436964947
 30
0.0
 10
239.7091705522
 20
240.347015344
 30
0.0
 10
239.8997648049
 20
240.1167479693
 30
0.0
  0
SPLINE
  5
3B6
100
AcDbEntity
  8
0
100
AcDbSpline
 62
7
  6
CONTINUOUS
 70
0
 71
3
 72
13
 73
9
 74
0
 42
0.0000001
 43
0.0000001
 44
0.0000000001
 40
0.0
 40
0.0
 40
0.0
 40
0.0
 40
0.0878415012
 40
0.1843169333
 40
0.2944893082
 40
0.4193809918
 40
0.7025046916
 40
1.0
 40
1.0
 40
1.0
 40
1.0
 10
62.9525983081
 20
332.8227924926
 30
0.0
 10
63.031991523
 20
332.868555131
 30
0.0
 10
63.2207969994
 20
332.9293909533
 30
0.0
 10
63.5326669586
 20
332.9083199596
 30
0.0
 10
63.8607699699
 20
332.7882924056
 30
0.0
 10
64.319147371
 20
332.4957762527
 30
0.0
 10
64.8238545013
 20
331.9438546272
 30
0.0
 10
65.1083229464
 20
331.4002538382
 30
0.0
 10
65.2116033784
 20
331.1075903743
 30
0.0
  0
SPLINE
  5
3B7
100
AcDbEntity
  8
0
100
AcDbSpline
 62
7
  6
CONTINUOUS
 70
0
 71
3
 72
11
 73
7
 74
0
 42
0.0000001
 43
0.0000001
 44
0.0000000001
 40
0.0
 40
0.0
 40
0.0
 40
0.0
 40
0.1953668579
 40
0.4238739757
 40
0.6945634223
 40
1.0
 40
1.0
 40
1.0
 40
1.0
 10
63.6641440168
 20
341.5434262739
 30
0.0
 10
63.8200819359
 20
341.6183152134
 30
0.0
 10
64.2088294793
 20
341.6811617784
 30
0.0
 10
64.8115579422
 20
341.5066845003
 30
0.0
 10
65.4167138028
 20
341.1177853704
 30
0.0
 10
65.7783270518
 20
340.7523142914
 30
0.0
 10
65.9507724188
 20
340.5439735814
 30
0.0
  0
SPLINE
  5
3B8
100
AcDbEntity
  8
0
100
AcDbSpline
 62
7
  6
CONTINUOUS
 70
0
 71
3
 72
9
 73
5
 74
0
 42
0.0000001
 43
0.0000001
 44
0.0000000001
 40
0.0
 40
0.0
 40
0.0
 40
0.0
 40
0.4499631795
 40
1.0
 40
1.0
 40
1.0
 40
1.0
 10
66.6120912865
 20
331.9549517839
 30
0.0
 10
66.6492606955
 20
331.9764114492
 30
0.0
 10
66.7508716285
 20
331.9912727456
 30
0.0
 10
66.8418211826
 20
331.9538874095
 30
0.0
 10
66.8872574218
 20
331.927655378
 30
0.0
  0
SPLINE
  5
3B9
100
AcDbEntity
  8
0
100
AcDbSpline
 62
7
  6
CONTINUOUS
 70
0
 71
3
 72
9
 73
5
 74
0
 42
0.0000001
 43
0.0000001
 44
0.0000000001
 40
0.0
 40
0.0
 40
0.0
 40
0.0
 40
0.2312763941
 40
1.0
 40
1.0
 40
1.0
 40
1.0
 10
69.3029516254
 20
329.8652153958
 30
0.0
 10
69.3069368696
 20
329.8742611981
 30
0.0
 10
69.3215699297
 20
329.9145171045
 30
0.0
 10
69.3265851765
 20
329.9578421479
 30
0.0
 10
69.3265851765
 20
329.9906974564
 30
0.0
  0
SPLINE
  5
3BA
100
AcDbEntity
  8
0
100
AcDbSpline
 62
7
  6
CONTINUOUS
 70
0
 71
3
 72
9
 73
5
 74
0
 42
0.0000001
 43
0.0000001
 44
0.0000000001
 40
0.0
 40
0.0
 40
0.0
 40
0.0
 40
0.4562658161
 40
1.0
 40
1.0
 40
1.0
 40
1.0
 10
191.3650651033
 20
103.2353026675
 30
0.0
 10
191.5558150194
 20
103.2854491287
 30
0.0
 10
192.005774621
 20
103.2755689933
 30
0.0
 10
192.4091490099
 20
103.1010595417
 30
0.0
 10
192.6127092045
 20
102.9835530758
 30
0.0
  0
SPLINE
  5
3BB
100
AcDbEntity
  8
0
100
AcDbSpline
 62
7
  6
CONTINUOUS
 70
0
 71
3
 72
13
 73
9
 74
0
 42
0.0000001
 43
0.0000001
 44
0.0000000001
 40
0.0
 40
0.0
 40
0.0
 40
0.0
 40
0.0885277357
 40
0.1849862038
 40
0.294307395
 40
0.4178073696
 40
0.6989920609
 40
1.0
 40
1.0
 40
1.0
 40
1.0
 10
231.4517600899
 20
246.7335623901
 30
0.0
 10
231.5647320825
 20
246.7987936037
 30
0.0
 10
231.8307033814
 20
246.8876926423
 30
0.0
 10
232.2711098849
 20
246.8702226957
 30
0.0
 10
232.7365871386
 20
246.7169955332
 30
0.0
 10
233.3927611135
 20
246.3300357274
 30
0.0
 10
234.1340851638
 20
245.5774951765
 30
0.0
 10
234.5699618995
 20
244.8272989453
 30
0.0
 10
234.7411011158
 20
244.4180865805
 30
0.0
  0
SPLINE
  5
3BC
100
AcDbEntity
  8
0
100
AcDbSpline
 62
7
  6
CONTINUOUS
 70
0
 71
3
 72
11
 73
7
 74
0
 42
0.0000001
 43
0.0000001
 44
0.0000000001
 40
0.0
 40
0.0
 40
0.0
 40
0.0
 40
0.1924216893
 40
0.4194215823
 40
0.6917487907
 40
1.0
 40
1.0
 40
1.0
 40
1.0
 10
229.1775906925
 20
243.9772987963
 30
0.0
 10
229.2782644721
 20
244.0353457728
 30
0.0
 10
229.54105655
 20
244.090632457
 30
0.0
 10
229.9518223183
 20
243.9700113214
 30
0.0
 10
230.3605510262
 20
243.6948200474
 30
0.0
 10
230.6009255561
 20
243.4352691338
 30
0.0
 10
230.7139926174
 20
243.2873759901
 30
0.0
  0
SPLINE
  5
3BD
100
AcDbEntity
  8
0
100
AcDbSpline
 62
7
  6
CONTINUOUS
 70
0
 71
3
 72
11
 73
7
 74
0
 42
0.0000001
 43
0.0000001
 44
0.0000000001
 40
0.0
 40
0.0
 40
0.0
 40
0.0
 40
0.2177489406
 40
0.4508885058
 40
0.7104637156
 40
1.0
 40
1.0
 40
1.0
 40
1.0
 10
218.7907052039
 20
75.1153102278
 30
0.0
 10
218.8896436185
 20
75.1724320543
 30
0.0
 10
219.0749454339
 20
75.3278524382
 30
0.0
 10
219.2720714117
 20
75.6502767487
 30
0.0
 10
219.3889472539
 20
76.0474854444
 30
0.0
 10
219.4121591913
 20
76.3365395804
 30
0.0
 10
219.4121683754
 20
76.4884476001
 30
0.0
  0
SPLINE
  5
3BE
100
AcDbEntity
  8
0
100
AcDbSpline
 62
7
  6
CONTINUOUS
 70
0
 71
3
 72
11
 73
7
 74
0
 42
0.0000001
 43
0.0000001
 44
0.0000000001
 40
0.0
 40
0.0
 40
0.0
 40
0.0
 40
0.2372200201
 40
0.4999989082
 40
0.7627783905
 40
1.0
 40
1.0
 40
1.0
 40
1.0
 10
218.1590278501
 20
231.9618390256
 30
0.0
 10
218.8114797627
 20
231.585101667
 30
0.0
 10
220.0462883711
 20
230.5458444444
 30
0.0
 10
221.4875313404
 20
228.5763373997
 30
0.0
 10
222.472565145
 20
226.3434306709
 30
0.0
 10
222.7551955169
 20
224.7544220675
 30
0.0
 10
222.7552410636
 20
224.0010084099
 30
0.0
  0
SPLINE
  5
3BF
100
AcDbEntity
  8
0
100
AcDbSpline
 62
7
  6
CONTINUOUS
 70
0
 71
3
 72
11
 73
7
 74
0
 42
0.0000001
 43
0.0000001
 44
0.0000000001
 40
0.0
 40
0.0
 40
0.0
 40
0.0
 40
0.2909753173
 40
0.5498254086
 40
0.781921575
 40
1.0
 40
1.0
 40
1.0
 40
1.0
 10
222.7552410636
 20
73.4709516433
 30
0.0
 10
222.755220207
 20
73.1259748054
 30
0.0
 10
222.7001947618
 20
72.4717157757
 30
0.0
 10
222.4214747337
 20
71.577623954
 30
0.0
 10
221.9492731276
 20
70.8660488615
 30
0.0
 10
221.5102655081
 20
70.5393500534
 30
0.0
 10
221.2779712065
 20
70.4258244641
 30
0.0
  0
SPLINE
  5
3C0
100
AcDbEntity
  8
0
100
AcDbSpline
 62
7
  6
CONTINUOUS
 70
0
 71
3
 72
9
 73
5
 74
0
 42
0.0000001
 43
0.0000001
 44
0.0000000001
 40
0.0
 40
0.0
 40
0.0
 40
0.0
 40
0.4562658161
 40
1.0
 40
1.0
 40
1.0
 40
1.0
 10
51.9230273043
 20
313.8092145079
 30
0.0
 10
52.1137772203
 20
313.8593609691
 30
0.0
 10
52.5637368216
 20
313.8494808338
 30
0.0
 10
52.9671112103
 20
313.6749713823
 30
0.0
 10
53.1706714049
 20
313.5574649166
 30
0.0
  0
SPLINE
  5
3C1
100
AcDbEntity
  8
0
100
AcDbSpline
 62
7
  6
CONTINUOUS
 70
0
 71
3
 72
11
 73
7
 74
0
 42
0.0000001
 43
0.0000001
 44
0.0000000001
 40
0.0
 40
0.0
 40
0.0
 40
0.0
 40
0.2897033281
 40
0.5490895198
 40
0.7822165953
 40
1.0
 40
1.0
 40
1.0
 40
1.0
 10
34.5331709482
 20
332.1178810284
 30
0.0
 10
34.5331709482
 20
332.4218898948
 30
0.0
 10
34.5792631652
 20
333.0000503269
 30
0.0
 10
34.8134112036
 20
333.7944124628
 30
0.0
 10
35.2076387368
 20
334.4389924137
 30
0.0
 10
35.5779380506
 20
334.7503025571
 30
0.0
 10
35.7758576993
 20
334.86457075
 30
0.0
  0
SPLINE
  5
3C2
100
AcDbEntity
  8
0
100
AcDbSpline
 62
7
  6
CONTINUOUS
 70
0
 71
3
 72
11
 73
7
 74
0
 42
0.0000001
 43
0.0000001
 44
0.0000000001
 40
0.0
 40
0.0
 40
0.0
 40
0.0
 40
0.237239768
 40
0.4999988393
 40
0.7627585384
 40
1.0
 40
1.0
 40
1.0
 40
1.0
 10
38.7758292991
 20
175.3408289123
 30
0.0
 10
38.173491338
 20
175.6885810291
 30
0.0
 10
37.0336486964
 20
176.6479026874
 30
0.0
 10
35.7032974237
 20
178.4658679912
 30
0.0
 10
34.7940573745
 20
180.5269689954
 30
0.0
 10
34.5331709482
 20
181.9937669429
 30
0.0
 10
34.5331709482
 20
182.6892879422
 30
0.0
  0
SPLINE
  5
3C3
100
AcDbEntity
  8
0
100
AcDbSpline
 62
7
  6
CONTINUOUS
 70
0
 71
3
 72
9
 73
5
 74
0
 42
0.0000001
 43
0.0000001
 44
0.0000000001
 40
0.0
 40
0.0
 40
0.0
 40
0.0
 40
0.2791996602
 40
1.0
 40
1.0
 40
1.0
 40
1.0
 10
218.0356334283
 20
72.2557148306
 30
0.0
 10
218.2122880299
 20
72.1537255561
 30
0.0
 10
218.8613819291
 20
71.8234533304
 30
0.0
 10
219.6094692346
 20
71.6434330763
 30
0.0
 10
220.1344041011
 20
71.6854465693
 30
0.0
  0
SPLINE
  5
3C4
100
AcDbEntity
  8
0
100
AcDbSpline
 62
7
  6
CONTINUOUS
 70
0
 71
3
 72
9
 73
5
 74
0
 42
0.0000001
 43
0.0000001
 44
0.0000000001
 40
0.0
 40
0.0
 40
0.0
 40
0.0
 40
0.2555198164
 40
1.0
 40
1.0
 40
1.0
 40
1.0
 10
220.1344041011
 20
71.6854465693
 30
0.0
 10
220.1815199505
 20
71.689217516
 30
0.0
 10
220.3654256396
 20
71.7093407937
 30
0.0
 10
220.547031954
 20
71.7517433929
 30
0.0
 10
220.6773616814
 20
71.7962367643
 30
0.0
  0
SPLINE
  5
3C5
100
AcDbEntity
  8
0
100
AcDbSpline
 62
7
  6
CONTINUOUS
 70
0
 71
3
 72
11
 73
7
 74
0
 42
0.0000001
 43
0.0000001
 44
0.0000000001
 40
0.0
 40
0.0
 40
0.0
 40
0.0
 40
0.2372413576
 40
0.5000010231
 40
0.762760128
 40
1.0
 40
1.0
 40
1.0
 40
1.0
 10
34.8867228669
 20
182.8934100192
 30
0.0
 10
34.8867228669
 20
182.1978893247
 30
0.0
 10
35.1476091066
 20
180.7310917789
 30
0.0
 10
36.0568488272
 20
178.6699909602
 30
0.0
 10
37.3872000963
 20
176.8520252792
 30
0.0
 10
38.5270429926
 20
175.8927032585
 30
0.0
 10
39.1293812177
 20
175.5449509893
 30
0.0
  0
SPLINE
  5
3C6
100
AcDbEntity
  8
0
100
AcDbSpline
 62
7
  6
CONTINUOUS
 70
0
 71
3
 72
11
 73
7
 74
0
 42
0.0000001
 43
0.0000001
 44
0.0000000001
 40
0.0
 40
0.0
 40
0.0
 40
0.0
 40
0.237239768
 40
0.4999988393
 40
0.7627585384
 40
1.0
 40
1.0
 40
1.0
 40
1.0
 10
217.607621719
 20
231.2352171819
 30
0.0
 10
218.2099596801
 20
230.8874650651
 30
0.0
 10
219.3498023218
 20
229.9281434068
 30
0.0
 10
220.6801535945
 20
228.110178103
 30
0.0
 10
221.5893936436
 20
226.0490770988
 30
0.0
 10
221.8502800699
 20
224.5822791513
 30
0.0
 10
221.8502800699
 20
223.886758152
 30
0.0
  0
SPLINE
  5
3C7
100
AcDbEntity
  8
0
100
AcDbSpline
 62
7
  6
CONTINUOUS
 70
0
 71
3
 72
9
 73
5
 74
0
 42
0.0000001
 43
0.0000001
 44
0.0000000001
 40
0.0
 40
0.0
 40
0.0
 40
0.0
 40
0.2605126788
 40
1.0
 40
1.0
 40
1.0
 40
1.0
 10
221.8502800699
 20
75.4466187172
 30
0.0
 10
221.8502800699
 20
75.3613771123
 30
0.0
 10
221.842794834
 20
75.0342704193
 30
0.0
 10
221.8046039762
 20
74.7074244175
 30
0.0
 10
221.7552031004
 20
74.4705555365
 30
0.0
  0
SPLINE
  5
3C8
100
AcDbEntity
  8
0
100
AcDbSpline
 62
7
  6
CONTINUOUS
 70
0
 71
3
 72
9
 73
5
 74
0
 42
0.0000001
 43
0.0000001
 44
0.0000000001
 40
0.0
 40
0.0
 40
0.0
 40
0.0
 40
0.5323020253
 40
1.0
 40
1.0
 40
1.0
 40
1.0
 10
221.7552031004
 20
74.4705555365
 30
0.0
 10
221.6770030952
 20
74.0955996793
 30
0.0
 10
221.4297019568
 20
73.4004329793
 30
0.0
 10
220.8990435154
 20
72.8681967119
 30
0.0
 10
220.6075933189
 20
72.6999289956
 30
0.0
  0
SPLINE
  5
3C9
100
AcDbEntity
  8
0
100
AcDbSpline
 62
7
  6
CONTINUOUS
 70
0
 71
3
 72
11
 73
7
 74
0
 42
0.0000001
 43
0.0000001
 44
0.0000000001
 40
0.0
 40
0.0
 40
0.0
 40
0.0
 40
0.2177489406
 40
0.4508885058
 40
0.7104637156
 40
1.0
 40
1.0
 40
1.0
 40
1.0
 10
65.4186058195
 20
299.6103823353
 30
0.0
 10
65.5175442342
 20
299.6675041618
 30
0.0
 10
65.7028460496
 20
299.8229245457
 30
0.0
 10
65.8999720274
 20
300.1453488562
 30
0.0
 10
66.0168478695
 20
300.5425575519
 30
0.0
 10
66.0400598069
 20
300.8316116879
 30
0.0
 10
66.040068991
 20
300.9835197076
 30
0.0
  0
SPLINE
  5
3CA
100
AcDbEntity
  8
0
100
AcDbSpline
 62
7
  6
CONTINUOUS
 70
0
 71
3
 72
9
 73
5
 74
0
 42
0.0000001
 43
0.0000001
 44
0.0000000001
 40
0.0
 40
0.0
 40
0.0
 40
0.0
 40
0.2578773763
 40
1.0
 40
1.0
 40
1.0
 40
1.0
 10
39.3113207916
 20
333.8881702045
 30
0.0
 10
39.2542885549
 20
333.9210970369
 30
0.0
 10
39.0309050353
 20
334.0448537522
 30
0.0
 10
38.7984715411
 20
334.1525680483
 30
0.0
 10
38.6217440011
 20
334.221010213
 30
0.0
  0
SPLINE
  5
3CB
100
AcDbEntity
  8
0
100
AcDbSpline
 62
7
  6
CONTINUOUS
 70
0
 71
3
 72
10
 73
6
 74
0
 42
0.0000001
 43
0.0000001
 44
0.0000000001
 40
0.0
 40
0.0
 40
0.0
 40
0.0
 40
0.5346172526
 40
0.7724869237
 40
1.0
 40
1.0
 40
1.0
 40
1.0
 10
38.6217440011
 20
334.221010213
 30
0.0
 10
38.2262785101
 20
334.3741641259
 30
0.0
 10
37.6084281052
 20
334.5166341985
 30
0.0
 10
36.8146202718
 20
334.4164539558
 30
0.0
 10
36.4676455088
 20
334.2755271605
 30
0.0
 10
36.3113491919
 20
334.1852899505
 30
0.0
  0
SPLINE
  5
3CC
100
AcDbEntity
  8
0
100
AcDbSpline
 62
7
  6
CONTINUOUS
 70
0
 71
3
 72
11
 73
7
 74
0
 42
0.0000001
 43
0.0000001
 44
0.0000000001
 40
0.0
 40
0.0
 40
0.0
 40
0.0
 40
0.2379167929
 40
0.5000011517
 40
0.7620848811
 40
1.0
 40
1.0
 40
1.0
 40
1.0
 10
221.6032865341
 20
223.8468108354
 30
0.0
 10
221.5910630664
 20
224.5281768106
 30
0.0
 10
221.323047217
 20
225.9570495456
 30
0.0
 10
220.4305047791
 20
227.9660515167
 30
0.0
 10
219.1369216833
 20
229.7435054688
 30
0.0
 10
218.0334864239
 20
230.6900375372
 30
0.0
 10
217.4495179497
 20
231.0412971155
 30
0.0
  0
SPLINE
  5
3CD
100
AcDbEntity
  8
0
100
AcDbSpline
 62
7
  6
CONTINUOUS
 70
0
 71
3
 72
9
 73
5
 74
0
 42
0.0000001
 43
0.0000001
 44
0.0000000001
 40
0.0
 40
0.0
 40
0.0
 40
0.0
 40
0.5542426647
 40
1.0
 40
1.0
 40
1.0
 40
1.0
 10
128.0861422272
 20
298.4358904762
 30
0.0
 10
128.1291531646
 20
298.4110586587
 30
0.0
 10
128.2025835759
 20
298.3550805479
 30
0.0
 10
128.2380816187
 20
298.2648892648
 30
0.0
 10
128.2372035555
 20
298.224955577
 30
0.0
  0
SPLINE
  5
3CE
100
AcDbEntity
  8
0
100
AcDbSpline
 62
7
  6
CONTINUOUS
 70
0
 71
3
 72
9
 73
5
 74
0
 42
0.0000001
 43
0.0000001
 44
0.0000000001
 40
0.0
 40
0.0
 40
0.0
 40
0.0
 40
0.227267508
 40
1.0
 40
1.0
 40
1.0
 40
1.0
 10
120.2767512749
 20
302.4993030037
 30
0.0
 10
120.3132898618
 20
302.5193135381
 30
0.0
 10
120.4844188979
 20
302.5876034751
 30
0.0
 10
120.6765826463
 20
302.5960482154
 30
0.0
 10
120.8163232003
 20
302.5728958406
 30
0.0
  0
SPLINE
  5
3CF
100
AcDbEntity
  8
0
100
AcDbSpline
 62
7
  6
CONTINUOUS
 70
0
 71
3
 72
9
 73
5
 74
0
 42
0.0000001
 43
0.0000001
 44
0.0000000001
 40
0.0
 40
0.0
 40
0.0
 40
0.0
 40
0.2669638611
 40
1.0
 40
1.0
 40
1.0
 40
1.0
 10
120.8163232003
 20
302.5728958406
 30
0.0
 10
120.8397561259
 20
302.5690134467
 30
0.0
 10
120.9268295695
 20
302.5510185555
 30
0.0
 10
121.0119460837
 20
302.5200875126
 30
0.0
 10
121.0684284524
 20
302.4874781365
 30
0.0
  0
SPLINE
  5
3D0
100
AcDbEntity
  8
0
100
AcDbSpline
 62
7
  6
CONTINUOUS
 70
0
 71
3
 72
9
 73
5
 74
0
 42
0.0000001
 43
0.0000001
 44
0.0000000001
 40
0.0
 40
0.0
 40
0.0
 40
0.0
 40
0.4999988717
 40
1.0
 40
1.0
 40
1.0
 40
1.0
 10
51.7564519535
 20
191.5719828904
 30
0.0
 10
51.5465719315
 20
191.6931544364
 30
0.0
 10
51.2149632346
 20
192.0758498028
 30
0.0
 10
51.0493422284
 20
192.5543777645
 30
0.0
 10
51.0493422284
 20
192.7967260621
 30
0.0
  0
SPLINE
  5
3D1
100
AcDbEntity
  8
0
100
AcDbSpline
 62
7
  6
CONTINUOUS
 70
0
 71
3
 72
9
 73
5
 74
0
 42
0.0000001
 43
0.0000001
 44
0.0000000001
 40
0.0
 40
0.0
 40
0.0
 40
0.0
 40
0.5437378972
 40
1.0
 40
1.0
 40
1.0
 40
1.0
 10
66.1107793747
 20
301.024344123
 30
0.0
 10
66.1107651632
 20
300.789280589
 30
0.0
 10
66.0602049521
 20
300.3526539753
 30
0.0
 10
65.8437456649
 20
299.9580079089
 30
0.0
 10
65.7049214756
 20
299.8178859594
 30
0.0
  0
SPLINE
  5
3D2
100
AcDbEntity
  8
0
100
AcDbSpline
 62
7
  6
CONTINUOUS
 70
0
 71
3
 72
11
 73
7
 74
0
 42
0.0000001
 43
0.0000001
 44
0.0000000001
 40
0.0
 40
0.0
 40
0.0
 40
0.0
 40
0.2372546155
 40
0.4999990758
 40
0.7627440402
 40
1.0
 40
1.0
 40
1.0
 40
1.0
 10
63.9894501992
 20
307.3113813729
 30
0.0
 10
64.2906243573
 20
307.1374780481
 30
0.0
 10
64.8605665766
 20
306.6578378247
 30
0.0
 10
65.525523117
 20
305.7487493843
 30
0.0
 10
65.9803437384
 20
304.7183360399
 30
0.0
 10
66.1107583503
 20
303.9849299621
 30
0.0
 10
66.1107793747
 20
303.6371518575
 30
0.0
  0
SPLINE
  5
3D3
100
AcDbEntity
  8
0
100
AcDbSpline
 62
7
  6
CONTINUOUS
 70
0
 71
3
 72
9
 73
5
 74
0
 42
0.0000001
 43
0.0000001
 44
0.0000000001
 40
0.0
 40
0.0
 40
0.0
 40
0.0
 40
0.5437378972
 40
1.0
 40
1.0
 40
1.0
 40
1.0
 10
219.4828787591
 20
76.5292720155
 30
0.0
 10
219.4828645476
 20
76.2942084814
 30
0.0
 10
219.4323043365
 20
75.8575818678
 30
0.0
 10
219.2158450492
 20
75.4629358014
 30
0.0
 10
219.0770208599
 20
75.3228138519
 30
0.0
  0
SPLINE
  5
3D4
100
AcDbEntity
  8
0
100
AcDbSpline
 62
7
  6
CONTINUOUS
 70
0
 71
3
 72
11
 73
7
 74
0
 42
0.0000001
 43
0.0000001
 44
0.0000000001
 40
0.0
 40
0.0
 40
0.0
 40
0.0
 40
0.2372546155
 40
0.4999990758
 40
0.7627440402
 40
1.0
 40
1.0
 40
1.0
 40
1.0
 10
217.3615495833
 20
88.6951266688
 30
0.0
 10
217.6627237414
 20
88.5212233441
 30
0.0
 10
218.2326659607
 20
88.0415831208
 30
0.0
 10
218.8976225012
 20
87.1324946805
 30
0.0
 10
219.3524431227
 20
86.1020813362
 30
0.0
 10
219.4828577346
 20
85.3686752584
 30
0.0
 10
219.4828787591
 20
85.0208971537
 30
0.0
  0
SPLINE
  5
3D5
100
AcDbEntity
  8
0
100
AcDbSpline
 62
7
  6
CONTINUOUS
 70
0
 71
3
 72
9
 73
5
 74
0
 42
0.0000001
 43
0.0000001
 44
0.0000000001
 40
0.0
 40
0.0
 40
0.0
 40
0.0
 40
0.2206226777
 40
1.0
 40
1.0
 40
1.0
 40
1.0
 10
51.2811887657
 20
303.6544639394
 30
0.0
 10
51.2548653414
 20
303.6327098629
 30
0.0
 10
51.1501953771
 20
303.5155633951
 30
0.0
 10
51.1200526121
 20
303.3493133346
 30
0.0
 10
51.1200526121
 20
303.2286772727
 30
0.0
  0
SPLINE
  5
3D6
100
AcDbEntity
  8
0
100
AcDbSpline
 62
7
  6
CONTINUOUS
 70
0
 71
3
 72
9
 73
5
 74
0
 42
0.0000001
 43
0.0000001
 44
0.0000000001
 40
0.0
 40
0.0
 40
0.0
 40
0.0
 40
0.28927731
 40
1.0
 40
1.0
 40
1.0
 40
1.0
 10
204.9871288055
 20
103.1878598759
 30
0.0
 10
205.0257689143
 20
103.1655515034
 30
0.0
 10
205.1629387078
 20
103.0978250021
 30
0.0
 10
205.3336995073
 20
103.0762568989
 30
0.0
 10
205.436425497
 20
103.1145189619
 30
0.0
  0
SPLINE
  5
3D7
100
AcDbEntity
  8
0
100
AcDbSpline
 62
7
  6
CONTINUOUS
 70
0
 71
3
 72
9
 73
5
 74
0
 42
0.0000001
 43
0.0000001
 44
0.0000000001
 40
0.0
 40
0.0
 40
0.0
 40
0.0
 40
0.5000011283
 40
1.0
 40
1.0
 40
1.0
 40
1.0
 10
51.1200526121
 20
192.8375504775
 30
0.0
 10
51.1200526121
 20
192.5952021799
 30
0.0
 10
51.2856736184
 20
192.1166742182
 30
0.0
 10
51.6172823152
 20
191.7339788518
 30
0.0
 10
51.8271623372
 20
191.6128073058
 30
0.0
  0
SPLINE
  5
3D8
100
AcDbEntity
  8
0
100
AcDbSpline
 62
7
  6
CONTINUOUS
 70
0
 71
3
 72
9
 73
5
 74
0
 42
0.0000001
 43
0.0000001
 44
0.0000000001
 40
0.0
 40
0.0
 40
0.0
 40
0.0
 40
0.5542426638
 40
1.0
 40
1.0
 40
1.0
 40
1.0
 10
124.211257001
 20
307.0384010748
 30
0.0
 10
124.252742913
 20
307.0144497
 30
0.0
 10
124.3235697328
 20
306.9604563878
 30
0.0
 10
124.3578091461
 20
306.8734629792
 30
0.0
 10
124.3569622152
 20
306.8349452031
 30
0.0
  0
SPLINE
  5
3D9
100
AcDbEntity
  8
0
100
AcDbSpline
 62
7
  6
CONTINUOUS
 70
0
 71
3
 72
9
 73
5
 74
0
 42
0.0000001
 43
0.0000001
 44
0.0000000001
 40
0.0
 40
0.0
 40
0.0
 40
0.0
 40
0.4983142465
 40
1.0
 40
1.0
 40
1.0
 40
1.0
 10
122.0962096967
 20
307.8709487033
 30
0.0
 10
122.1995695042
 20
307.927554208
 30
0.0
 10
122.4429240648
 20
307.9688218456
 30
0.0
 10
122.6843363013
 20
307.9199496246
 30
0.0
 10
122.7870840912
 20
307.8606294744
 30
0.0
  0
SPLINE
  5
3DA
100
AcDbEntity
  8
0
100
AcDbSpline
 62
7
  6
CONTINUOUS
 70
0
 71
3
 72
11
 73
7
 74
0
 42
0.0000001
 43
0.0000001
 44
0.0000000001
 40
0.0
 40
0.0
 40
0.0
 40
0.0
 40
0.2895352454
 40
0.5491102999
 40
0.7822502503
 40
1.0
 40
1.0
 40
1.0
 40
1.0
 10
53.0999610207
 20
313.5166405014
 30
0.0
 10
52.968403472
 20
313.5925829646
 30
0.0
 10
52.7064756232
 20
313.7170016276
 30
0.0
 10
52.3040553617
 20
313.8143827376
 30
0.0
 10
51.9262745068
 20
313.8048768605
 30
0.0
 10
51.6990311525
 20
313.7221133965
 30
0.0
 10
51.6000950169
 20
313.6649928858
 30
0.0
  0
SPLINE
  5
3DB
100
AcDbEntity
  8
0
100
AcDbSpline
 62
7
  6
CONTINUOUS
 70
0
 71
3
 72
11
 73
7
 74
0
 42
0.0000001
 43
0.0000001
 44
0.0000000001
 40
0.0
 40
0.0
 40
0.0
 40
0.0
 40
0.2372562049
 40
0.5000012589
 40
0.7627456297
 40
1.0
 40
1.0
 40
1.0
 40
1.0
 10
66.040068991
 20
303.5963274421
 30
0.0
 10
66.0400479665
 20
303.9441059061
 30
0.0
 10
65.9096331415
 20
304.6775124741
 30
0.0
 10
65.4548121185
 20
305.7079260337
 30
0.0
 10
64.7898555639
 20
306.6170140185
 30
0.0
 10
64.2199136628
 20
307.0966538121
 30
0.0
 10
63.9187398159
 20
307.2705569571
 30
0.0
  0
SPLINE
  5
3DC
100
AcDbEntity
  8
0
100
AcDbSpline
 62
7
  6
CONTINUOUS
 70
0
 71
3
 72
9
 73
5
 74
0
 42
0.0000001
 43
0.0000001
 44
0.0000000001
 40
0.0
 40
0.0
 40
0.0
 40
0.0
 40
0.4676996264
 40
1.0
 40
1.0
 40
1.0
 40
1.0
 10
36.5574213271
 20
334.327358916
 30
0.0
 10
36.8488610906
 20
334.4956206088
 30
0.0
 10
37.5750888185
 20
334.6890618761
 30
0.0
 10
38.3007444837
 20
334.5556646072
 30
0.0
 10
38.664552303
 20
334.4359208952
 30
0.0
  0
SPLINE
  5
3DD
100
AcDbEntity
  8
0
100
AcDbSpline
 62
7
  6
CONTINUOUS
 70
0
 71
3
 72
9
 73
5
 74
0
 42
0.0000001
 43
0.0000001
 44
0.0000000001
 40
0.0
 40
0.0
 40
0.0
 40
0.0
 40
0.2396416542
 40
1.0
 40
1.0
 40
1.0
 40
1.0
 10
38.664552303
 20
334.4359208952
 30
0.0
 10
38.739038237
 20
334.4114045936
 30
0.0
 10
39.0468395305
 20
334.2999895443
 30
0.0
 10
39.341917115
 20
334.1546413738
 30
0.0
 10
39.557392927
 20
334.0302391701
 30
0.0
  0
SPLINE
  5
3DE
100
AcDbEntity
  8
0
100
AcDbSpline
 62
7
  6
CONTINUOUS
 70
0
 71
3
 72
9
 73
5
 74
0
 42
0.0000001
 43
0.0000001
 44
0.0000000001
 40
0.0
 40
0.0
 40
0.0
 40
0.0
 40
0.5542426642
 40
1.0
 40
1.0
 40
1.0
 40
1.0
 10
137.6476907496
 20
299.2810480658
 30
0.0
 10
137.6890175381
 20
299.257188564
 30
0.0
 10
137.759572691
 20
299.2034023486
 30
0.0
 10
137.7936807695
 20
299.1167426164
 30
0.0
 10
137.7928370875
 20
299.0783725812
 30
0.0
  0
SPLINE
  5
3DF
100
AcDbEntity
  8
0
100
AcDbSpline
 62
7
  6
CONTINUOUS
 70
0
 71
3
 72
11
 73
7
 74
0
 42
0.0000001
 43
0.0000001
 44
0.0000000001
 40
0.0
 40
0.0
 40
0.0
 40
0.0
 40
0.2895352454
 40
0.5491102999
 40
0.7822502503
 40
1.0
 40
1.0
 40
1.0
 40
1.0
 10
192.5419988198
 20
102.9427286609
 30
0.0
 10
192.4104412711
 20
103.0186711241
 30
0.0
 10
192.1485134222
 20
103.1430897871
 30
0.0
 10
191.7460931607
 20
103.2404708972
 30
0.0
 10
191.3683123058
 20
103.2309650201
 30
0.0
 10
191.1410689515
 20
103.1482015561
 30
0.0
 10
191.0421328158
 20
103.0910810454
 30
0.0
  0
SPLINE
  5
3E0
100
AcDbEntity
  8
0
100
AcDbSpline
 62
7
  6
CONTINUOUS
 70
0
 71
3
 72
11
 73
7
 74
0
 42
0.0000001
 43
0.0000001
 44
0.0000000001
 40
0.0
 40
0.0
 40
0.0
 40
0.0
 40
0.237256205
 40
0.500001259
 40
0.7627456297
 40
1.0
 40
1.0
 40
1.0
 40
1.0
 10
219.4121683754
 20
84.9800727383
 30
0.0
 10
219.4121473508
 20
85.3278512023
 30
0.0
 10
219.2817325258
 20
86.0612577703
 30
0.0
 10
218.8269115026
 20
87.09167133
 30
0.0
 10
218.1619549479
 20
88.0007593147
 30
0.0
 10
217.5920130468
 20
88.4803991082
 30
0.0
 10
217.2908391999
 20
88.6543022532
 30
0.0
  0
SPLINE
  5
3E1
100
AcDbEntity
  8
0
100
AcDbSpline
 62
7
  6
CONTINUOUS
 70
0
 71
3
 72
9
 73
5
 74
0
 42
0.0000001
 43
0.0000001
 44
0.0000000001
 40
0.0
 40
0.0
 40
0.0
 40
0.0
 40
0.4983142472
 40
1.0
 40
1.0
 40
1.0
 40
1.0
 10
135.5514817081
 20
300.1254300035
 30
0.0
 10
135.6488001815
 20
300.17872694
 30
0.0
 10
135.8779307763
 20
300.217582509
 30
0.0
 10
136.1052325685
 20
300.1715668355
 30
0.0
 10
136.2019747995
 20
300.115713929
 30
0.0
  0
SPLINE
  5
3E2
100
AcDbEntity
  8
0
100
AcDbSpline
 62
7
  6
CONTINUOUS
 70
0
 71
3
 72
10
 73
6
 74
0
 42
0.0000001
 43
0.0000001
 44
0.0000000001
 40
0.0
 40
0.0
 40
0.0
 40
0.0
 40
0.2275119716
 40
0.4653810942
 40
1.0
 40
1.0
 40
1.0
 40
1.0
 10
220.3615211834
 20
72.55786003
 30
0.0
 10
220.5178222706
 20
72.6480999941
 30
0.0
 10
220.8133657149
 20
72.8781327624
 30
0.0
 10
221.2970414067
 20
73.5155264384
 30
0.0
 10
221.4825824175
 20
74.1218611899
 30
0.0
 10
221.5476764973
 20
74.5409383591
 30
0.0
  0
SPLINE
  5
3E3
100
AcDbEntity
  8
0
100
AcDbSpline
 62
7
  6
CONTINUOUS
 70
0
 71
3
 72
9
 73
5
 74
0
 42
0.0000001
 43
0.0000001
 44
0.0000000001
 40
0.0
 40
0.0
 40
0.0
 40
0.0
 40
0.2421914331
 40
1.0
 40
1.0
 40
1.0
 40
1.0
 10
221.5476764973
 20
74.5409383591
 30
0.0
 10
221.5571697048
 20
74.6020558448
 30
0.0
 10
221.5910139088
 20
74.855226686
 30
0.0
 10
221.6042079345
 20
75.1110221018
 30
0.0
 10
221.6042079345
 20
75.3045497516
 30
0.0
  0
SPLINE
  5
3E4
100
AcDbEntity
  8
0
100
AcDbSpline
 62
7
  6
CONTINUOUS
 70
0
 71
3
 72
13
 73
9
 74
0
 42
0.0000001
 43
0.0000001
 44
0.0000000001
 40
0.0
 40
0.0
 40
0.0
 40
0.0
 40
0.0879795575
 40
0.1844340081
 40
0.2943926131
 40
0.4189587678
 40
0.7016521556
 40
1.0
 40
1.0
 40
1.0
 40
1.0
 10
222.7593961914
 20
240.560381971
 30
0.0
 10
222.837872616
 20
240.605616167
 30
0.0
 10
223.0240463353
 20
240.6661388504
 30
0.0
 10
223.3317776205
 20
240.6472387982
 30
0.0
 10
223.6558857188
 20
240.5313830891
 30
0.0
 10
224.1096377885
 20
240.2467759467
 30
0.0
 10
224.6122489275
 20
239.7061869594
 30
0.0
 10
224.8984096348
 20
239.1723428375
 30
0.0
 10
225.0043999092
 20
238.8840434843
 30
0.0
  0
SPLINE
  5
3E5
100
AcDbEntity
  8
0
100
AcDbSpline
 62
7
  6
CONTINUOUS
 70
0
 71
3
 72
9
 73
5
 74
0
 42
0.0000001
 43
0.0000001
 44
0.0000000001
 40
0.0
 40
0.0
 40
0.0
 40
0.0
 40
0.2461245467
 40
1.0
 40
1.0
 40
1.0
 40
1.0
 10
35.7582418816
 20
334.793149041
 30
0.0
 10
35.7305947465
 20
334.7673284794
 30
0.0
 10
35.621087917
 20
334.6594221182
 30
0.0
 10
35.523166504
 20
334.5398812303
 30
0.0
 10
35.4564325194
 20
334.4451571911
 30
0.0
  0
SPLINE
  5
3E6
100
AcDbEntity
  8
0
100
AcDbSpline
 62
7
  6
CONTINUOUS
 70
0
 71
3
 72
9
 73
5
 74
0
 42
0.0000001
 43
0.0000001
 44
0.0000000001
 40
0.0
 40
0.0
 40
0.0
 40
0.0
 40
0.2244731955
 40
1.0
 40
1.0
 40
1.0
 40
1.0
 10
35.4564325194
 20
334.4451571911
 30
0.0
 10
35.3608136521
 20
334.3094331608
 30
0.0
 10
34.9976412116
 20
333.6599125509
 30
0.0
 10
34.8867228669
 20
332.8955953733
 30
0.0
 10
34.8867228669
 20
332.3220031054
 30
0.0
  0
SPLINE
  5
3E7
100
AcDbEntity
  8
0
100
AcDbSpline
 62
7
  6
CONTINUOUS
 70
0
 71
3
 72
11
 73
7
 74
0
 42
0.0000001
 43
0.0000001
 44
0.0000000001
 40
0.0
 40
0.0
 40
0.0
 40
0.0
 40
0.2177843137
 40
0.4509117637
 40
0.7102976701
 40
1.0
 40
1.0
 40
1.0
 40
1.0
 10
220.6820531095
 20
71.7544730077
 30
0.0
 10
220.4841379261
 20
71.6402073928
 30
0.0
 10
220.0293970227
 20
71.4751781947
 30
0.0
 10
219.2740801316
 20
71.4560537166
 30
0.0
 10
218.4690893423
 20
71.6504446415
 30
0.0
 10
217.945354454
 20
71.899595487
 30
0.0
 10
217.6820815097
 20
72.0515927536
 30
0.0
  0
SPLINE
  5
3E8
100
AcDbEntity
  8
0
100
AcDbSpline
 62
7
  6
CONTINUOUS
 70
0
 71
3
 72
11
 73
7
 74
0
 42
0.0000001
 43
0.0000001
 44
0.0000000001
 40
0.0
 40
0.0
 40
0.0
 40
0.0
 40
0.2180793151
 40
0.4501761012
 40
0.7090259203
 40
1.0
 40
1.0
 40
1.0
 40
1.0
 10
34.9231949353
 20
336.0449909036
 30
0.0
 10
35.1376544924
 20
336.1893926349
 30
0.0
 10
35.640074607
 20
336.4062215443
 30
0.0
 10
36.4923896796
 20
336.4593696801
 30
0.0
 10
37.4060249534
 20
336.2537143853
 30
0.0
 10
38.0001234312
 20
335.9742538305
 30
0.0
 10
38.2988829587
 20
335.8017929215
 30
0.0
  0
SPLINE
  5
3E9
100
AcDbEntity
  8
0
100
AcDbSpline
 62
7
  6
CONTINUOUS
 70
0
 71
3
 72
9
 73
5
 74
0
 42
0.0000001
 43
0.0000001
 44
0.0000000001
 40
0.0
 40
0.0
 40
0.0
 40
0.0
 40
0.2463573079
 40
1.0
 40
1.0
 40
1.0
 40
1.0
 10
65.9507724188
 20
340.5439735814
 30
0.0
 10
65.9953223516
 20
340.4901503631
 30
0.0
 10
66.1709014029
 20
340.2673676009
 30
0.0
 10
66.3262234715
 20
340.0286943777
 30
0.0
 10
66.4308993067
 20
339.8423422755
 30
0.0
  0
SPLINE
  5
3EA
100
AcDbEntity
  8
0
100
AcDbSpline
 62
7
  6
CONTINUOUS
 70
0
 71
3
 72
11
 73
7
 74
0
 42
0.0000001
 43
0.0000001
 44
0.0000000001
 40
0.0
 40
0.0
 40
0.0
 40
0.0
 40
0.2868807965
 40
0.5645990964
 40
0.8062050813
 40
1.0
 40
1.0
 40
1.0
 40
1.0
 10
239.8997648049
 20
240.1167479693
 30
0.0
 10
240.1383765524
 20
239.8284680247
 30
0.0
 10
240.5399502349
 20
239.2017780828
 30
0.0
 10
240.8959471664
 20
238.2016997272
 30
0.0
 10
240.9759686108
 20
237.2631966893
 30
0.0
 10
240.7937891386
 20
236.6937522324
 30
0.0
 10
240.6409563669
 20
236.4923883441
 30
0.0
  0
SPLINE
  5
3EB
100
AcDbEntity
  8
0
100
AcDbSpline
 62
7
  6
CONTINUOUS
 70
0
 71
3
 72
9
 73
5
 74
0
 42
0.0000001
 43
0.0000001
 44
0.0000000001
 40
0.0
 40
0.0
 40
0.0
 40
0.0
 40
0.2565195469
 40
1.0
 40
1.0
 40
1.0
 40
1.0
 10
240.6409563669
 20
236.4923883441
 30
0.0
 10
240.6207718441
 20
236.465794349
 30
0.0
 10
240.5374974514
 20
236.3657146956
 30
0.0
 10
240.4343269429
 20
236.2819649874
 30
0.0
 10
240.3505039897
 20
236.2336201178
 30
0.0
  0
SPLINE
  5
3EC
100
AcDbEntity
  8
0
100
AcDbSpline
 62
7
  6
CONTINUOUS
 70
0
 71
3
 72
10
 73
6
 74
0
 42
0.0000001
 43
0.0000001
 44
0.0000000001
 40
0.0
 40
0.0
 40
0.0
 40
0.0
 40
0.5479863716
 40
0.7910269964
 40
1.0
 40
1.0
 40
1.0
 40
1.0
 10
240.2439843255
 20
95.9379217817
 30
0.0
 10
240.5313737135
 20
95.4857774495
 30
0.0
 10
240.8483829526
 20
94.7554332678
 30
0.0
 10
240.9589648295
 20
93.7787041352
 30
0.0
 10
240.8942827262
 20
93.3326627702
 30
0.0
 10
240.8265117501
 20
93.1399241117
 30
0.0
  0
SPLINE
  5
3ED
100
AcDbEntity
  8
0
100
AcDbSpline
 62
7
  6
CONTINUOUS
 70
0
 71
3
 72
9
 73
5
 74
0
 42
0.0000001
 43
0.0000001
 44
0.0000000001
 40
0.0
 40
0.0
 40
0.0
 40
0.0
 40
0.2685330447
 40
1.0
 40
1.0
 40
1.0
 40
1.0
 10
240.8265117501
 20
93.1399241117
 30
0.0
 10
240.8067727587
 20
93.0837870019
 30
0.0
 10
240.7216320934
 20
92.8794064975
 30
0.0
 10
240.5806408994
 20
92.6953432554
 30
0.0
 10
240.4519141922
 20
92.5968390728
 30
0.0
  0
SPLINE
  5
3EE
100
AcDbEntity
  8
0
100
AcDbSpline
 62
7
  6
CONTINUOUS
 70
0
 71
3
 72
9
 73
5
 74
0
 42
0.0000001
 43
0.0000001
 44
0.0000000001
 40
0.0
 40
0.0
 40
0.0
 40
0.0
 40
0.2212370279
 40
1.0
 40
1.0
 40
1.0
 40
1.0
 10
132.9201949234
 20
299.9537118586
 30
0.0
 10
132.9045122734
 20
299.9585410734
 30
0.0
 10
132.8302664448
 20
299.9698998731
 30
0.0
 10
132.7551058356
 20
299.9426586499
 30
0.0
 10
132.7050827836
 20
299.9137779998
 30
0.0
  0
SPLINE
  5
3EF
100
AcDbEntity
  8
0
100
AcDbSpline
 62
7
  6
CONTINUOUS
 70
0
 71
3
 72
9
 73
5
 74
0
 42
0.0000001
 43
0.0000001
 44
0.0000000001
 40
0.0
 40
0.0
 40
0.0
 40
0.0
 40
0.4999984055
 40
1.0
 40
1.0
 40
1.0
 40
1.0
 10
132.330042846
 20
299.6972498834
 30
0.0
 10
132.2672514973
 20
299.6609974976
 30
0.0
 10
132.1720687606
 20
299.5435072806
 30
0.0
 10
132.1179116948
 20
299.4023314711
 30
0.0
 10
132.1179116944
 20
299.3298259127
 30
0.0
  0
SPLINE
  5
3F0
100
AcDbEntity
  8
0
100
AcDbSpline
 62
7
  6
CONTINUOUS
 70
0
 71
3
 72
9
 73
5
 74
0
 42
0.0000001
 43
0.0000001
 44
0.0000000001
 40
0.0
 40
0.0
 40
0.0
 40
0.0
 40
0.2632249815
 40
1.0
 40
1.0
 40
1.0
 40
1.0
 10
67.3564708243
 20
334.5335811963
 30
0.0
 10
67.2983788902
 20
334.5912177038
 30
0.0
 10
67.0714650054
 20
334.8036425731
 30
0.0
 10
66.8189642056
 20
334.9901056187
 30
0.0
 10
66.6196598496
 20
335.102991033
 30
0.0
  0
SPLINE
  5
3F1
100
AcDbEntity
  8
0
100
AcDbSpline
 62
7
  6
CONTINUOUS
 70
0
 71
3
 72
9
 73
5
 74
0
 42
0.0000001
 43
0.0000001
 44
0.0000000001
 40
0.0
 40
0.0
 40
0.0
 40
0.0
 40
0.2617029561
 40
1.0
 40
1.0
 40
1.0
 40
1.0
 10
66.4380395582
 20
335.1968314468
 30
0.0
 10
66.4008760427
 20
335.2141829403
 30
0.0
 10
66.2572587689
 20
335.2768837782
 30
0.0
 10
66.1067991374
 20
335.3246600326
 30
0.0
 10
65.9935202878
 20
335.3482423443
 30
0.0
  0
SPLINE
  5
3F2
100
AcDbEntity
  8
0
100
AcDbSpline
 62
7
  6
CONTINUOUS
 70
0
 71
3
 72
9
 73
5
 74
0
 42
0.0000001
 43
0.0000001
 44
0.0000000001
 40
0.0
 40
0.0
 40
0.0
 40
0.0
 40
0.2681332478
 40
1.0
 40
1.0
 40
1.0
 40
1.0
 10
65.9935202878
 20
335.3482423443
 30
0.0
 10
65.9341625213
 20
335.3605994027
 30
0.0
 10
65.7108525612
 20
335.3949553423
 30
0.0
 10
65.4766797856
 20
335.3751970633
 30
0.0
 10
65.3200263716
 20
335.3218433275
 30
0.0
  0
SPLINE
  5
3F3
100
AcDbEntity
  8
0
100
AcDbSpline
 62
7
  6
CONTINUOUS
 70
0
 71
3
 72
9
 73
5
 74
0
 42
0.0000001
 43
0.0000001
 44
0.0000000001
 40
0.0
 40
0.0
 40
0.0
 40
0.0
 40
0.2632249815
 40
1.0
 40
1.0
 40
1.0
 40
1.0
 10
227.1632687076
 20
242.2711706747
 30
0.0
 10
227.1051767734
 20
242.3288071822
 30
0.0
 10
226.8782628886
 20
242.5412320515
 30
0.0
 10
226.6257620888
 20
242.7276950971
 30
0.0
 10
226.4264577328
 20
242.8405805114
 30
0.0
  0
SPLINE
  5
3F4
100
AcDbEntity
  8
0
100
AcDbSpline
 62
7
  6
CONTINUOUS
 70
0
 71
3
 72
9
 73
5
 74
0
 42
0.0000001
 43
0.0000001
 44
0.0000000001
 40
0.0
 40
0.0
 40
0.0
 40
0.0
 40
0.2617029561
 40
1.0
 40
1.0
 40
1.0
 40
1.0
 10
226.2448374415
 20
242.9344209252
 30
0.0
 10
226.207673926
 20
242.9517724187
 30
0.0
 10
226.0640566521
 20
243.0144732566
 30
0.0
 10
225.9135970206
 20
243.0622495111
 30
0.0
 10
225.800318171
 20
243.0858318228
 30
0.0
  0
SPLINE
  5
3F5
100
AcDbEntity
  8
0
100
AcDbSpline
 62
7
  6
CONTINUOUS
 70
0
 71
3
 72
9
 73
5
 74
0
 42
0.0000001
 43
0.0000001
 44
0.0000000001
 40
0.0
 40
0.0
 40
0.0
 40
0.0
 40
0.2683132016
 40
1.0
 40
1.0
 40
1.0
 40
1.0
 10
225.800318171
 20
243.0858318228
 30
0.0
 10
225.7402668966
 20
243.0983332551
 30
0.0
 10
225.5144867854
 20
243.1329430015
 30
0.0
 10
225.2775626066
 20
243.1120412701
 30
0.0
 10
225.1196248331
 20
243.0569512392
 30
0.0
  0
SPLINE
  5
3F6
100
AcDbEntity
  8
0
100
AcDbSpline
 62
7
  6
CONTINUOUS
 70
0
 71
3
 72
9
 73
5
 74
0
 42
0.0000001
 43
0.0000001
 44
0.0000000001
 40
0.0
 40
0.0
 40
0.0
 40
0.0
 40
0.2208548516
 40
1.0
 40
1.0
 40
1.0
 40
1.0
 10
226.4004364282
 20
239.7245012778
 30
0.0
 10
226.4156414644
 20
239.7332798674
 30
0.0
 10
226.4920741443
 20
239.760969539
 30
0.0
 10
226.5773994958
 20
239.7325945956
 30
0.0
 10
226.6310409843
 20
239.7016253684
 30
0.0
  0
SPLINE
  5
3F7
100
AcDbEntity
  8
0
100
AcDbSpline
 62
7
  6
CONTINUOUS
 70
0
 71
3
 72
11
 73
7
 74
0
 42
0.0000001
 43
0.0000001
 44
0.0000000001
 40
0.0
 40
0.0
 40
0.0
 40
0.0
 40
0.2895391946
 40
0.5491157945
 40
0.7822541179
 40
1.0
 40
1.0
 40
1.0
 40
1.0
 10
223.7593491484
 20
241.3595599154
 30
0.0
 10
223.6234040492
 20
241.4380460794
 30
0.0
 10
223.3527397688
 20
241.5666342622
 30
0.0
 10
222.9368927937
 20
241.6672883708
 30
0.0
 10
222.5465054189
 20
241.6574816608
 30
0.0
 10
222.311678909
 20
241.5719606977
 30
0.0
 10
222.2094428154
 20
241.5129349651
 30
0.0
  0
SPLINE
  5
3F8
100
AcDbEntity
  8
0
100
AcDbSpline
 62
7
  6
CONTINUOUS
 70
0
 71
3
 72
12
 73
8
 74
0
 42
0.0000001
 43
0.0000001
 44
0.0000000001
 40
0.0
 40
0.0
 40
0.0
 40
0.0
 40
0.3078390225
 40
0.5814098308
 40
0.8082465816
 40
0.9068771081
 40
1.0
 40
1.0
 40
1.0
 40
1.0
 10
231.3192043042
 20
243.6953998904
 30
0.0
 10
231.1237177998
 20
243.9763327395
 30
0.0
 10
230.6996267891
 20
244.4723460817
 30
0.0
 10
229.9685810752
 20
245.0090014383
 30
0.0
 10
229.3149375131
 20
245.2213926843
 30
0.0
 10
228.8450515096
 20
245.1893004842
 30
0.0
 10
228.6423103897
 20
245.1115050655
 30
0.0
 10
228.5526453673
 20
245.0597418522
 30
0.0
  0
ELLIPSE
  5
3F9
100
AcDbEntity
  8
0
100
AcDbEllipse
 62
7
  6
CONTINUOUS
 10
237.9329715915
 20
94.1304952789
 30
0.0
 11
-1.5651251045
 21
2.7108923829
 31
0.0
 40
0.5773567998
 41
-3.1152615626
 42
-2.3563398875
  0
ENDSEC
  0
SECTION
  2
OBJECTS
  0
DICTIONARY
  5
C
100
AcDbDictionary
280
0
281
1
  3
ACAD_GROUP
350
D
  3
ACAD_MLINESTYLE
350
17
  3
ACAD_LAYOUT
350
1A
  3
ACAD_PLOTSETTINGS
350
19
  3
ACAD_PLOTSTYLENAME
350
E
  0
DICTIONARY
  5
D
102
{ACAD_REACTORS
330
C
102
}
100
AcDbDictionary
280
0
281
1
  0
ACDBDICTIONARYWDFLT
  5
E
102
{ACAD_REACTORS
330
C
102
}
100
AcDbDictionary
281
1
  3
Normal
350
F
100
AcDbDictionaryWithDefault
340
F
  0
DICTIONARY
  5
17
102
{ACAD_REACTORS
330
C
102
}
100
AcDbDictionary
280
0
281
1
  3
Standard
350
18
  0
DICTIONARY
  5
19
102
{ACAD_REACTORS
330
C
102
}
100
AcDbDictionary
281
1
  0
DICTIONARY
  5
1A
102
{ACAD_REACTORS
330
C
102
}
100
AcDbDictionary
281
1
  3
Model
350
3FA
  3
Layout1
350
3FB
  0
ACDBPLACEHOLDER
  5
F
102
{ACAD_REACTORS
330
E
102
}
  0
MLINESTYLE
  5
18
102
{ACAD_REACTORS
330
17
102
}
100
AcDbMlineStyle
  2
STANDARD
 70
0
  3

 62
256
 51
90.0
 52
90.0
 71
2
 49
0.5
 62
256
  6
BYLAYER
 49
-0.5
 62
256
  6
BYLAYER
  0
LAYOUT
  5
3FA
102
{ACAD_REACTORS
330
1A
102
}
100
AcDbPlotSettings
  1

  2
none_device
  4

  6

 40
0.0
 41
0.0
 42
0.0
 43
0.0
 44
210.0
 45
297.0
 46
0.0
 47
0.0
 48
0.0
 49
0.0
140
0.0
141
0.0
142
1.0
143
1.0
 70
1024
 72
1
 73
0
 74
0
  7

 75
0
147
1.0
148
0.0
149
0.0
100
AcDbLayout
  1
Model
 70
0
 71
0
 10
0.0
 20
0.0
 11
210.0
 21
297.0
 12
0.0
 22
0.0
 32
0.0
 14
0.0
 24
0.0
 34
0.0
 15
0.0
 25
0.0
 35
0.0
146
0.0
 13
0.0
 23
0.0
 33
0.0
 16
1.0
 26
0.0
 36
0.0
 17
0.0
 27
1.0
 37
0.0
 76
0
330
210
345
0
346
0
  0
LAYOUT
  5
3FB
102
{ACAD_REACTORS
330
1A
102
}
100
AcDbPlotSettings
  1

  2
none_device
  4

  6

 40
0.0
 41
0.0
 42
0.0
 43
0.0
 44
210.0
 45
297.0
 46
0.0
 47
0.0
 48
0.0
 49
0.0
140
0.0
141
0.0
142
1.0
143
1.0
 70
0
 72
1
 73
0
 74
0
  7

 75
0
147
1.0
148
0.0
149
0.0
100
AcDbLayout
  1
Layout1
 70
0
 71
1
 10
0.0
 20
0.0
 11
210.0
 21
297.0
 12
0.0
 22
0.0
 32
0.0
 14
0.0
 24
0.0
 34
0.0
 15
0.0
 25
0.0
 35
0.0
146
0.0
 13
0.0
 23
0.0
 33
0.0
 16
1.0
 26
0.0
 36
0.0
 17
0.0
 27
1.0
 37
0.0
 76
0
330
211
345
0
346
0
  0
ENDSEC
  0
EOF
