999
DXF file: C:\Users\sesa63760\Dev\_Creo\CAD\MCADID0004538_3D-CAD\drw0001_3.dxf
999
Pro/ENGINEER 2019471 by Parametric Technology Corporation
  0
SECTION
  2
HEADER
  9
$ACADVER
  1
AC1024
  9
$DWGCODEPAGE
  3
ANSI_1252
  9
$EXTMAX
 10
120.4019958889
 20
170.2828227571
 30
0.0
  9
$EXTMIN
 10
0.0
 20
0.0
 30
0.0
  9
$LIMMIN
 10
0.0
 20
0.0
  9
$LIMMAX
 10
120.4019958889
 20
170.2828227571
  9
$VIEWCTR
 10
60.2009979444
 20
85.1414113786
  9
$VIEWSIZE
 40
170.2828227571
  9
$CLAYER
  8
0
  9
$LTSCALE
 40
11.0999173353
  9
$CELTYPE
  6
BYLAYER
  9
$DIMSCALE
 40
1.0
  9
$DIMASZ
 40
1.4333570939
  9
$DIMEXO
 40
1.0
  9
$DIMDLI
 40
7.6690337953
  9
$DIMEXE
 40
1.0
  9
$DIMCEN
 40
1.8163501094
  9
$DIMLFAC
 40
1.0
  9
$DIMBLK
  1
_FILLED
  9
$DIMALT
 70
0
  9
$DIMALTF
 40
0.0393700787
  9
$DIMTXT
 40
2.0066999315
  9
$DIMTOL
 70
1
  9
$DIMLIM
 70
0
  9
$DIMTFAC
 40
1.0
  9
$DIMTP
 40
0.01
  9
$DIMTM
 40
0.01
  9
$DIMGAP
 40
0.625
  9
$DIMDSEP
 70
46
  9
$AUNITS
 70
0
  9
$PDMODE
 70
3
  9
$PDSIZE
 40
0.3125
  9
$HANDSEED
  5
268
  9
$TILEMODE
 70
1
  9
$MEASUREMENT
 70
1
  9
$INSUNITS
 70
4
  0
ENDSEC
  0
SECTION
  2
CLASSES
  0
CLASS
  1
ACDBDICTIONARYWDFLT
  2
AcDbDictionaryWithDefault
  3
AutoCAD 2000
 90
0
 91
1
280
0
281
0
  0
CLASS
  1
ACDBPLACEHOLDER
  2
AcDbPlaceHolder
  3
AutoCAD 2000
 90
0
 91
1
280
0
281
0
  0
CLASS
  1
LAYOUT
  2
AcDbLayout
  3
AutoCAD 2000
 90
0
 91
0
280
0
281
0
  0
ENDSEC
  0
SECTION
  2
TABLES
  0
TABLE
  2
VPORT
  5
8
100
AcDbSymbolTable
 70
2
  0
VPORT
  5
1F4
100
AcDbSymbolTableRecord
100
AcDbViewportTableRecord
  2
*ACTIVE
 70
0
 10
0.0
 20
0.0
 11
1.0
 21
1.0
 12
60.2009979444
 22
85.1414113786
 13
0.0
 23
0.0
 14
1.0
 24
1.0
 15
0.0
 25
0.0
 16
0.0
 26
0.0
 36
1.0
 17
0.0
 27
0.0
 37
0.0
 40
170.2828227571
 41
0.7070707071
 42
50.0
 43
0.0
 44
0.0
 50
0.0
 51
0.0
 71
0
 72
100
 73
1
 74
1
 75
0
 76
0
 77
0
 78
0
  0
ENDTAB
  0
TABLE
  2
LTYPE
  5
5
100
AcDbSymbolTable
 70
6
  0
LTYPE
  5
14
100
AcDbSymbolTableRecord
100
AcDbLinetypeTableRecord
  2
BYBLOCK
 70
0
  3

 72
65
 73
0
 40
0.0
  0
LTYPE
  5
15
100
AcDbSymbolTableRecord
100
AcDbLinetypeTableRecord
  2
BYLAYER
 70
0
  3

 72
65
 73
0
 40
0.0
  0
LTYPE
  5
16
100
AcDbSymbolTableRecord
100
AcDbLinetypeTableRecord
  2
CONTINUOUS
 70
64
  3
Solid line
 72
65
 73
0
 40
0.0
  0
LTYPE
  5
1F5
100
AcDbSymbolTableRecord
100
AcDbLinetypeTableRecord
  2
CENTER
 70
64
  3
____ _ ____ _ ____ _ ____ _ ____ _ ____ _ ____
 72
65
 73
4
 40
0.6
 49
0.375
 74
0
 49
-0.075
 74
0
 49
0.075
 74
0
 49
-0.075
 74
0
  0
LTYPE
  5
1F6
100
AcDbSymbolTableRecord
100
AcDbLinetypeTableRecord
  2
HIDDEN
 70
64
  3
- - - - - - - - - - - - - - - - - - - -
 72
65
 73
2
 40
0.2
 49
0.1
 74
0
 49
-0.1
 74
0
  0
LTYPE
  5
1F7
100
AcDbSymbolTableRecord
100
AcDbLinetypeTableRecord
  2
PHANTOM
 70
64
  3
_____ _ _ _____ _ _ _____ _ _ _____
 72
65
 73
6
 40
0.8
 49
0.45
 74
0
 49
-0.05
 74
0
 49
0.1
 74
0
 49
-0.05
 74
0
 49
0.1
 74
0
 49
-0.05
 74
0
  0
LTYPE
  5
1F8
100
AcDbSymbolTableRecord
100
AcDbLinetypeTableRecord
  2
DOT
 70
64
  3
. . . . . . . . . . . . . . . . . . . .
 72
65
 73
2
 40
0.2
 49
0.1
 74
0
 49
-0.1
 74
0
  0
LTYPE
  5
1F9
100
AcDbSymbolTableRecord
100
AcDbLinetypeTableRecord
  2
DASHED
 70
64
  3
- - - - - - - - - - - - - - - - - - - -
 72
65
 73
2
 40
0.2
 49
0.1
 74
0
 49
-0.1
 74
0
  0
ENDTAB
  0
TABLE
  2
LAYER
  5
2
100
AcDbSymbolTable
 70
36
  0
LAYER
  5
10
100
AcDbSymbolTableRecord
100
AcDbLayerTableRecord
  2
0
 70
0
 62
7
  6
CONTINUOUS
370
-3
390
F
  0
LAYER
  5
1FA
100
AcDbSymbolTableRecord
100
AcDbLayerTableRecord
  2
DEFAULT_1
 70
0
 62
7
  6
CENTER
370
-3
390
F
  0
LAYER
  5
1FB
100
AcDbSymbolTableRecord
100
AcDbLayerTableRecord
  2
DEFAULT_2
 70
0
 62
7
  6
HIDDEN
370
-3
390
F
  0
LAYER
  5
1FC
100
AcDbSymbolTableRecord
100
AcDbLayerTableRecord
  2
DEFAULT_3
 70
0
 62
7
  6
PHANTOM
370
-3
390
F
  0
LAYER
  5
1FD
100
AcDbSymbolTableRecord
100
AcDbLayerTableRecord
  2
00_COMPONENTS
 70
0
 62
7
  6
CONTINUOUS
370
-3
390
F
  0
LAYER
  5
1FE
100
AcDbSymbolTableRecord
100
AcDbLayerTableRecord
  2
01_1_DEFAULT_DATUMS
 70
0
 62
7
  6
CONTINUOUS
370
-3
390
F
  0
LAYER
  5
1FF
100
AcDbSymbolTableRecord
100
AcDbLayerTableRecord
  2
01_PLANES
 70
0
 62
7
  6
CONTINUOUS
370
-3
390
F
  0
LAYER
  5
200
100
AcDbSymbolTableRecord
100
AcDbLayerTableRecord
  2
02_COORD_SYS
 70
0
 62
7
  6
CONTINUOUS
370
-3
390
F
  0
LAYER
  5
201
100
AcDbSymbolTableRecord
100
AcDbLayerTableRecord
  2
03_AXES
 70
0
 62
7
  6
CONTINUOUS
370
-3
390
F
  0
LAYER
  5
202
100
AcDbSymbolTableRecord
100
AcDbLayerTableRecord
  2
04_POINTS
 70
0
 62
7
  6
CONTINUOUS
370
-3
390
F
  0
LAYER
  5
203
100
AcDbSymbolTableRecord
100
AcDbLayerTableRecord
  2
05_CURVES
 70
0
 62
7
  6
CONTINUOUS
370
-3
390
F
  0
LAYER
  5
204
100
AcDbSymbolTableRecord
100
AcDbLayerTableRecord
  2
06_SURFS
 70
0
 62
7
  6
CONTINUOUS
370
-3
390
F
  0
LAYER
  5
205
100
AcDbSymbolTableRecord
100
AcDbLayerTableRecord
  2
07_COSMETICS
 70
0
 62
7
  6
CONTINUOUS
370
-3
390
F
  0
LAYER
  5
206
100
AcDbSymbolTableRecord
100
AcDbLayerTableRecord
  2
10_NOTES
 70
0
 62
7
  6
CONTINUOUS
370
-3
390
F
  0
LAYER
  5
207
100
AcDbSymbolTableRecord
100
AcDbLayerTableRecord
  2
11_NOTES_PUB
 70
0
 62
7
  6
CONTINUOUS
370
-3
390
F
  0
LAYER
  5
208
100
AcDbSymbolTableRecord
100
AcDbLayerTableRecord
  2
13_REF_GTOL
 70
0
 62
7
  6
CONTINUOUS
370
-3
390
F
  0
LAYER
  5
209
100
AcDbSymbolTableRecord
100
AcDbLayerTableRecord
  2
16_MISC
 70
0
 62
7
  6
CONTINUOUS
370
-3
390
F
  0
LAYER
  5
20A
100
AcDbSymbolTableRecord
100
AcDbLayerTableRecord
  2
17_NO_PRINT
 70
0
 62
7
  6
CONTINUOUS
370
-3
390
F
  0
LAYER
  5
20B
100
AcDbSymbolTableRecord
100
AcDbLayerTableRecord
  2
18_DATUM_CAMS_JOINTS
 70
0
 62
7
  6
CONTINUOUS
370
-3
390
F
  0
LAYER
  5
20C
100
AcDbSymbolTableRecord
100
AcDbLayerTableRecord
  2
19_DATUM_FUNCTIONAL
 70
0
 62
7
  6
CONTINUOUS
370
-3
390
F
  0
LAYER
  5
20D
100
AcDbSymbolTableRecord
100
AcDbLayerTableRecord
  2
20_DATUM_KINEMATIC_SCHEME
 70
0
 62
7
  6
CONTINUOUS
370
-3
390
F
  0
ENDTAB
  0
TABLE
  2
STYLE
  5
3
100
AcDbSymbolTable
 70
1
  0
STYLE
  5
11
100
AcDbSymbolTableRecord
100
AcDbTextStyleTableRecord
  2
STANDARD
 70
0
 40
0.0
 41
1.0
 50
0.0
 71
0
 42
0.2
  3
ARIAL.TTF
  4

  0
STYLE
  5
20E
100
AcDbSymbolTableRecord
100
AcDbTextStyleTableRecord
  2
TEXTSTYLE_1
 70
0
 40
0.0
 41
0.8
 50
0.0
 71
0
 42
0.2
  3
gdt
  4

  0
ENDTAB
  0
TABLE
  2
VIEW
  5
6
100
AcDbSymbolTable
 70
0
  0
ENDTAB
  0
TABLE
  2
UCS
  5
7
100
AcDbSymbolTable
 70
0
  0
ENDTAB
  0
TABLE
  2
APPID
  5
9
100
AcDbSymbolTable
 70
1
  0
APPID
  5
20F
100
AcDbSymbolTableRecord
100
AcDbRegAppTableRecord
  2
ACAD
 70
0
  0
ENDTAB
  0
TABLE
  2
BLOCK_RECORD
  5
1
100
AcDbSymbolTable
 70
0
  0
BLOCK_RECORD
  5
210
100
AcDbSymbolTableRecord
100
AcDbBlockTableRecord
  2
*Model_Space
  0
BLOCK_RECORD
  5
211
100
AcDbSymbolTableRecord
100
AcDbBlockTableRecord
  2
*Paper_Space
  0
BLOCK_RECORD
  5
212
100
AcDbSymbolTableRecord
100
AcDbBlockTableRecord
  2
_FILLED
  0
ENDTAB
  0
TABLE
  2
DIMSTYLE
  5
A
100
AcDbSymbolTable
 70
1
100
AcDbDimStyleTable
 71
0
  0
DIMSTYLE
105
213
100
AcDbSymbolTableRecord
100
AcDbDimStyleTableRecord
  2
STANDARD
 70
0
  3

  4

 40
1.0
 41
1.4333570939
 42
1.0
 43
0.38
 44
1.0
 45
0.0
 46
0.0
 47
0.01
 48
0.01
140
2.0066999315
141
0.09
142
0.0
143
25.4
144
1.0
145
0.0
146
1.0
147
0.625
 71
1
 72
0
 73
0
 74
0
 75
0
 76
0
 77
1
 78
8
 79
2
170
0
171
1
172
0
173
0
174
0
175
0
176
0
177
0
178
0
270
2
179
2
271
2
272
2
273
2
274
2
275
0
280
0
281
0
282
0
283
1
284
8
285
0
286
0
287
3
288
0
340
11
278
46
341
212
342
212
343
212
344
212
  0
ENDTAB
  0
ENDSEC
  0
SECTION
  2
BLOCKS
  0
BLOCK
  5
20
100
AcDbEntity
  8
0
100
AcDbBlockBegin
  2
*Model_Space
 70
0
 10
0.0
 20
0.0
 30
0.0
  3
*Model_Space
  1

  0
ENDBLK
  5
21
100
AcDbEntity
  8
0
100
AcDbBlockEnd
  0
BLOCK
  5
1C
100
AcDbEntity
  8
0
100
AcDbBlockBegin
  2
*Paper_Space
 70
0
 10
0.0
 20
0.0
 30
0.0
  3
*Paper_Space
  1

  0
ENDBLK
  5
1D
100
AcDbEntity
  8
0
100
AcDbBlockEnd
  0
BLOCK
  5
214
100
AcDbEntity
  8
0
100
AcDbBlockBegin
  2
_FILLED
 70
64
 10
0.0
 20
0.0
  3
_FILLED
  1

  0
SOLID
  5
215
100
AcDbEntity
  8
0
  6
BYBLOCK
 62
0
100
AcDbTrace
 10
0.0
 20
0.0
 11
-1.0
 21
0.25
 12
-1.0
 22
-0.25
 13
-1.0
 23
-0.25
  0
ENDBLK
  5
216
100
AcDbEntity
  8
0
  6
BYBLOCK
 62
0
100
AcDbBlockEnd
  0
ENDSEC
  0
SECTION
  2
ENTITIES
  0
LINE
  5
217
100
AcDbEntity
  8
0
100
AcDbLine
 62
7
  6
BYLAYER
 10
14.2433940057
 20
80.1717603939
 11
14.2433940057
 21
90.9447603939
  0
LINE
  5
218
100
AcDbEntity
  8
0
100
AcDbLine
 62
7
  6
BYLAYER
 10
15.5133940057
 20
90.9447603939
 11
15.5133940057
 21
80.1717603939
  0
LINE
  5
219
100
AcDbEntity
  8
0
100
AcDbLine
 62
7
  6
BYLAYER
 10
16.1268940057
 20
79.5582603939
 11
16.1268940057
 21
91.5582603939
  0
LINE
  5
21A
100
AcDbEntity
  8
0
100
AcDbLine
 62
7
  6
BYLAYER
 10
22.4563940057
 20
91.5582603939
 11
22.4563940057
 21
79.5582603939
  0
LINE
  5
21B
100
AcDbEntity
  8
0
100
AcDbLine
 62
7
  6
BYLAYER
 10
23.0698940057
 20
80.1717603939
 11
23.0698940057
 21
90.9447603939
  0
LINE
  5
21C
100
AcDbEntity
  8
0
100
AcDbLine
 62
7
  6
BYLAYER
 10
23.1333940057
 20
78.9542603939
 11
23.1333940057
 21
92.1622603939
  0
LINE
  5
21D
100
AcDbEntity
  8
0
100
AcDbLine
 62
7
  6
BYLAYER
 10
24.4033940057
 20
78.6240603939
 11
24.4033940057
 21
92.4924603939
  0
LINE
  5
21E
100
AcDbEntity
  8
0
100
AcDbLine
 62
7
  6
BYLAYER
 10
16.1268940057
 20
91.5582603939
 11
15.5133940057
 21
90.9447603939
  0
LINE
  5
21F
100
AcDbEntity
  8
0
100
AcDbLine
 62
7
  6
BYLAYER
 10
15.5133940057
 20
80.1717603939
 11
16.1268940057
 21
79.5582603939
  0
LINE
  5
220
100
AcDbEntity
  8
0
100
AcDbLine
 62
7
  6
BYLAYER
 10
37.7383940057
 20
76.1970903939
 11
37.7383940057
 21
94.9194303939
  0
LINE
  5
221
100
AcDbEntity
  8
0
100
AcDbLine
 62
7
  6
BYLAYER
 10
22.4563940057
 20
79.5582603939
 11
23.0698940057
 21
80.1717603939
  0
LINE
  5
222
100
AcDbEntity
  8
0
100
AcDbLine
 62
7
  6
BYLAYER
 10
23.0698940057
 20
90.9447603939
 11
22.4563940057
 21
91.5582603939
  0
LINE
  5
223
100
AcDbEntity
  8
0
100
AcDbLine
 62
7
  6
BYLAYER
 10
40.1789456245
 20
94.9194303939
 11
40.1789456245
 21
76.1970903939
  0
LINE
  5
224
100
AcDbEntity
  8
0
100
AcDbLine
 62
7
  6
BYLAYER
 10
76.5033940057
 20
67.8382603939
 11
81.4933940057
 21
67.8382603939
  0
LINE
  5
225
100
AcDbEntity
  8
0
100
AcDbLine
 62
7
  6
BYLAYER
 10
93.4933940057
 20
67.8382603939
 11
98.4833940057
 21
67.8382603939
  0
LINE
  5
226
100
AcDbEntity
  8
0
100
AcDbLine
 62
7
  6
BYLAYER
 10
68.8843940057
 20
70.5582603939
 11
76.5033940057
 21
70.5582603939
  0
LINE
  5
227
100
AcDbEntity
  8
0
100
AcDbLine
 62
7
  6
BYLAYER
 10
81.4933940057
 20
70.5582603939
 11
93.4933940057
 21
70.5582603939
  0
LINE
  5
228
100
AcDbEntity
  8
0
100
AcDbLine
 62
7
  6
BYLAYER
 10
98.4833940057
 20
70.5582603939
 11
104.1537940057
 21
70.5582603939
  0
LINE
  5
229
100
AcDbEntity
  8
0
100
AcDbLine
 62
7
  6
BYLAYER
 10
50.6339740057
 20
71.5247603939
 11
67.9643940057
 21
71.5247603939
  0
LINE
  5
22A
100
AcDbEntity
  8
0
100
AcDbLine
 62
7
  6
BYLAYER
 10
105.0737940057
 20
71.5247603939
 11
106.3996740057
 21
71.5247603939
  0
LINE
  5
22B
100
AcDbEntity
  8
0
100
AcDbLine
 62
7
  6
BYLAYER
 10
106.3996740057
 20
71.8054303939
 11
108.6094740057
 21
71.8054303939
  0
LINE
  5
22C
100
AcDbEntity
  8
0
100
AcDbLine
 62
7
  6
BYLAYER
 10
108.6094740057
 20
72.2180152939
 11
109.4933940057
 21
72.2180152939
  0
LINE
  5
22D
100
AcDbEntity
  8
0
100
AcDbLine
 62
7
  6
BYLAYER
 10
24.4033940057
 20
78.6240603939
 11
37.7383940057
 21
76.1970903939
  0
LINE
  5
22E
100
AcDbEntity
  8
0
100
AcDbLine
 62
7
  6
BYLAYER
 10
50.6339740057
 20
71.5247603939
 11
50.6339740057
 21
99.5917603939
  0
LINE
  5
22F
100
AcDbEntity
  8
0
100
AcDbLine
 62
7
  6
BYLAYER
 10
37.7383940057
 20
76.1970903939
 11
40.1789456245
 21
76.1970903939
  0
LINE
  5
230
100
AcDbEntity
  8
0
100
AcDbLine
 62
7
  6
BYLAYER
 10
23.1333940057
 20
78.9542603939
 11
24.4033940057
 21
78.9542603939
  0
LINE
  5
231
100
AcDbEntity
  8
0
100
AcDbLine
 62
7
  6
BYLAYER
 10
68.8843940057
 20
100.5582603939
 11
67.9643940057
 21
99.6382603939
  0
LINE
  5
232
100
AcDbEntity
  8
0
100
AcDbLine
 62
7
  6
BYLAYER
 10
16.1268940057
 20
79.5582603939
 11
22.4563940057
 21
79.5582603939
  0
LINE
  5
233
100
AcDbEntity
  8
0
100
AcDbLine
 62
7
  6
BYLAYER
 10
14.2433940057
 20
80.1717603939
 11
15.5133940057
 21
80.1717603939
  0
LINE
  5
234
100
AcDbEntity
  8
0
100
AcDbLine
 62
7
  6
BYLAYER
 10
23.0698940057
 20
80.1717603939
 11
23.1333940057
 21
80.1717603939
  0
LINE
  5
235
100
AcDbEntity
  8
0
100
AcDbLine
 62
7
  6
BYLAYER
 10
67.9643940057
 20
71.4782603939
 11
68.8843940057
 21
70.5582603939
  0
LINE
  5
236
100
AcDbEntity
  8
0
100
AcDbLine
 62
7
  6
BYLAYER
 10
96.9007074424
 20
85.5582603939
 11
95.076080569
 21
85.5582603939
  0
LINE
  5
237
100
AcDbEntity
  8
0
100
AcDbLine
 62
7
  6
BYLAYER
 10
78.086080569
 20
85.5582603939
 11
79.9107074424
 21
85.5582603939
  0
LINE
  5
238
100
AcDbEntity
  8
0
100
AcDbLine
 62
7
  6
BYLAYER
 10
67.9643940057
 20
71.4782603939
 11
67.9643940057
 21
99.6382603939
  0
LINE
  5
239
100
AcDbEntity
  8
0
100
AcDbLine
 62
7
  6
BYLAYER
 10
68.8843940057
 20
70.5582603939
 11
68.8843940057
 21
100.5582603939
  0
LINE
  5
23A
100
AcDbEntity
  8
0
100
AcDbLine
 62
7
  6
BYLAYER
 10
23.1333940057
 20
90.9447603939
 11
23.0698940057
 21
90.9447603939
  0
LINE
  5
23B
100
AcDbEntity
  8
0
100
AcDbLine
 62
7
  6
BYLAYER
 10
15.5133940057
 20
90.9447603939
 11
14.2433940057
 21
90.9447603939
  0
LINE
  5
23C
100
AcDbEntity
  8
0
100
AcDbLine
 62
7
  6
BYLAYER
 10
22.4563940057
 20
91.5582603939
 11
16.1268940057
 21
91.5582603939
  0
LINE
  5
23D
100
AcDbEntity
  8
0
100
AcDbLine
 62
7
  6
BYLAYER
 10
24.4033940057
 20
92.1622603939
 11
23.1333940057
 21
92.1622603939
  0
LINE
  5
23E
100
AcDbEntity
  8
0
100
AcDbLine
 62
7
  6
BYLAYER
 10
40.1789456245
 20
94.9194303939
 11
37.7383940057
 21
94.9194303939
  0
LINE
  5
23F
100
AcDbEntity
  8
0
100
AcDbLine
 62
7
  6
BYLAYER
 10
37.7383940057
 20
94.9194303939
 11
24.4033940057
 21
92.4924603939
  0
LINE
  5
240
100
AcDbEntity
  8
0
100
AcDbLine
 62
7
  6
BYLAYER
 10
109.4933940057
 20
98.8985054939
 11
108.6094740057
 21
98.8985054939
  0
LINE
  5
241
100
AcDbEntity
  8
0
100
AcDbLine
 62
7
  6
BYLAYER
 10
108.6094740057
 20
99.3110903939
 11
106.3996740057
 21
99.3110903939
  0
LINE
  5
242
100
AcDbEntity
  8
0
100
AcDbLine
 62
7
  6
BYLAYER
 10
76.5033940057
 20
67.8382603939
 11
76.5033940057
 21
103.2782603939
  0
LINE
  5
243
100
AcDbEntity
  8
0
100
AcDbLine
 62
7
  6
BYLAYER
 10
106.3996740057
 20
99.5917603939
 11
105.0737940057
 21
99.5917603939
  0
LINE
  5
244
100
AcDbEntity
  8
0
100
AcDbLine
 62
7
  6
BYLAYER
 10
67.9643940057
 20
99.5917603939
 11
50.6339740057
 21
99.5917603939
  0
LINE
  5
245
100
AcDbEntity
  8
0
100
AcDbLine
 62
7
  6
BYLAYER
 10
104.1537940057
 20
100.5582603939
 11
98.4833940057
 21
100.5582603939
  0
LINE
  5
246
100
AcDbEntity
  8
0
100
AcDbLine
 62
7
  6
BYLAYER
 10
93.4933940057
 20
100.5582603939
 11
81.4933940057
 21
100.5582603939
  0
LINE
  5
247
100
AcDbEntity
  8
0
100
AcDbLine
 62
7
  6
BYLAYER
 10
76.5033940057
 20
100.5582603939
 11
68.8843940057
 21
100.5582603939
  0
LINE
  5
248
100
AcDbEntity
  8
0
100
AcDbLine
 62
7
  6
BYLAYER
 10
81.4933940057
 20
103.2782603939
 11
81.4933940057
 21
67.8382603939
  0
LINE
  5
249
100
AcDbEntity
  8
0
100
AcDbLine
 62
7
  6
BYLAYER
 10
98.4833940057
 20
103.2782603939
 11
93.4933940057
 21
103.2782603939
  0
LINE
  5
24A
100
AcDbEntity
  8
0
100
AcDbLine
 62
7
  6
BYLAYER
 10
76.5033940057
 20
103.2782603939
 11
81.4933940057
 21
103.2782603939
  0
LINE
  5
24B
100
AcDbEntity
  8
0
100
AcDbLine
 62
7
  6
BYLAYER
 10
93.4933940057
 20
67.8382603939
 11
93.4933940057
 21
103.2782603939
  0
LINE
  5
24C
100
AcDbEntity
  8
0
100
AcDbLine
 62
7
  6
BYLAYER
 10
98.4833940057
 20
103.2782603939
 11
98.4833940057
 21
67.8382603939
  0
LINE
  5
24D
100
AcDbEntity
  8
0
100
AcDbLine
 62
7
  6
BYLAYER
 10
104.1537940057
 20
70.5582603939
 11
105.0737940057
 21
71.4782603939
  0
LINE
  5
24E
100
AcDbEntity
  8
0
100
AcDbLine
 62
7
  6
BYLAYER
 10
105.0737940057
 20
99.6382603939
 11
104.1537940057
 21
100.5582603939
  0
LINE
  5
24F
100
AcDbEntity
  8
0
100
AcDbLine
 62
7
  6
BYLAYER
 10
104.1537940057
 20
100.5582603939
 11
104.1537940057
 21
70.5582603939
  0
LINE
  5
250
100
AcDbEntity
  8
0
100
AcDbLine
 62
7
  6
BYLAYER
 10
105.0737940057
 20
99.6382603939
 11
105.0737940057
 21
71.4782603939
  0
LINE
  5
251
100
AcDbEntity
  8
0
100
AcDbLine
 62
7
  6
BYLAYER
 10
106.3996740057
 20
99.5917603939
 11
106.3996740057
 21
71.5247603939
  0
LINE
  5
252
100
AcDbEntity
  8
0
100
AcDbLine
 62
7
  6
BYLAYER
 10
108.6094740057
 20
99.3110903939
 11
108.6094740057
 21
71.8054303939
  0
LINE
  5
253
100
AcDbEntity
  8
0
100
AcDbLine
 62
7
  6
BYLAYER
 10
109.4933940057
 20
98.8985054939
 11
109.4933940057
 21
72.2180152939
  0
ARC
  5
254
100
AcDbEntity
  8
0
100
AcDbCircle
 62
7
  6
BYLAYER
 10
50.6339740082
 20
85.5582603913
 40
14.0335000025
100
AcDbArc
 50
90.0
 51
138.1595327725
  0
ARC
  5
255
100
AcDbEntity
  8
0
100
AcDbCircle
 62
7
  6
BYLAYER
 10
50.6339740082
 20
85.5582603913
 40
14.0335000025
100
AcDbArc
 50
221.8404672275
 51
270.0
  0
SPLINE
  5
256
100
AcDbEntity
  8
0
100
AcDbSpline
 62
7
  6
BYLAYER
 70
0
 71
3
 72
11
 73
7
 74
0
 42
0.0000001
 43
0.0000001
 44
0.0000000001
 40
0.0
 40
0.0
 40
0.0
 40
0.0
 40
0.2514191113
 40
0.5017500961
 40
0.7511504184
 40
1.0
 40
1.0
 40
1.0
 40
1.0
 10
95.076080569
 20
67.8382603939
 30
0.0
 10
94.8365633337
 20
68.5568120996
 30
0.0
 10
94.3973111798
 20
70.0042744601
 30
0.0
 10
93.8900965052
 20
72.2117866306
 30
0.0
 10
93.567181651
 20
74.4465710739
 30
0.0
 10
93.4933940057
 20
75.9485813036
 30
0.0
 10
93.4933940057
 20
76.6982603939
 30
0.0
  0
SPLINE
  5
257
100
AcDbEntity
  8
0
100
AcDbSpline
 62
7
  6
BYLAYER
 70
0
 71
3
 72
11
 73
7
 74
0
 42
0.0000001
 43
0.0000001
 44
0.0000000001
 40
0.0
 40
0.0
 40
0.0
 40
0.0
 40
0.2488497021
 40
0.4982500382
 40
0.7485809689
 40
1.0
 40
1.0
 40
1.0
 40
1.0
 10
98.4833940057
 20
76.6982603939
 30
0.0
 10
98.4833940057
 20
75.9485809366
 30
0.0
 10
98.4096062199
 20
74.4465702957
 30
0.0
 10
98.0866914203
 20
72.2117856146
 30
0.0
 10
97.5794774421
 20
70.0042736172
 30
0.0
 10
97.1402246025
 20
68.556811874
 30
0.0
 10
96.9007074424
 20
67.8382603939
 30
0.0
  0
SPLINE
  5
258
100
AcDbEntity
  8
0
100
AcDbSpline
 62
7
  6
BYLAYER
 70
0
 71
3
 72
11
 73
7
 74
0
 42
0.0000001
 43
0.0000001
 44
0.0000000001
 40
0.0
 40
0.0
 40
0.0
 40
0.0
 40
0.2514191113
 40
0.5017500961
 40
0.7511504184
 40
1.0
 40
1.0
 40
1.0
 40
1.0
 10
96.9007074424
 20
103.2782603939
 30
0.0
 10
97.1402246777
 20
102.5597086881
 30
0.0
 10
97.5794768316
 20
101.1122463277
 30
0.0
 10
98.0866915062
 20
98.9047341572
 30
0.0
 10
98.4096063604
 20
96.6699497138
 30
0.0
 10
98.4833940057
 20
95.1679394842
 30
0.0
 10
98.4833940057
 20
94.4182603939
 30
0.0
  0
SPLINE
  5
259
100
AcDbEntity
  8
0
100
AcDbSpline
 62
7
  6
BYLAYER
 70
0
 71
3
 72
11
 73
7
 74
0
 42
0.0000001
 43
0.0000001
 44
0.0000000001
 40
0.0
 40
0.0
 40
0.0
 40
0.0
 40
0.2488497021
 40
0.4982500382
 40
0.7485809689
 40
1.0
 40
1.0
 40
1.0
 40
1.0
 10
93.4933940057
 20
94.4182603939
 30
0.0
 10
93.4933940057
 20
95.1679398511
 30
0.0
 10
93.5671817915
 20
96.669950492
 30
0.0
 10
93.8900965911
 20
98.9047351732
 30
0.0
 10
94.3973105693
 20
101.1122471705
 30
0.0
 10
94.8365634089
 20
102.5597089137
 30
0.0
 10
95.076080569
 20
103.2782603939
 30
0.0
  0
SPLINE
  5
25A
100
AcDbEntity
  8
0
100
AcDbSpline
 62
7
  6
BYLAYER
 70
0
 71
3
 72
11
 73
7
 74
0
 42
0.0000001
 43
0.0000001
 44
0.0000000001
 40
0.0
 40
0.0
 40
0.0
 40
0.0
 40
0.2514191113
 40
0.5017500961
 40
0.7511504184
 40
1.0
 40
1.0
 40
1.0
 40
1.0
 10
95.076080569
 20
85.5582603939
 30
0.0
 10
94.8365633337
 20
86.2768120996
 30
0.0
 10
94.3973111798
 20
87.7242744601
 30
0.0
 10
93.8900965052
 20
89.9317866306
 30
0.0
 10
93.567181651
 20
92.1665710739
 30
0.0
 10
93.4933940057
 20
93.6685813036
 30
0.0
 10
93.4933940057
 20
94.4182603939
 30
0.0
  0
SPLINE
  5
25B
100
AcDbEntity
  8
0
100
AcDbSpline
 62
7
  6
BYLAYER
 70
0
 71
3
 72
11
 73
7
 74
0
 42
0.0000001
 43
0.0000001
 44
0.0000000001
 40
0.0
 40
0.0
 40
0.0
 40
0.0
 40
0.2514191113
 40
0.5017500961
 40
0.7511504184
 40
1.0
 40
1.0
 40
1.0
 40
1.0
 10
96.9007074424
 20
85.5582603939
 30
0.0
 10
97.1402246777
 20
84.8397086881
 30
0.0
 10
97.5794768316
 20
83.3922463277
 30
0.0
 10
98.0866915062
 20
81.1847341572
 30
0.0
 10
98.4096063604
 20
78.9499497138
 30
0.0
 10
98.4833940057
 20
77.4479394842
 30
0.0
 10
98.4833940057
 20
76.6982603939
 30
0.0
  0
SPLINE
  5
25C
100
AcDbEntity
  8
0
100
AcDbSpline
 62
7
  6
BYLAYER
 70
0
 71
3
 72
11
 73
7
 74
0
 42
0.0000001
 43
0.0000001
 44
0.0000000001
 40
0.0
 40
0.0
 40
0.0
 40
0.0
 40
0.2488497021
 40
0.4982500382
 40
0.7485809689
 40
1.0
 40
1.0
 40
1.0
 40
1.0
 10
93.4933940057
 20
76.6982603939
 30
0.0
 10
93.4933940057
 20
77.4479398511
 30
0.0
 10
93.5671817915
 20
78.949950492
 30
0.0
 10
93.8900965911
 20
81.1847351732
 30
0.0
 10
94.3973105693
 20
83.3922471705
 30
0.0
 10
94.8365634089
 20
84.8397089137
 30
0.0
 10
95.076080569
 20
85.5582603939
 30
0.0
  0
SPLINE
  5
25D
100
AcDbEntity
  8
0
100
AcDbSpline
 62
7
  6
BYLAYER
 70
0
 71
3
 72
11
 73
7
 74
0
 42
0.0000001
 43
0.0000001
 44
0.0000000001
 40
0.0
 40
0.0
 40
0.0
 40
0.0
 40
0.2488497021
 40
0.4982500382
 40
0.7485809689
 40
1.0
 40
1.0
 40
1.0
 40
1.0
 10
98.4833940057
 20
94.4182603939
 30
0.0
 10
98.4833940057
 20
93.6685809366
 30
0.0
 10
98.4096062199
 20
92.1665702957
 30
0.0
 10
98.0866914203
 20
89.9317856146
 30
0.0
 10
97.5794774421
 20
87.7242736172
 30
0.0
 10
97.1402246025
 20
86.276811874
 30
0.0
 10
96.9007074424
 20
85.5582603939
 30
0.0
  0
SPLINE
  5
25E
100
AcDbEntity
  8
0
100
AcDbSpline
 62
7
  6
BYLAYER
 70
0
 71
3
 72
11
 73
7
 74
0
 42
0.0000001
 43
0.0000001
 44
0.0000000001
 40
0.0
 40
0.0
 40
0.0
 40
0.0
 40
0.2514191113
 40
0.5017500961
 40
0.7511504184
 40
1.0
 40
1.0
 40
1.0
 40
1.0
 10
79.9107074424
 20
103.2782603939
 30
0.0
 10
80.1502246777
 20
102.5597086881
 30
0.0
 10
80.5894768316
 20
101.1122463277
 30
0.0
 10
81.0966915062
 20
98.9047341572
 30
0.0
 10
81.4196063604
 20
96.6699497138
 30
0.0
 10
81.4933940057
 20
95.1679394842
 30
0.0
 10
81.4933940057
 20
94.4182603939
 30
0.0
  0
SPLINE
  5
25F
100
AcDbEntity
  8
0
100
AcDbSpline
 62
7
  6
BYLAYER
 70
0
 71
3
 72
11
 73
7
 74
0
 42
0.0000001
 43
0.0000001
 44
0.0000000001
 40
0.0
 40
0.0
 40
0.0
 40
0.0
 40
0.2488497021
 40
0.4982500382
 40
0.7485809689
 40
1.0
 40
1.0
 40
1.0
 40
1.0
 10
76.5033940057
 20
94.4182603939
 30
0.0
 10
76.5033940057
 20
95.1679398511
 30
0.0
 10
76.5771817915
 20
96.669950492
 30
0.0
 10
76.9000965911
 20
98.9047351732
 30
0.0
 10
77.4073105693
 20
101.1122471705
 30
0.0
 10
77.8465634089
 20
102.5597089137
 30
0.0
 10
78.086080569
 20
103.2782603939
 30
0.0
  0
SPLINE
  5
260
100
AcDbEntity
  8
0
100
AcDbSpline
 62
7
  6
BYLAYER
 70
0
 71
3
 72
11
 73
7
 74
0
 42
0.0000001
 43
0.0000001
 44
0.0000000001
 40
0.0
 40
0.0
 40
0.0
 40
0.0
 40
0.2514191113
 40
0.5017500961
 40
0.7511504184
 40
1.0
 40
1.0
 40
1.0
 40
1.0
 10
78.086080569
 20
67.8382603939
 30
0.0
 10
77.8465633337
 20
68.5568120996
 30
0.0
 10
77.4073111798
 20
70.0042744601
 30
0.0
 10
76.9000965052
 20
72.2117866306
 30
0.0
 10
76.577181651
 20
74.4465710739
 30
0.0
 10
76.5033940057
 20
75.9485813036
 30
0.0
 10
76.5033940057
 20
76.6982603939
 30
0.0
  0
SPLINE
  5
261
100
AcDbEntity
  8
0
100
AcDbSpline
 62
7
  6
BYLAYER
 70
0
 71
3
 72
11
 73
7
 74
0
 42
0.0000001
 43
0.0000001
 44
0.0000000001
 40
0.0
 40
0.0
 40
0.0
 40
0.0
 40
0.2488497021
 40
0.4982500382
 40
0.7485809689
 40
1.0
 40
1.0
 40
1.0
 40
1.0
 10
81.4933940057
 20
76.6982603939
 30
0.0
 10
81.4933940057
 20
75.9485809366
 30
0.0
 10
81.4196062199
 20
74.4465702957
 30
0.0
 10
81.0966914203
 20
72.2117856146
 30
0.0
 10
80.5894774421
 20
70.0042736172
 30
0.0
 10
80.1502246025
 20
68.556811874
 30
0.0
 10
79.9107074424
 20
67.8382603939
 30
0.0
  0
SPLINE
  5
262
100
AcDbEntity
  8
0
100
AcDbSpline
 62
7
  6
BYLAYER
 70
0
 71
3
 72
11
 73
7
 74
0
 42
0.0000001
 43
0.0000001
 44
0.0000000001
 40
0.0
 40
0.0
 40
0.0
 40
0.0
 40
0.2514191113
 40
0.5017500961
 40
0.7511504184
 40
1.0
 40
1.0
 40
1.0
 40
1.0
 10
79.9107074424
 20
85.5582603939
 30
0.0
 10
80.1502246777
 20
84.8397086881
 30
0.0
 10
80.5894768316
 20
83.3922463277
 30
0.0
 10
81.0966915062
 20
81.1847341572
 30
0.0
 10
81.4196063604
 20
78.9499497138
 30
0.0
 10
81.4933940057
 20
77.4479394842
 30
0.0
 10
81.4933940057
 20
76.6982603939
 30
0.0
  0
SPLINE
  5
263
100
AcDbEntity
  8
0
100
AcDbSpline
 62
7
  6
BYLAYER
 70
0
 71
3
 72
11
 73
7
 74
0
 42
0.0000001
 43
0.0000001
 44
0.0000000001
 40
0.0
 40
0.0
 40
0.0
 40
0.0
 40
0.2514191113
 40
0.5017500961
 40
0.7511504184
 40
1.0
 40
1.0
 40
1.0
 40
1.0
 10
78.086080569
 20
85.5582603939
 30
0.0
 10
77.8465633337
 20
86.2768120996
 30
0.0
 10
77.4073111798
 20
87.7242744601
 30
0.0
 10
76.9000965052
 20
89.9317866306
 30
0.0
 10
76.577181651
 20
92.1665710739
 30
0.0
 10
76.5033940057
 20
93.6685813036
 30
0.0
 10
76.5033940057
 20
94.4182603939
 30
0.0
  0
SPLINE
  5
264
100
AcDbEntity
  8
0
100
AcDbSpline
 62
7
  6
BYLAYER
 70
0
 71
3
 72
11
 73
7
 74
0
 42
0.0000001
 43
0.0000001
 44
0.0000000001
 40
0.0
 40
0.0
 40
0.0
 40
0.0
 40
0.2488497021
 40
0.4982500382
 40
0.7485809689
 40
1.0
 40
1.0
 40
1.0
 40
1.0
 10
81.4933940057
 20
94.4182603939
 30
0.0
 10
81.4933940057
 20
93.6685809366
 30
0.0
 10
81.4196062199
 20
92.1665702957
 30
0.0
 10
81.0966914203
 20
89.9317856146
 30
0.0
 10
80.5894774421
 20
87.7242736172
 30
0.0
 10
80.1502246025
 20
86.276811874
 30
0.0
 10
79.9107074424
 20
85.5582603939
 30
0.0
  0
SPLINE
  5
265
100
AcDbEntity
  8
0
100
AcDbSpline
 62
7
  6
BYLAYER
 70
0
 71
3
 72
11
 73
7
 74
0
 42
0.0000001
 43
0.0000001
 44
0.0000000001
 40
0.0
 40
0.0
 40
0.0
 40
0.0
 40
0.2488497021
 40
0.4982500382
 40
0.7485809689
 40
1.0
 40
1.0
 40
1.0
 40
1.0
 10
76.5033940057
 20
76.6982603939
 30
0.0
 10
76.5033940057
 20
77.4479398511
 30
0.0
 10
76.5771817915
 20
78.949950492
 30
0.0
 10
76.9000965911
 20
81.1847351732
 30
0.0
 10
77.4073105693
 20
83.3922471705
 30
0.0
 10
77.8465634089
 20
84.8397089137
 30
0.0
 10
78.086080569
 20
85.5582603939
 30
0.0
  0
ENDSEC
  0
SECTION
  2
OBJECTS
  0
DICTIONARY
  5
C
100
AcDbDictionary
280
0
281
1
  3
ACAD_GROUP
350
D
  3
ACAD_MLINESTYLE
350
17
  3
ACAD_LAYOUT
350
1A
  3
ACAD_PLOTSETTINGS
350
19
  3
ACAD_PLOTSTYLENAME
350
E
  0
DICTIONARY
  5
D
102
{ACAD_REACTORS
330
C
102
}
100
AcDbDictionary
280
0
281
1
  0
ACDBDICTIONARYWDFLT
  5
E
102
{ACAD_REACTORS
330
C
102
}
100
AcDbDictionary
281
1
  3
Normal
350
F
100
AcDbDictionaryWithDefault
340
F
  0
DICTIONARY
  5
17
102
{ACAD_REACTORS
330
C
102
}
100
AcDbDictionary
280
0
281
1
  3
Standard
350
18
  0
DICTIONARY
  5
19
102
{ACAD_REACTORS
330
C
102
}
100
AcDbDictionary
281
1
  0
DICTIONARY
  5
1A
102
{ACAD_REACTORS
330
C
102
}
100
AcDbDictionary
281
1
  3
Model
350
266
  3
Layout1
350
267
  0
ACDBPLACEHOLDER
  5
F
102
{ACAD_REACTORS
330
E
102
}
  0
MLINESTYLE
  5
18
102
{ACAD_REACTORS
330
17
102
}
100
AcDbMlineStyle
  2
STANDARD
 70
0
  3

 62
256
 51
90.0
 52
90.0
 71
2
 49
0.5
 62
256
  6
BYLAYER
 49
-0.5
 62
256
  6
BYLAYER
  0
LAYOUT
  5
266
102
{ACAD_REACTORS
330
1A
102
}
100
AcDbPlotSettings
  1

  2
none_device
  4

  6

 40
0.0
 41
0.0
 42
0.0
 43
0.0
 44
210.0
 45
297.0
 46
0.0
 47
0.0
 48
0.0
 49
0.0
140
0.0
141
0.0
142
1.0
143
1.0
 70
1024
 72
1
 73
0
 74
0
  7

 75
0
147
1.0
148
0.0
149
0.0
100
AcDbLayout
  1
Model
 70
0
 71
0
 10
0.0
 20
0.0
 11
210.0
 21
297.0
 12
0.0
 22
0.0
 32
0.0
 14
0.0
 24
0.0
 34
0.0
 15
0.0
 25
0.0
 35
0.0
146
0.0
 13
0.0
 23
0.0
 33
0.0
 16
1.0
 26
0.0
 36
0.0
 17
0.0
 27
1.0
 37
0.0
 76
0
330
210
345
0
346
0
  0
LAYOUT
  5
267
102
{ACAD_REACTORS
330
1A
102
}
100
AcDbPlotSettings
  1

  2
none_device
  4

  6

 40
0.0
 41
0.0
 42
0.0
 43
0.0
 44
210.0
 45
297.0
 46
0.0
 47
0.0
 48
0.0
 49
0.0
140
0.0
141
0.0
142
1.0
143
1.0
 70
0
 72
1
 73
0
 74
0
  7

 75
0
147
1.0
148
0.0
149
0.0
100
AcDbLayout
  1
Layout1
 70
0
 71
1
 10
0.0
 20
0.0
 11
210.0
 21
297.0
 12
0.0
 22
0.0
 32
0.0
 14
0.0
 24
0.0
 34
0.0
 15
0.0
 25
0.0
 35
0.0
146
0.0
 13
0.0
 23
0.0
 33
0.0
 16
1.0
 26
0.0
 36
0.0
 17
0.0
 27
1.0
 37
0.0
 76
0
330
211
345
0
346
0
  0
ENDSEC
  0
EOF
