  0
SECTION
  2
HEADER
  9
$ACADVER
  1
AC1009
  9
$INSBASE
 10
0.0
 20
0.0
 30
0.0
  9
$EXTMIN
 10
146.361695
 20
147.797563
 30
-0.000001
  9
$EXTMAX
 10
384.636842
 20
207.25557
 30
0.0
  9
$LIMMIN
 10
0.0
 20
0.0
  9
$LIMMAX
 10
420.0
 20
297.0
  9
$ORTHOMODE
 70
     0
  9
$REGENMODE
 70
     1
  9
$FILLMODE
 70
     1
  9
$QTEXTMODE
 70
     0
  9
$MIRRTEXT
 70
     1
  9
$DRAGMODE
 70
     2
  9
$LTSCALE
 40
1.0
  9
$OSMODE
 70
   167
  9
$ATTMODE
 70
     1
  9
$TEXTSIZE
 40
2.5
  9
$TRACEWID
 40
1.0
  9
$TEXTSTYLE
  7
WMF-ARIAL1
  9
$CLAYER
  8
0
  9
$CELTYPE
  6
BYLAYER
  9
$CECOLOR
 62
   256
  9
$DIMSCALE
 40
1.0
  9
$DIMASZ
 40
2.5
  9
$DIMEXO
 40
0.625
  9
$DIMDLI
 40
3.75
  9
$DIMRND
 40
0.0
  9
$DIMDLE
 40
0.0
  9
$DIMEXE
 40
1.25
  9
$DIMTP
 40
0.0
  9
$DIMTM
 40
0.0
  9
$DIMTXT
 40
2.5
  9
$DIMCEN
 40
2.5
  9
$DIMTSZ
 40
0.0
  9
$DIMTOL
 70
     0
  9
$DIMLIM
 70
     0
  9
$DIMTIH
 70
     0
  9
$DIMTOH
 70
     0
  9
$DIMSE1
 70
     0
  9
$DIMSE2
 70
     0
  9
$DIMTAD
 70
     1
  9
$DIMZIN
 70
     8
  9
$DIMBLK
  1

  9
$DIMASO
 70
     1
  9
$DIMSHO
 70
     1
  9
$DIMPOST
  1

  9
$DIMAPOST
  1

  9
$DIMALT
 70
     0
  9
$DIMALTD
 70
     4
  9
$DIMALTF
 40
0.0394
  9
$DIMLFAC
 40
1.0
  9
$DIMTOFL
 70
     1
  9
$DIMTVP
 40
0.0
  9
$DIMTIX
 70
     0
  9
$DIMSOXD
 70
     0
  9
$DIMSAH
 70
     0
  9
$DIMBLK1
  1

  9
$DIMBLK2
  1

  9
$DIMSTYLE
  2
STANDARD
  9
$DIMCLRD
 70
     0
  9
$DIMCLRE
 70
     0
  9
$DIMCLRT
 70
     0
  9
$DIMTFAC
 40
1.0
  9
$DIMGAP
 40
0.625
  9
$LUNITS
 70
     2
  9
$LUPREC
 70
     4
  9
$SKETCHINC
 40
1.0
  9
$FILLETRAD
 40
10.0
  9
$AUNITS
 70
     0
  9
$AUPREC
 70
     0
  9
$MENU
  1
acad
  9
$ELEVATION
 40
0.0
  9
$PELEVATION
 40
0.0
  9
$THICKNESS
 40
0.0
  9
$LIMCHECK
 70
     0
  9
$BLIPMODE
 70
     0
  9
$CHAMFERA
 40
10.0
  9
$CHAMFERB
 40
10.0
  9
$SKPOLY
 70
     0
  9
$TDCREATE
 40
2452397.404554
  9
$TDUPDATE
 40
2452402.809595
  9
$TDINDWG
 40
0.278966
  9
$TDUSRTIMER
 40
0.278966
  9
$USRTIMER
 70
     1
  9
$ANGBASE
 50
0.0
  9
$ANGDIR
 70
     0
  9
$PDMODE
 70
     0
  9
$PDSIZE
 40
0.0
  9
$PLINEWID
 40
0.0
  9
$COORDS
 70
     1
  9
$SPLFRAME
 70
     0
  9
$SPLINETYPE
 70
     6
  9
$SPLINESEGS
 70
     8
  9
$ATTDIA
 70
     0
  9
$ATTREQ
 70
     1
  9
$HANDLING
 70
     1
  9
$HANDSEED
  5
28D0
  9
$SURFTAB1
 70
     6
  9
$SURFTAB2
 70
     6
  9
$SURFTYPE
 70
     6
  9
$SURFU
 70
     6
  9
$SURFV
 70
     6
  9
$UCSNAME
  2

  9
$UCSORG
 10
0.0
 20
0.0
 30
0.0
  9
$UCSXDIR
 10
1.0
 20
0.0
 30
0.0
  9
$UCSYDIR
 10
0.0
 20
1.0
 30
0.0
  9
$PUCSNAME
  2

  9
$PUCSORG
 10
0.0
 20
0.0
 30
0.0
  9
$PUCSXDIR
 10
1.0
 20
0.0
 30
0.0
  9
$PUCSYDIR
 10
0.0
 20
1.0
 30
0.0
  9
$USERI1
 70
     0
  9
$USERI2
 70
     0
  9
$USERI3
 70
     0
  9
$USERI4
 70
     0
  9
$USERI5
 70
     0
  9
$USERR1
 40
0.0
  9
$USERR2
 40
0.0
  9
$USERR3
 40
0.0
  9
$USERR4
 40
0.0
  9
$USERR5
 40
0.0
  9
$WORLDVIEW
 70
     1
  9
$SHADEDGE
 70
     3
  9
$SHADEDIF
 70
    70
  9
$TILEMODE
 70
     1
  9
$MAXACTVP
 70
    48
  9
$PLIMCHECK
 70
     0
  9
$PEXTMIN
 10
1.000000E+020
 20
1.000000E+020
 30
1.000000E+020
  9
$PEXTMAX
 10
-1.000000E+020
 20
-1.000000E+020
 30
-1.000000E+020
  9
$PLIMMIN
 10
0.0
 20
0.0
  9
$PLIMMAX
 10
420.0
 20
297.0
  9
$UNITMODE
 70
     0
  9
$VISRETAIN
 70
     1
  9
$PLINEGEN
 70
     0
  9
$PSLTSCALE
 70
     1
  0
ENDSEC
  0
SECTION
  2
TABLES
  0
TABLE
  2
VPORT
 70
     2
  0
VPORT
  2
*ACTIVE
 70
     0
 10
0.0
 20
0.0
 11
1.0
 21
1.0
 12
265.499269
 22
177.526566
 13
0.0
 23
0.0
 14
10.0
 24
10.0
 15
10.0
 25
10.0
 16
0.0
 26
0.0
 36
1.0
 17
0.0
 27
0.0
 37
0.0
 40
147.28879
 41
1.628676
 42
50.0
 43
0.0
 44
0.0
 50
0.0
 51
0.0
 71
     0
 72
   100
 73
     1
 74
     1
 75
     0
 76
     0
 77
     0
 78
     0
  0
ENDTAB
  0
TABLE
  2
LTYPE
 70
     1
  0
LTYPE
  2
CONTINUOUS
 70
     0
  3
Solid line
 72
    65
 73
     0
 40
0.0
  0
ENDTAB
  0
TABLE
  2
LAYER
 70
     1
  0
LAYER
  2
0
 70
     0
 62
     7
  6
CONTINUOUS
  0
ENDTAB
  0
TABLE
  2
STYLE
 70
    10
  0
STYLE
  2
STANDARD
 70
     0
 40
0.0
 41
1.0
 50
0.0
 71
     0
 42
2.5
  3
txt
  4

  0
STYLE
  2
STYLE_GRAS
 70
     0
 40
0.0
 41
1.0
 50
0.0
 71
     0
 42
2.5
  3
txt
  4

  0
STYLE
  2
STYLE_STD
 70
     0
 40
0.0
 41
1.0
 50
0.0
 71
     0
 42
2.5
  3
txt
  4

  0
STYLE
  2
STYLE_ITALIQUE
 70
     0
 40
0.0
 41
1.0
 50
0.0
 71
     0
 42
2.5
  3
txt
  4

  0
STYLE
  2
WMF-ARIAL1
 70
     0
 40
0.0
 41
1.0
 50
0.0
 71
     0
 42
2.5
  3
txt
  4

  0
STYLE
  2
WMF-ARIAL2
 70
     0
 40
0.0
 41
1.0
 50
0.0
 71
     0
 42
2.5
  3
txt
  4

  0
STYLE
  2
WMF-ARIAL3
 70
     0
 40
0.0
 41
1.0
 50
0.0
 71
     0
 42
2.5
  3
txt
  4

  0
STYLE
  2
WMF-ARIAL4
 70
     0
 40
0.0
 41
1.0
 50
0.0
 71
     0
 42
2.5
  3
txt
  4

  0
ENDTAB
  0
TABLE
  2
VIEW
 70
     0
  0
ENDTAB
  0
TABLE
  2
UCS
 70
     0
  0
ENDTAB
  0
TABLE
  2
APPID
 70
     1
  0
APPID
  2
ACAD
 70
     0
  0
ENDTAB
  0
TABLE
  2
DIMSTYLE
 70
     1
  0
DIMSTYLE
  2
STANDARD
 70
     0
  3

  4

  5

  6

  7

 40
1.0
 41
0.18
 42
0.0625
 43
0.38
 44
0.18
 45
0.0
 46
0.0
 47
0.0
 48
0.0
140
0.18
141
0.09
142
0.0
143
25.4
144
1.0
145
0.0
146
1.0
147
0.09
 71
     0
 72
     0
 73
     1
 74
     1
 75
     0
 76
     0
 77
     0
 78
     0
170
     0
171
     2
172
     0
173
     0
174
     0
175
     0
176
     0
177
     0
178
     0
  0
ENDTAB
  0
ENDSEC
  0
SECTION
  2
BLOCKS
  0
BLOCK
  8
0
  2
$MODEL_SPACE
 70
     0
 10
0.0
 20
0.0
 30
0.0
  3
$MODEL_SPACE
  1

  0
ENDBLK
  5
A75
  8
0
  0
BLOCK
 67
     1
  8
0
  2
$PAPER_SPACE
 70
     0
 10
0.0
 20
0.0
 30
0.0
  3
$PAPER_SPACE
  1

  0
ENDBLK
  5
A73
 67
     1
  8
0
  0
BLOCK
  8
0
  2
A$C66196076
 70
     0
 10
0.0
 20
0.0
 30
0.0
  3
A$C66196076
  1

  0
TEXT
  5
13C8
  8
0
 62
     7
 10
1.335776
 20
0.262925
 30
0.0
 40
0.807498
  1
Sys
  7
STYLE_ITALIQUE
  0
TEXT
  5
13C9
  8
0
 62
     7
 10
0.026329
 20
0.316959
 30
0.0
 40
0.807498
  1
Te
  7
STYLE_STD
  0
TEXT
  5
13CA
  8
0
 62
     7
 10
3.587215
 20
0.293745
 30
0.0
 40
0.807498
  1
U
  7
STYLE_STD
  0
ENDBLK
  5
13CC
  8
0
  0
BLOCK
  8
0
  2
A$C57562481
 70
     0
 10
0.0
 20
0.0
 30
0.0
  3
A$C57562481
  1

  0
INSERT
  5
237E
  8
0
  2
A$C66196076
 10
0.0
 20
0.0
 30
0.0
 41
6.0
 42
6.0
 43
6.0
  0
ENDBLK
  5
2380
  8
0
  0
BLOCK
  8
0
  2
A$C46AF1A87
 70
     0
 10
0.0
 20
0.0
 30
0.0
  3
A$C46AF1A87
  1

  0
POLYLINE
  5
2384
  8
0
 62
     7
 66
     1
 10
0.0
 20
0.0
 30
0.0
  0
VERTEX
  5
2385
  8
0
 62
     7
 10
190.908475
 20
13.248972
 30
0.0
 40
1.207863
 41
1.207863
  0
VERTEX
  5
2386
  8
0
 62
     7
 10
190.896791
 20
0.603931
 30
0.0
 40
1.207863
 41
1.207863
  0
VERTEX
  5
2387
  8
0
 62
     7
 10
0.658426
 20
0.603931
 30
0.0
 40
1.207863
 41
1.207863
  0
SEQEND
  5
2388
  8
0
 62
     7
  0
POLYLINE
  5
2389
  8
0
 62
     7
 66
     1
 10
0.0
 20
0.0
 30
0.0
  0
VERTEX
  5
238A
  8
0
 62
     7
 10
0.603926
 20
0.02189
 30
0.0
 40
1.207863
 41
1.207863
  0
VERTEX
  5
238B
  8
0
 62
     7
 10
0.658426
 20
12.682558
 30
0.0
 40
1.207863
 41
1.207863
  0
VERTEX
  5
238C
  8
0
 62
     7
 10
190.896791
 20
12.682558
 30
0.0
 40
1.207863
 41
1.207863
  0
SEQEND
  5
238D
  8
0
 62
     7
  0
ENDBLK
  5
238F
  8
0
  0
BLOCK
  8
0
  2
A$C29856FE4
 70
     0
 10
0.0
 20
0.0
 30
0.0
  3
A$C29856FE4
  1

  0
POLYLINE
  5
239F
  8
0
 62
     7
 66
     1
 10
0.0
 20
0.0
 30
0.0
  0
VERTEX
  5
23A0
  8
0
 62
     7
 10
0.20131
 20
0.20131
 30
0.0
 40
0.402621
 41
0.402621
  0
VERTEX
  5
23A1
  8
0
 62
     7
 10
35.833258
 20
0.20131
 30
0.0
 40
0.402621
 41
0.402621
  0
VERTEX
  5
23A2
  8
0
 62
     7
 10
35.833258
 20
12.078626
 30
0.0
 40
0.402621
 41
0.402621
  0
VERTEX
  5
23A3
  8
0
 62
     7
 10
0.20131
 20
12.078626
 30
0.0
 40
0.402621
 41
0.402621
  0
VERTEX
  5
23A4
  8
0
 62
     7
 10
0.20131
 20
0.20131
 30
0.0
 40
0.402621
 41
0.402621
  0
VERTEX
  5
23A5
  8
0
 62
     7
 10
0.20131
 20
0.20131
 30
0.0
 40
0.402621
 41
0.402621
  0
SEQEND
  5
23A6
  8
0
 62
     7
  0
ENDBLK
  5
23A8
  8
0
  0
ENDSEC
  0
SECTION
  2
ENTITIES
  0
POLYLINE
  5
20CD
  8
0
 62
     7
 66
     1
 10
0.0
 20
0.0
 30
0.0
  0
VERTEX
  5
20CE
  8
0
 62
     7
 10
146.981597
 20
153.293718
 30
0.0
  0
VERTEX
  5
20CF
  8
0
 62
     7
 10
149.906567
 20
153.293718
 30
0.0
  0
SEQEND
  5
20D0
  8
0
 62
     7
  0
POLYLINE
  5
20D1
  8
0
 62
     7
 66
     1
 10
0.0
 20
0.0
 30
0.0
  0
VERTEX
  5
20D2
  8
0
 62
     7
 10
151.734673
 20
153.293718
 30
0.0
  0
VERTEX
  5
20D3
  8
0
 62
     7
 10
154.659643
 20
153.293718
 30
0.0
  0
SEQEND
  5
20D4
  8
0
 62
     7
  0
POLYLINE
  5
20D5
  8
0
 62
     7
 66
     1
 10
0.0
 20
0.0
 30
0.0
  0
VERTEX
  5
20D6
  8
0
 62
     7
 10
156.487749
 20
153.293718
 30
0.0
  0
VERTEX
  5
20D7
  8
0
 62
     7
 10
159.412719
 20
153.293718
 30
0.0
  0
SEQEND
  5
20D8
  8
0
 62
     7
  0
POLYLINE
  5
20D9
  8
0
 62
     7
 66
     1
 10
0.0
 20
0.0
 30
0.0
  0
VERTEX
  5
20DA
  8
0
 62
     7
 10
161.240825
 20
153.293718
 30
0.0
  0
VERTEX
  5
20DB
  8
0
 62
     7
 10
164.165795
 20
153.293718
 30
0.0
  0
SEQEND
  5
20DC
  8
0
 62
     7
  0
POLYLINE
  5
20E1
  8
0
 62
     7
 66
     1
 10
0.0
 20
0.0
 30
0.0
  0
VERTEX
  5
20E2
  8
0
 62
     7
 10
173.900976
 20
152.978541
 30
0.0
  0
VERTEX
  5
20E3
  8
0
 62
     7
 10
176.825946
 20
152.978541
 30
0.0
  0
SEQEND
  5
20E4
  8
0
 62
     7
  0
POLYLINE
  5
20E5
  8
0
 62
     7
 66
     1
 10
0.0
 20
0.0
 30
0.0
  0
VERTEX
  5
20E6
  8
0
 62
     7
 10
178.654052
 20
152.978541
 30
0.0
  0
VERTEX
  5
20E7
  8
0
 62
     7
 10
181.579022
 20
152.978541
 30
0.0
  0
SEQEND
  5
20E8
  8
0
 62
     7
  0
POLYLINE
  5
20E9
  8
0
 62
     7
 66
     1
 10
0.0
 20
0.0
 30
0.0
  0
VERTEX
  5
20EA
  8
0
 62
     7
 10
183.407128
 20
152.978541
 30
0.0
  0
VERTEX
  5
20EB
  8
0
 62
     7
 10
186.332098
 20
152.978541
 30
0.0
  0
SEQEND
  5
20EC
  8
0
 62
     7
  0
POLYLINE
  5
20F5
  8
0
 62
     7
 66
     1
 10
0.0
 20
0.0
 30
0.0
  0
VERTEX
  5
20F6
  8
0
 62
     7
 10
194.512359
 20
153.293718
 30
0.0
  0
VERTEX
  5
20F7
  8
0
 62
     7
 10
197.437329
 20
153.293718
 30
0.0
  0
SEQEND
  5
20F8
  8
0
 62
     7
  0
POLYLINE
  5
20F9
  8
0
 62
     7
 66
     1
 10
0.0
 20
0.0
 30
0.0
  0
VERTEX
  5
20FA
  8
0
 62
     7
 10
199.265435
 20
153.293718
 30
0.0
  0
VERTEX
  5
20FB
  8
0
 62
     7
 10
202.190405
 20
153.293718
 30
0.0
  0
SEQEND
  5
20FC
  8
0
 62
     7
  0
POLYLINE
  5
20FD
  8
0
 62
     7
 66
     1
 10
0.0
 20
0.0
 30
0.0
  0
VERTEX
  5
20FE
  8
0
 62
     7
 10
204.018512
 20
153.293718
 30
0.0
  0
VERTEX
  5
20FF
  8
0
 62
     7
 10
206.943482
 20
153.293718
 30
0.0
  0
SEQEND
  5
2100
  8
0
 62
     7
  0
POLYLINE
  5
2101
  8
0
 62
     7
 66
     1
 10
0.0
 20
0.0
 30
0.0
  0
VERTEX
  5
2102
  8
0
 62
     7
 10
208.771588
 20
153.293718
 30
0.0
  0
VERTEX
  5
2103
  8
0
 62
     7
 10
211.696558
 20
153.293718
 30
0.0
  0
SEQEND
  5
2104
  8
0
 62
     7
  0
POLYLINE
  5
2105
  8
0
 62
     7
 66
     1
 10
0.0
 20
0.0
 30
0.0
  0
VERTEX
  5
2106
  8
0
 62
     7
 10
213.524664
 20
153.293718
 30
0.0
  0
VERTEX
  5
2107
  8
0
 62
     7
 10
216.449634
 20
153.293718
 30
0.0
  0
SEQEND
  5
2108
  8
0
 62
     7
  0
POLYLINE
  5
215D
  8
0
 62
     7
 66
     1
 10
0.0
 20
0.0
 30
0.0
  0
VERTEX
  5
215E
  8
0
 62
     7
 10
318.092341
 20
153.293718
 30
0.0
  0
VERTEX
  5
215F
  8
0
 62
     7
 10
321.017311
 20
153.293718
 30
0.0
  0
SEQEND
  5
2160
  8
0
 62
     7
  0
POLYLINE
  5
2161
  8
0
 62
     7
 66
     1
 10
0.0
 20
0.0
 30
0.0
  0
VERTEX
  5
2162
  8
0
 62
     7
 10
322.845417
 20
153.293718
 30
0.0
  0
VERTEX
  5
2163
  8
0
 62
     7
 10
325.770387
 20
153.293718
 30
0.0
  0
SEQEND
  5
2164
  8
0
 62
     7
  0
POLYLINE
  5
2165
  8
0
 62
     7
 66
     1
 10
0.0
 20
0.0
 30
0.0
  0
VERTEX
  5
2166
  8
0
 62
     7
 10
327.598494
 20
153.293718
 30
0.0
  0
VERTEX
  5
2167
  8
0
 62
     7
 10
330.523464
 20
153.293718
 30
0.0
  0
SEQEND
  5
2168
  8
0
 62
     7
  0
POLYLINE
  5
2169
  8
0
 62
     7
 66
     1
 10
0.0
 20
0.0
 30
0.0
  0
VERTEX
  5
216A
  8
0
 62
     7
 10
332.35157
 20
153.293718
 30
0.0
  0
VERTEX
  5
216B
  8
0
 62
     7
 10
335.27654
 20
153.293718
 30
0.0
  0
SEQEND
  5
216C
  8
0
 62
     7
  0
POLYLINE
  5
2189
  8
0
 62
     7
 66
     1
 10
0.0
 20
0.0
 30
0.0
  0
VERTEX
  5
218A
  8
0
 62
     7
 10
370.37618
 20
153.293718
 30
0.0
  0
VERTEX
  5
218B
  8
0
 62
     7
 10
373.30115
 20
153.293718
 30
0.0
  0
SEQEND
  5
218C
  8
0
 62
     7
  0
POLYLINE
  5
218D
  8
0
 62
     7
 66
     1
 10
0.0
 20
0.0
 30
0.0
  0
VERTEX
  5
218E
  8
0
 62
     7
 10
375.129256
 20
153.293718
 30
0.0
  0
VERTEX
  5
218F
  8
0
 62
     7
 10
378.054226
 20
153.293718
 30
0.0
  0
SEQEND
  5
2190
  8
0
 62
     7
  0
POLYLINE
  5
2191
  8
0
 62
     7
 66
     1
 10
0.0
 20
0.0
 30
0.0
  0
VERTEX
  5
2192
  8
0
 62
     7
 10
379.882332
 20
153.293718
 30
0.0
  0
VERTEX
  5
2193
  8
0
 62
     7
 10
382.807302
 20
153.293718
 30
0.0
  0
SEQEND
  5
2194
  8
0
 62
     7
  0
POLYLINE
  5
2195
  8
0
 62
     7
 66
     1
 10
0.0
 20
0.0
 30
0.0
  0
VERTEX
  5
2196
  8
0
 62
     7
 10
384.452598
 20
153.476528
 30
0.0
  0
VERTEX
  5
2197
  8
0
 62
     7
 10
384.452598
 20
156.401498
 30
0.0
  0
SEQEND
  5
2198
  8
0
 62
     7
  0
POLYLINE
  5
2199
  8
0
 62
     7
 66
     1
 10
0.0
 20
0.0
 30
0.0
  0
VERTEX
  5
219A
  8
0
 62
     7
 10
384.452598
 20
158.229604
 30
0.0
  0
VERTEX
  5
219B
  8
0
 62
     7
 10
384.452598
 20
161.154574
 30
0.0
  0
SEQEND
  5
219C
  8
0
 62
     7
  0
POLYLINE
  5
219D
  8
0
 62
     7
 66
     1
 10
0.0
 20
0.0
 30
0.0
  0
VERTEX
  5
219E
  8
0
 62
     7
 10
384.452598
 20
162.982681
 30
0.0
  0
VERTEX
  5
219F
  8
0
 62
     7
 10
384.452598
 20
165.907651
 30
0.0
  0
SEQEND
  5
21A0
  8
0
 62
     7
  0
POLYLINE
  5
21A1
  8
0
 62
     7
 66
     1
 10
0.0
 20
0.0
 30
0.0
  0
VERTEX
  5
21A2
  8
0
 62
     7
 10
384.452598
 20
167.735757
 30
0.0
  0
VERTEX
  5
21A3
  8
0
 62
     7
 10
384.452598
 20
170.660727
 30
0.0
  0
SEQEND
  5
21A4
  8
0
 62
     7
  0
POLYLINE
  5
21A5
  8
0
 62
     7
 66
     1
 10
0.0
 20
0.0
 30
0.0
  0
VERTEX
  5
21A6
  8
0
 62
     7
 10
384.452598
 20
172.488833
 30
0.0
  0
VERTEX
  5
21A7
  8
0
 62
     7
 10
384.452598
 20
175.413803
 30
0.0
  0
SEQEND
  5
21A8
  8
0
 62
     7
  0
POLYLINE
  5
21A9
  8
0
 62
     7
 66
     1
 10
0.0
 20
0.0
 30
0.0
  0
VERTEX
  5
21AA
  8
0
 62
     7
 10
384.452598
 20
177.241909
 30
0.0
  0
VERTEX
  5
21AB
  8
0
 62
     7
 10
384.452598
 20
180.166879
 30
0.0
  0
SEQEND
  5
21AC
  8
0
 62
     7
  0
POLYLINE
  5
21AD
  8
0
 62
     7
 66
     1
 10
0.0
 20
0.0
 30
0.0
  0
VERTEX
  5
21AE
  8
0
 62
     7
 10
384.452598
 20
181.994986
 30
0.0
  0
VERTEX
  5
21AF
  8
0
 62
     7
 10
384.452598
 20
184.919956
 30
0.0
  0
SEQEND
  5
21B0
  8
0
 62
     7
  0
POLYLINE
  5
21B1
  8
0
 62
     7
 66
     1
 10
0.0
 20
0.0
 30
0.0
  0
VERTEX
  5
21B2
  8
0
 62
     7
 10
384.452598
 20
186.748062
 30
0.0
  0
VERTEX
  5
21B3
  8
0
 62
     7
 10
384.452598
 20
189.673032
 30
0.0
  0
SEQEND
  5
21B4
  8
0
 62
     7
  0
POLYLINE
  5
21B5
  8
0
 62
     7
 66
     1
 10
0.0
 20
0.0
 30
0.0
  0
VERTEX
  5
21B6
  8
0
 62
     7
 10
384.452598
 20
191.501138
 30
0.0
  0
VERTEX
  5
21B7
  8
0
 62
     7
 10
384.452598
 20
194.426108
 30
0.0
  0
SEQEND
  5
21B8
  8
0
 62
     7
  0
POLYLINE
  5
21B9
  8
0
 62
     7
 66
     1
 10
0.0
 20
0.0
 30
0.0
  0
VERTEX
  5
21BA
  8
0
 62
     7
 10
384.452598
 20
196.254214
 30
0.0
  0
VERTEX
  5
21BB
  8
0
 62
     7
 10
384.452598
 20
199.179184
 30
0.0
  0
SEQEND
  5
21BC
  8
0
 62
     7
  0
POLYLINE
  5
21BD
  8
0
 62
     7
 66
     1
 10
0.0
 20
0.0
 30
0.0
  0
VERTEX
  5
21BE
  8
0
 62
     7
 10
384.452598
 20
201.007291
 30
0.0
  0
VERTEX
  5
21BF
  8
0
 62
     7
 10
384.452598
 20
203.932261
 30
0.0
  0
SEQEND
  5
21C0
  8
0
 62
     7
  0
POLYLINE
  5
21C1
  8
0
 62
     7
 66
     1
 10
0.0
 20
0.0
 30
0.0
  0
VERTEX
  5
21C2
  8
0
 62
     7
 10
384.452598
 20
205.760367
 30
0.0
  0
VERTEX
  5
21C3
  8
0
 62
     7
 10
384.452598
 20
207.222852
 30
0.0
  0
SEQEND
  5
21C4
  8
0
 62
     7
  0
POLYLINE
  5
21C5
  8
0
 62
     7
 66
     1
 10
0.0
 20
0.0
 30
0.0
  0
VERTEX
  5
21C6
  8
0
 62
     7
 10
384.452598
 20
207.222852
 30
0.0
  0
VERTEX
  5
21C7
  8
0
 62
     7
 10
382.990113
 20
207.222852
 30
0.0
  0
SEQEND
  5
21C8
  8
0
 62
     7
  0
POLYLINE
  5
21C9
  8
0
 62
     7
 66
     1
 10
0.0
 20
0.0
 30
0.0
  0
VERTEX
  5
21CA
  8
0
 62
     7
 10
381.162006
 20
207.222852
 30
0.0
  0
VERTEX
  5
21CB
  8
0
 62
     7
 10
378.237036
 20
207.222852
 30
0.0
  0
SEQEND
  5
21CC
  8
0
 62
     7
  0
POLYLINE
  5
21CD
  8
0
 62
     7
 66
     1
 10
0.0
 20
0.0
 30
0.0
  0
VERTEX
  5
21CE
  8
0
 62
     7
 10
376.40893
 20
207.222852
 30
0.0
  0
VERTEX
  5
21CF
  8
0
 62
     7
 10
373.48396
 20
207.222852
 30
0.0
  0
SEQEND
  5
21D0
  8
0
 62
     7
  0
POLYLINE
  5
21D1
  8
0
 62
     7
 66
     1
 10
0.0
 20
0.0
 30
0.0
  0
VERTEX
  5
21D2
  8
0
 62
     7
 10
371.655854
 20
207.222852
 30
0.0
  0
VERTEX
  5
21D3
  8
0
 62
     7
 10
368.730884
 20
207.222852
 30
0.0
  0
SEQEND
  5
21D4
  8
0
 62
     7
  0
POLYLINE
  5
21D5
  8
0
 62
     7
 66
     1
 10
0.0
 20
0.0
 30
0.0
  0
VERTEX
  5
21D6
  8
0
 62
     7
 10
366.902778
 20
207.222852
 30
0.0
  0
VERTEX
  5
21D7
  8
0
 62
     7
 10
363.977808
 20
207.222852
 30
0.0
  0
SEQEND
  5
21D8
  8
0
 62
     7
  0
POLYLINE
  5
21D9
  8
0
 62
     7
 66
     1
 10
0.0
 20
0.0
 30
0.0
  0
VERTEX
  5
21DA
  8
0
 62
     7
 10
362.149702
 20
207.222852
 30
0.0
  0
VERTEX
  5
21DB
  8
0
 62
     7
 10
359.224732
 20
207.222852
 30
0.0
  0
SEQEND
  5
21DC
  8
0
 62
     7
  0
POLYLINE
  5
21DD
  8
0
 62
     7
 66
     1
 10
0.0
 20
0.0
 30
0.0
  0
VERTEX
  5
21DE
  8
0
 62
     7
 10
357.396625
 20
207.222852
 30
0.0
  0
VERTEX
  5
21DF
  8
0
 62
     7
 10
354.471655
 20
207.222852
 30
0.0
  0
SEQEND
  5
21E0
  8
0
 62
     7
  0
POLYLINE
  5
21E1
  8
0
 62
     7
 66
     1
 10
0.0
 20
0.0
 30
0.0
  0
VERTEX
  5
21E2
  8
0
 62
     7
 10
352.643549
 20
207.222852
 30
0.0
  0
VERTEX
  5
21E3
  8
0
 62
     7
 10
349.718579
 20
207.222852
 30
0.0
  0
SEQEND
  5
21E4
  8
0
 62
     7
  0
POLYLINE
  5
21E5
  8
0
 62
     7
 66
     1
 10
0.0
 20
0.0
 30
0.0
  0
VERTEX
  5
21E6
  8
0
 62
     7
 10
347.890473
 20
207.222852
 30
0.0
  0
VERTEX
  5
21E7
  8
0
 62
     7
 10
344.965503
 20
207.222852
 30
0.0
  0
SEQEND
  5
21E8
  8
0
 62
     7
  0
POLYLINE
  5
21E9
  8
0
 62
     7
 66
     1
 10
0.0
 20
0.0
 30
0.0
  0
VERTEX
  5
21EA
  8
0
 62
     7
 10
343.137397
 20
207.222852
 30
0.0
  0
VERTEX
  5
21EB
  8
0
 62
     7
 10
340.212427
 20
207.222852
 30
0.0
  0
SEQEND
  5
21EC
  8
0
 62
     7
  0
POLYLINE
  5
21ED
  8
0
 62
     7
 66
     1
 10
0.0
 20
0.0
 30
0.0
  0
VERTEX
  5
21EE
  8
0
 62
     7
 10
338.38432
 20
207.222852
 30
0.0
  0
VERTEX
  5
21EF
  8
0
 62
     7
 10
335.45935
 20
207.222852
 30
0.0
  0
SEQEND
  5
21F0
  8
0
 62
     7
  0
POLYLINE
  5
21F1
  8
0
 62
     7
 66
     1
 10
0.0
 20
0.0
 30
0.0
  0
VERTEX
  5
21F2
  8
0
 62
     7
 10
333.631244
 20
207.222852
 30
0.0
  0
VERTEX
  5
21F3
  8
0
 62
     7
 10
330.706274
 20
207.222852
 30
0.0
  0
SEQEND
  5
21F4
  8
0
 62
     7
  0
POLYLINE
  5
21F5
  8
0
 62
     7
 66
     1
 10
0.0
 20
0.0
 30
0.0
  0
VERTEX
  5
21F6
  8
0
 62
     7
 10
328.878168
 20
207.222852
 30
0.0
  0
VERTEX
  5
21F7
  8
0
 62
     7
 10
325.953198
 20
207.222852
 30
0.0
  0
SEQEND
  5
21F8
  8
0
 62
     7
  0
POLYLINE
  5
21F9
  8
0
 62
     7
 66
     1
 10
0.0
 20
0.0
 30
0.0
  0
VERTEX
  5
21FA
  8
0
 62
     7
 10
324.125092
 20
207.222852
 30
0.0
  0
VERTEX
  5
21FB
  8
0
 62
     7
 10
321.200122
 20
207.222852
 30
0.0
  0
SEQEND
  5
21FC
  8
0
 62
     7
  0
POLYLINE
  5
21FD
  8
0
 62
     7
 66
     1
 10
0.0
 20
0.0
 30
0.0
  0
VERTEX
  5
21FE
  8
0
 62
     7
 10
319.372015
 20
207.222852
 30
0.0
  0
VERTEX
  5
21FF
  8
0
 62
     7
 10
316.447045
 20
207.222852
 30
0.0
  0
SEQEND
  5
2200
  8
0
 62
     7
  0
POLYLINE
  5
2201
  8
0
 62
     7
 66
     1
 10
0.0
 20
0.0
 30
0.0
  0
VERTEX
  5
2202
  8
0
 62
     7
 10
314.618939
 20
207.222852
 30
0.0
  0
VERTEX
  5
2203
  8
0
 62
     7
 10
311.693969
 20
207.222852
 30
0.0
  0
SEQEND
  5
2204
  8
0
 62
     7
  0
POLYLINE
  5
2205
  8
0
 62
     7
 66
     1
 10
0.0
 20
0.0
 30
0.0
  0
VERTEX
  5
2206
  8
0
 62
     7
 10
309.865863
 20
207.222852
 30
0.0
  0
VERTEX
  5
2207
  8
0
 62
     7
 10
306.940893
 20
207.222852
 30
0.0
  0
SEQEND
  5
2208
  8
0
 62
     7
  0
POLYLINE
  5
2209
  8
0
 62
     7
 66
     1
 10
0.0
 20
0.0
 30
0.0
  0
VERTEX
  5
220A
  8
0
 62
     7
 10
305.112787
 20
207.222852
 30
0.0
  0
VERTEX
  5
220B
  8
0
 62
     7
 10
302.187817
 20
207.222852
 30
0.0
  0
SEQEND
  5
220C
  8
0
 62
     7
  0
POLYLINE
  5
220D
  8
0
 62
     7
 66
     1
 10
0.0
 20
0.0
 30
0.0
  0
VERTEX
  5
220E
  8
0
 62
     7
 10
300.359711
 20
207.222852
 30
0.0
  0
VERTEX
  5
220F
  8
0
 62
     7
 10
297.434741
 20
207.222852
 30
0.0
  0
SEQEND
  5
2210
  8
0
 62
     7
  0
POLYLINE
  5
2211
  8
0
 62
     7
 66
     1
 10
0.0
 20
0.0
 30
0.0
  0
VERTEX
  5
2212
  8
0
 62
     7
 10
295.606634
 20
207.222852
 30
0.0
  0
VERTEX
  5
2213
  8
0
 62
     7
 10
292.681664
 20
207.222852
 30
0.0
  0
SEQEND
  5
2214
  8
0
 62
     7
  0
POLYLINE
  5
2215
  8
0
 62
     7
 66
     1
 10
0.0
 20
0.0
 30
0.0
  0
VERTEX
  5
2216
  8
0
 62
     7
 10
290.853558
 20
207.222852
 30
0.0
  0
VERTEX
  5
2217
  8
0
 62
     7
 10
287.928588
 20
207.222852
 30
0.0
  0
SEQEND
  5
2218
  8
0
 62
     7
  0
POLYLINE
  5
2219
  8
0
 62
     7
 66
     1
 10
0.0
 20
0.0
 30
0.0
  0
VERTEX
  5
221A
  8
0
 62
     7
 10
286.100482
 20
207.222852
 30
0.0
  0
VERTEX
  5
221B
  8
0
 62
     7
 10
283.175512
 20
207.222852
 30
0.0
  0
SEQEND
  5
221C
  8
0
 62
     7
  0
POLYLINE
  5
221D
  8
0
 62
     7
 66
     1
 10
0.0
 20
0.0
 30
0.0
  0
VERTEX
  5
221E
  8
0
 62
     7
 10
281.347406
 20
207.222852
 30
0.0
  0
VERTEX
  5
221F
  8
0
 62
     7
 10
278.422436
 20
207.222852
 30
0.0
  0
SEQEND
  5
2220
  8
0
 62
     7
  0
POLYLINE
  5
2221
  8
0
 62
     7
 66
     1
 10
0.0
 20
0.0
 30
0.0
  0
VERTEX
  5
2222
  8
0
 62
     7
 10
276.594329
 20
207.222852
 30
0.0
  0
VERTEX
  5
2223
  8
0
 62
     7
 10
273.669359
 20
207.222852
 30
0.0
  0
SEQEND
  5
2224
  8
0
 62
     7
  0
POLYLINE
  5
2225
  8
0
 62
     7
 66
     1
 10
0.0
 20
0.0
 30
0.0
  0
VERTEX
  5
2226
  8
0
 62
     7
 10
271.841253
 20
207.222852
 30
0.0
  0
VERTEX
  5
2227
  8
0
 62
     7
 10
268.916283
 20
207.222852
 30
0.0
  0
SEQEND
  5
2228
  8
0
 62
     7
  0
POLYLINE
  5
2229
  8
0
 62
     7
 66
     1
 10
0.0
 20
0.0
 30
0.0
  0
VERTEX
  5
222A
  8
0
 62
     7
 10
267.088177
 20
207.222852
 30
0.0
  0
VERTEX
  5
222B
  8
0
 62
     7
 10
264.163207
 20
207.222852
 30
0.0
  0
SEQEND
  5
222C
  8
0
 62
     7
  0
POLYLINE
  5
222D
  8
0
 62
     7
 66
     1
 10
0.0
 20
0.0
 30
0.0
  0
VERTEX
  5
222E
  8
0
 62
     7
 10
262.335101
 20
207.222852
 30
0.0
  0
VERTEX
  5
222F
  8
0
 62
     7
 10
259.410131
 20
207.222852
 30
0.0
  0
SEQEND
  5
2230
  8
0
 62
     7
  0
POLYLINE
  5
2231
  8
0
 62
     7
 66
     1
 10
0.0
 20
0.0
 30
0.0
  0
VERTEX
  5
2232
  8
0
 62
     7
 10
257.582024
 20
207.222852
 30
0.0
  0
VERTEX
  5
2233
  8
0
 62
     7
 10
254.657054
 20
207.222852
 30
0.0
  0
SEQEND
  5
2234
  8
0
 62
     7
  0
POLYLINE
  5
2235
  8
0
 62
     7
 66
     1
 10
0.0
 20
0.0
 30
0.0
  0
VERTEX
  5
2236
  8
0
 62
     7
 10
252.828948
 20
207.222852
 30
0.0
  0
VERTEX
  5
2237
  8
0
 62
     7
 10
249.903978
 20
207.222852
 30
0.0
  0
SEQEND
  5
2238
  8
0
 62
     7
  0
POLYLINE
  5
2239
  8
0
 62
     7
 66
     1
 10
0.0
 20
0.0
 30
0.0
  0
VERTEX
  5
223A
  8
0
 62
     7
 10
248.075872
 20
207.222852
 30
0.0
  0
VERTEX
  5
223B
  8
0
 62
     7
 10
245.150902
 20
207.222852
 30
0.0
  0
SEQEND
  5
223C
  8
0
 62
     7
  0
POLYLINE
  5
223D
  8
0
 62
     7
 66
     1
 10
0.0
 20
0.0
 30
0.0
  0
VERTEX
  5
223E
  8
0
 62
     7
 10
243.322796
 20
207.222852
 30
0.0
  0
VERTEX
  5
223F
  8
0
 62
     7
 10
240.397826
 20
207.222852
 30
0.0
  0
SEQEND
  5
2240
  8
0
 62
     7
  0
POLYLINE
  5
2241
  8
0
 62
     7
 66
     1
 10
0.0
 20
0.0
 30
0.0
  0
VERTEX
  5
2242
  8
0
 62
     7
 10
238.56972
 20
207.222852
 30
0.0
  0
VERTEX
  5
2243
  8
0
 62
     7
 10
235.64475
 20
207.222852
 30
0.0
  0
SEQEND
  5
2244
  8
0
 62
     7
  0
POLYLINE
  5
2245
  8
0
 62
     7
 66
     1
 10
0.0
 20
0.0
 30
0.0
  0
VERTEX
  5
2246
  8
0
 62
     7
 10
233.816643
 20
207.222852
 30
0.0
  0
VERTEX
  5
2247
  8
0
 62
     7
 10
230.891673
 20
207.222852
 30
0.0
  0
SEQEND
  5
2248
  8
0
 62
     7
  0
POLYLINE
  5
2249
  8
0
 62
     7
 66
     1
 10
0.0
 20
0.0
 30
0.0
  0
VERTEX
  5
224A
  8
0
 62
     7
 10
229.063567
 20
207.222852
 30
0.0
  0
VERTEX
  5
224B
  8
0
 62
     7
 10
226.138597
 20
207.222852
 30
0.0
  0
SEQEND
  5
224C
  8
0
 62
     7
  0
POLYLINE
  5
224D
  8
0
 62
     7
 66
     1
 10
0.0
 20
0.0
 30
0.0
  0
VERTEX
  5
224E
  8
0
 62
     7
 10
224.310491
 20
207.222852
 30
0.0
  0
VERTEX
  5
224F
  8
0
 62
     7
 10
221.385521
 20
207.222852
 30
0.0
  0
SEQEND
  5
2250
  8
0
 62
     7
  0
POLYLINE
  5
2251
  8
0
 62
     7
 66
     1
 10
0.0
 20
0.0
 30
0.0
  0
VERTEX
  5
2252
  8
0
 62
     7
 10
219.557415
 20
207.222852
 30
0.0
  0
VERTEX
  5
2253
  8
0
 62
     7
 10
216.632445
 20
207.222852
 30
0.0
  0
SEQEND
  5
2254
  8
0
 62
     7
  0
POLYLINE
  5
2255
  8
0
 62
     7
 66
     1
 10
0.0
 20
0.0
 30
0.0
  0
VERTEX
  5
2256
  8
0
 62
     7
 10
214.804338
 20
207.222852
 30
0.0
  0
VERTEX
  5
2257
  8
0
 62
     7
 10
211.879368
 20
207.222852
 30
0.0
  0
SEQEND
  5
2258
  8
0
 62
     7
  0
POLYLINE
  5
2259
  8
0
 62
     7
 66
     1
 10
0.0
 20
0.0
 30
0.0
  0
VERTEX
  5
225A
  8
0
 62
     7
 10
210.051262
 20
207.222852
 30
0.0
  0
VERTEX
  5
225B
  8
0
 62
     7
 10
207.126292
 20
207.222852
 30
0.0
  0
SEQEND
  5
225C
  8
0
 62
     7
  0
POLYLINE
  5
225D
  8
0
 62
     7
 66
     1
 10
0.0
 20
0.0
 30
0.0
  0
VERTEX
  5
225E
  8
0
 62
     7
 10
205.298186
 20
207.222852
 30
0.0
  0
VERTEX
  5
225F
  8
0
 62
     7
 10
202.373216
 20
207.222852
 30
0.0
  0
SEQEND
  5
2260
  8
0
 62
     7
  0
POLYLINE
  5
2261
  8
0
 62
     7
 66
     1
 10
0.0
 20
0.0
 30
0.0
  0
VERTEX
  5
2262
  8
0
 62
     7
 10
200.54511
 20
207.222852
 30
0.0
  0
VERTEX
  5
2263
  8
0
 62
     7
 10
197.62014
 20
207.222852
 30
0.0
  0
SEQEND
  5
2264
  8
0
 62
     7
  0
POLYLINE
  5
2265
  8
0
 62
     7
 66
     1
 10
0.0
 20
0.0
 30
0.0
  0
VERTEX
  5
2266
  8
0
 62
     7
 10
195.792033
 20
207.222852
 30
0.0
  0
VERTEX
  5
2267
  8
0
 62
     7
 10
192.867063
 20
207.222852
 30
0.0
  0
SEQEND
  5
2268
  8
0
 62
     7
  0
POLYLINE
  5
2269
  8
0
 62
     7
 66
     1
 10
0.0
 20
0.0
 30
0.0
  0
VERTEX
  5
226A
  8
0
 62
     7
 10
191.038957
 20
207.222852
 30
0.0
  0
VERTEX
  5
226B
  8
0
 62
     7
 10
188.113987
 20
207.222852
 30
0.0
  0
SEQEND
  5
226C
  8
0
 62
     7
  0
POLYLINE
  5
226D
  8
0
 62
     7
 66
     1
 10
0.0
 20
0.0
 30
0.0
  0
VERTEX
  5
226E
  8
0
 62
     7
 10
186.285881
 20
207.222852
 30
0.0
  0
VERTEX
  5
226F
  8
0
 62
     7
 10
183.360911
 20
207.222852
 30
0.0
  0
SEQEND
  5
2270
  8
0
 62
     7
  0
POLYLINE
  5
2271
  8
0
 62
     7
 66
     1
 10
0.0
 20
0.0
 30
0.0
  0
VERTEX
  5
2272
  8
0
 62
     7
 10
181.532805
 20
207.222852
 30
0.0
  0
VERTEX
  5
2273
  8
0
 62
     7
 10
178.607835
 20
207.222852
 30
0.0
  0
SEQEND
  5
2274
  8
0
 62
     7
  0
POLYLINE
  5
2275
  8
0
 62
     7
 66
     1
 10
0.0
 20
0.0
 30
0.0
  0
VERTEX
  5
2276
  8
0
 62
     7
 10
176.779729
 20
207.222852
 30
0.0
  0
VERTEX
  5
2277
  8
0
 62
     7
 10
173.854759
 20
207.222852
 30
0.0
  0
SEQEND
  5
2278
  8
0
 62
     7
  0
POLYLINE
  5
2279
  8
0
 62
     7
 66
     1
 10
0.0
 20
0.0
 30
0.0
  0
VERTEX
  5
227A
  8
0
 62
     7
 10
172.026652
 20
207.222852
 30
0.0
  0
VERTEX
  5
227B
  8
0
 62
     7
 10
169.101682
 20
207.222852
 30
0.0
  0
SEQEND
  5
227C
  8
0
 62
     7
  0
POLYLINE
  5
227D
  8
0
 62
     7
 66
     1
 10
0.0
 20
0.0
 30
0.0
  0
VERTEX
  5
227E
  8
0
 62
     7
 10
167.273576
 20
207.222852
 30
0.0
  0
VERTEX
  5
227F
  8
0
 62
     7
 10
164.348606
 20
207.222852
 30
0.0
  0
SEQEND
  5
2280
  8
0
 62
     7
  0
POLYLINE
  5
2281
  8
0
 62
     7
 66
     1
 10
0.0
 20
0.0
 30
0.0
  0
VERTEX
  5
2282
  8
0
 62
     7
 10
162.5205
 20
207.222852
 30
0.0
  0
VERTEX
  5
2283
  8
0
 62
     7
 10
159.59553
 20
207.222852
 30
0.0
  0
SEQEND
  5
2284
  8
0
 62
     7
  0
POLYLINE
  5
2285
  8
0
 62
     7
 66
     1
 10
0.0
 20
0.0
 30
0.0
  0
VERTEX
  5
2286
  8
0
 62
     7
 10
157.767424
 20
207.222852
 30
0.0
  0
VERTEX
  5
2287
  8
0
 62
     7
 10
154.842454
 20
207.222852
 30
0.0
  0
SEQEND
  5
2288
  8
0
 62
     7
  0
POLYLINE
  5
2289
  8
0
 62
     7
 66
     1
 10
0.0
 20
0.0
 30
0.0
  0
VERTEX
  5
228A
  8
0
 62
     7
 10
153.014347
 20
207.222852
 30
0.0
  0
VERTEX
  5
228B
  8
0
 62
     7
 10
150.089377
 20
207.222852
 30
0.0
  0
SEQEND
  5
228C
  8
0
 62
     7
  0
POLYLINE
  5
228D
  8
0
 62
     7
 66
     1
 10
0.0
 20
0.0
 30
0.0
  0
VERTEX
  5
228E
  8
0
 62
     7
 10
148.261271
 20
207.222852
 30
0.0
  0
VERTEX
  5
228F
  8
0
 62
     7
 10
146.981597
 20
207.222852
 30
0.0
  0
SEQEND
  5
2290
  8
0
 62
     7
  0
POLYLINE
  5
2291
  8
0
 62
     7
 66
     1
 10
0.0
 20
0.0
 30
0.0
  0
VERTEX
  5
2292
  8
0
 62
     7
 10
146.981597
 20
207.222852
 30
0.0
  0
VERTEX
  5
2293
  8
0
 62
     7
 10
146.981597
 20
205.577556
 30
0.0
  0
SEQEND
  5
2294
  8
0
 62
     7
  0
POLYLINE
  5
2295
  8
0
 62
     7
 66
     1
 10
0.0
 20
0.0
 30
0.0
  0
VERTEX
  5
2296
  8
0
 62
     7
 10
146.981597
 20
203.74945
 30
0.0
  0
VERTEX
  5
2297
  8
0
 62
     7
 10
146.981597
 20
200.82448
 30
0.0
  0
SEQEND
  5
2298
  8
0
 62
     7
  0
POLYLINE
  5
2299
  8
0
 62
     7
 66
     1
 10
0.0
 20
0.0
 30
0.0
  0
VERTEX
  5
229A
  8
0
 62
     7
 10
146.981597
 20
198.996374
 30
0.0
  0
VERTEX
  5
229B
  8
0
 62
     7
 10
146.981597
 20
196.071404
 30
0.0
  0
SEQEND
  5
229C
  8
0
 62
     7
  0
POLYLINE
  5
229D
  8
0
 62
     7
 66
     1
 10
0.0
 20
0.0
 30
0.0
  0
VERTEX
  5
229E
  8
0
 62
     7
 10
146.981597
 20
194.243297
 30
0.0
  0
VERTEX
  5
229F
  8
0
 62
     7
 10
146.981597
 20
191.318327
 30
0.0
  0
SEQEND
  5
22A0
  8
0
 62
     7
  0
POLYLINE
  5
22A1
  8
0
 62
     7
 66
     1
 10
0.0
 20
0.0
 30
0.0
  0
VERTEX
  5
22A2
  8
0
 62
     7
 10
146.981597
 20
189.490221
 30
0.0
  0
VERTEX
  5
22A3
  8
0
 62
     7
 10
146.981597
 20
186.565251
 30
0.0
  0
SEQEND
  5
22A4
  8
0
 62
     7
  0
POLYLINE
  5
22A5
  8
0
 62
     7
 66
     1
 10
0.0
 20
0.0
 30
0.0
  0
VERTEX
  5
22A6
  8
0
 62
     7
 10
146.981597
 20
184.737145
 30
0.0
  0
VERTEX
  5
22A7
  8
0
 62
     7
 10
146.981597
 20
181.812175
 30
0.0
  0
SEQEND
  5
22A8
  8
0
 62
     7
  0
POLYLINE
  5
22A9
  8
0
 62
     7
 66
     1
 10
0.0
 20
0.0
 30
0.0
  0
VERTEX
  5
22AA
  8
0
 62
     7
 10
146.981597
 20
179.984069
 30
0.0
  0
VERTEX
  5
22AB
  8
0
 62
     7
 10
146.981597
 20
177.059099
 30
0.0
  0
SEQEND
  5
22AC
  8
0
 62
     7
  0
POLYLINE
  5
22AD
  8
0
 62
     7
 66
     1
 10
0.0
 20
0.0
 30
0.0
  0
VERTEX
  5
22AE
  8
0
 62
     7
 10
146.981597
 20
175.230993
 30
0.0
  0
VERTEX
  5
22AF
  8
0
 62
     7
 10
146.981597
 20
172.306023
 30
0.0
  0
SEQEND
  5
22B0
  8
0
 62
     7
  0
POLYLINE
  5
22B1
  8
0
 62
     7
 66
     1
 10
0.0
 20
0.0
 30
0.0
  0
VERTEX
  5
22B2
  8
0
 62
     7
 10
146.981597
 20
170.477916
 30
0.0
  0
VERTEX
  5
22B3
  8
0
 62
     7
 10
146.981597
 20
167.552946
 30
0.0
  0
SEQEND
  5
22B4
  8
0
 62
     7
  0
POLYLINE
  5
22B5
  8
0
 62
     7
 66
     1
 10
0.0
 20
0.0
 30
0.0
  0
VERTEX
  5
22B6
  8
0
 62
     7
 10
146.981597
 20
165.72484
 30
0.0
  0
VERTEX
  5
22B7
  8
0
 62
     7
 10
146.981597
 20
162.79987
 30
0.0
  0
SEQEND
  5
22B8
  8
0
 62
     7
  0
POLYLINE
  5
22B9
  8
0
 62
     7
 66
     1
 10
0.0
 20
0.0
 30
0.0
  0
VERTEX
  5
22BA
  8
0
 62
     7
 10
146.981597
 20
160.971764
 30
0.0
  0
VERTEX
  5
22BB
  8
0
 62
     7
 10
146.981597
 20
158.046794
 30
0.0
  0
SEQEND
  5
22BC
  8
0
 62
     7
  0
POLYLINE
  5
22BD
  8
0
 62
     7
 66
     1
 10
0.0
 20
0.0
 30
0.0
  0
VERTEX
  5
22BE
  8
0
 62
     7
 10
146.981597
 20
156.218688
 30
0.0
  0
VERTEX
  5
22BF
  8
0
 62
     7
 10
146.981597
 20
153.293718
 30
0.0
  0
SEQEND
  5
22C0
  8
0
 62
     7
  0
TEXT
  5
22C8
  8
0
 62
     7
 10
148.66885
 20
185.247839
 30
0.0
 40
6.119837
  1
LUFP9                                            
  7
STYLE_STD
  0
TEXT
  5
22C9
  8
0
 62
     7
 10
261.360984
 20
185.382705
 30
0.0
 40
6.280886
  1
Gateway Devicenet- ModBus
  7
STYLE_GRAS
  0
POLYLINE
  5
22CA
  8
0
 62
     7
 66
     1
 10
0.0
 20
0.0
 30
0.0
  0
VERTEX
  5
22CB
  8
0
 62
     7
 10
164.165795
 20
153.84215
 30
0.0
  0
VERTEX
  5
22CC
  8
0
 62
     7
 10
164.531417
 20
155.487445
 30
0.0
  0
VERTEX
  5
22CD
  8
0
 62
     7
 10
165.44547
 20
156.767119
 30
0.0
  0
VERTEX
  5
22CE
  8
0
 62
     7
 10
166.907955
 20
157.863983
 30
0.0
  0
VERTEX
  5
22CF
  8
0
 62
     7
 10
168.55325
 20
158.046794
 30
0.0
  0
VERTEX
  5
22D0
  8
0
 62
     7
 10
170.198546
 20
157.863983
 30
0.0
  0
VERTEX
  5
22D1
  8
0
 62
     7
 10
171.661031
 20
156.767119
 30
0.0
  0
VERTEX
  5
22D2
  8
0
 62
     7
 10
172.575084
 20
155.487445
 30
0.0
  0
VERTEX
  5
22D3
  8
0
 62
     7
 10
172.940705
 20
153.84215
 30
0.0
  0
VERTEX
  5
22D4
  8
0
 62
     7
 10
172.575084
 20
152.196854
 30
0.0
  0
VERTEX
  5
22D5
  8
0
 62
     7
 10
171.661031
 20
150.734369
 30
0.0
  0
VERTEX
  5
22D6
  8
0
 62
     7
 10
170.198546
 20
149.820316
 30
0.0
  0
VERTEX
  5
22D7
  8
0
 62
     7
 10
168.55325
 20
149.454695
 30
0.0
  0
VERTEX
  5
22D8
  8
0
 62
     7
 10
166.907955
 20
149.820316
 30
0.0
  0
VERTEX
  5
22D9
  8
0
 62
     7
 10
165.44547
 20
150.734369
 30
0.0
  0
VERTEX
  5
22DA
  8
0
 62
     7
 10
164.531417
 20
152.196854
 30
0.0
  0
VERTEX
  5
22DB
  8
0
 62
     7
 10
164.165795
 20
153.84215
 30
0.0
  0
VERTEX
  5
22DC
  8
0
 62
     7
 10
164.165795
 20
153.84215
 30
0.0
  0
SEQEND
  5
22DD
  8
0
 62
     7
  0
POLYLINE
  5
22DE
  8
0
 62
     7
 66
     1
 10
0.0
 20
0.0
 30
0.0
  0
VERTEX
  5
22DF
  8
0
 62
     7
 10
185.737449
 20
153.84215
 30
0.0
  0
VERTEX
  5
22E0
  8
0
 62
     7
 10
186.10307
 20
155.487445
 30
0.0
  0
VERTEX
  5
22E1
  8
0
 62
     7
 10
187.017124
 20
156.767119
 30
0.0
  0
VERTEX
  5
22E2
  8
0
 62
     7
 10
188.479609
 20
157.863983
 30
0.0
  0
VERTEX
  5
22E3
  8
0
 62
     7
 10
190.124904
 20
158.046794
 30
0.0
  0
VERTEX
  5
22E4
  8
0
 62
     7
 10
191.7702
 20
157.863983
 30
0.0
  0
VERTEX
  5
22E5
  8
0
 62
     7
 10
193.232685
 20
156.767119
 30
0.0
  0
VERTEX
  5
22E6
  8
0
 62
     7
 10
194.146738
 20
155.487445
 30
0.0
  0
VERTEX
  5
22E7
  8
0
 62
     7
 10
194.512359
 20
153.84215
 30
0.0
  0
VERTEX
  5
22E8
  8
0
 62
     7
 10
194.146738
 20
152.196854
 30
0.0
  0
VERTEX
  5
22E9
  8
0
 62
     7
 10
193.232685
 20
150.734369
 30
0.0
  0
VERTEX
  5
22EA
  8
0
 62
     7
 10
191.7702
 20
149.820316
 30
0.0
  0
VERTEX
  5
22EB
  8
0
 62
     7
 10
190.124904
 20
149.454695
 30
0.0
  0
VERTEX
  5
22EC
  8
0
 62
     7
 10
188.479609
 20
149.820316
 30
0.0
  0
VERTEX
  5
22ED
  8
0
 62
     7
 10
187.017124
 20
150.734369
 30
0.0
  0
VERTEX
  5
22EE
  8
0
 62
     7
 10
186.10307
 20
152.196854
 30
0.0
  0
VERTEX
  5
22EF
  8
0
 62
     7
 10
185.737449
 20
153.84215
 30
0.0
  0
VERTEX
  5
22F0
  8
0
 62
     7
 10
185.737449
 20
153.84215
 30
0.0
  0
SEQEND
  5
22F1
  8
0
 62
     7
  0
TEXT
  5
22F2
  8
0
 62
     7
 10
164.714227
 20
170.295106
 30
0.0
 40
6.119837
  1
24V Aux
  7
STYLE_STD
  0
TEXT
  5
22FE
  8
0
 62
     7
 10
188.84523
 20
159.143658
 30
0.0
 40
5.557443
  1
-
 41
0.75
  7
WMF-ARIAL2
  0
TEXT
  5
22FF
  8
0
 62
     7
 10
166.359523
 20
159.143658
 30
0.0
 40
5.557443
  1
+
 41
0.75
  7
WMF-ARIAL2
  0
POLYLINE
  5
2300
  8
0
 62
     7
 66
     1
 10
0.0
 20
0.0
 30
0.0
  0
VERTEX
  5
2301
  8
0
 62
     7
 10
162.154879
 20
163.531113
 30
0.0
  0
VERTEX
  5
2302
  8
0
 62
     7
 10
162.154879
 20
167.735757
 30
0.0
  0
VERTEX
  5
2303
  8
0
 62
     7
 10
196.706087
 20
167.735757
 30
0.0
  0
VERTEX
  5
2304
  8
0
 62
     7
 10
196.706087
 20
163.531113
 30
0.0
  0
SEQEND
  5
2305
  8
0
 62
     7
  0
TEXT
  5
2306
  8
0
 62
     7
 10
323.942281
 20
164.993598
 30
0.0
 40
6.280886
  1
X1
  7
STYLE_GRAS
  0
TEXT
  5
2307
  8
0
 62
     7
 10
344.667078
 20
160.16806
 30
0.0
 40
6.119837
  1
D(B)
 50
90.0
  7
STYLE_STD
  0
POLYLINE
  5
2308
  8
0
 62
     7
 66
     1
 10
0.0
 20
0.0
 30
0.0
  0
VERTEX
  5
2309
  8
0
 62
     7
 10
335.45935
 20
147.809399
 30
0.0
  0
VERTEX
  5
230A
  8
0
 62
     7
 10
346.427988
 20
147.809399
 30
0.0
  0
VERTEX
  5
230B
  8
0
 62
     7
 10
346.427988
 20
159.143658
 30
0.0
  0
VERTEX
  5
230C
  8
0
 62
     7
 10
335.45935
 20
159.143658
 30
0.0
  0
VERTEX
  5
230D
  8
0
 62
     7
 10
335.45935
 20
147.809399
 30
0.0
  0
VERTEX
  5
230E
  8
0
 62
     7
 10
335.45935
 20
147.809399
 30
0.0
  0
SEQEND
  5
230F
  8
0
 62
     7
  0
TEXT
  5
2310
  8
0
 62
     7
 10
338.484839
 20
150.733011
 30
0.0
 40
6.119837
  1
4
  7
STYLE_STD
  0
POLYLINE
  5
2311
  8
0
 62
     7
 66
     1
 10
0.0
 20
0.0
 30
0.0
  0
VERTEX
  5
2312
  8
0
 62
     7
 10
346.245177
 20
147.809399
 30
0.0
  0
VERTEX
  5
2313
  8
0
 62
     7
 10
357.213815
 20
147.809399
 30
0.0
  0
VERTEX
  5
2314
  8
0
 62
     7
 10
357.213815
 20
159.143658
 30
0.0
  0
VERTEX
  5
2315
  8
0
 62
     7
 10
346.245177
 20
159.143658
 30
0.0
  0
VERTEX
  5
2316
  8
0
 62
     7
 10
346.245177
 20
147.809399
 30
0.0
  0
VERTEX
  5
2317
  8
0
 62
     7
 10
346.245177
 20
147.809399
 30
0.0
  0
SEQEND
  5
2318
  8
0
 62
     7
  0
TEXT
  5
2319
  8
0
 62
     7
 10
350.797367
 20
150.652448
 30
0.0
 40
6.119837
  1
5
  7
STYLE_STD
  0
POLYLINE
  5
231A
  8
0
 62
     7
 66
     1
 10
0.0
 20
0.0
 30
0.0
  0
VERTEX
  5
231B
  8
0
 62
     7
 10
357.213815
 20
147.809399
 30
0.0
  0
VERTEX
  5
231C
  8
0
 62
     7
 10
367.999642
 20
147.809399
 30
0.0
  0
VERTEX
  5
231D
  8
0
 62
     7
 10
367.999642
 20
159.143658
 30
0.0
  0
VERTEX
  5
231E
  8
0
 62
     7
 10
357.213815
 20
159.143658
 30
0.0
  0
VERTEX
  5
231F
  8
0
 62
     7
 10
357.213815
 20
147.809399
 30
0.0
  0
VERTEX
  5
2320
  8
0
 62
     7
 10
357.213815
 20
147.809399
 30
0.0
  0
SEQEND
  5
2321
  8
0
 62
     7
  0
TEXT
  5
2322
  8
0
 62
     7
 10
361.766004
 20
150.652448
 30
0.0
 40
6.119837
  1
8
  7
STYLE_STD
  0
TEXT
  5
2323
  8
0
 62
     7
 10
355.404808
 20
160.16806
 30
0.0
 40
6.119837
  1
D(A)
 50
90.0
  7
STYLE_STD
  0
TEXT
  5
2324
  8
0
 62
     7
 10
366.345136
 20
160.16806
 30
0.0
 40
6.119837
  1
Gnd
 50
90.0
  7
STYLE_STD
  0
TEXT
  5
2325
  8
0
 62
     7
 10
220.837089
 20
164.993598
 30
0.0
 40
6.280886
  1
X2
  7
STYLE_GRAS
  0
POLYLINE
  5
2327
  8
0
 62
     7
 66
     1
 10
0.0
 20
0.0
 30
0.0
  0
VERTEX
  5
2328
  8
0
 62
     7
 10
227.966703
 20
147.809399
 30
0.0
  0
VERTEX
  5
2329
  8
0
 62
     7
 10
227.966703
 20
158.595226
 30
0.0
  0
VERTEX
  5
232A
  8
0
 62
     7
 10
217.180877
 20
158.595226
 30
0.0
  0
VERTEX
  5
232B
  8
0
 62
     7
 10
217.180877
 20
147.809399
 30
0.0
  0
VERTEX
  5
232C
  8
0
 62
     7
 10
227.966703
 20
147.809399
 30
0.0
  0
VERTEX
  5
232D
  8
0
 62
     7
 10
227.966703
 20
147.809399
 30
0.0
  0
SEQEND
  5
232E
  8
0
 62
     7
  0
TEXT
  5
232F
  8
0
 62
     7
 10
220.228367
 20
150.469637
 30
0.0
 40
6.119837
  1
1
  7
STYLE_STD
  0
POLYLINE
  5
2330
  8
0
 62
     7
 66
     1
 10
0.0
 20
0.0
 30
0.0
  0
VERTEX
  5
2331
  8
0
 62
     7
 10
238.75253
 20
147.809399
 30
0.0
  0
VERTEX
  5
2332
  8
0
 62
     7
 10
238.75253
 20
158.595226
 30
0.0
  0
VERTEX
  5
2333
  8
0
 62
     7
 10
227.966703
 20
158.595226
 30
0.0
  0
VERTEX
  5
2334
  8
0
 62
     7
 10
227.966703
 20
147.809399
 30
0.0
  0
VERTEX
  5
2335
  8
0
 62
     7
 10
238.75253
 20
147.809399
 30
0.0
  0
VERTEX
  5
2336
  8
0
 62
     7
 10
238.75253
 20
147.809399
 30
0.0
  0
SEQEND
  5
2337
  8
0
 62
     7
  0
TEXT
  5
2338
  8
0
 62
     7
 10
231.014194
 20
150.469637
 30
0.0
 40
6.119837
  1
2
  7
STYLE_STD
  0
POLYLINE
  5
2339
  8
0
 62
     7
 66
     1
 10
0.0
 20
0.0
 30
0.0
  0
VERTEX
  5
233A
  8
0
 62
     7
 10
249.538357
 20
147.809399
 30
0.0
  0
VERTEX
  5
233B
  8
0
 62
     7
 10
249.538357
 20
158.595226
 30
0.0
  0
VERTEX
  5
233C
  8
0
 62
     7
 10
238.75253
 20
158.595226
 30
0.0
  0
VERTEX
  5
233D
  8
0
 62
     7
 10
238.75253
 20
147.809399
 30
0.0
  0
VERTEX
  5
233E
  8
0
 62
     7
 10
249.538357
 20
147.809399
 30
0.0
  0
VERTEX
  5
233F
  8
0
 62
     7
 10
249.538357
 20
147.809399
 30
0.0
  0
SEQEND
  5
2340
  8
0
 62
     7
  0
TEXT
  5
2341
  8
0
 62
     7
 10
241.800021
 20
150.469637
 30
0.0
 40
6.119837
  1
3
  7
STYLE_STD
  0
POLYLINE
  5
2342
  8
0
 62
     7
 66
     1
 10
0.0
 20
0.0
 30
0.0
  0
VERTEX
  5
2343
  8
0
 62
     7
 10
260.324184
 20
147.809399
 30
0.0
  0
VERTEX
  5
2344
  8
0
 62
     7
 10
260.324184
 20
158.595226
 30
0.0
  0
VERTEX
  5
2345
  8
0
 62
     7
 10
249.538357
 20
158.595226
 30
0.0
  0
VERTEX
  5
2346
  8
0
 62
     7
 10
249.538357
 20
147.809399
 30
0.0
  0
VERTEX
  5
2347
  8
0
 62
     7
 10
260.324184
 20
147.809399
 30
0.0
  0
VERTEX
  5
2348
  8
0
 62
     7
 10
260.324184
 20
147.809399
 30
0.0
  0
SEQEND
  5
2349
  8
0
 62
     7
  0
TEXT
  5
234A
  8
0
 62
     7
 10
252.585848
 20
150.469637
 30
0.0
 40
6.119837
  1
4
  7
STYLE_STD
  0
POLYLINE
  5
234B
  8
0
 62
     7
 66
     1
 10
0.0
 20
0.0
 30
0.0
  0
VERTEX
  5
234C
  8
0
 62
     7
 10
271.110011
 20
147.809399
 30
0.0
  0
VERTEX
  5
234D
  8
0
 62
     7
 10
271.110011
 20
158.595226
 30
0.0
  0
VERTEX
  5
234E
  8
0
 62
     7
 10
260.324184
 20
158.595226
 30
0.0
  0
VERTEX
  5
234F
  8
0
 62
     7
 10
260.324184
 20
147.809399
 30
0.0
  0
VERTEX
  5
2350
  8
0
 62
     7
 10
271.110011
 20
147.809399
 30
0.0
  0
VERTEX
  5
2351
  8
0
 62
     7
 10
271.110011
 20
147.809399
 30
0.0
  0
SEQEND
  5
2352
  8
0
 62
     7
  0
TEXT
  5
2353
  8
0
 62
     7
 10
263.371675
 20
150.469637
 30
0.0
 40
6.119837
  1
5
  7
STYLE_STD
  0
LINE
  5
2379
  8
0
 62
     7
 10
384.452598
 20
185.651198
 30
0.0
 11
384.452598
 21
196.437025
 31
0.0
  0
LINE
  5
237B
  8
0
 62
     7
 10
146.981597
 20
196.437025
 30
0.0
 11
146.981597
 21
185.651198
 31
0.0
  0
INSERT
  5
2381
  8
0
  2
A$C57562481
 10
148.929566
 20
197.694295
 30
0.0
  0
INSERT
  5
2390
  8
0
  2
A$C46AF1A87
 10
146.383363
 20
179.098887
 30
0.0
 41
1.244016
 42
1.244016
 43
1.244016
  0
INSERT
  5
23A9
  8
0
  2
A$C29856FE4
 10
348.464832
 20
194.970428
 30
0.0
  0
POLYLINE
  5
26B2
  8
0
 62
     7
 66
     1
 10
0.0
 20
0.0
 30
0.0
  0
VERTEX
  5
26B3
  8
0
 62
     7
 10
270.394802
 20
153.176957
 30
0.0
  0
VERTEX
  5
26B4
  8
0
 62
     7
 10
273.319772
 20
153.176957
 30
0.0
  0
SEQEND
  5
26B5
  8
0
 62
     7
  0
POLYLINE
  5
26B6
  8
0
 62
     7
 66
     1
 10
0.0
 20
0.0
 30
0.0
  0
VERTEX
  5
26B7
  8
0
 62
     7
 10
275.147879
 20
153.176957
 30
0.0
  0
VERTEX
  5
26B8
  8
0
 62
     7
 10
278.072849
 20
153.176957
 30
0.0
  0
SEQEND
  5
26B9
  8
0
 62
     7
  0
POLYLINE
  5
26BA
  8
0
 62
     7
 66
     1
 10
0.0
 20
0.0
 30
0.0
  0
VERTEX
  5
26BB
  8
0
 62
     7
 10
279.900955
 20
153.176957
 30
0.0
  0
VERTEX
  5
26BC
  8
0
 62
     7
 10
282.825925
 20
153.176957
 30
0.0
  0
SEQEND
  5
26BD
  8
0
 62
     7
  0
POLYLINE
  5
26BE
  8
0
 62
     7
 66
     1
 10
0.0
 20
0.0
 30
0.0
  0
VERTEX
  5
26BF
  8
0
 62
     7
 10
284.654031
 20
153.176957
 30
0.0
  0
VERTEX
  5
26C0
  8
0
 62
     7
 10
287.579001
 20
153.176957
 30
0.0
  0
SEQEND
  5
26C1
  8
0
 62
     7
  0
POLYLINE
  5
26C2
  8
0
 62
     7
 66
     1
 10
0.0
 20
0.0
 30
0.0
  0
VERTEX
  5
26C3
  8
0
 62
     7
 10
289.407107
 20
153.176957
 30
0.0
  0
VERTEX
  5
26C4
  8
0
 62
     7
 10
292.332077
 20
153.176957
 30
0.0
  0
SEQEND
  5
26C5
  8
0
 62
     7
  0
POLYLINE
  5
26C6
  8
0
 62
     7
 66
     1
 10
0.0
 20
0.0
 30
0.0
  0
VERTEX
  5
26C7
  8
0
 62
     7
 10
294.160183
 20
153.176957
 30
0.0
  0
VERTEX
  5
26C8
  8
0
 62
     7
 10
297.085153
 20
153.176957
 30
0.0
  0
SEQEND
  5
26C9
  8
0
 62
     7
  0
POLYLINE
  5
26CA
  8
0
 62
     7
 66
     1
 10
0.0
 20
0.0
 30
0.0
  0
VERTEX
  5
26CB
  8
0
 62
     7
 10
298.91326
 20
153.176957
 30
0.0
  0
VERTEX
  5
26CC
  8
0
 62
     7
 10
301.83823
 20
153.176957
 30
0.0
  0
SEQEND
  5
26CD
  8
0
 62
     7
  0
POLYLINE
  5
26CE
  8
0
 62
     7
 66
     1
 10
0.0
 20
0.0
 30
0.0
  0
VERTEX
  5
26CF
  8
0
 62
     7
 10
303.666336
 20
153.176957
 30
0.0
  0
VERTEX
  5
26D0
  8
0
 62
     7
 10
306.591306
 20
153.176957
 30
0.0
  0
SEQEND
  5
26D1
  8
0
 62
     7
  0
POLYLINE
  5
26D2
  8
0
 62
     7
 66
     1
 10
0.0
 20
0.0
 30
0.0
  0
VERTEX
  5
26D3
  8
0
 62
     7
 10
308.419412
 20
153.176957
 30
0.0
  0
VERTEX
  5
26D4
  8
0
 62
     7
 10
311.344382
 20
153.176957
 30
0.0
  0
SEQEND
  5
26D5
  8
0
 62
     7
  0
POLYLINE
  5
26D6
  8
0
 62
     7
 66
     1
 10
0.0
 20
0.0
 30
0.0
  0
VERTEX
  5
26D7
  8
0
 62
     7
 10
313.172488
 20
153.176957
 30
0.0
  0
VERTEX
  5
26D8
  8
0
 62
     7
 10
316.097458
 20
153.176957
 30
0.0
  0
SEQEND
  5
26D9
  8
0
 62
     7
  0
TEXT
  5
2869
  8
0
 62
     7
 10
227.679606
 20
165.938532
 30
0.0
 40
5.557443
  1
    Devicenet
  7
STYLE_STD
  0
ENDSEC
  0
EOF
