999
DXF file: C:\Users\sesa63760\Dev\_Creo\CAD\MCADUE0002787_3D-CAD\drw0001_7.dxf
999
Pro/ENGINEER 2019471 by Parametric Technology Corporation
  0
SECTION
  2
HEADER
  9
$ACADVER
  1
AC1024
  9
$DWGCODEPAGE
  3
ANSI_1252
  9
$EXTMAX
 10
38.5539199434
 20
54.5262582057
 30
0.0
  9
$EXTMIN
 10
0.0
 20
0.0
 30
0.0
  9
$LIMMIN
 10
0.0
 20
0.0
  9
$LIMMAX
 10
38.5539199434
 20
54.5262582057
  9
$VIEWCTR
 10
19.2769599717
 20
27.2631291028
  9
$VIEWSIZE
 40
54.5262582057
  9
$CLAYER
  8
0
  9
$LTSCALE
 40
3.5543042386
  9
$CELTYPE
  6
BYLAYER
  9
$DIMSCALE
 40
1.0
  9
$DIMASZ
 40
0.4589752374
  9
$DIMEXO
 40
1.0
  9
$DIMDLI
 40
2.4557011103
  9
$DIMEXE
 40
1.0
  9
$DIMCEN
 40
0.5816134209
  9
$DIMLFAC
 40
1.0
  9
$DIMBLK
  1
_FILLED
  9
$DIMALT
 70
0
  9
$DIMALTF
 40
0.0393700787
  9
$DIMTXT
 40
0.6425653324
  9
$DIMTOL
 70
1
  9
$DIMLIM
 70
0
  9
$DIMTFAC
 40
1.0
  9
$DIMTP
 40
0.01
  9
$DIMTM
 40
0.01
  9
$DIMGAP
 40
0.625
  9
$DIMDSEP
 70
46
  9
$AUNITS
 70
0
  9
$PDMODE
 70
3
  9
$PDSIZE
 40
0.3125
  9
$HANDSEED
  5
289
  9
$TILEMODE
 70
1
  9
$MEASUREMENT
 70
1
  9
$INSUNITS
 70
4
  0
ENDSEC
  0
SECTION
  2
CLASSES
  0
CLASS
  1
ACDBDICTIONARYWDFLT
  2
AcDbDictionaryWithDefault
  3
AutoCAD 2000
 90
0
 91
1
280
0
281
0
  0
CLASS
  1
ACDBPLACEHOLDER
  2
AcDbPlaceHolder
  3
AutoCAD 2000
 90
0
 91
1
280
0
281
0
  0
CLASS
  1
LAYOUT
  2
AcDbLayout
  3
AutoCAD 2000
 90
0
 91
0
280
0
281
0
  0
ENDSEC
  0
SECTION
  2
TABLES
  0
TABLE
  2
VPORT
  5
8
100
AcDbSymbolTable
 70
2
  0
VPORT
  5
1F4
100
AcDbSymbolTableRecord
100
AcDbViewportTableRecord
  2
*ACTIVE
 70
0
 10
0.0
 20
0.0
 11
1.0
 21
1.0
 12
19.2769599717
 22
27.2631291028
 13
0.0
 23
0.0
 14
1.0
 24
1.0
 15
0.0
 25
0.0
 16
0.0
 26
0.0
 36
1.0
 17
0.0
 27
0.0
 37
0.0
 40
54.5262582057
 41
0.7070707071
 42
50.0
 43
0.0
 44
0.0
 50
0.0
 51
0.0
 71
0
 72
100
 73
1
 74
1
 75
0
 76
0
 77
0
 78
0
  0
ENDTAB
  0
TABLE
  2
LTYPE
  5
5
100
AcDbSymbolTable
 70
6
  0
LTYPE
  5
14
100
AcDbSymbolTableRecord
100
AcDbLinetypeTableRecord
  2
BYBLOCK
 70
0
  3

 72
65
 73
0
 40
0.0
  0
LTYPE
  5
15
100
AcDbSymbolTableRecord
100
AcDbLinetypeTableRecord
  2
BYLAYER
 70
0
  3

 72
65
 73
0
 40
0.0
  0
LTYPE
  5
16
100
AcDbSymbolTableRecord
100
AcDbLinetypeTableRecord
  2
CONTINUOUS
 70
64
  3
Solid line
 72
65
 73
0
 40
0.0
  0
LTYPE
  5
1F5
100
AcDbSymbolTableRecord
100
AcDbLinetypeTableRecord
  2
CENTER
 70
64
  3
____ _ ____ _ ____ _ ____ _ ____ _ ____ _ ____
 72
65
 73
4
 40
0.6
 49
0.375
 74
0
 49
-0.075
 74
0
 49
0.075
 74
0
 49
-0.075
 74
0
  0
LTYPE
  5
1F6
100
AcDbSymbolTableRecord
100
AcDbLinetypeTableRecord
  2
HIDDEN
 70
64
  3
- - - - - - - - - - - - - - - - - - - -
 72
65
 73
2
 40
0.2
 49
0.1
 74
0
 49
-0.1
 74
0
  0
LTYPE
  5
1F7
100
AcDbSymbolTableRecord
100
AcDbLinetypeTableRecord
  2
PHANTOM
 70
64
  3
_____ _ _ _____ _ _ _____ _ _ _____
 72
65
 73
6
 40
0.8
 49
0.45
 74
0
 49
-0.05
 74
0
 49
0.1
 74
0
 49
-0.05
 74
0
 49
0.1
 74
0
 49
-0.05
 74
0
  0
LTYPE
  5
1F8
100
AcDbSymbolTableRecord
100
AcDbLinetypeTableRecord
  2
DOT
 70
64
  3
. . . . . . . . . . . . . . . . . . . .
 72
65
 73
2
 40
0.2
 49
0.1
 74
0
 49
-0.1
 74
0
  0
LTYPE
  5
1F9
100
AcDbSymbolTableRecord
100
AcDbLinetypeTableRecord
  2
DASHED
 70
64
  3
- - - - - - - - - - - - - - - - - - - -
 72
65
 73
2
 40
0.2
 49
0.1
 74
0
 49
-0.1
 74
0
  0
ENDTAB
  0
TABLE
  2
LAYER
  5
2
100
AcDbSymbolTable
 70
36
  0
LAYER
  5
10
100
AcDbSymbolTableRecord
100
AcDbLayerTableRecord
  2
0
 70
0
 62
7
  6
CONTINUOUS
370
-3
390
F
  0
LAYER
  5
1FA
100
AcDbSymbolTableRecord
100
AcDbLayerTableRecord
  2
DEFAULT_1
 70
0
 62
7
  6
CENTER
370
-3
390
F
  0
LAYER
  5
1FB
100
AcDbSymbolTableRecord
100
AcDbLayerTableRecord
  2
DEFAULT_2
 70
0
 62
8
  6
HIDDEN
370
-3
390
F
  0
LAYER
  5
1FC
100
AcDbSymbolTableRecord
100
AcDbLayerTableRecord
  2
DEFAULT_3
 70
0
 62
7
  6
PHANTOM
370
-3
390
F
  0
LAYER
  5
1FD
100
AcDbSymbolTableRecord
100
AcDbLayerTableRecord
  2
00_COMPONENTS
 70
0
 62
7
  6
CONTINUOUS
370
-3
390
F
  0
LAYER
  5
1FE
100
AcDbSymbolTableRecord
100
AcDbLayerTableRecord
  2
01_1_DEFAULT_DATUMS
 70
0
 62
7
  6
CONTINUOUS
370
-3
390
F
  0
LAYER
  5
1FF
100
AcDbSymbolTableRecord
100
AcDbLayerTableRecord
  2
01_PLANES
 70
0
 62
7
  6
CONTINUOUS
370
-3
390
F
  0
LAYER
  5
200
100
AcDbSymbolTableRecord
100
AcDbLayerTableRecord
  2
02_COORD_SYS
 70
0
 62
7
  6
CONTINUOUS
370
-3
390
F
  0
LAYER
  5
201
100
AcDbSymbolTableRecord
100
AcDbLayerTableRecord
  2
03_AXES
 70
0
 62
7
  6
CONTINUOUS
370
-3
390
F
  0
LAYER
  5
202
100
AcDbSymbolTableRecord
100
AcDbLayerTableRecord
  2
04_POINTS
 70
0
 62
7
  6
CONTINUOUS
370
-3
390
F
  0
LAYER
  5
203
100
AcDbSymbolTableRecord
100
AcDbLayerTableRecord
  2
05_CURVES
 70
0
 62
7
  6
CONTINUOUS
370
-3
390
F
  0
LAYER
  5
204
100
AcDbSymbolTableRecord
100
AcDbLayerTableRecord
  2
06_SURFS
 70
0
 62
7
  6
CONTINUOUS
370
-3
390
F
  0
LAYER
  5
205
100
AcDbSymbolTableRecord
100
AcDbLayerTableRecord
  2
07_COSMETICS
 70
0
 62
7
  6
CONTINUOUS
370
-3
390
F
  0
LAYER
  5
206
100
AcDbSymbolTableRecord
100
AcDbLayerTableRecord
  2
10_NOTES
 70
0
 62
7
  6
CONTINUOUS
370
-3
390
F
  0
LAYER
  5
207
100
AcDbSymbolTableRecord
100
AcDbLayerTableRecord
  2
11_NOTES_PUB
 70
0
 62
7
  6
CONTINUOUS
370
-3
390
F
  0
LAYER
  5
208
100
AcDbSymbolTableRecord
100
AcDbLayerTableRecord
  2
13_REF_GTOL
 70
0
 62
7
  6
CONTINUOUS
370
-3
390
F
  0
LAYER
  5
209
100
AcDbSymbolTableRecord
100
AcDbLayerTableRecord
  2
16_MISC
 70
0
 62
7
  6
CONTINUOUS
370
-3
390
F
  0
LAYER
  5
20A
100
AcDbSymbolTableRecord
100
AcDbLayerTableRecord
  2
17_NO_PRINT
 70
0
 62
7
  6
CONTINUOUS
370
-3
390
F
  0
LAYER
  5
20B
100
AcDbSymbolTableRecord
100
AcDbLayerTableRecord
  2
18_DATUM_CAMS_JOINTS
 70
0
 62
7
  6
CONTINUOUS
370
-3
390
F
  0
LAYER
  5
20C
100
AcDbSymbolTableRecord
100
AcDbLayerTableRecord
  2
19_DATUM_FUNCTIONAL
 70
0
 62
7
  6
CONTINUOUS
370
-3
390
F
  0
LAYER
  5
20D
100
AcDbSymbolTableRecord
100
AcDbLayerTableRecord
  2
20_DATUM_KINEMATIC_SCHEME
 70
0
 62
7
  6
CONTINUOUS
370
-3
390
F
  0
ENDTAB
  0
TABLE
  2
STYLE
  5
3
100
AcDbSymbolTable
 70
1
  0
STYLE
  5
11
100
AcDbSymbolTableRecord
100
AcDbTextStyleTableRecord
  2
STANDARD
 70
0
 40
0.0
 41
0.8
 50
0.0
 71
0
 42
0.2
  3
txt
  4

  0
STYLE
  5
20E
100
AcDbSymbolTableRecord
100
AcDbTextStyleTableRecord
  2
TEXTSTYLE_1
 70
0
 40
0.0
 41
0.8
 50
0.0
 71
0
 42
0.2
  3
gdt
  4

  0
ENDTAB
  0
TABLE
  2
VIEW
  5
6
100
AcDbSymbolTable
 70
0
  0
ENDTAB
  0
TABLE
  2
UCS
  5
7
100
AcDbSymbolTable
 70
0
  0
ENDTAB
  0
TABLE
  2
APPID
  5
9
100
AcDbSymbolTable
 70
1
  0
APPID
  5
20F
100
AcDbSymbolTableRecord
100
AcDbRegAppTableRecord
  2
ACAD
 70
0
  0
ENDTAB
  0
TABLE
  2
BLOCK_RECORD
  5
1
100
AcDbSymbolTable
 70
0
  0
BLOCK_RECORD
  5
210
100
AcDbSymbolTableRecord
100
AcDbBlockTableRecord
  2
*Model_Space
  0
BLOCK_RECORD
  5
211
100
AcDbSymbolTableRecord
100
AcDbBlockTableRecord
  2
*Paper_Space
  0
BLOCK_RECORD
  5
212
100
AcDbSymbolTableRecord
100
AcDbBlockTableRecord
  2
_FILLED
  0
ENDTAB
  0
TABLE
  2
DIMSTYLE
  5
A
100
AcDbSymbolTable
 70
1
100
AcDbDimStyleTable
 71
0
  0
DIMSTYLE
105
213
100
AcDbSymbolTableRecord
100
AcDbDimStyleTableRecord
  2
STANDARD
 70
0
  3

  4

 40
1.0
 41
0.4589752374
 42
1.0
 43
0.38
 44
1.0
 45
0.0
 46
0.0
 47
0.01
 48
0.01
140
0.6425653324
141
0.09
142
0.0
143
25.4
144
1.0
145
0.0
146
1.0
147
0.625
 71
1
 72
0
 73
0
 74
0
 75
0
 76
0
 77
1
 78
8
 79
2
170
0
171
1
172
0
173
0
174
0
175
0
176
0
177
0
178
0
270
2
179
2
271
2
272
2
273
2
274
2
275
0
280
0
281
0
282
0
283
1
284
8
285
0
286
0
287
3
288
0
340
11
278
46
341
212
342
212
343
212
344
212
  0
ENDTAB
  0
ENDSEC
  0
SECTION
  2
BLOCKS
  0
BLOCK
  5
20
100
AcDbEntity
  8
0
100
AcDbBlockBegin
  2
*Model_Space
 70
0
 10
0.0
 20
0.0
 30
0.0
  3
*Model_Space
  1

  0
ENDBLK
  5
21
100
AcDbEntity
  8
0
100
AcDbBlockEnd
  0
BLOCK
  5
1C
100
AcDbEntity
  8
0
100
AcDbBlockBegin
  2
*Paper_Space
 70
0
 10
0.0
 20
0.0
 30
0.0
  3
*Paper_Space
  1

  0
ENDBLK
  5
1D
100
AcDbEntity
  8
0
100
AcDbBlockEnd
  0
BLOCK
  5
214
100
AcDbEntity
  8
0
100
AcDbBlockBegin
  2
_FILLED
 70
64
 10
0.0
 20
0.0
  3
_FILLED
  1

  0
SOLID
  5
215
100
AcDbEntity
  8
0
  6
BYBLOCK
 62
0
100
AcDbTrace
 10
0.0
 20
0.0
 11
-1.0
 21
0.25
 12
-1.0
 22
-0.25
 13
-1.0
 23
-0.25
  0
ENDBLK
  5
216
100
AcDbEntity
  8
0
  6
BYBLOCK
 62
0
100
AcDbBlockEnd
  0
ENDSEC
  0
SECTION
  2
ENTITIES
  0
LINE
  5
217
100
AcDbEntity
  8
0
100
AcDbLine
 62
7
  6
CONTINUOUS
 10
11.5436995778
 20
4.6466083151
 11
27.1436995778
 21
4.6466083151
  0
LINE
  5
218
100
AcDbEntity
  8
0
100
AcDbLine
 62
7
  6
CONTINUOUS
 10
10.5202159707
 20
4.7466083151
 11
28.1671436926
 21
4.7466083151
  0
LINE
  5
219
100
AcDbEntity
  8
0
100
AcDbLine
 62
7
  6
CONTINUOUS
 10
9.5204753199
 20
5.7204313668
 11
29.1669238358
 21
5.7204313668
  0
LWPOLYLINE
  5
21A
100
AcDbEntity
  8
0
100
AcDbPolyline
 62
7
  6
CONTINUOUS
 90
4
 70
0
 10
4.0937025274
 20
20.5344596488
 10
4.1018395861
 20
20.4446217537
 10
4.1475714866
 20
20.3087007326
 10
4.3426345522
 20
20.1020654267
  0
LINE
  5
21B
100
AcDbEntity
  8
0
100
AcDbLine
 62
7
  6
CONTINUOUS
 10
4.0936995778
 20
27.7466083151
 11
4.0936995778
 21
20.5344596482
  0
LINE
  5
21C
100
AcDbEntity
  8
0
100
AcDbLine
 62
7
  6
CONTINUOUS
 10
5.8436995778
 20
27.7466083151
 11
5.8436995778
 21
28.2466083151
  0
LINE
  5
21D
100
AcDbEntity
  8
0
100
AcDbLine
 62
7
  6
CONTINUOUS
 10
4.0937008628
 20
20.5344585491
 11
8.0236594508
 21
18.3273661074
  0
LINE
  5
21E
100
AcDbEntity
  8
0
100
AcDbLine
 62
7
  6
CONTINUOUS
 10
4.3427847228
 20
20.1019782309
 11
9.2180077042
 21
17.2712035966
  0
LINE
  5
21F
100
AcDbEntity
  8
0
100
AcDbLine
 62
7
  6
CONTINUOUS
 10
7.8610297521
 20
27.7466083151
 11
8.0236594508
 21
18.3273661074
  0
LINE
  5
220
100
AcDbEntity
  8
0
100
AcDbLine
 62
7
  6
CONTINUOUS
 10
9.5204753199
 20
5.7204313668
 11
8.9436995778
 21
27.7466083151
  0
LINE
  5
221
100
AcDbEntity
  8
0
100
AcDbLine
 62
7
  6
CONTINUOUS
 10
9.4436995778
 20
28.2466083151
 11
9.4436995778
 21
30.2466083151
  0
LINE
  5
222
100
AcDbEntity
  8
0
100
AcDbLine
 62
7
  6
CONTINUOUS
 10
9.5436995778
 20
30.2465965872
 11
9.5436995778
 21
46.2466083151
  0
LINE
  5
223
100
AcDbEntity
  8
0
100
AcDbLine
 62
7
  6
CONTINUOUS
 10
4.0936995778
 20
20.5343965402
 11
4.0937083655
 21
20.5343951921
  0
LINE
  5
224
100
AcDbEntity
  8
0
100
AcDbLine
 62
7
  6
CONTINUOUS
 10
11.5436995778
 20
4.7466083151
 11
11.5436995778
 21
4.6466083151
  0
LINE
  5
225
100
AcDbEntity
  8
0
100
AcDbLine
 62
7
  6
CONTINUOUS
 10
14.0002456387
 20
30.2466083151
 11
14.0002456387
 21
28.2466083151
  0
LINE
  5
226
100
AcDbEntity
  8
0
100
AcDbLine
 62
7
  6
CONTINUOUS
 10
14.4436995778
 20
46.2466083151
 11
14.4436995778
 21
46.4466083151
  0
LINE
  5
227
100
AcDbEntity
  8
0
100
AcDbLine
 62
7
  6
CONTINUOUS
 10
15.4273875372
 20
46.2466083151
 11
15.4273875372
 21
40.1166083151
  0
LINE
  5
228
100
AcDbEntity
  8
0
100
AcDbLine
 62
7
  6
CONTINUOUS
 10
15.3371709597
 20
49.9533612193
 11
15.2186995778
 21
46.4466083151
  0
LINE
  5
229
100
AcDbEntity
  8
0
100
AcDbLine
 62
7
  6
CONTINUOUS
 10
34.5936995778
 20
27.7466083151
 11
4.0936995778
 21
27.7466083151
  0
LINE
  5
22A
100
AcDbEntity
  8
0
100
AcDbLine
 62
7
  6
CONTINUOUS
 10
32.8436995778
 20
28.2466083151
 11
5.8436995778
 21
28.2466083151
  0
LINE
  5
22B
100
AcDbEntity
  8
0
100
AcDbLine
 62
7
  6
CONTINUOUS
 10
9.4436995778
 20
30.2466083151
 11
29.2436995778
 21
30.2466083151
  0
LINE
  5
22C
100
AcDbEntity
  8
0
100
AcDbLine
 62
7
  6
CONTINUOUS
 10
9.5436995778
 20
30.9516083151
 11
13.9086282812
 21
30.9516083151
  0
LINE
  5
22D
100
AcDbEntity
  8
0
100
AcDbLine
 62
7
  6
CONTINUOUS
 10
24.7787708745
 20
30.9516083151
 11
29.1436995778
 21
30.9516083151
  0
LINE
  5
22E
100
AcDbEntity
  8
0
100
AcDbLine
 62
7
  6
CONTINUOUS
 10
23.4686995778
 20
46.4466083151
 11
23.3502281959
 21
49.9533612193
  0
LINE
  5
22F
100
AcDbEntity
  8
0
100
AcDbLine
 62
7
  6
CONTINUOUS
 10
23.2600116185
 20
40.1166083151
 11
23.2600116185
 21
46.2466083151
  0
LINE
  5
230
100
AcDbEntity
  8
0
100
AcDbLine
 62
7
  6
CONTINUOUS
 10
24.2436995778
 20
46.2466083151
 11
24.2436995778
 21
46.4466083151
  0
LINE
  5
231
100
AcDbEntity
  8
0
100
AcDbLine
 62
7
  6
CONTINUOUS
 10
24.687153517
 20
28.2466083151
 11
24.687153517
 21
30.2466083151
  0
LINE
  5
232
100
AcDbEntity
  8
0
100
AcDbLine
 62
7
  6
CONTINUOUS
 10
9.5436995778
 20
31.6566083151
 11
15.4273875372
 21
31.6566083151
  0
LINE
  5
233
100
AcDbEntity
  8
0
100
AcDbLine
 62
7
  6
CONTINUOUS
 10
23.2600116185
 20
31.6566083151
 11
29.1436995778
 21
31.6566083151
  0
LINE
  5
234
100
AcDbEntity
  8
0
100
AcDbLine
 62
7
  6
CONTINUOUS
 10
9.5436995778
 20
32.3616083151
 11
13.6751144772
 21
32.3616083151
  0
LINE
  5
235
100
AcDbEntity
  8
0
100
AcDbLine
 62
7
  6
CONTINUOUS
 10
25.0122846784
 20
32.3616083151
 11
29.1436995778
 21
32.3616083151
  0
LINE
  5
236
100
AcDbEntity
  8
0
100
AcDbLine
 62
7
  6
CONTINUOUS
 10
9.5436995778
 20
33.0666083151
 11
15.4273875372
 21
33.0666083151
  0
LINE
  5
237
100
AcDbEntity
  8
0
100
AcDbLine
 62
7
  6
CONTINUOUS
 10
23.2600116185
 20
33.0666083151
 11
29.1436995778
 21
33.0666083151
  0
LINE
  5
238
100
AcDbEntity
  8
0
100
AcDbLine
 62
7
  6
CONTINUOUS
 10
9.5436995778
 20
33.7716083151
 11
13.6751144772
 21
33.7716083151
  0
LINE
  5
239
100
AcDbEntity
  8
0
100
AcDbLine
 62
7
  6
CONTINUOUS
 10
25.0122846784
 20
33.7716083151
 11
29.1436995778
 21
33.7716083151
  0
LINE
  5
23A
100
AcDbEntity
  8
0
100
AcDbLine
 62
7
  6
CONTINUOUS
 10
9.5436995778
 20
34.4766083151
 11
15.4273875372
 21
34.4766083151
  0
LINE
  5
23B
100
AcDbEntity
  8
0
100
AcDbLine
 62
7
  6
CONTINUOUS
 10
23.2600116185
 20
34.4766083151
 11
29.1436995778
 21
34.4766083151
  0
LINE
  5
23C
100
AcDbEntity
  8
0
100
AcDbLine
 62
7
  6
CONTINUOUS
 10
27.1436995778
 20
4.6466083151
 11
27.1436995778
 21
4.7466083151
  0
LINE
  5
23D
100
AcDbEntity
  8
0
100
AcDbLine
 62
7
  6
CONTINUOUS
 10
9.5436995778
 20
35.1816083151
 11
13.6751144772
 21
35.1816083151
  0
LINE
  5
23E
100
AcDbEntity
  8
0
100
AcDbLine
 62
7
  6
CONTINUOUS
 10
25.0122846784
 20
35.1816083151
 11
29.1436995778
 21
35.1816083151
  0
LINE
  5
23F
100
AcDbEntity
  8
0
100
AcDbLine
 62
7
  6
CONTINUOUS
 10
9.5436995778
 20
35.8866083151
 11
15.4273875372
 21
35.8866083151
  0
LINE
  5
240
100
AcDbEntity
  8
0
100
AcDbLine
 62
7
  6
CONTINUOUS
 10
23.2600116185
 20
35.8866083151
 11
29.1436995778
 21
35.8866083151
  0
LINE
  5
241
100
AcDbEntity
  8
0
100
AcDbLine
 62
7
  6
CONTINUOUS
 10
9.5436995778
 20
36.5916083151
 11
13.6751144772
 21
36.5916083151
  0
LINE
  5
242
100
AcDbEntity
  8
0
100
AcDbLine
 62
7
  6
CONTINUOUS
 10
25.0122846784
 20
36.5916083151
 11
29.1436995778
 21
36.5916083151
  0
LINE
  5
243
100
AcDbEntity
  8
0
100
AcDbLine
 62
7
  6
CONTINUOUS
 10
29.1436995778
 20
30.2466024513
 11
29.1436995778
 21
46.2466083151
  0
LINE
  5
244
100
AcDbEntity
  8
0
100
AcDbLine
 62
7
  6
CONTINUOUS
 10
29.2436995778
 20
30.2466083151
 11
29.2436995778
 21
28.2466083151
  0
LINE
  5
245
100
AcDbEntity
  8
0
100
AcDbLine
 62
7
  6
CONTINUOUS
 10
29.1669238358
 20
5.7204313668
 11
29.7436995778
 21
27.7466083151
  0
LINE
  5
246
100
AcDbEntity
  8
0
100
AcDbLine
 62
7
  6
CONTINUOUS
 10
9.5436995778
 20
37.2966083151
 11
15.4273875372
 21
37.2966083151
  0
LINE
  5
247
100
AcDbEntity
  8
0
100
AcDbLine
 62
7
  6
CONTINUOUS
 10
23.2600116185
 20
37.2966083151
 11
29.1436995778
 21
37.2966083151
  0
LINE
  5
248
100
AcDbEntity
  8
0
100
AcDbLine
 62
7
  6
CONTINUOUS
 10
9.5436995778
 20
38.0016083151
 11
13.9086282812
 21
38.0016083151
  0
LINE
  5
249
100
AcDbEntity
  8
0
100
AcDbLine
 62
7
  6
CONTINUOUS
 10
24.7787708745
 20
38.0016083151
 11
29.1436995778
 21
38.0016083151
  0
LINE
  5
24A
100
AcDbEntity
  8
0
100
AcDbLine
 62
7
  6
CONTINUOUS
 10
30.663739703
 20
18.3273661148
 11
30.8263694036
 21
27.7466083151
  0
LINE
  5
24B
100
AcDbEntity
  8
0
100
AcDbLine
 62
7
  6
CONTINUOUS
 10
9.5436995778
 20
38.7066083151
 11
15.4273875372
 21
38.7066083151
  0
LINE
  5
24C
100
AcDbEntity
  8
0
100
AcDbLine
 62
7
  6
CONTINUOUS
 10
23.2600116185
 20
38.7066083151
 11
29.1436995778
 21
38.7066083151
  0
LINE
  5
24D
100
AcDbEntity
  8
0
100
AcDbLine
 62
7
  6
CONTINUOUS
 10
29.1436995778
 20
39.4116083151
 11
24.7787708745
 21
39.4116083151
  0
LINE
  5
24E
100
AcDbEntity
  8
0
100
AcDbLine
 62
7
  6
CONTINUOUS
 10
13.9086282812
 20
39.4116083151
 11
9.5436995778
 21
39.4116083151
  0
LINE
  5
24F
100
AcDbEntity
  8
0
100
AcDbLine
 62
7
  6
CONTINUOUS
 10
9.5436995778
 20
40.1166083151
 11
15.4273875372
 21
40.1166083151
  0
LINE
  5
250
100
AcDbEntity
  8
0
100
AcDbLine
 62
7
  6
CONTINUOUS
 10
23.2600116185
 20
40.1166083151
 11
29.1436995778
 21
40.1166083151
  0
LINE
  5
251
100
AcDbEntity
  8
0
100
AcDbLine
 62
7
  6
CONTINUOUS
 10
32.8436995778
 20
27.7466083151
 11
32.8436995778
 21
28.2466083151
  0
LINE
  5
252
100
AcDbEntity
  8
0
100
AcDbLine
 62
7
  6
CONTINUOUS
 10
29.4693914515
 20
17.2712035966
 11
34.3447039164
 21
20.1020301891
  0
LINE
  5
253
100
AcDbEntity
  8
0
100
AcDbLine
 62
7
  6
CONTINUOUS
 10
30.663739703
 20
18.3273661148
 11
34.5936732908
 21
20.5344475468
  0
LINE
  5
254
100
AcDbEntity
  8
0
100
AcDbLine
 62
7
  6
CONTINUOUS
 10
34.5936995778
 20
27.7466083151
 11
34.5936995778
 21
20.534461487
  0
LWPOLYLINE
  5
255
100
AcDbEntity
  8
0
100
AcDbPolyline
 62
7
  6
CONTINUOUS
 90
4
 70
0
 10
34.3447673365
 20
20.1020670137
 10
34.5398305651
 20
20.3087024513
 10
34.5855625036
 20
20.4446235092
 10
34.5936995778
 20
20.534461487
  0
LINE
  5
256
100
AcDbEntity
  8
0
100
AcDbLine
 62
7
  6
CONTINUOUS
 10
29.1436995778
 20
46.2466083151
 11
9.5436995778
 21
46.2466083151
  0
LINE
  5
257
100
AcDbEntity
  8
0
100
AcDbLine
 62
7
  6
CONTINUOUS
 10
24.2436283148
 20
46.4466083151
 11
23.4686995778
 21
46.4466083151
  0
LINE
  5
258
100
AcDbEntity
  8
0
100
AcDbLine
 62
7
  6
CONTINUOUS
 10
15.2186995778
 20
46.4466083151
 11
14.4437708409
 21
46.4466083151
  0
LINE
  5
259
100
AcDbEntity
  8
0
100
AcDbLine
 62
7
  6
CONTINUOUS
 10
23.3504563346
 20
49.9466083151
 11
22.1643446136
 21
49.9466083151
  0
LINE
  5
25A
100
AcDbEntity
  8
0
100
AcDbLine
 62
7
  6
CONTINUOUS
 10
16.5230545421
 20
49.9466083151
 11
15.3369428211
 21
49.9466083151
  0
LINE
  5
25B
100
AcDbEntity
  8
0
100
AcDbLine
 62
7
  6
CONTINUOUS
 10
22.1644699304
 20
49.953344012
 11
16.5229292252
 21
49.953344012
  0
LINE
  5
25C
100
AcDbEntity
  8
0
100
AcDbLine
 62
7
  6
CONTINUOUS
 10
15.5370569229
 20
50.1466083151
 11
23.1503422327
 21
50.1466083151
  0
ARC
  5
25D
100
AcDbEntity
  8
0
100
AcDbCircle
 62
7
  6
CONTINUOUS
 10
28.1672665108
 20
5.7466083151
 40
1.0
100
AcDbArc
 50
270.0
 51
358.4999999999
  0
ARC
  5
25E
100
AcDbEntity
  8
0
100
AcDbCircle
 62
7
  6
CONTINUOUS
 10
10.5201326448
 20
5.7466083151
 40
1.0
100
AcDbArc
 50
181.5000000001
 51
270.0
  0
ARC
  5
25F
100
AcDbEntity
  8
0
100
AcDbCircle
 62
7
  6
CONTINUOUS
 10
23.1503422327
 20
49.9466083151
 40
0.2
100
AcDbArc
 50
1.9349323089
 51
90.0
  0
ARC
  5
260
100
AcDbEntity
  8
0
100
AcDbCircle
 62
7
  6
CONTINUOUS
 10
15.5370569229
 20
49.9466083151
 40
0.2
100
AcDbArc
 50
90.0
 51
178.0650676911
  0
ARC
  5
261
100
AcDbEntity
  8
0
100
AcDbCircle
 62
7
  6
CONTINUOUS
 10
22.0492815489
 20
49.9521180644
 40
0.1151949052
100
AcDbArc
 50
357.258508353
 51
0.6097748208
  0
ARC
  5
262
100
AcDbEntity
  8
0
100
AcDbCircle
 62
7
  6
CONTINUOUS
 10
16.6381176066
 20
49.9521180644
 40
0.1151949051
100
AcDbArc
 50
179.3902251776
 51
182.7414916452
  0
SPLINE
  5
263
100
AcDbEntity
  8
0
100
AcDbSpline
 62
7
  6
CONTINUOUS
 70
0
 71
3
 72
17
 73
13
 74
0
 42
0.0000001
 43
0.0000001
 44
0.0000000001
 40
0.0
 40
0.0
 40
0.0
 40
0.0
 40
0.1816588362
 40
0.3555250726
 40
0.5149386994
 40
0.6552343054
 40
0.7732655022
 40
0.8677683987
 40
0.9067558661
 40
0.9409677467
 40
0.9715159456
 40
1.0
 40
1.0
 40
1.0
 40
1.0
 10
22.1644699304
 20
49.953344012
 30
0.0
 10
22.1643312449
 20
49.9663387199
 30
0.0
 10
22.1632733923
 20
49.9917696511
 30
0.0
 10
22.1593931397
 20
50.0284296761
 30
0.0
 10
22.1533988022
 20
50.0618069333
 30
0.0
 10
22.1455694752
 20
50.0907029835
 30
0.0
 10
22.1362591007
 20
50.114218755
 30
0.0
 10
22.1269726871
 20
50.1298174569
 30
0.0
 10
22.1188046523
 20
50.1386674161
 30
0.0
 10
22.1128524693
 20
50.1431829366
 30
0.0
 10
22.1067179592
 20
50.1459652404
 30
0.0
 10
22.1024741901
 20
50.1466083151
 30
0.0
 10
22.1004365076
 20
50.1466083151
 30
0.0
  0
SPLINE
  5
264
100
AcDbEntity
  8
0
100
AcDbSpline
 62
7
  6
CONTINUOUS
 70
0
 71
3
 72
17
 73
13
 74
0
 42
0.0000001
 43
0.0000001
 44
0.0000000001
 40
0.0
 40
0.0
 40
0.0
 40
0.0
 40
0.1816613009
 40
0.3555301859
 40
0.5149462926
 40
0.655244272
 40
0.7732793583
 40
0.8677866931
 40
0.9067725751
 40
0.9409785674
 40
0.9715194889
 40
1.0
 40
1.0
 40
1.0
 40
1.0
 10
16.5229292252
 20
49.953344012
 30
0.0
 10
16.5230679107
 20
49.9663387141
 30
0.0
 10
16.5241257128
 20
49.991769659
 30
0.0
 10
16.5280064564
 20
50.0284296804
 30
0.0
 10
16.5340019835
 20
50.0618067937
 30
0.0
 10
16.5418319925
 20
50.0907028466
 30
0.0
 10
16.5511438558
 20
50.1142186184
 30
0.0
 10
16.5604319056
 20
50.1298164444
 30
0.0
 10
16.5685989553
 20
50.1386666544
 30
0.0
 10
16.5745493121
 20
50.1431826062
 30
0.0
 10
16.5806822725
 20
50.1459653282
 30
0.0
 10
16.5849252476
 20
50.1466083151
 30
0.0
 10
16.5869626481
 20
50.1466083151
 30
0.0
  0
SPLINE
  5
265
100
AcDbEntity
  8
0
100
AcDbSpline
 62
7
  6
CONTINUOUS
 70
0
 71
3
 72
9
 73
5
 74
0
 42
0.0000001
 43
0.0000001
 44
0.0000000001
 40
0.0
 40
0.0
 40
0.0
 40
0.0
 40
0.2500356807
 40
1.0
 40
1.0
 40
1.0
 40
1.0
 10
23.2600116185
 20
37.2966083151
 30
0.0
 10
23.3895849314
 20
37.34853167
 30
0.0
 10
23.9047236496
 20
37.5638670966
 30
0.0
 10
24.4079111641
 20
37.8072790813
 30
0.0
 10
24.7787708745
 20
38.0016083151
 30
0.0
  0
SPLINE
  5
266
100
AcDbEntity
  8
0
100
AcDbSpline
 62
7
  6
CONTINUOUS
 70
0
 71
3
 72
9
 73
5
 74
0
 42
0.0000001
 43
0.0000001
 44
0.0000000001
 40
0.0
 40
0.0
 40
0.0
 40
0.0
 40
0.2500365042
 40
1.0
 40
1.0
 40
1.0
 40
1.0
 10
23.2600116185
 20
31.6566083151
 30
0.0
 10
23.4090634989
 20
31.7073813498
 30
0.0
 10
24.0021207629
 20
31.9194180103
 30
0.0
 10
24.5831894706
 20
32.1642768398
 30
0.0
 10
25.0122846784
 20
32.3616083151
 30
0.0
  0
SPLINE
  5
267
100
AcDbEntity
  8
0
100
AcDbSpline
 62
7
  6
CONTINUOUS
 70
0
 71
3
 72
9
 73
5
 74
0
 42
0.0000001
 43
0.0000001
 44
0.0000000001
 40
0.0
 40
0.0
 40
0.0
 40
0.0
 40
0.250042444
 40
1.0
 40
1.0
 40
1.0
 40
1.0
 10
24.7787708745
 20
39.4116083151
 30
0.0
 10
24.655127268
 20
39.4763971467
 30
0.0
 10
24.1578885216
 20
39.7301743401
 30
0.0
 10
23.6486441363
 20
39.9608732821
 30
0.0
 10
23.2600116185
 20
40.1166083151
 30
0.0
  0
SPLINE
  5
268
100
AcDbEntity
  8
0
100
AcDbSpline
 62
7
  6
CONTINUOUS
 70
0
 71
3
 72
9
 73
5
 74
0
 42
0.0000001
 43
0.0000001
 44
0.0000000001
 40
0.0
 40
0.0
 40
0.0
 40
0.0
 40
0.2500365042
 40
1.0
 40
1.0
 40
1.0
 40
1.0
 10
23.2600116185
 20
35.8866083151
 30
0.0
 10
23.4090634989
 20
35.9373813498
 30
0.0
 10
24.0021207629
 20
36.1494180103
 30
0.0
 10
24.5831894706
 20
36.3942768398
 30
0.0
 10
25.0122846784
 20
36.5916083151
 30
0.0
  0
SPLINE
  5
269
100
AcDbEntity
  8
0
100
AcDbSpline
 62
7
  6
CONTINUOUS
 70
0
 71
3
 72
9
 73
5
 74
0
 42
0.0000001
 43
0.0000001
 44
0.0000000001
 40
0.0
 40
0.0
 40
0.0
 40
0.0
 40
0.2500357019
 40
1.0
 40
1.0
 40
1.0
 40
1.0
 10
23.2599856566
 20
30.2466046573
 30
0.0
 10
23.3895609751
 20
30.2985287024
 30
0.0
 10
23.9047123884
 20
30.5138555535
 30
0.0
 10
24.4079055777
 20
30.7572761541
 30
0.0
 10
24.7787708745
 20
30.9516083151
 30
0.0
  0
SPLINE
  5
26A
100
AcDbEntity
  8
0
100
AcDbSpline
 62
7
  6
CONTINUOUS
 70
0
 71
3
 72
9
 73
5
 74
0
 42
0.0000001
 43
0.0000001
 44
0.0000000001
 40
0.0
 40
0.0
 40
0.0
 40
0.0
 40
0.2500356807
 40
1.0
 40
1.0
 40
1.0
 40
1.0
 10
15.4273875372
 20
40.1166083151
 30
0.0
 10
15.2978142242
 20
40.0646849602
 30
0.0
 10
14.7826755061
 20
39.8493495336
 30
0.0
 10
14.2794879916
 20
39.6059375488
 30
0.0
 10
13.9086282812
 20
39.4116083151
 30
0.0
  0
SPLINE
  5
26B
100
AcDbEntity
  8
0
100
AcDbSpline
 62
7
  6
CONTINUOUS
 70
0
 71
3
 72
9
 73
5
 74
0
 42
0.0000001
 43
0.0000001
 44
0.0000000001
 40
0.0
 40
0.0
 40
0.0
 40
0.0
 40
0.250042444
 40
1.0
 40
1.0
 40
1.0
 40
1.0
 10
13.9086282812
 20
38.0016083151
 30
0.0
 10
14.0322718877
 20
37.9368194835
 30
0.0
 10
14.5295106341
 20
37.6830422901
 30
0.0
 10
15.0387550194
 20
37.4523433481
 30
0.0
 10
15.4273875372
 20
37.2966083151
 30
0.0
  0
SPLINE
  5
26C
100
AcDbEntity
  8
0
100
AcDbSpline
 62
7
  6
CONTINUOUS
 70
0
 71
3
 72
9
 73
5
 74
0
 42
0.0000001
 43
0.0000001
 44
0.0000000001
 40
0.0
 40
0.0
 40
0.0
 40
0.0
 40
0.2500435119
 40
1.0
 40
1.0
 40
1.0
 40
1.0
 10
13.6751144772
 20
36.5916083151
 30
0.0
 10
13.8181741623
 20
36.5258183035
 30
0.0
 10
14.3931074082
 20
36.268896356
 30
0.0
 10
14.9803353305
 20
36.0388921851
 30
0.0
 10
15.4273875372
 20
35.8866083151
 30
0.0
  0
SPLINE
  5
26D
100
AcDbEntity
  8
0
100
AcDbSpline
 62
7
  6
CONTINUOUS
 70
0
 71
3
 72
9
 73
5
 74
0
 42
0.0000001
 43
0.0000001
 44
0.0000000001
 40
0.0
 40
0.0
 40
0.0
 40
0.0
 40
0.2500435119
 40
1.0
 40
1.0
 40
1.0
 40
1.0
 10
13.6751144772
 20
35.1816083151
 30
0.0
 10
13.8181741623
 20
35.1158183035
 30
0.0
 10
14.3931074082
 20
34.858896356
 30
0.0
 10
14.9803353305
 20
34.6288921851
 30
0.0
 10
15.4273875372
 20
34.4766083151
 30
0.0
  0
SPLINE
  5
26E
100
AcDbEntity
  8
0
100
AcDbSpline
 62
7
  6
CONTINUOUS
 70
0
 71
3
 72
9
 73
5
 74
0
 42
0.0000001
 43
0.0000001
 44
0.0000000001
 40
0.0
 40
0.0
 40
0.0
 40
0.0
 40
0.2500435119
 40
1.0
 40
1.0
 40
1.0
 40
1.0
 10
13.6751144772
 20
33.7716083151
 30
0.0
 10
13.8181741623
 20
33.7058183035
 30
0.0
 10
14.3931074082
 20
33.448896356
 30
0.0
 10
14.9803353305
 20
33.2188921851
 30
0.0
 10
15.4273875372
 20
33.0666083151
 30
0.0
  0
SPLINE
  5
26F
100
AcDbEntity
  8
0
100
AcDbSpline
 62
7
  6
CONTINUOUS
 70
0
 71
3
 72
9
 73
5
 74
0
 42
0.0000001
 43
0.0000001
 44
0.0000000001
 40
0.0
 40
0.0
 40
0.0
 40
0.0
 40
0.2500435119
 40
1.0
 40
1.0
 40
1.0
 40
1.0
 10
13.6751144772
 20
32.3616083151
 30
0.0
 10
13.8181741623
 20
32.2958183035
 30
0.0
 10
14.3931074082
 20
32.038896356
 30
0.0
 10
14.9803353305
 20
31.8088921851
 30
0.0
 10
15.4273875372
 20
31.6566083151
 30
0.0
  0
SPLINE
  5
270
100
AcDbEntity
  8
0
100
AcDbSpline
 62
7
  6
CONTINUOUS
 70
0
 71
3
 72
9
 73
5
 74
0
 42
0.0000001
 43
0.0000001
 44
0.0000000001
 40
0.0
 40
0.0
 40
0.0
 40
0.0
 40
0.2500365042
 40
1.0
 40
1.0
 40
1.0
 40
1.0
 10
23.2600116185
 20
34.4766083151
 30
0.0
 10
23.4090634989
 20
34.5273813498
 30
0.0
 10
24.0021207629
 20
34.7394180103
 30
0.0
 10
24.5831894706
 20
34.9842768398
 30
0.0
 10
25.0122846784
 20
35.1816083151
 30
0.0
  0
SPLINE
  5
271
100
AcDbEntity
  8
0
100
AcDbSpline
 62
7
  6
CONTINUOUS
 70
0
 71
3
 72
9
 73
5
 74
0
 42
0.0000001
 43
0.0000001
 44
0.0000000001
 40
0.0
 40
0.0
 40
0.0
 40
0.0
 40
0.2500414606
 40
1.0
 40
1.0
 40
1.0
 40
1.0
 10
24.7787708745
 20
39.4116083151
 30
0.0
 10
24.6551277596
 20
39.3468197411
 30
0.0
 10
24.1578873061
 20
39.0930459752
 30
0.0
 10
23.6486446291
 20
38.8623435456
 30
0.0
 10
23.2600116185
 20
38.7066083151
 30
0.0
  0
SPLINE
  5
272
100
AcDbEntity
  8
0
100
AcDbSpline
 62
7
  6
CONTINUOUS
 70
0
 71
3
 72
9
 73
5
 74
0
 42
0.0000001
 43
0.0000001
 44
0.0000000001
 40
0.0
 40
0.0
 40
0.0
 40
0.0
 40
0.2500365282
 40
1.0
 40
1.0
 40
1.0
 40
1.0
 10
23.2600116185
 20
38.7066083151
 30
0.0
 10
23.3895853775
 20
38.6546847814
 30
0.0
 10
23.9047258555
 20
38.4393534534
 30
0.0
 10
24.4079115636
 20
38.1959373395
 30
0.0
 10
24.7787708745
 20
38.0016083151
 30
0.0
  0
SPLINE
  5
273
100
AcDbEntity
  8
0
100
AcDbSpline
 62
7
  6
CONTINUOUS
 70
0
 71
3
 72
9
 73
5
 74
0
 42
0.0000001
 43
0.0000001
 44
0.0000000001
 40
0.0
 40
0.0
 40
0.0
 40
0.0
 40
0.2500374548
 40
1.0
 40
1.0
 40
1.0
 40
1.0
 10
23.2600116185
 20
37.2966083151
 30
0.0
 10
23.4090640744
 20
37.2458350844
 30
0.0
 10
24.0021232466
 20
37.0338036015
 30
0.0
 10
24.5831899893
 20
36.7889395518
 30
0.0
 10
25.0122846784
 20
36.5916083151
 30
0.0
  0
SPLINE
  5
274
100
AcDbEntity
  8
0
100
AcDbSpline
 62
7
  6
CONTINUOUS
 70
0
 71
3
 72
9
 73
5
 74
0
 42
0.0000001
 43
0.0000001
 44
0.0000000001
 40
0.0
 40
0.0
 40
0.0
 40
0.0
 40
0.2500374548
 40
1.0
 40
1.0
 40
1.0
 40
1.0
 10
23.2600116185
 20
35.8866083151
 30
0.0
 10
23.4090640744
 20
35.8358350844
 30
0.0
 10
24.0021232466
 20
35.6238036015
 30
0.0
 10
24.5831899893
 20
35.3789395518
 30
0.0
 10
25.0122846784
 20
35.1816083151
 30
0.0
  0
SPLINE
  5
275
100
AcDbEntity
  8
0
100
AcDbSpline
 62
7
  6
CONTINUOUS
 70
0
 71
3
 72
9
 73
5
 74
0
 42
0.0000001
 43
0.0000001
 44
0.0000000001
 40
0.0
 40
0.0
 40
0.0
 40
0.0
 40
0.2500374548
 40
1.0
 40
1.0
 40
1.0
 40
1.0
 10
23.2600116185
 20
34.4766083151
 30
0.0
 10
23.4090640744
 20
34.4258350844
 30
0.0
 10
24.0021232466
 20
34.2138036015
 30
0.0
 10
24.5831899893
 20
33.9689395518
 30
0.0
 10
25.0122846784
 20
33.7716083151
 30
0.0
  0
SPLINE
  5
276
100
AcDbEntity
  8
0
100
AcDbSpline
 62
7
  6
CONTINUOUS
 70
0
 71
3
 72
9
 73
5
 74
0
 42
0.0000001
 43
0.0000001
 44
0.0000000001
 40
0.0
 40
0.0
 40
0.0
 40
0.0
 40
0.2500374548
 40
1.0
 40
1.0
 40
1.0
 40
1.0
 10
23.2600116185
 20
33.0666083151
 30
0.0
 10
23.4090640744
 20
33.0158350844
 30
0.0
 10
24.0021232466
 20
32.8038036015
 30
0.0
 10
24.5831899893
 20
32.5589395518
 30
0.0
 10
25.0122846784
 20
32.3616083151
 30
0.0
  0
SPLINE
  5
277
100
AcDbEntity
  8
0
100
AcDbSpline
 62
7
  6
CONTINUOUS
 70
0
 71
3
 72
9
 73
5
 74
0
 42
0.0000001
 43
0.0000001
 44
0.0000000001
 40
0.0
 40
0.0
 40
0.0
 40
0.0
 40
0.2500365282
 40
1.0
 40
1.0
 40
1.0
 40
1.0
 10
23.2600116185
 20
31.6566083151
 30
0.0
 10
23.3895853775
 20
31.6046847814
 30
0.0
 10
23.9047258555
 20
31.3893534534
 30
0.0
 10
24.4079115636
 20
31.1459373395
 30
0.0
 10
24.7787708745
 20
30.9516083151
 30
0.0
  0
SPLINE
  5
278
100
AcDbEntity
  8
0
100
AcDbSpline
 62
7
  6
CONTINUOUS
 70
0
 71
3
 72
9
 73
5
 74
0
 42
0.0000001
 43
0.0000001
 44
0.0000000001
 40
0.0
 40
0.0
 40
0.0
 40
0.0
 40
0.2500414606
 40
1.0
 40
1.0
 40
1.0
 40
1.0
 10
13.9086282812
 20
30.9516083151
 30
0.0
 10
14.0322713961
 20
31.0163968891
 30
0.0
 10
14.5295118496
 20
31.270170655
 30
0.0
 10
15.0387545266
 20
31.5008730846
 30
0.0
 10
15.4273875372
 20
31.6566083151
 30
0.0
  0
SPLINE
  5
279
100
AcDbEntity
  8
0
100
AcDbSpline
 62
7
  6
CONTINUOUS
 70
0
 71
3
 72
9
 73
5
 74
0
 42
0.0000001
 43
0.0000001
 44
0.0000000001
 40
0.0
 40
0.0
 40
0.0
 40
0.0
 40
0.250042345
 40
1.0
 40
1.0
 40
1.0
 40
1.0
 10
13.6751144772
 20
32.3616083151
 30
0.0
 10
13.8181734869
 20
32.4273980161
 30
0.0
 10
14.3931088848
 20
32.6843150168
 30
0.0
 10
14.9803346593
 20
32.9143242164
 30
0.0
 10
15.4273875372
 20
33.0666083151
 30
0.0
  0
SPLINE
  5
27A
100
AcDbEntity
  8
0
100
AcDbSpline
 62
7
  6
CONTINUOUS
 70
0
 71
3
 72
9
 73
5
 74
0
 42
0.0000001
 43
0.0000001
 44
0.0000000001
 40
0.0
 40
0.0
 40
0.0
 40
0.0
 40
0.250042345
 40
1.0
 40
1.0
 40
1.0
 40
1.0
 10
13.6751144772
 20
33.7716083151
 30
0.0
 10
13.8181734869
 20
33.8373980161
 30
0.0
 10
14.3931088848
 20
34.0943150168
 30
0.0
 10
14.9803346593
 20
34.3243242164
 30
0.0
 10
15.4273875372
 20
34.4766083151
 30
0.0
  0
SPLINE
  5
27B
100
AcDbEntity
  8
0
100
AcDbSpline
 62
7
  6
CONTINUOUS
 70
0
 71
3
 72
9
 73
5
 74
0
 42
0.0000001
 43
0.0000001
 44
0.0000000001
 40
0.0
 40
0.0
 40
0.0
 40
0.0
 40
0.250042345
 40
1.0
 40
1.0
 40
1.0
 40
1.0
 10
13.6751144772
 20
35.1816083151
 30
0.0
 10
13.8181734869
 20
35.2473980161
 30
0.0
 10
14.3931088848
 20
35.5043150168
 30
0.0
 10
14.9803346593
 20
35.7343242164
 30
0.0
 10
15.4273875372
 20
35.8866083151
 30
0.0
  0
SPLINE
  5
27C
100
AcDbEntity
  8
0
100
AcDbSpline
 62
7
  6
CONTINUOUS
 70
0
 71
3
 72
9
 73
5
 74
0
 42
0.0000001
 43
0.0000001
 44
0.0000000001
 40
0.0
 40
0.0
 40
0.0
 40
0.0
 40
0.250042345
 40
1.0
 40
1.0
 40
1.0
 40
1.0
 10
13.6751144772
 20
36.5916083151
 30
0.0
 10
13.8181734869
 20
36.6573980161
 30
0.0
 10
14.3931088848
 20
36.9143150168
 30
0.0
 10
14.9803346593
 20
37.1443242164
 30
0.0
 10
15.4273875372
 20
37.2966083151
 30
0.0
  0
SPLINE
  5
27D
100
AcDbEntity
  8
0
100
AcDbSpline
 62
7
  6
CONTINUOUS
 70
0
 71
3
 72
9
 73
5
 74
0
 42
0.0000001
 43
0.0000001
 44
0.0000000001
 40
0.0
 40
0.0
 40
0.0
 40
0.0
 40
0.2500414606
 40
1.0
 40
1.0
 40
1.0
 40
1.0
 10
13.9086282812
 20
38.0016083151
 30
0.0
 10
14.0322713961
 20
38.0663968891
 30
0.0
 10
14.5295118496
 20
38.320170655
 30
0.0
 10
15.0387545266
 20
38.5508730846
 30
0.0
 10
15.4273875372
 20
38.7066083151
 30
0.0
  0
SPLINE
  5
27E
100
AcDbEntity
  8
0
100
AcDbSpline
 62
7
  6
CONTINUOUS
 70
0
 71
3
 72
9
 73
5
 74
0
 42
0.0000001
 43
0.0000001
 44
0.0000000001
 40
0.0
 40
0.0
 40
0.0
 40
0.0
 40
0.2500365282
 40
1.0
 40
1.0
 40
1.0
 40
1.0
 10
15.4273875372
 20
38.7066083151
 30
0.0
 10
15.2978137782
 20
38.7585318488
 30
0.0
 10
14.7826733002
 20
38.9738631768
 30
0.0
 10
14.279487592
 20
39.2172792907
 30
0.0
 10
13.9086282812
 20
39.4116083151
 30
0.0
  0
SPLINE
  5
27F
100
AcDbEntity
  8
0
100
AcDbSpline
 62
7
  6
CONTINUOUS
 70
0
 71
3
 72
9
 73
5
 74
0
 42
0.0000001
 43
0.0000001
 44
0.0000000001
 40
0.0
 40
0.0
 40
0.0
 40
0.0
 40
0.2500424587
 40
1.0
 40
1.0
 40
1.0
 40
1.0
 10
13.9086282812
 20
30.9516083151
 30
0.0
 10
14.0322737536
 20
30.8868185058
 30
0.0
 10
14.5295197864
 20
30.6330370066
 30
0.0
 10
15.0387750288
 20
30.4023417347
 30
0.0
 10
15.4274134984
 20
30.2466046573
 30
0.0
  0
SPLINE
  5
280
100
AcDbEntity
  8
0
100
AcDbSpline
 62
7
  6
CONTINUOUS
 70
0
 71
3
 72
9
 73
5
 74
0
 42
0.0000001
 43
0.0000001
 44
0.0000000001
 40
0.0
 40
0.0
 40
0.0
 40
0.0
 40
0.2500365042
 40
1.0
 40
1.0
 40
1.0
 40
1.0
 10
23.2600116185
 20
33.0666083151
 30
0.0
 10
23.4090634989
 20
33.1173813498
 30
0.0
 10
24.0021207629
 20
33.3294180103
 30
0.0
 10
24.5831894706
 20
33.5742768398
 30
0.0
 10
25.0122846784
 20
33.7716083151
 30
0.0
  0
SPLINE
  5
281
100
AcDbEntity
  8
0
100
AcDbSpline
 62
7
  6
CONTINUOUS
 70
0
 71
3
 72
14
 73
10
 74
0
 42
0.0000001
 43
0.0000001
 44
0.0000000001
 40
0.0
 40
0.0
 40
0.0
 40
0.0
 40
0.1020107215
 40
0.2099528031
 40
0.3253342673
 40
0.4486660054
 40
0.579734596
 40
0.7170103144
 40
1.0
 40
1.0
 40
1.0
 40
1.0
 10
30.5436622461
 20
17.8949737354
 30
0.0
 10
30.5577918751
 20
17.9031783678
 30
0.0
 10
30.585182005
 20
17.9231540555
 30
0.0
 10
30.6204393468
 20
17.9619928188
 30
0.0
 10
30.6489755796
 20
18.0100238734
 30
0.0
 10
30.6697273465
 20
18.0658117577
 30
0.0
 10
30.6815168503
 20
18.127699841
 30
0.0
 10
30.6854779796
 20
18.2161383392
 30
0.0
 10
30.6751743416
 20
18.283505901
 30
0.0
 10
30.6637397075
 20
18.3273661174
 30
0.0
  0
SPLINE
  5
282
100
AcDbEntity
  8
0
100
AcDbSpline
 62
7
  6
CONTINUOUS
 70
0
 71
3
 72
10
 73
6
 74
0
 42
0.0000001
 43
0.0000001
 44
0.0000000001
 40
0.0
 40
0.0
 40
0.0
 40
0.0
 40
0.1527862699
 40
0.376352132
 40
1.0
 40
1.0
 40
1.0
 40
1.0
 10
9.2343662865
 20
17.5464016703
 30
0.0
 10
9.1729158781
 20
17.5864980515
 30
0.0
 10
9.0212376694
 20
17.6847901354
 30
0.0
 10
8.6177821536
 20
17.9452876258
 30
0.0
 10
8.2755945145
 20
18.165404461
 30
0.0
 10
8.0236590561
 20
18.327364693
 30
0.0
  0
SPLINE
  5
283
100
AcDbEntity
  8
0
100
AcDbSpline
 62
7
  6
CONTINUOUS
 70
0
 71
3
 72
10
 73
6
 74
0
 42
0.0000001
 43
0.0000001
 44
0.0000000001
 40
0.0
 40
0.0
 40
0.0
 40
0.0
 40
0.6158793908
 40
0.8410291938
 40
1.0
 40
1.0
 40
1.0
 40
1.0
 10
30.6637399739
 20
18.3273651298
 30
0.0
 10
30.4191919512
 20
18.1701540043
 30
0.0
 10
30.0853064846
 20
17.9553718577
 30
0.0
 10
29.6887113134
 20
17.6993700681
 30
0.0
 10
29.5365247742
 20
17.6007958448
 30
0.0
 10
29.4736458724
 20
17.5598396826
 30
0.0
  0
SPLINE
  5
284
100
AcDbEntity
  8
0
100
AcDbSpline
 62
7
  6
CONTINUOUS
 70
0
 71
3
 72
14
 73
10
 74
0
 42
0.0000001
 43
0.0000001
 44
0.0000000001
 40
0.0
 40
0.0
 40
0.0
 40
0.0
 40
0.1030488978
 40
0.2118451771
 40
0.3278599981
 40
0.4515411878
 40
0.5825702071
 40
0.7193645899
 40
1.0
 40
1.0
 40
1.0
 40
1.0
 10
8.1437405481
 20
17.8949716226
 30
0.0
 10
8.1294667813
 20
17.9032596162
 30
0.0
 10
8.1018480387
 20
17.9234506131
 30
0.0
 10
8.0664196584
 20
17.9626907293
 30
0.0
 10
8.0379123427
 20
18.0110862309
 30
0.0
 10
8.0173199492
 20
18.0670947167
 30
0.0
 10
8.0057435494
 20
18.1289937385
 30
0.0
 10
8.0020327588
 20
18.2169792993
 30
0.0
 10
8.0123195207
 20
18.2838687324
 30
0.0
 10
8.0236590801
 20
18.3273646776
 30
0.0
  0
ELLIPSE
  5
285
100
AcDbEntity
  8
0
100
AcDbEllipse
 62
7
  6
CONTINUOUS
 10
19.3436995778
 20
168.8494213387
 30
0.0
 11
-0.0
 21
145.4109459539
 31
0.0
 40
0.0336976007
 41
-2.573906364
 42
-2.5282037858
  0
ELLIPSE
  5
286
100
AcDbEntity
  8
0
100
AcDbEllipse
 62
7
  6
CONTINUOUS
 10
19.3436995778
 20
168.8494213387
 30
0.0
 11
0.0
 21
145.4109459539
 31
0.0
 40
0.0336976007
 41
-3.7549815214
 42
-3.7092789432
  0
ENDSEC
  0
SECTION
  2
OBJECTS
  0
DICTIONARY
  5
C
100
AcDbDictionary
280
0
281
1
  3
ACAD_GROUP
350
D
  3
ACAD_MLINESTYLE
350
17
  3
ACAD_LAYOUT
350
1A
  3
ACAD_PLOTSETTINGS
350
19
  3
ACAD_PLOTSTYLENAME
350
E
  0
DICTIONARY
  5
D
102
{ACAD_REACTORS
330
C
102
}
100
AcDbDictionary
280
0
281
1
  0
ACDBDICTIONARYWDFLT
  5
E
102
{ACAD_REACTORS
330
C
102
}
100
AcDbDictionary
281
1
  3
Normal
350
F
100
AcDbDictionaryWithDefault
340
F
  0
DICTIONARY
  5
17
102
{ACAD_REACTORS
330
C
102
}
100
AcDbDictionary
280
0
281
1
  3
Standard
350
18
  0
DICTIONARY
  5
19
102
{ACAD_REACTORS
330
C
102
}
100
AcDbDictionary
281
1
  0
DICTIONARY
  5
1A
102
{ACAD_REACTORS
330
C
102
}
100
AcDbDictionary
281
1
  3
Model
350
287
  3
Layout1
350
288
  0
ACDBPLACEHOLDER
  5
F
102
{ACAD_REACTORS
330
E
102
}
  0
MLINESTYLE
  5
18
102
{ACAD_REACTORS
330
17
102
}
100
AcDbMlineStyle
  2
STANDARD
 70
0
  3

 62
256
 51
90.0
 52
90.0
 71
2
 49
0.5
 62
256
  6
BYLAYER
 49
-0.5
 62
256
  6
BYLAYER
  0
LAYOUT
  5
287
102
{ACAD_REACTORS
330
1A
102
}
100
AcDbPlotSettings
  1

  2
none_device
  4

  6

 40
0.0
 41
0.0
 42
0.0
 43
0.0
 44
210.0
 45
297.0
 46
0.0
 47
0.0
 48
0.0
 49
0.0
140
0.0
141
0.0
142
1.0
143
1.0
 70
1024
 72
1
 73
0
 74
0
  7

 75
0
147
1.0
148
0.0
149
0.0
100
AcDbLayout
  1
Model
 70
0
 71
0
 10
0.0
 20
0.0
 11
210.0
 21
297.0
 12
0.0
 22
0.0
 32
0.0
 14
0.0
 24
0.0
 34
0.0
 15
0.0
 25
0.0
 35
0.0
146
0.0
 13
0.0
 23
0.0
 33
0.0
 16
1.0
 26
0.0
 36
0.0
 17
0.0
 27
1.0
 37
0.0
 76
0
330
210
345
0
346
0
  0
LAYOUT
  5
288
102
{ACAD_REACTORS
330
1A
102
}
100
AcDbPlotSettings
  1

  2
none_device
  4

  6

 40
0.0
 41
0.0
 42
0.0
 43
0.0
 44
210.0
 45
297.0
 46
0.0
 47
0.0
 48
0.0
 49
0.0
140
0.0
141
0.0
142
1.0
143
1.0
 70
0
 72
1
 73
0
 74
0
  7

 75
0
147
1.0
148
0.0
149
0.0
100
AcDbLayout
  1
Layout1
 70
0
 71
1
 10
0.0
 20
0.0
 11
210.0
 21
297.0
 12
0.0
 22
0.0
 32
0.0
 14
0.0
 24
0.0
 34
0.0
 15
0.0
 25
0.0
 35
0.0
146
0.0
 13
0.0
 23
0.0
 33
0.0
 16
1.0
 26
0.0
 36
0.0
 17
0.0
 27
1.0
 37
0.0
 76
0
330
211
345
0
346
0
  0
ENDSEC
  0
EOF
