999
DXF file: C:\Users\sesa63760\OneDrive - Schneider Electric\Documents\7-Dev\_Creo\CAD\MCADUE0000637_3D-CAD\drw0001_1.dxf
999
Pro/ENGINEER 2019471 by Parametric Technology Corporation
  0
SECTION
  2
HEADER
  9
$ACADVER
  1
AC1024
  9
$DWGCODEPAGE
  3
ANSI_1252
  9
$EXTMAX
 10
1507.1564012363
 20
2131.5497674627
 30
0.0
  9
$EXTMIN
 10
-0.0
 20
0.0
 30
0.0
  9
$LIMMIN
 10
-0.0
 20
0.0
  9
$LIMMAX
 10
1507.1564012363
 20
2131.5497674627
  9
$VIEWCTR
 10
753.5782006181
 20
1065.7748837314
  9
$VIEWSIZE
 40
2131.5497674627
  9
$CLAYER
  8
0
  9
$LTSCALE
 40
138.9454663235
  9
$CELTYPE
  6
BYLAYER
  9
$DIMSCALE
 40
1.0
  9
$DIMASZ
 40
17.94233811
  9
$DIMEXO
 40
1.0
  9
$DIMDLI
 40
95.9986858235
  9
$DIMEXE
 40
1.0
  9
$DIMCEN
 40
22.7365308529
  9
$DIMLFAC
 40
1.0
  9
$DIMBLK
  1
_FILLED
  9
$DIMALT
 70
0
  9
$DIMALTF
 40
0.0393700787
  9
$DIMTXT
 40
25.1192733539
  9
$DIMTOL
 70
1
  9
$DIMLIM
 70
0
  9
$DIMTFAC
 40
1.0
  9
$DIMTP
 40
0.01
  9
$DIMTM
 40
0.01
  9
$DIMGAP
 40
0.625
  9
$DIMDSEP
 70
46
  9
$AUNITS
 70
0
  9
$PDMODE
 70
3
  9
$PDSIZE
 40
0.3125
  9
$HANDSEED
  5
32B
  9
$TILEMODE
 70
1
  9
$MEASUREMENT
 70
1
  9
$INSUNITS
 70
4
  0
ENDSEC
  0
SECTION
  2
CLASSES
  0
CLASS
  1
ACDBDICTIONARYWDFLT
  2
AcDbDictionaryWithDefault
  3
AutoCAD 2000
 90
0
 91
1
280
0
281
0
  0
CLASS
  1
ACDBPLACEHOLDER
  2
AcDbPlaceHolder
  3
AutoCAD 2000
 90
0
 91
1
280
0
281
0
  0
CLASS
  1
LAYOUT
  2
AcDbLayout
  3
AutoCAD 2000
 90
0
 91
0
280
0
281
0
  0
ENDSEC
  0
SECTION
  2
TABLES
  0
TABLE
  2
VPORT
  5
8
100
AcDbSymbolTable
 70
2
  0
VPORT
  5
1F4
100
AcDbSymbolTableRecord
100
AcDbViewportTableRecord
  2
*ACTIVE
 70
0
 10
0.0
 20
0.0
 11
1.0
 21
1.0
 12
753.5782006181
 22
1065.7748837314
 13
0.0
 23
0.0
 14
1.0
 24
1.0
 15
0.0
 25
0.0
 16
0.0
 26
0.0
 36
1.0
 17
0.0
 27
0.0
 37
0.0
 40
2131.5497674627
 41
0.7070707071
 42
50.0
 43
0.0
 44
0.0
 50
0.0
 51
0.0
 71
0
 72
100
 73
1
 74
1
 75
0
 76
0
 77
0
 78
0
  0
ENDTAB
  0
TABLE
  2
LTYPE
  5
5
100
AcDbSymbolTable
 70
6
  0
LTYPE
  5
14
100
AcDbSymbolTableRecord
100
AcDbLinetypeTableRecord
  2
BYBLOCK
 70
0
  3

 72
65
 73
0
 40
0.0
  0
LTYPE
  5
15
100
AcDbSymbolTableRecord
100
AcDbLinetypeTableRecord
  2
BYLAYER
 70
0
  3

 72
65
 73
0
 40
0.0
  0
LTYPE
  5
16
100
AcDbSymbolTableRecord
100
AcDbLinetypeTableRecord
  2
CONTINUOUS
 70
64
  3
Solid line
 72
65
 73
0
 40
0.0
  0
LTYPE
  5
1F5
100
AcDbSymbolTableRecord
100
AcDbLinetypeTableRecord
  2
CENTER
 70
64
  3
____ _ ____ _ ____ _ ____ _ ____ _ ____ _ ____
 72
65
 73
4
 40
0.6
 49
0.375
 74
0
 49
-0.075
 74
0
 49
0.075
 74
0
 49
-0.075
 74
0
  0
LTYPE
  5
1F6
100
AcDbSymbolTableRecord
100
AcDbLinetypeTableRecord
  2
HIDDEN
 70
64
  3
- - - - - - - - - - - - - - - - - - - -
 72
65
 73
2
 40
0.2
 49
0.1
 74
0
 49
-0.1
 74
0
  0
LTYPE
  5
1F7
100
AcDbSymbolTableRecord
100
AcDbLinetypeTableRecord
  2
PHANTOM
 70
64
  3
_____ _ _ _____ _ _ _____ _ _ _____
 72
65
 73
6
 40
0.8
 49
0.45
 74
0
 49
-0.05
 74
0
 49
0.1
 74
0
 49
-0.05
 74
0
 49
0.1
 74
0
 49
-0.05
 74
0
  0
LTYPE
  5
1F8
100
AcDbSymbolTableRecord
100
AcDbLinetypeTableRecord
  2
DOT
 70
64
  3
. . . . . . . . . . . . . . . . . . . .
 72
65
 73
2
 40
0.2
 49
0.1
 74
0
 49
-0.1
 74
0
  0
LTYPE
  5
1F9
100
AcDbSymbolTableRecord
100
AcDbLinetypeTableRecord
  2
DASHED
 70
64
  3
- - - - - - - - - - - - - - - - - - - -
 72
65
 73
2
 40
0.2
 49
0.1
 74
0
 49
-0.1
 74
0
  0
ENDTAB
  0
TABLE
  2
LAYER
  5
2
100
AcDbSymbolTable
 70
36
  0
LAYER
  5
10
100
AcDbSymbolTableRecord
100
AcDbLayerTableRecord
  2
0
 70
0
 62
7
  6
CONTINUOUS
370
-3
390
F
  0
LAYER
  5
1FA
100
AcDbSymbolTableRecord
100
AcDbLayerTableRecord
  2
DEFAULT_1
 70
0
 62
7
  6
CENTER
370
-3
390
F
  0
LAYER
  5
1FB
100
AcDbSymbolTableRecord
100
AcDbLayerTableRecord
  2
DEFAULT_2
 70
0
 62
8
  6
HIDDEN
370
-3
390
F
  0
LAYER
  5
1FC
100
AcDbSymbolTableRecord
100
AcDbLayerTableRecord
  2
DEFAULT_3
 70
0
 62
7
  6
PHANTOM
370
-3
390
F
  0
LAYER
  5
1FD
100
AcDbSymbolTableRecord
100
AcDbLayerTableRecord
  2
00_COMPONENTS
 70
0
 62
7
  6
CONTINUOUS
370
-3
390
F
  0
LAYER
  5
1FE
100
AcDbSymbolTableRecord
100
AcDbLayerTableRecord
  2
01_1_DEFAULT_DATUMS
 70
0
 62
7
  6
CONTINUOUS
370
-3
390
F
  0
LAYER
  5
1FF
100
AcDbSymbolTableRecord
100
AcDbLayerTableRecord
  2
01_PLANES
 70
0
 62
7
  6
CONTINUOUS
370
-3
390
F
  0
LAYER
  5
200
100
AcDbSymbolTableRecord
100
AcDbLayerTableRecord
  2
02_COORD_SYS
 70
0
 62
7
  6
CONTINUOUS
370
-3
390
F
  0
LAYER
  5
201
100
AcDbSymbolTableRecord
100
AcDbLayerTableRecord
  2
03_AXES
 70
0
 62
7
  6
CONTINUOUS
370
-3
390
F
  0
LAYER
  5
202
100
AcDbSymbolTableRecord
100
AcDbLayerTableRecord
  2
04_POINTS
 70
0
 62
7
  6
CONTINUOUS
370
-3
390
F
  0
LAYER
  5
203
100
AcDbSymbolTableRecord
100
AcDbLayerTableRecord
  2
05_CURVES
 70
0
 62
7
  6
CONTINUOUS
370
-3
390
F
  0
LAYER
  5
204
100
AcDbSymbolTableRecord
100
AcDbLayerTableRecord
  2
06_SURFS
 70
0
 62
7
  6
CONTINUOUS
370
-3
390
F
  0
LAYER
  5
205
100
AcDbSymbolTableRecord
100
AcDbLayerTableRecord
  2
07_COSMETICS
 70
0
 62
7
  6
CONTINUOUS
370
-3
390
F
  0
LAYER
  5
206
100
AcDbSymbolTableRecord
100
AcDbLayerTableRecord
  2
10_NOTES
 70
0
 62
7
  6
CONTINUOUS
370
-3
390
F
  0
LAYER
  5
207
100
AcDbSymbolTableRecord
100
AcDbLayerTableRecord
  2
11_NOTES_PUB
 70
0
 62
7
  6
CONTINUOUS
370
-3
390
F
  0
LAYER
  5
208
100
AcDbSymbolTableRecord
100
AcDbLayerTableRecord
  2
13_REF_GTOL
 70
0
 62
7
  6
CONTINUOUS
370
-3
390
F
  0
LAYER
  5
209
100
AcDbSymbolTableRecord
100
AcDbLayerTableRecord
  2
16_MISC
 70
0
 62
7
  6
CONTINUOUS
370
-3
390
F
  0
LAYER
  5
20A
100
AcDbSymbolTableRecord
100
AcDbLayerTableRecord
  2
17_NO_PRINT
 70
0
 62
7
  6
CONTINUOUS
370
-3
390
F
  0
LAYER
  5
20B
100
AcDbSymbolTableRecord
100
AcDbLayerTableRecord
  2
18_DATUM_CAMS_JOINTS
 70
0
 62
7
  6
CONTINUOUS
370
-3
390
F
  0
LAYER
  5
20C
100
AcDbSymbolTableRecord
100
AcDbLayerTableRecord
  2
19_DATUM_FUNCTIONAL
 70
0
 62
7
  6
CONTINUOUS
370
-3
390
F
  0
LAYER
  5
20D
100
AcDbSymbolTableRecord
100
AcDbLayerTableRecord
  2
20_DATUM_KINEMATIC_SCHEME
 70
0
 62
7
  6
CONTINUOUS
370
-3
390
F
  0
ENDTAB
  0
TABLE
  2
STYLE
  5
3
100
AcDbSymbolTable
 70
1
  0
STYLE
  5
11
100
AcDbSymbolTableRecord
100
AcDbTextStyleTableRecord
  2
STANDARD
 70
0
 40
0.0
 41
0.8
 50
0.0
 71
0
 42
0.2
  3
txt
  4

  0
STYLE
  5
20E
100
AcDbSymbolTableRecord
100
AcDbTextStyleTableRecord
  2
TEXTSTYLE_1
 70
0
 40
0.0
 41
0.8
 50
0.0
 71
0
 42
0.2
  3
gdt
  4

  0
ENDTAB
  0
TABLE
  2
VIEW
  5
6
100
AcDbSymbolTable
 70
0
  0
ENDTAB
  0
TABLE
  2
UCS
  5
7
100
AcDbSymbolTable
 70
0
  0
ENDTAB
  0
TABLE
  2
APPID
  5
9
100
AcDbSymbolTable
 70
1
  0
APPID
  5
20F
100
AcDbSymbolTableRecord
100
AcDbRegAppTableRecord
  2
ACAD
 70
0
  0
ENDTAB
  0
TABLE
  2
BLOCK_RECORD
  5
1
100
AcDbSymbolTable
 70
0
  0
BLOCK_RECORD
  5
210
100
AcDbSymbolTableRecord
100
AcDbBlockTableRecord
  2
*Model_Space
  0
BLOCK_RECORD
  5
211
100
AcDbSymbolTableRecord
100
AcDbBlockTableRecord
  2
*Paper_Space
  0
BLOCK_RECORD
  5
212
100
AcDbSymbolTableRecord
100
AcDbBlockTableRecord
  2
_FILLED
  0
ENDTAB
  0
TABLE
  2
DIMSTYLE
  5
A
100
AcDbSymbolTable
 70
1
100
AcDbDimStyleTable
 71
0
  0
DIMSTYLE
105
213
100
AcDbSymbolTableRecord
100
AcDbDimStyleTableRecord
  2
STANDARD
 70
0
  3

  4

 40
1.0
 41
17.94233811
 42
1.0
 43
0.38
 44
1.0
 45
0.0
 46
0.0
 47
0.01
 48
0.01
140
25.1192733539
141
0.09
142
0.0
143
25.4
144
1.0
145
0.0
146
1.0
147
0.625
 71
1
 72
0
 73
0
 74
0
 75
0
 76
0
 77
1
 78
8
 79
2
170
0
171
1
172
0
173
0
174
0
175
0
176
0
177
0
178
0
270
2
179
2
271
2
272
2
273
2
274
2
275
0
280
0
281
0
282
0
283
1
284
8
285
0
286
0
287
3
288
0
340
11
278
46
341
212
342
212
343
212
344
212
  0
ENDTAB
  0
ENDSEC
  0
SECTION
  2
BLOCKS
  0
BLOCK
  5
20
100
AcDbEntity
  8
0
100
AcDbBlockBegin
  2
*Model_Space
 70
0
 10
0.0
 20
0.0
 30
0.0
  3
*Model_Space
  1

  0
ENDBLK
  5
21
100
AcDbEntity
  8
0
100
AcDbBlockEnd
  0
BLOCK
  5
1C
100
AcDbEntity
  8
0
100
AcDbBlockBegin
  2
*Paper_Space
 70
0
 10
0.0
 20
0.0
 30
0.0
  3
*Paper_Space
  1

  0
ENDBLK
  5
1D
100
AcDbEntity
  8
0
100
AcDbBlockEnd
  0
BLOCK
  5
214
100
AcDbEntity
  8
0
100
AcDbBlockBegin
  2
_FILLED
 70
64
 10
0.0
 20
0.0
  3
_FILLED
  1

  0
SOLID
  5
215
100
AcDbEntity
  8
0
  6
BYBLOCK
 62
0
100
AcDbTrace
 10
0.0
 20
0.0
 11
-1.0
 21
0.25
 12
-1.0
 22
-0.25
 13
-1.0
 23
-0.25
  0
ENDBLK
  5
216
100
AcDbEntity
  8
0
  6
BYBLOCK
 62
0
100
AcDbBlockEnd
  0
ENDSEC
  0
SECTION
  2
ENTITIES
  0
LINE
  5
217
100
AcDbEntity
  8
0
100
AcDbLine
 62
7
  6
CONTINUOUS
 10
1084.1401825697
 20
323.1801096496
 11
1082.7294169929
 21
323.3223280357
  0
LINE
  5
218
100
AcDbEntity
  8
0
100
AcDbLine
 62
7
  6
CONTINUOUS
 10
178.1705285649
 20
1611.7562754447
 11
178.1705285649
 21
840.4387431096
  0
LINE
  5
219
100
AcDbEntity
  8
0
100
AcDbLine
 62
7
  6
CONTINUOUS
 10
179.3382489008
 20
857.0371183613
 11
179.3382489008
 21
1591.8974588021
  0
LINE
  5
21A
100
AcDbEntity
  8
0
100
AcDbLine
 62
7
  6
CONTINUOUS
 10
174.8474827896
 20
1635.3148547739
 11
175.4202368978
 21
1648.2849899557
  0
LINE
  5
21B
100
AcDbEntity
  8
0
100
AcDbLine
 62
7
  6
CONTINUOUS
 10
215.3295145543
 20
1571.1183619745
 11
215.3680846299
 21
1571.9897818586
  0
LINE
  5
21C
100
AcDbEntity
  8
0
100
AcDbLine
 62
7
  6
CONTINUOUS
 10
1059.79670793
 20
316.3363628309
 11
1059.340241967
 21
316.5192298039
  0
LINE
  5
21D
100
AcDbEntity
  8
0
100
AcDbLine
 62
7
  6
CONTINUOUS
 10
215.3677515727
 20
835.4382785051
 11
215.3295145543
 21
836.2580215337
  0
LINE
  5
21E
100
AcDbEntity
  8
0
100
AcDbLine
 62
7
  6
CONTINUOUS
 10
529.4644140911
 20
622.5169287164
 11
529.0079486746
 21
622.6997953663
  0
LINE
  5
21F
100
AcDbEntity
  8
0
100
AcDbLine
 62
7
  6
CONTINUOUS
 10
178.8834276621
 20
824.8397086518
 11
529.0138117942
 21
622.6964102142
  0
LINE
  5
220
100
AcDbEntity
  8
0
100
AcDbLine
 62
7
  6
CONTINUOUS
 10
532.4382902356
 20
620.7193313917
 11
1059.3461056544
 21
316.5158443239
  0
LINE
  5
221
100
AcDbEntity
  8
0
100
AcDbLine
 62
7
  6
CONTINUOUS
 10
1058.2354684712
 20
318.343324673
 11
531.8997936013
 21
622.2164937136
  0
LINE
  5
222
100
AcDbEntity
  8
0
100
AcDbLine
 62
7
  6
CONTINUOUS
 10
527.903174611
 20
624.5238905632
 11
178.3449310278
 21
826.3368709738
  0
LINE
  5
223
100
AcDbEntity
  8
0
100
AcDbLine
 62
7
  6
CONTINUOUS
 10
1077.8264339962
 20
396.1317750546
 11
1081.3605364311
 21
394.2284751837
  0
LINE
  5
224
100
AcDbEntity
  8
0
100
AcDbLine
 62
7
  6
CONTINUOUS
 10
1077.8264339962
 20
326.1530025502
 11
1082.7294127278
 21
323.3223304981
  0
LINE
  5
225
100
AcDbEntity
  8
0
100
AcDbLine
 62
7
  6
CONTINUOUS
 10
1081.360536431
 20
324.7359544618
 11
1077.8264339962
 21
326.7763232946
  0
LINE
  5
226
100
AcDbEntity
  8
0
100
AcDbLine
 62
7
  6
CONTINUOUS
 10
1018.2908444771
 20
371.8809017473
 11
568.9226141462
 21
631.317901245
  0
LINE
  5
227
100
AcDbEntity
  8
0
100
AcDbLine
 62
7
  6
CONTINUOUS
 10
487.9585506169
 20
678.0614676375
 11
215.3677515727
 21
835.4382785051
  0
LINE
  5
228
100
AcDbEntity
  8
0
100
AcDbLine
 62
7
  6
CONTINUOUS
 10
1054.2407285254
 20
351.9233634354
 11
1018.2526074587
 21
372.7006447759
  0
LINE
  5
229
100
AcDbEntity
  8
0
100
AcDbLine
 62
7
  6
CONTINUOUS
 10
568.8843771278
 20
632.1376442736
 11
532.8962560598
 21
652.9149256149
  0
LINE
  5
22A
100
AcDbEntity
  8
0
100
AcDbLine
 62
7
  6
CONTINUOUS
 10
523.9084366466
 20
658.1039281816
 11
487.9203135985
 21
678.8812106662
  0
LINE
  5
22B
100
AcDbEntity
  8
0
100
AcDbLine
 62
7
  6
CONTINUOUS
 10
215.3295145543
 20
836.2580215337
 11
179.3413915051
 21
857.0353040189
  0
LINE
  5
22C
100
AcDbEntity
  8
0
100
AcDbLine
 62
7
  6
CONTINUOUS
 10
1081.3605364311
 20
415.3758877874
 11
1077.8264339962
 21
417.2791876583
  0
LINE
  5
22D
100
AcDbEntity
  8
0
100
AcDbLine
 62
7
  6
CONTINUOUS
 10
1077.8264339962
 20
397.5507199857
 11
1083.8027249949
 21
394.1003848259
  0
LINE
  5
22E
100
AcDbEntity
  8
0
100
AcDbLine
 62
7
  6
CONTINUOUS
 10
487.9203135985
 20
678.8812106662
 11
487.9585506169
 21
678.0614676375
  0
LINE
  5
22F
100
AcDbEntity
  8
0
100
AcDbLine
 62
7
  6
CONTINUOUS
 10
487.958883674
 20
1414.612970991
 11
487.9203135985
 21
1413.741551107
  0
LINE
  5
230
100
AcDbEntity
  8
0
100
AcDbLine
 62
7
  6
CONTINUOUS
 10
1077.8264339962
 20
600.257379337
 11
1081.3605364311
 21
598.3540794661
  0
LINE
  5
231
100
AcDbEntity
  8
0
100
AcDbLine
 62
7
  6
CONTINUOUS
 10
497.5625103054
 20
931.1420589845
 11
520.1900215102
 21
918.0783548398
  0
LINE
  5
232
100
AcDbEntity
  8
0
100
AcDbLine
 62
7
  6
CONTINUOUS
 10
527.9682284868
 20
913.5877065401
 11
550.5957396915
 21
900.5240023954
  0
LINE
  5
233
100
AcDbEntity
  8
0
100
AcDbLine
 62
7
  6
CONTINUOUS
 10
549.6517435727
 20
901.9425460708
 11
527.024232368
 21
915.0062502154
  0
LINE
  5
234
100
AcDbEntity
  8
0
100
AcDbLine
 62
7
  6
CONTINUOUS
 10
519.2460253914
 20
919.4968985151
 11
496.6185141867
 21
932.5606026598
  0
LINE
  5
235
100
AcDbEntity
  8
0
100
AcDbLine
 62
7
  6
CONTINUOUS
 10
1077.8264339962
 20
601.6763242681
 11
1083.8027249949
 21
598.2259891083
  0
LINE
  5
236
100
AcDbEntity
  8
0
100
AcDbLine
 62
7
  6
CONTINUOUS
 10
1082.7294169929
 20
323.3223280357
 11
1081.3605383573
 21
324.7359533497
  0
LINE
  5
237
100
AcDbEntity
  8
0
100
AcDbLine
 62
7
  6
CONTINUOUS
 10
568.9226141462
 20
631.317901245
 11
568.8843771278
 21
632.1376442736
  0
LINE
  5
238
100
AcDbEntity
  8
0
100
AcDbLine
 62
7
  6
CONTINUOUS
 10
523.911579255
 20
1392.9624542777
 11
523.911579255
 21
1131.6486094462
  0
LINE
  5
239
100
AcDbEntity
  8
0
100
AcDbLine
 62
7
  6
CONTINUOUS
 10
523.911579255
 20
918.7920802923
 11
523.911579255
 21
658.1021138369
  0
LINE
  5
23A
100
AcDbEntity
  8
0
100
AcDbLine
 62
7
  6
CONTINUOUS
 10
524.5787136579
 20
1131.339047155
 11
524.5787136579
 21
1105.90970259
  0
LINE
  5
23B
100
AcDbEntity
  8
0
100
AcDbLine
 62
7
  6
CONTINUOUS
 10
524.5787136579
 20
926.5885057128
 11
524.5787136579
 21
919.1137388946
  0
LINE
  5
23C
100
AcDbEntity
  8
0
100
AcDbLine
 62
7
  6
CONTINUOUS
 10
529.4629872234
 20
622.5172471754
 11
529.4629872234
 21
912.7247267043
  0
LINE
  5
23D
100
AcDbEntity
  8
0
100
AcDbLine
 62
7
  6
CONTINUOUS
 10
529.4629872234
 20
1124.6264281231
 11
529.4629872234
 21
1428.4404913022
  0
LINE
  5
23E
100
AcDbEntity
  8
0
100
AcDbLine
 62
7
  6
CONTINUOUS
 10
531.7253911384
 20
1407.6358981845
 11
531.7253911384
 21
1126.4260724973
  0
LINE
  5
23F
100
AcDbEntity
  8
0
100
AcDbLine
 62
7
  6
CONTINUOUS
 10
531.7253911384
 20
911.4185567445
 11
531.7253911384
 21
636.3183658494
  0
LINE
  5
240
100
AcDbEntity
  8
0
100
AcDbLine
 62
7
  6
CONTINUOUS
 10
532.8938185781
 20
652.9171493453
 11
532.8938185781
 21
910.7439801086
  0
LINE
  5
241
100
AcDbEntity
  8
0
100
AcDbLine
 62
7
  6
CONTINUOUS
 10
532.8938185781
 20
1126.4636449546
 11
532.8938185781
 21
1387.7774897861
  0
LINE
  5
242
100
AcDbEntity
  8
0
100
AcDbLine
 62
7
  6
CONTINUOUS
 10
554.9189600561
 20
901.5215865243
 11
554.9189600561
 21
1113.7468947846
  0
LINE
  5
243
100
AcDbEntity
  8
0
100
AcDbLine
 62
7
  6
CONTINUOUS
 10
568.8843771278
 20
1366.9979847144
 11
568.9229472034
 21
1367.8694045984
  0
LINE
  5
244
100
AcDbEntity
  8
0
100
AcDbLine
 62
7
  6
CONTINUOUS
 10
499.5671371879
 20
1142.6833877779
 11
501.6743066228
 21
1144.2428863717
  0
LINE
  5
245
100
AcDbEntity
  8
0
100
AcDbLine
 62
7
  6
CONTINUOUS
 10
524.3018178275
 20
1131.179182227
 11
522.1946483926
 21
1129.6196836333
  0
LINE
  5
246
100
AcDbEntity
  8
0
100
AcDbLine
 62
7
  6
CONTINUOUS
 10
529.9728553692
 20
1125.1290353335
 11
532.0800248041
 21
1126.6885339273
  0
LINE
  5
247
100
AcDbEntity
  8
0
100
AcDbLine
 62
7
  6
CONTINUOUS
 10
501.8857306701
 20
1144.3649513737
 11
501.6743066228
 21
1144.2428863717
  0
LINE
  5
248
100
AcDbEntity
  8
0
100
AcDbLine
 62
7
  6
CONTINUOUS
 10
1081.3605364311
 20
619.5014920697
 11
1077.8264339962
 21
621.4047919407
  0
LINE
  5
249
100
AcDbEntity
  8
0
100
AcDbLine
 62
7
  6
CONTINUOUS
 10
1330.897816109
 20
475.116999949
 11
1334.5051269049
 21
473.0343652055
  0
LINE
  5
24A
100
AcDbEntity
  8
0
100
AcDbLine
 62
7
  6
CONTINUOUS
 10
1330.897816109
 20
477.9673328518
 11
1331.6729481929
 21
477.5198202586
  0
LINE
  5
24B
100
AcDbEntity
  8
0
100
AcDbLine
 62
7
  6
CONTINUOUS
 10
1330.897816109
 20
496.0477767502
 11
1331.6729481929
 21
495.600264157
  0
LINE
  5
24C
100
AcDbEntity
  8
0
100
AcDbLine
 62
7
  6
CONTINUOUS
 10
1330.897816109
 20
497.6072760861
 11
1331.6729481929
 21
497.1597634929
  0
LINE
  5
24D
100
AcDbEntity
  8
0
100
AcDbLine
 62
7
  6
CONTINUOUS
 10
1330.897816109
 20
530.191051145
 11
1331.6729481929
 21
529.7435385519
  0
LINE
  5
24E
100
AcDbEntity
  8
0
100
AcDbLine
 62
7
  6
CONTINUOUS
 10
554.7075360088
 20
1113.6248297826
 11
552.6003665739
 21
1112.0653311889
  0
LINE
  5
24F
100
AcDbEntity
  8
0
100
AcDbLine
 62
7
  6
CONTINUOUS
 10
524.5787136579
 20
1131.339047155
 11
524.3018178275
 21
1131.179182227
  0
LINE
  5
250
100
AcDbEntity
  8
0
100
AcDbLine
 62
7
  6
CONTINUOUS
 10
532.3569206345
 20
1126.8483988552
 11
532.0800248041
 21
1126.6885339273
  0
LINE
  5
251
100
AcDbEntity
  8
0
100
AcDbLine
 62
7
  6
CONTINUOUS
 10
554.9189600561
 20
1113.7468947846
 11
554.7075360088
 21
1113.6248297826
  0
LINE
  5
252
100
AcDbEntity
  8
0
100
AcDbLine
 62
7
  6
CONTINUOUS
 10
549.6517435727
 20
1107.252078858
 11
527.024232368
 21
1120.3157830026
  0
LINE
  5
253
100
AcDbEntity
  8
0
100
AcDbLine
 62
7
  6
CONTINUOUS
 10
519.2460253914
 20
1124.8064313024
 11
496.6185141867
 21
1137.870135447
  0
LINE
  5
254
100
AcDbEntity
  8
0
100
AcDbLine
 62
7
  6
CONTINUOUS
 10
552.6003665739
 20
1112.0653311889
 11
529.9728553692
 21
1125.1290353336
  0
LINE
  5
255
100
AcDbEntity
  8
0
100
AcDbLine
 62
7
  6
CONTINUOUS
 10
522.1946483926
 20
1129.6196836333
 11
499.5671371879
 21
1142.6833877779
  0
LINE
  5
256
100
AcDbEntity
  8
0
100
AcDbLine
 62
7
  6
CONTINUOUS
 10
554.7075360088
 20
1113.6248297826
 11
532.0800248041
 21
1126.6885339273
  0
LINE
  5
257
100
AcDbEntity
  8
0
100
AcDbLine
 62
7
  6
CONTINUOUS
 10
524.3018178275
 20
1131.179182227
 11
501.6743066228
 21
1144.2428863717
  0
LINE
  5
258
100
AcDbEntity
  8
0
100
AcDbLine
 62
7
  6
CONTINUOUS
 10
554.9189600561
 20
1113.7468947846
 11
532.8931114743
 21
1126.4632367104
  0
LINE
  5
259
100
AcDbEntity
  8
0
100
AcDbLine
 62
7
  6
CONTINUOUS
 10
523.911579255
 20
1131.6486094461
 11
501.8857306701
 21
1144.3649513737
  0
LINE
  5
25A
100
AcDbEntity
  8
0
100
AcDbLine
 62
7
  6
CONTINUOUS
 10
1081.360536431
 20
324.7359544618
 11
1077.8264339962
 21
330.5791088091
  0
LINE
  5
25B
100
AcDbEntity
  8
0
100
AcDbLine
 62
7
  6
CONTINUOUS
 10
1077.8264339962
 20
845.2081044759
 11
1081.3605364311
 21
843.304804605
  0
LINE
  5
25C
100
AcDbEntity
  8
0
100
AcDbLine
 62
7
  6
CONTINUOUS
 10
1081.3605364311
 20
864.4522172086
 11
1077.8264339962
 21
866.3555170795
  0
LINE
  5
25D
100
AcDbEntity
  8
0
100
AcDbLine
 62
7
  6
CONTINUOUS
 10
1077.8264339962
 20
846.627049407
 11
1083.8027249949
 21
843.1767142471
  0
LINE
  5
25E
100
AcDbEntity
  8
0
100
AcDbLine
 62
7
  6
CONTINUOUS
 10
524.3018178275
 20
918.9538739667
 11
524.5787136579
 21
919.1137388946
  0
LINE
  5
25F
100
AcDbEntity
  8
0
100
AcDbLine
 62
7
  6
CONTINUOUS
 10
554.7075360088
 20
901.3995215223
 11
554.9189600561
 21
901.5215865243
  0
LINE
  5
260
100
AcDbEntity
  8
0
100
AcDbLine
 62
7
  6
CONTINUOUS
 10
1353.4258202012
 20
1310.0720608335
 11
1207.2250308188
 21
1242.3716964163
  0
LINE
  5
261
100
AcDbEntity
  8
0
100
AcDbLine
 62
7
  6
CONTINUOUS
 10
522.1946483926
 20
918.0802374033
 11
524.3018178275
 21
918.9538739667
  0
LINE
  5
262
100
AcDbEntity
  8
0
100
AcDbLine
 62
7
  6
CONTINUOUS
 10
1081.7409239888
 20
1157.6468949895
 11
1079.1895009674
 21
1155.6657756176
  0
LINE
  5
263
100
AcDbEntity
  8
0
100
AcDbLine
 62
7
  6
CONTINUOUS
 10
1207.2250308188
 20
1242.3716964163
 11
1079.4635047192
 21
1154.0080741498
  0
LINE
  5
264
100
AcDbEntity
  8
0
100
AcDbLine
 62
7
  6
CONTINUOUS
 10
1061.3426009619
 20
1123.6592554447
 11
1077.8264339962
 21
1133.1791303084
  0
LINE
  5
265
100
AcDbEntity
  8
0
100
AcDbLine
 62
7
  6
CONTINUOUS
 10
1058.7332250039
 20
1125.0147281051
 11
1084.1357296757
 21
1139.6807834709
  0
LINE
  5
266
100
AcDbEntity
  8
0
100
AcDbLine
 62
7
  6
CONTINUOUS
 10
1330.3143319605
 20
1281.8112173644
 11
1355.7168366337
 21
1296.4772727311
  0
LINE
  5
267
100
AcDbEntity
  8
0
100
AcDbLine
 62
7
  6
CONTINUOUS
 10
1334.5051269049
 20
1281.3717581637
 11
1349.8771002945
 21
1290.2437319296
  0
LINE
  5
268
100
AcDbEntity
  8
0
100
AcDbLine
 62
7
  6
CONTINUOUS
 10
1330.3113124573
 20
1281.808646508
 11
1330.8978220504
 21
1282.1423017702
  0
LINE
  5
269
100
AcDbEntity
  8
0
100
AcDbLine
 62
7
  6
CONTINUOUS
 10
552.6003665739
 20
900.525884959
 11
554.7075360088
 21
901.3995215223
  0
LINE
  5
26A
100
AcDbEntity
  8
0
100
AcDbLine
 62
7
  6
CONTINUOUS
 10
1077.8264339962
 20
1049.3337087583
 11
1081.3605364311
 21
1047.4304088874
  0
LINE
  5
26B
100
AcDbEntity
  8
0
100
AcDbLine
 62
7
  6
CONTINUOUS
 10
1330.6146504126
 20
1206.8663828927
 11
1330.3105957626
 21
1206.6908379066
  0
LINE
  5
26C
100
AcDbEntity
  8
0
100
AcDbLine
 62
7
  6
CONTINUOUS
 10
1084.139465875
 20
1064.5647181777
 11
1083.835411225
 21
1064.3891731916
  0
LINE
  5
26D
100
AcDbEntity
  8
0
100
AcDbLine
 62
7
  6
CONTINUOUS
 10
1083.835411225
 20
1051.3251345175
 11
1084.139465875
 21
1051.5006795037
  0
LINE
  5
26E
100
AcDbEntity
  8
0
100
AcDbLine
 62
7
  6
CONTINUOUS
 10
1330.3105957626
 20
1193.6267992325
 11
1330.6146504126
 21
1193.8023442187
  0
LINE
  5
26F
100
AcDbEntity
  8
0
100
AcDbLine
 62
7
  6
CONTINUOUS
 10
1081.3605364311
 20
1068.577821491
 11
1077.8264339962
 21
1070.4811213619
  0
LINE
  5
270
100
AcDbEntity
  8
0
100
AcDbLine
 62
7
  6
CONTINUOUS
 10
1077.8264339962
 20
1050.7526536894
 11
1083.8027249949
 21
1047.3023185295
  0
LINE
  5
271
100
AcDbEntity
  8
0
100
AcDbLine
 62
7
  6
CONTINUOUS
 10
523.911579255
 20
1392.9624542777
 11
487.9203135985
 21
1413.741551107
  0
LINE
  5
272
100
AcDbEntity
  8
0
100
AcDbLine
 62
7
  6
CONTINUOUS
 10
215.3295145543
 20
1571.1183619745
 11
179.3382489008
 21
1591.8974588021
  0
LINE
  5
273
100
AcDbEntity
  8
0
100
AcDbLine
 62
7
  6
CONTINUOUS
 10
1054.2445802191
 20
1086.7822966316
 11
1018.2533145625
 21
1107.5613934609
  0
LINE
  5
274
100
AcDbEntity
  8
0
100
AcDbLine
 62
7
  6
CONTINUOUS
 10
568.8850842316
 20
1366.9983929585
 11
532.8938185781
 21
1387.7774897861
  0
LINE
  5
275
100
AcDbEntity
  8
0
100
AcDbLine
 62
7
  6
CONTINUOUS
 10
487.9203135985
 20
1414.5918387967
 11
215.3295145543
 21
1571.9686496643
  0
LINE
  5
276
100
AcDbEntity
  8
0
100
AcDbLine
 62
7
  6
CONTINUOUS
 10
1018.2533145625
 20
1108.4116811506
 11
568.8850842316
 21
1367.8486806483
  0
LINE
  5
277
100
AcDbEntity
  8
0
100
AcDbLine
 62
7
  6
CONTINUOUS
 10
178.344931069
 20
1627.2067300732
 11
527.9031747458
 21
1425.3937496085
  0
LINE
  5
278
100
AcDbEntity
  8
0
100
AcDbLine
 62
7
  6
CONTINUOUS
 10
531.8997936424
 20
1423.086352813
 11
1058.235468606
 21
1119.2131837183
  0
LINE
  5
279
100
AcDbEntity
  8
0
100
AcDbLine
 62
7
  6
CONTINUOUS
 10
1058.7346392234
 20
1125.0139116236
 11
174.8474827896
 21
1635.3148547739
  0
LINE
  5
27A
100
AcDbEntity
  8
0
100
AcDbLine
 62
7
  6
CONTINUOUS
 10
1061.3426009619
 20
1123.6592554447
 11
1058.8000308365
 21
1125.1271757822
  0
LINE
  5
27B
100
AcDbEntity
  8
0
100
AcDbLine
 62
7
  6
CONTINUOUS
 10
1018.2526074587
 20
372.7006447759
 11
1018.2908444771
 21
371.8809017473
  0
LINE
  5
27C
100
AcDbEntity
  8
0
100
AcDbLine
 62
7
  6
CONTINUOUS
 10
1018.2911775343
 20
1108.4324051008
 11
1018.2526074587
 21
1107.5609852167
  0
LINE
  5
27D
100
AcDbEntity
  8
0
100
AcDbLine
 62
7
  6
CONTINUOUS
 10
175.4202368978
 20
1648.2849899557
 11
1059.3073933315
 21
1137.9840468054
  0
LINE
  5
27E
100
AcDbEntity
  8
0
100
AcDbLine
 62
7
  6
CONTINUOUS
 10
1061.0256556559
 20
1141.2541218431
 11
177.1384992222
 21
1651.5550649934
  0
LINE
  5
27F
100
AcDbEntity
  8
0
100
AcDbLine
 62
7
  6
CONTINUOUS
 10
1077.8264339962
 20
1133.1791303084
 11
1075.3504308035
 21
1134.6086190789
  0
LINE
  5
280
100
AcDbEntity
  8
0
100
AcDbLine
 62
7
  6
CONTINUOUS
 10
1083.8027249949
 20
415.2477974295
 11
1083.81906811
 21
411.1966749763
  0
LINE
  5
281
100
AcDbEntity
  8
0
100
AcDbLine
 62
7
  6
CONTINUOUS
 10
1083.8027249949
 20
619.3734017119
 11
1083.81906811
 21
615.3222792587
  0
LINE
  5
282
100
AcDbEntity
  8
0
100
AcDbLine
 62
7
  6
CONTINUOUS
 10
1083.8027249949
 20
864.3241268508
 11
1083.81906811
 21
860.2730043976
  0
LINE
  5
283
100
AcDbEntity
  8
0
100
AcDbLine
 62
7
  6
CONTINUOUS
 10
1083.8027249949
 20
1068.4497311332
 11
1083.81906811
 21
1064.39860868
  0
LINE
  5
284
100
AcDbEntity
  8
0
100
AcDbLine
 62
7
  6
CONTINUOUS
 10
1054.2445802191
 20
1086.7822966316
 11
1054.2445802191
 21
351.9219561908
  0
LINE
  5
285
100
AcDbEntity
  8
0
100
AcDbLine
 62
7
  6
CONTINUOUS
 10
1059.7952810837
 20
316.3366812852
 11
1059.7952810837
 21
1122.259925412
  0
LINE
  5
286
100
AcDbEntity
  8
0
100
AcDbLine
 62
7
  6
CONTINUOUS
 10
1077.8264339962
 20
1133.1791303084
 11
1077.8264339962
 21
324.8417373501
  0
LINE
  5
287
100
AcDbEntity
  8
0
100
AcDbLine
 62
7
  6
CONTINUOUS
 10
1081.3605364311
 20
1138.0703422129
 11
1081.3605364311
 21
1068.577821491
  0
LINE
  5
288
100
AcDbEntity
  8
0
100
AcDbLine
 62
7
  6
CONTINUOUS
 10
1081.3605364311
 20
1047.4304088874
 11
1081.3605364311
 21
864.4522172086
  0
LINE
  5
289
100
AcDbEntity
  8
0
100
AcDbLine
 62
7
  6
CONTINUOUS
 10
1081.3605364311
 20
843.304804605
 11
1081.3605364311
 21
619.5014920697
  0
LINE
  5
28A
100
AcDbEntity
  8
0
100
AcDbLine
 62
7
  6
CONTINUOUS
 10
1081.3605364311
 20
598.3540794661
 11
1081.3605364311
 21
415.3758877874
  0
LINE
  5
28B
100
AcDbEntity
  8
0
100
AcDbLine
 62
7
  6
CONTINUOUS
 10
1081.3605364311
 20
394.2284751837
 11
1081.3605364311
 21
324.7359544618
  0
LINE
  5
28C
100
AcDbEntity
  8
0
100
AcDbLine
 62
7
  6
CONTINUOUS
 10
1083.81906811
 20
398.1326363023
 11
1083.81906811
 21
411.1966749763
  0
LINE
  5
28D
100
AcDbEntity
  8
0
100
AcDbLine
 62
7
  6
CONTINUOUS
 10
1083.81906811
 20
602.2582405847
 11
1083.81906811
 21
615.3222792587
  0
LINE
  5
28E
100
AcDbEntity
  8
0
100
AcDbLine
 62
7
  6
CONTINUOUS
 10
1083.81906811
 20
847.2089657235
 11
1083.81906811
 21
860.2730043976
  0
LINE
  5
28F
100
AcDbEntity
  8
0
100
AcDbLine
 62
7
  6
CONTINUOUS
 10
1083.81906811
 20
1051.3345700059
 11
1083.81906811
 21
1064.39860868
  0
LINE
  5
290
100
AcDbEntity
  8
0
100
AcDbLine
 62
7
  6
CONTINUOUS
 10
1084.139465875
 20
1051.5006795037
 11
1084.139465875
 21
860.4391138953
  0
LINE
  5
291
100
AcDbEntity
  8
0
100
AcDbLine
 62
7
  6
CONTINUOUS
 10
1084.139465875
 20
847.3750752213
 11
1084.139465875
 21
615.4883887565
  0
LINE
  5
292
100
AcDbEntity
  8
0
100
AcDbLine
 62
7
  6
CONTINUOUS
 10
1084.139465875
 20
602.4243500824
 11
1084.139465875
 21
411.3627844741
  0
LINE
  5
293
100
AcDbEntity
  8
0
100
AcDbLine
 62
7
  6
CONTINUOUS
 10
1084.139465875
 20
1064.5647181777
 11
1084.1357296757
 21
1139.6807834709
  0
LINE
  5
294
100
AcDbEntity
  8
0
100
AcDbLine
 62
7
  6
CONTINUOUS
 10
1084.1357296772
 20
323.1783663421
 11
1084.139465875
 21
398.2987458
  0
LINE
  5
295
100
AcDbEntity
  8
0
100
AcDbLine
 62
7
  6
CONTINUOUS
 10
1083.81906811
 20
1051.3345700059
 11
1083.8027249949
 21
1047.3023185295
  0
LINE
  5
296
100
AcDbEntity
  8
0
100
AcDbLine
 62
7
  6
CONTINUOUS
 10
1083.81906811
 20
847.2089657235
 11
1083.8027249949
 21
843.1767142471
  0
LINE
  5
297
100
AcDbEntity
  8
0
100
AcDbLine
 62
7
  6
CONTINUOUS
 10
1083.81906811
 20
602.2582405847
 11
1083.8027249949
 21
598.2259891083
  0
LINE
  5
298
100
AcDbEntity
  8
0
100
AcDbLine
 62
7
  6
CONTINUOUS
 10
1083.81906811
 20
398.1326363023
 11
1083.8027249949
 21
394.1003848259
  0
LINE
  5
299
100
AcDbEntity
  8
0
100
AcDbLine
 62
7
  6
CONTINUOUS
 10
1059.3059791121
 20
1137.9848632869
 11
1058.7332250039
 21
1125.0147281051
  0
LINE
  5
29A
100
AcDbEntity
  8
0
100
AcDbLine
 62
7
  6
CONTINUOUS
 10
531.8805888966
 20
623.2190297013
 11
531.011603865
 21
622.7847320967
  0
LINE
  5
29B
100
AcDbEntity
  8
0
100
AcDbLine
 62
7
  6
CONTINUOUS
 10
1330.6146504126
 20
1002.7407786103
 11
1330.3105957626
 21
1002.5652336242
  0
LINE
  5
29C
100
AcDbEntity
  8
0
100
AcDbLine
 62
7
  6
CONTINUOUS
 10
1084.139465875
 20
860.4391138953
 11
1083.835411225
 21
860.2635689092
  0
LINE
  5
29D
100
AcDbEntity
  8
0
100
AcDbLine
 62
7
  6
CONTINUOUS
 10
1083.835411225
 20
847.1995302351
 11
1084.139465875
 21
847.3750752213
  0
LINE
  5
29E
100
AcDbEntity
  8
0
100
AcDbLine
 62
7
  6
CONTINUOUS
 10
1330.3105957626
 20
989.5011949501
 11
1330.6146504126
 21
989.6767399363
  0
LINE
  5
29F
100
AcDbEntity
  8
0
100
AcDbLine
 62
7
  6
CONTINUOUS
 10
1351.3187258736
 20
1290.5710849575
 11
1351.6754055663
 21
1290.4458282711
  0
LINE
  5
2A0
100
AcDbEntity
  8
0
100
AcDbLine
 62
7
  6
CONTINUOUS
 10
1331.6729481929
 20
1266.8517886469
 11
1330.897816109
 21
1267.2993012401
  0
LINE
  5
2A1
100
AcDbEntity
  8
0
100
AcDbLine
 62
7
  6
CONTINUOUS
 10
1331.6729481929
 20
1279.3128574486
 11
1330.897816109
 21
1279.7603700418
  0
LINE
  5
2A2
100
AcDbEntity
  8
0
100
AcDbLine
 62
7
  6
CONTINUOUS
 10
1332.0291237122
 20
1282.8012469342
 11
1334.5051269049
 21
1281.3717581637
  0
LINE
  5
2A3
100
AcDbEntity
  8
0
100
AcDbLine
 62
7
  6
CONTINUOUS
 10
1347.3985109118
 20
1291.6747138037
 11
1349.8771002945
 21
1290.2437319296
  0
LINE
  5
2A4
100
AcDbEntity
  8
0
100
AcDbLine
 62
7
  6
CONTINUOUS
 10
1351.6823059086
 20
1290.4418446018
 11
1348.4726792629
 21
1292.2948814885
  0
LINE
  5
2A5
100
AcDbEntity
  8
0
100
AcDbLine
 62
7
  6
CONTINUOUS
 10
1353.4272344206
 20
1310.071244352
 11
469.5400779869
 21
1820.3721875024
  0
LINE
  5
2A6
100
AcDbEntity
  8
0
100
AcDbLine
 62
7
  6
CONTINUOUS
 10
470.6579219407
 20
1820.354988206
 11
1354.543664155
 21
1310.0548615371
  0
LINE
  5
2A7
100
AcDbEntity
  8
0
100
AcDbLine
 62
7
  6
CONTINUOUS
 10
1330.5983072976
 20
553.6738846775
 11
1330.5819641825
 21
557.7250071307
  0
LINE
  5
2A8
100
AcDbEntity
  8
0
100
AcDbLine
 62
7
  6
CONTINUOUS
 10
1330.5983072976
 20
757.7994889599
 11
1330.5819641825
 21
761.8506114131
  0
LINE
  5
2A9
100
AcDbEntity
  8
0
100
AcDbLine
 62
7
  6
CONTINUOUS
 10
1330.5983072976
 20
1002.7502140987
 11
1330.5819641825
 21
1006.801336552
  0
LINE
  5
2AA
100
AcDbEntity
  8
0
100
AcDbLine
 62
7
  6
CONTINUOUS
 10
1330.5983072976
 20
1206.8758183811
 11
1330.5819641825
 21
1210.9269408343
  0
LINE
  5
2AB
100
AcDbEntity
  8
0
100
AcDbLine
 62
7
  6
CONTINUOUS
 10
1330.3105957626
 20
540.4248655288
 11
1330.3143319619
 21
465.3088002357
  0
LINE
  5
2AC
100
AcDbEntity
  8
0
100
AcDbLine
 62
7
  6
CONTINUOUS
 10
1330.3105957626
 20
1193.6267992325
 11
1330.3105957626
 21
1002.5652336242
  0
LINE
  5
2AD
100
AcDbEntity
  8
0
100
AcDbLine
 62
7
  6
CONTINUOUS
 10
1330.3105957626
 20
989.5011949501
 11
1330.3105957626
 21
757.6145084853
  0
LINE
  5
2AE
100
AcDbEntity
  8
0
100
AcDbLine
 62
7
  6
CONTINUOUS
 10
1330.3105957626
 20
744.5504698112
 11
1330.3105957626
 21
553.4889042029
  0
LINE
  5
2AF
100
AcDbEntity
  8
0
100
AcDbLine
 62
7
  6
CONTINUOUS
 10
1330.5983072976
 20
1206.8758183811
 11
1330.5983072976
 21
1193.8117797071
  0
LINE
  5
2B0
100
AcDbEntity
  8
0
100
AcDbLine
 62
7
  6
CONTINUOUS
 10
1330.5983072976
 20
1002.7502140987
 11
1330.5983072976
 21
989.6861754247
  0
LINE
  5
2B1
100
AcDbEntity
  8
0
100
AcDbLine
 62
7
  6
CONTINUOUS
 10
1330.5983072976
 20
757.7994889599
 11
1330.5983072976
 21
744.7354502858
  0
LINE
  5
2B2
100
AcDbEntity
  8
0
100
AcDbLine
 62
7
  6
CONTINUOUS
 10
1330.5983072976
 20
553.6738846775
 11
1330.5983072976
 21
540.6098460034
  0
LINE
  5
2B3
100
AcDbEntity
  8
0
100
AcDbLine
 62
7
  6
CONTINUOUS
 10
1330.897816109
 20
1282.1422980455
 11
1330.897816109
 21
1211.5494855047
  0
LINE
  5
2B4
100
AcDbEntity
  8
0
100
AcDbLine
 62
7
  6
CONTINUOUS
 10
1330.897816109
 20
1189.7795282307
 11
1330.897816109
 21
1007.4238812223
  0
LINE
  5
2B5
100
AcDbEntity
  8
0
100
AcDbLine
 62
7
  6
CONTINUOUS
 10
1330.897816109
 20
985.6539239483
 11
1330.897816109
 21
762.4731560834
  0
LINE
  5
2B6
100
AcDbEntity
  8
0
100
AcDbLine
 62
7
  6
CONTINUOUS
 10
1330.897816109
 20
740.7031988094
 11
1330.897816109
 21
558.3475518011
  0
LINE
  5
2B7
100
AcDbEntity
  8
0
100
AcDbLine
 62
7
  6
CONTINUOUS
 10
1330.897816109
 20
536.577594527
 11
1330.897816109
 21
466.6073266566
  0
LINE
  5
2B8
100
AcDbEntity
  8
0
100
AcDbLine
 62
7
  6
CONTINUOUS
 10
1331.6729481929
 20
477.5198202586
 11
1331.6729481929
 21
1279.3128574486
  0
LINE
  5
2B9
100
AcDbEntity
  8
0
100
AcDbLine
 62
7
  6
CONTINUOUS
 10
1334.5051269049
 20
473.0343652055
 11
1334.5051269049
 21
1281.3717581637
  0
LINE
  5
2BA
100
AcDbEntity
  8
0
100
AcDbLine
 62
7
  6
CONTINUOUS
 10
1330.3143319605
 20
1281.8112173644
 11
1330.3105957626
 21
1206.6908379066
  0
LINE
  5
2BB
100
AcDbEntity
  8
0
100
AcDbLine
 62
7
  6
CONTINUOUS
 10
1330.5819641825
 20
1189.7795282307
 11
1330.5983072976
 21
1193.8117797071
  0
LINE
  5
2BC
100
AcDbEntity
  8
0
100
AcDbLine
 62
7
  6
CONTINUOUS
 10
1330.5819641825
 20
985.6539239483
 11
1330.5983072976
 21
989.6861754247
  0
LINE
  5
2BD
100
AcDbEntity
  8
0
100
AcDbLine
 62
7
  6
CONTINUOUS
 10
1330.5819641825
 20
740.7031988094
 11
1330.5983072976
 21
744.7354502858
  0
LINE
  5
2BE
100
AcDbEntity
  8
0
100
AcDbLine
 62
7
  6
CONTINUOUS
 10
1330.5819641825
 20
536.577594527
 11
1330.5983072976
 21
540.6098460034
  0
LINE
  5
2BF
100
AcDbEntity
  8
0
100
AcDbLine
 62
7
  6
CONTINUOUS
 10
1330.6146504126
 20
757.7900534715
 11
1330.3105957626
 21
757.6145084853
  0
LINE
  5
2C0
100
AcDbEntity
  8
0
100
AcDbLine
 62
7
  6
CONTINUOUS
 10
1084.139465875
 20
615.4883887565
 11
1083.835411225
 21
615.3128437703
  0
LINE
  5
2C1
100
AcDbEntity
  8
0
100
AcDbLine
 62
7
  6
CONTINUOUS
 10
1083.835411225
 20
602.2488050962
 11
1084.139465875
 21
602.4243500824
  0
LINE
  5
2C2
100
AcDbEntity
  8
0
100
AcDbLine
 62
7
  6
CONTINUOUS
 10
1330.3105957626
 20
744.5504698112
 11
1330.6146504126
 21
744.7260147974
  0
LINE
  5
2C3
100
AcDbEntity
  8
0
100
AcDbLine
 62
7
  6
CONTINUOUS
 10
1355.7168366337
 20
1296.4772727311
 11
1355.1473847159
 21
1308.7150866194
  0
LINE
  5
2C4
100
AcDbEntity
  8
0
100
AcDbLine
 62
7
  6
CONTINUOUS
 10
1351.3200510902
 20
1290.5708251701
 11
1351.3200510902
 21
484.6475810433
  0
LINE
  5
2C5
100
AcDbEntity
  8
0
100
AcDbLine
 62
7
  6
CONTINUOUS
 10
1352.395205078
 20
1274.8428082669
 11
1352.395205078
 21
503.5252759318
  0
LINE
  5
2C6
100
AcDbEntity
  8
0
100
AcDbLine
 62
7
  6
CONTINUOUS
 10
1330.8979616695
 20
466.6073521061
 11
1330.3113113559
 21
465.3062300143
  0
LINE
  5
2C7
100
AcDbEntity
  8
0
100
AcDbLine
 62
7
  6
CONTINUOUS
 10
1330.6146504126
 20
553.6644491891
 11
1330.3105957626
 21
553.4889042029
  0
LINE
  5
2C8
100
AcDbEntity
  8
0
100
AcDbLine
 62
7
  6
CONTINUOUS
 10
1084.139465875
 20
411.3627844741
 11
1083.835411225
 21
411.1872394879
  0
LINE
  5
2C9
100
AcDbEntity
  8
0
100
AcDbLine
 62
7
  6
CONTINUOUS
 10
1083.835411225
 20
398.1232008138
 11
1084.139465875
 21
398.2987458
  0
LINE
  5
2CA
100
AcDbEntity
  8
0
100
AcDbLine
 62
7
  6
CONTINUOUS
 10
1330.3105957626
 20
540.4248655288
 11
1330.6146504126
 21
540.600410515
  0
LINE
  5
2CB
100
AcDbEntity
  8
0
100
AcDbLine
 62
7
  6
CONTINUOUS
 10
1349.8758909998
 20
483.1871958268
 11
1334.5051269049
 21
473.0343652055
  0
LINE
  5
2CC
100
AcDbEntity
  8
0
100
AcDbLine
 62
7
  6
CONTINUOUS
 10
1330.3105957626
 20
465.3066431529
 11
1084.139465875
 21
323.1805234241
  0
LINE
  5
2CD
100
AcDbEntity
  8
0
100
AcDbLine
 62
7
  6
CONTINUOUS
 10
1077.8264339962
 20
324.8417373501
 11
1061.3438977252
 21
316.6041662065
  0
ARC
  5
2CE
100
AcDbEntity
  8
0
100
AcDbCircle
 62
7
  6
CONTINUOUS
 10
1864.9509818481
 20
146.5608739378
 40
1278.9505407462
100
AcDbArc
 50
128.1385830767
 51
128.9456659938
  0
ARC
  5
2CF
100
AcDbEntity
  8
0
100
AcDbCircle
 62
7
  6
CONTINUOUS
 10
1853.9973491051
 20
160.4644486688
 40
1261.2505233682
100
AcDbArc
 50
127.9023211542
 51
128.1372714136
  0
ARC
  5
2D0
100
AcDbEntity
  8
0
100
AcDbCircle
 62
7
  6
CONTINUOUS
 10
934.4218256847
 20
1610.9460223908
 40
756.2517313608
100
AcDbArc
 50
178.7679476459
 51
179.938612908
  0
ARC
  5
2D1
100
AcDbEntity
  8
0
100
AcDbCircle
 62
7
  6
CONTINUOUS
 10
1287.9619408272
 20
1406.8258188697
 40
756.2369836035
100
AcDbArc
 50
178.7679367816
 51
179.9386248788
  0
ARC
  5
2D2
100
AcDbEntity
  8
0
100
AcDbCircle
 62
7
  6
CONTINUOUS
 10
596.1620451738
 20
504.3353221191
 40
756.2335938881
100
AcDbArc
 50
358.7679339214
 51
359.9386271096
  0
ARC
  5
2D3
100
AcDbEntity
  8
0
100
AcDbCircle
 62
7
  6
CONTINUOUS
 10
1126.0833071981
 20
1011.3263335615
 40
642.058610593
100
AcDbArc
 50
168.6331156824
 51
169.3796375197
  0
ARC
  5
2D4
100
AcDbEntity
  8
0
100
AcDbCircle
 62
7
  6
CONTINUOUS
 10
815.1171986929
 20
841.2640663682
 40
636.9472050569
100
AcDbArc
 50
180.0742409169
 51
181.342879908
  0
ARC
  5
2D5
100
AcDbEntity
  8
0
100
AcDbCircle
 62
7
  6
CONTINUOUS
 10
715.4558690872
 20
1274.0175841873
 40
636.939870612
100
AcDbArc
 50
0.0742328619
 51
1.3428866175
  0
ARC
  5
2D6
100
AcDbEntity
  8
0
100
AcDbCircle
 62
7
  6
CONTINUOUS
 10
1168.6617688648
 20
637.1435579881
 40
636.9369124092
100
AcDbArc
 50
180.0742303276
 51
181.3428898142
  0
SPLINE
  5
2D7
100
AcDbEntity
  8
0
100
AcDbSpline
 62
7
  6
CONTINUOUS
 70
0
 71
3
 72
9
 73
5
 74
0
 42
0.0000001
 43
0.0000001
 44
0.0000000001
 40
0.0
 40
0.0
 40
0.0
 40
0.0
 40
0.2570113904
 40
1.0
 40
1.0
 40
1.0
 40
1.0
 10
179.2470077887
 20
1630.6358795587
 30
0.0
 10
179.0716057009
 20
1630.3844104867
 30
0.0
 10
178.5220294353
 20
1629.313100708
 30
0.0
 10
178.3630007937
 20
1628.0929066296
 30
0.0
 10
178.3448913496
 20
1627.2067530046
 30
0.0
  0
SPLINE
  5
2D8
100
AcDbEntity
  8
0
100
AcDbSpline
 62
7
  6
CONTINUOUS
 70
0
 71
3
 72
9
 73
5
 74
0
 42
0.0000001
 43
0.0000001
 44
0.0000000001
 40
0.0
 40
0.0
 40
0.0
 40
0.0
 40
0.2336200669
 40
1.0
 40
1.0
 40
1.0
 40
1.0
 10
180.576277863
 20
1632.0164955299
 30
0.0
 10
180.4541364425
 20
1631.9296880103
 30
0.0
 10
179.9513192996
 20
1631.5301198226
 30
0.0
 10
179.5267898591
 20
1631.0372282995
 30
0.0
 10
179.2456825526
 20
1630.633972201
 30
0.0
  0
SPLINE
  5
2D9
100
AcDbEntity
  8
0
100
AcDbSpline
 62
7
  6
CONTINUOUS
 70
0
 71
3
 72
9
 73
5
 74
0
 42
0.0000001
 43
0.0000001
 44
0.0000000001
 40
0.0
 40
0.0
 40
0.0
 40
0.0
 40
0.7589811699
 40
1.0
 40
1.0
 40
1.0
 40
1.0
 10
496.6185141867
 20
1137.870135447
 30
0.0
 10
496.8758416223
 20
1139.2924691355
 30
0.0
 10
497.8079761375
 20
1141.1006462351
 30
0.0
 10
499.1979791958
 20
1142.4106134229
 30
0.0
 10
499.5671371879
 20
1142.6833877779
 30
0.0
  0
SPLINE
  5
2DA
100
AcDbEntity
  8
0
100
AcDbSpline
 62
7
  6
CONTINUOUS
 70
0
 71
3
 72
9
 73
5
 74
0
 42
0.0000001
 43
0.0000001
 44
0.0000000001
 40
0.0
 40
0.0
 40
0.0
 40
0.0
 40
0.2402564687
 40
1.0
 40
1.0
 40
1.0
 40
1.0
 10
485.1409983591
 20
1028.5888617556
 30
0.0
 10
485.1409983591
 20
1036.7283228872
 30
0.0
 10
486.0279150865
 20
1070.6046396531
 30
0.0
 10
490.2800587592
 20
1104.3602174008
 30
0.0
 10
495.0232169912
 20
1129.6581635335
 30
0.0
  0
SPLINE
  5
2DB
100
AcDbEntity
  8
0
100
AcDbSpline
 62
7
  6
CONTINUOUS
 70
0
 71
3
 72
9
 73
5
 74
0
 42
0.0000001
 43
0.0000001
 44
0.0000000001
 40
0.0
 40
0.0
 40
0.0
 40
0.0
 40
0.2369601761
 40
1.0
 40
1.0
 40
1.0
 40
1.0
 10
496.6185141867
 20
932.5606026598
 30
0.0
 10
494.6809712292
 20
939.9622253126
 30
0.0
 10
487.6779987008
 20
971.5034836446
 30
0.0
 10
485.1409983591
 20
1003.9516749144
 30
0.0
 10
485.1409983591
 20
1028.5888617556
 30
0.0
  0
SPLINE
  5
2DC
100
AcDbEntity
  8
0
100
AcDbSpline
 62
7
  6
CONTINUOUS
 70
0
 71
3
 72
9
 73
5
 74
0
 42
0.0000001
 43
0.0000001
 44
0.0000000001
 40
0.0
 40
0.0
 40
0.0
 40
0.0
 40
0.3272039717
 40
1.0
 40
1.0
 40
1.0
 40
1.0
 10
178.3448913084
 20
826.3368939053
 30
0.0
 10
178.3488052315
 20
826.1601674879
 30
0.0
 10
178.3692632556
 20
825.6367914605
 30
0.0
 10
178.5688343445
 20
825.0216435365
 30
0.0
 10
178.8836654256
 20
824.8399999074
 30
0.0
  0
SPLINE
  5
2DD
100
AcDbEntity
  8
0
100
AcDbSpline
 62
7
  6
CONTINUOUS
 70
0
 71
3
 72
9
 73
5
 74
0
 42
0.0000001
 43
0.0000001
 44
0.0000000001
 40
0.0
 40
0.0
 40
0.0
 40
0.0
 40
0.280316581
 40
1.0
 40
1.0
 40
1.0
 40
1.0
 10
531.011603865
 20
622.7847320967
 30
0.0
 10
530.8789280588
 20
622.7184239525
 30
0.0
 10
530.3945519246
 20
622.5104237603
 30
0.0
 10
529.834738569
 20
622.4347126419
 30
0.0
 10
529.4629872234
 20
622.5172471754
 30
0.0
  0
SPLINE
  5
2DE
100
AcDbEntity
  8
0
100
AcDbSpline
 62
7
  6
CONTINUOUS
 70
0
 71
3
 72
9
 73
5
 74
0
 42
0.0000001
 43
0.0000001
 44
0.0000000001
 40
0.0
 40
0.0
 40
0.0
 40
0.0
 40
0.2282618596
 40
1.0
 40
1.0
 40
1.0
 40
1.0
 10
520.1899263536
 20
918.0781941365
 30
0.0
 10
520.32493042
 20
918.000241557
 30
0.0
 10
520.9677413047
 20
917.7414862009
 30
0.0
 10
521.7076540226
 20
917.878659523
 30
0.0
 10
522.1946483926
 20
918.0802374033
 30
0.0
  0
SPLINE
  5
2DF
100
AcDbEntity
  8
0
100
AcDbSpline
 62
7
  6
CONTINUOUS
 70
0
 71
3
 72
9
 73
5
 74
0
 42
0.0000001
 43
0.0000001
 44
0.0000000001
 40
0.0
 40
0.0
 40
0.0
 40
0.0
 40
0.7223922695
 40
1.0
 40
1.0
 40
1.0
 40
1.0
 10
497.5624151238
 20
931.1418982746
 30
0.0
 10
497.2016268682
 20
931.3502206978
 30
0.0
 10
496.8200505732
 20
931.8541076219
 30
0.0
 10
496.6540280924
 20
932.4044912649
 30
0.0
 10
496.6185141867
 20
932.5606026598
 30
0.0
  0
SPLINE
  5
2E0
100
AcDbEntity
  8
0
100
AcDbSpline
 62
7
  6
CONTINUOUS
 70
0
 71
3
 72
17
 73
13
 74
0
 42
0.0000001
 43
0.0000001
 44
0.0000000001
 40
0.0
 40
0.0
 40
0.0
 40
0.0
 40
0.2565974241
 40
0.3843075568
 40
0.5115001402
 40
0.6380009233
 40
0.7634681096
 40
0.8255896199
 40
0.8870155246
 40
0.9470986127
 40
0.9759383572
 40
1.0
 40
1.0
 40
1.0
 40
1.0
 10
527.9031747458
 20
1425.3937496085
 30
0.0
 10
527.710556946
 20
1422.5917541518
 30
0.0
 10
527.4036617531
 20
1418.3964617872
 30
0.0
 10
526.9440251341
 20
1412.8164680829
 30
0.0
 10
526.5697438193
 20
1408.6591111061
 30
0.0
 10
526.1548456842
 20
1404.5275560199
 30
0.0
 10
525.7637708882
 20
1401.1183473177
 30
0.0
 10
525.3949911724
 20
1398.4042420577
 30
0.0
 10
525.0967254959
 20
1396.4566814287
 30
0.0
 10
524.7494019223
 20
1394.7231758606
 30
0.0
 10
524.4950945039
 20
1393.7475812029
 30
0.0
 10
524.1391141463
 20
1392.8371821977
 30
0.0
 10
523.9084366478
 20
1392.9642686217
 30
0.0
  0
SPLINE
  5
2E1
100
AcDbEntity
  8
0
100
AcDbSpline
 62
7
  6
CONTINUOUS
 70
0
 71
3
 72
19
 73
15
 74
0
 42
0.0000001
 43
0.0000001
 44
0.0000000001
 40
0.0
 40
0.0
 40
0.0
 40
0.0
 40
0.2438406382
 40
0.3664034681
 40
0.4895249225
 40
0.6133852195
 40
0.738331852
 40
0.8014391439
 40
0.8652479794
 40
0.8975704409
 40
0.9303611692
 40
0.9640167461
 40
0.9814410351
 40
1.0
 40
1.0
 40
1.0
 40
1.0
 10
527.903174611
 20
624.5238905632
 30
0.0
 10
527.7094788485
 20
627.2732433025
 30
0.0
 10
527.4011073398
 20
631.4033489891
 30
0.0
 10
526.9425362
 20
636.9175182829
 30
0.0
 10
526.5673945192
 20
641.0776966167
 30
0.0
 10
526.1517739387
 20
645.261152635
 30
0.0
 10
525.7584286324
 20
648.7648532786
 30
0.0
 10
525.3942767016
 20
651.5885952348
 30
0.0
 10
525.1345779529
 20
653.3692477738
 30
0.0
 10
524.8939443106
 20
654.8077446427
 30
0.0
 10
524.6833972608
 20
655.9004933783
 30
0.0
 10
524.4755436322
 20
656.8377911164
 30
0.0
 10
524.2357925844
 20
657.5640077835
 30
0.0
 10
524.0882285003
 20
657.9958525475
 30
0.0
 10
523.9084366466
 20
658.1039281816
 30
0.0
  0
SPLINE
  5
2E2
100
AcDbEntity
  8
0
100
AcDbSpline
 62
7
  6
CONTINUOUS
 70
0
 71
3
 72
8
 73
4
 74
0
 42
0.0000001
 43
0.0000001
 44
0.0000000001
 40
0.0
 40
0.0
 40
0.0
 40
0.0
 40
1.0
 40
1.0
 40
1.0
 40
1.0
 10
524.5795405762
 20
1131.3395245736
 30
0.0
 10
524.3494388381
 20
1131.4246287556
 30
0.0
 10
524.1241683253
 20
1131.526153663
 30
0.0
 10
523.911579255
 20
1131.6486094461
 30
0.0
  0
SPLINE
  5
2E3
100
AcDbEntity
  8
0
100
AcDbSpline
 62
7
  6
CONTINUOUS
 70
0
 71
3
 72
8
 73
4
 74
0
 42
0.0000001
 43
0.0000001
 44
0.0000000001
 40
0.0
 40
0.0
 40
0.0
 40
0.0
 40
1.0
 40
1.0
 40
1.0
 40
1.0
 10
529.4629872234
 20
1428.4404913022
 30
0.0
 10
529.859221289
 20
1428.9551295917
 30
0.0
 10
530.3387585342
 20
1429.4236773575
 30
0.0
 10
530.8898249088
 20
1429.7674503269
 30
0.0
  0
SPLINE
  5
2E4
100
AcDbEntity
  8
0
100
AcDbSpline
 62
7
  6
CONTINUOUS
 70
0
 71
3
 72
9
 73
5
 74
0
 42
0.0000001
 43
0.0000001
 44
0.0000000001
 40
0.0
 40
0.0
 40
0.0
 40
0.0
 40
0.2286134699
 40
1.0
 40
1.0
 40
1.0
 40
1.0
 10
527.9032144652
 20
1425.3937266771
 30
0.0
 10
527.9212993206
 20
1425.6568055969
 30
0.0
 10
528.1885144791
 20
1426.7965157418
 30
0.0
 10
528.9217957154
 20
1427.7371703952
 30
0.0
 10
529.4644140879
 20
1428.4423400248
 30
0.0
  0
SPLINE
  5
2E5
100
AcDbEntity
  8
0
100
AcDbSpline
 62
7
  6
CONTINUOUS
 70
0
 71
3
 72
8
 73
4
 74
0
 42
0.0000001
 43
0.0000001
 44
0.0000000001
 40
0.0
 40
0.0
 40
0.0
 40
0.0
 40
1.0
 40
1.0
 40
1.0
 40
1.0
 10
529.0138480014
 20
622.6968178599
 30
0.0
 10
528.9209392227
 20
622.7504329624
 30
0.0
 10
528.8323437294
 20
622.8121168856
 30
0.0
 10
528.7491482352
 20
622.8798304745
 30
0.0
  0
SPLINE
  5
2E6
100
AcDbEntity
  8
0
100
AcDbSpline
 62
7
  6
CONTINUOUS
 70
0
 71
3
 72
8
 73
4
 74
0
 42
0.0000001
 43
0.0000001
 44
0.0000000001
 40
0.0
 40
0.0
 40
0.0
 40
0.0
 40
1.0
 40
1.0
 40
1.0
 40
1.0
 10
528.7491482352
 20
622.8798304745
 30
0.0
 10
528.2711568617
 20
623.2688721128
 30
0.0
 10
527.9465263744
 20
623.9090886337
 30
0.0
 10
527.9032143304
 20
624.5238676317
 30
0.0
  0
SPLINE
  5
2E7
100
AcDbEntity
  8
0
100
AcDbSpline
 62
7
  6
CONTINUOUS
 70
0
 71
3
 72
9
 73
5
 74
0
 42
0.0000001
 43
0.0000001
 44
0.0000000001
 40
0.0
 40
0.0
 40
0.0
 40
0.0
 40
0.2776082325
 40
1.0
 40
1.0
 40
1.0
 40
1.0
 10
519.2460253914
 20
919.4968985151
 30
0.0
 10
519.2815393658
 20
919.3407868182
 30
0.0
 10
519.4475609064
 20
918.7904027528
 30
0.0
 10
519.829138306
 20
918.2865164464
 30
0.0
 10
520.1899263536
 20
918.0781941365
 30
0.0
  0
SPLINE
  5
2E8
100
AcDbEntity
  8
0
100
AcDbSpline
 62
7
  6
CONTINUOUS
 70
0
 71
3
 72
9
 73
5
 74
0
 42
0.0000001
 43
0.0000001
 44
0.0000000001
 40
0.0
 40
0.0
 40
0.0
 40
0.0
 40
0.2635217452
 40
1.0
 40
1.0
 40
1.0
 40
1.0
 10
507.7685095638
 20
1015.525157611
 30
0.0
 10
507.7685095638
 20
1007.0174352026
 30
0.0
 10
508.6501350031
 20
974.7498857775
 30
0.0
 10
513.2247450822
 20
942.4988374216
 30
0.0
 10
519.2460253914
 20
919.4968985151
 30
0.0
  0
SPLINE
  5
2E9
100
AcDbEntity
  8
0
100
AcDbSpline
 62
7
  6
CONTINUOUS
 70
0
 71
3
 72
14
 73
10
 74
0
 42
0.0000001
 43
0.0000001
 44
0.0000000001
 40
0.0
 40
0.0
 40
0.0
 40
0.0
 40
0.2603915583
 40
0.5182669879
 40
0.6457256649
 40
0.7715157998
 40
0.894110302
 40
0.9525650887
 40
1.0
 40
1.0
 40
1.0
 40
1.0
 10
178.1705283417
 20
840.4387432516
 30
0.0
 10
178.1705275451
 20
841.8944748183
 30
0.0
 10
178.1854608034
 20
844.793960405
 30
0.0
 10
178.2525673723
 20
848.3958145151
 30
0.0
 10
178.3657392067
 20
851.2664863398
 30
0.0
 10
178.4761611647
 20
853.3192088635
 30
0.0
 10
178.6702779623
 20
855.1640888665
 30
0.0
 10
178.8113899731
 20
856.1725842718
 30
0.0
 10
179.1093745109
 20
857.1637265409
 30
0.0
 10
179.3413915051
 20
857.0353040189
 30
0.0
  0
SPLINE
  5
2EA
100
AcDbEntity
  8
0
100
AcDbSpline
 62
7
  6
CONTINUOUS
 70
0
 71
3
 72
16
 73
12
 74
0
 42
0.0000001
 43
0.0000001
 44
0.0000000001
 40
0.0
 40
0.0
 40
0.0
 40
0.0
 40
0.2443403392
 40
0.4903627464
 40
0.6143486724
 40
0.7394059293
 40
0.8025701475
 40
0.8664423464
 40
0.9316032515
 40
0.9651476616
 40
1.0
 40
1.0
 40
1.0
 40
1.0
 10
178.1705283794
 20
1611.7562755394
 30
0.0
 10
178.1705273096
 20
1610.1293101991
 30
0.0
 10
178.1852396108
 20
1606.8641209341
 30
0.0
 10
178.2549941705
 20
1602.773956057
 30
0.0
 10
178.3643095316
 20
1599.4789094665
 30
0.0
 10
178.4670313276
 20
1597.4032883351
 30
0.0
 10
178.5842296276
 20
1595.7268755511
 30
0.0
 10
178.7047720169
 20
1594.4583259951
 30
0.0
 10
178.8357577731
 20
1593.3653628496
 30
0.0
 10
179.0298160125
 20
1592.5324925688
 30
0.0
 10
179.1427294548
 20
1592.0155981753
 30
0.0
 10
179.3413915063
 20
1591.895644459
 30
0.0
  0
SPLINE
  5
2EB
100
AcDbEntity
  8
0
100
AcDbSpline
 62
7
  6
CONTINUOUS
 70
0
 71
3
 72
9
 73
5
 74
0
 42
0.0000001
 43
0.0000001
 44
0.0000000001
 40
0.0
 40
0.0
 40
0.0
 40
0.0
 40
0.2602438651
 40
1.0
 40
1.0
 40
1.0
 40
1.0
 10
519.2460253914
 20
1124.8064313024
 30
0.0
 10
517.3658577513
 20
1115.4529709106
 30
0.0
 10
510.9366506263
 20
1079.3625965717
 30
0.0
 10
507.7685095638
 20
1042.644669116
 30
0.0
 10
507.7685095638
 20
1015.525157611
 30
0.0
  0
SPLINE
  5
2EC
100
AcDbEntity
  8
0
100
AcDbSpline
 62
7
  6
CONTINUOUS
 70
0
 71
3
 72
9
 73
5
 74
0
 42
0.0000001
 43
0.0000001
 44
0.0000000001
 40
0.0
 40
0.0
 40
0.0
 40
0.0
 40
0.2410182015
 40
1.0
 40
1.0
 40
1.0
 40
1.0
 10
522.1946483926
 20
1129.6196836333
 30
0.0
 10
521.8254913556
 20
1129.346909984
 30
0.0
 10
520.4354867328
 20
1128.0369444628
 30
0.0
 10
519.5033530455
 20
1126.2287661985
 30
0.0
 10
519.2460253914
 20
1124.8064313024
 30
0.0
  0
SPLINE
  5
2ED
100
AcDbEntity
  8
0
100
AcDbSpline
 62
7
  6
CONTINUOUS
 70
0
 71
3
 72
9
 73
5
 74
0
 42
0.0000001
 43
0.0000001
 44
0.0000000001
 40
0.0
 40
0.0
 40
0.0
 40
0.0
 40
0.2353754173
 40
1.0
 40
1.0
 40
1.0
 40
1.0
 10
1352.2208423344
 20
488.0748003868
 30
0.0
 10
1352.2151257024
 20
487.7950670798
 30
0.0
 10
1352.1388633405
 20
486.6151147029
 30
0.0
 10
1351.838706134
 20
485.3911548448
 30
0.0
 10
1351.3187258564
 20
484.6456736852
 30
0.0
  0
SPLINE
  5
2EE
100
AcDbEntity
  8
0
100
AcDbSpline
 62
7
  6
CONTINUOUS
 70
0
 71
3
 72
9
 73
5
 74
0
 42
0.0000001
 43
0.0000001
 44
0.0000000001
 40
0.0
 40
0.0
 40
0.0
 40
0.0
 40
0.2667137597
 40
1.0
 40
1.0
 40
1.0
 40
1.0
 10
1351.3200510902
 20
484.6475810433
 30
0.0
 10
1351.2153074087
 20
484.4973233822
 30
0.0
 10
1350.8008305301
 20
483.9503718338
 30
0.0
 10
1350.2960784123
 20
483.4647416666
 30
0.0
 10
1349.8758909998
 20
483.1871958268
 30
0.0
  0
SPLINE
  5
2EF
100
AcDbEntity
  8
0
100
AcDbSpline
 62
7
  6
CONTINUOUS
 70
0
 71
3
 72
9
 73
5
 74
0
 42
0.0000001
 43
0.0000001
 44
0.0000000001
 40
0.0
 40
0.0
 40
0.0
 40
0.0
 40
0.2035191996
 40
1.0
 40
1.0
 40
1.0
 40
1.0
 10
1351.6820681163
 20
1290.4415533141
 30
0.0
 10
1351.7785594594
 20
1290.3858820482
 30
0.0
 10
1352.1985437642
 20
1290.0039277211
 30
0.0
 10
1352.2111893911
 20
1289.3805193625
 30
0.0
 10
1352.2208422933
 20
1288.9446593306
 30
0.0
  0
SPLINE
  5
2F0
100
AcDbEntity
  8
0
100
AcDbSpline
 62
7
  6
CONTINUOUS
 70
0
 71
3
 72
9
 73
5
 74
0
 42
0.0000001
 43
0.0000001
 44
0.0000000001
 40
0.0
 40
0.0
 40
0.0
 40
0.0
 40
0.2847860451
 40
1.0
 40
1.0
 40
1.0
 40
1.0
 10
1349.8771002945
 20
1290.2437319296
 30
0.0
 10
1350.0000830993
 20
1290.31471177
 30
0.0
 10
1350.443231139
 20
1290.5377049302
 30
0.0
 10
1350.9701201574
 20
1290.6395218569
 30
0.0
 10
1351.3200510902
 20
1290.5708251701
 30
0.0
  0
SPLINE
  5
2F1
100
AcDbEntity
  8
0
100
AcDbSpline
 62
7
  6
CONTINUOUS
 70
0
 71
3
 72
9
 73
5
 74
0
 42
0.0000001
 43
0.0000001
 44
0.0000000001
 40
0.0
 40
0.0
 40
0.0
 40
0.0
 40
0.2282618596
 40
1.0
 40
1.0
 40
1.0
 40
1.0
 10
550.5956445349
 20
900.5238416921
 30
0.0
 10
550.7306486014
 20
900.4458891126
 30
0.0
 10
551.373459486
 20
900.1871337566
 30
0.0
 10
552.1133722039
 20
900.3243070786
 30
0.0
 10
552.6003665739
 20
900.525884959
 30
0.0
  0
SPLINE
  5
2F2
100
AcDbEntity
  8
0
100
AcDbSpline
 62
7
  6
CONTINUOUS
 70
0
 71
3
 72
9
 73
5
 74
0
 42
0.0000001
 43
0.0000001
 44
0.0000000001
 40
0.0
 40
0.0
 40
0.0
 40
0.0
 40
0.7223922695
 40
1.0
 40
1.0
 40
1.0
 40
1.0
 10
527.9681333051
 20
913.5875458302
 30
0.0
 10
527.6073450495
 20
913.7958682534
 30
0.0
 10
527.2257687546
 20
914.2997551775
 30
0.0
 10
527.0597462737
 20
914.8501388206
 30
0.0
 10
527.024232368
 20
915.0062502154
 30
0.0
  0
SPLINE
  5
2F3
100
AcDbEntity
  8
0
100
AcDbSpline
 62
7
  6
CONTINUOUS
 70
0
 71
3
 72
9
 73
5
 74
0
 42
0.0000001
 43
0.0000001
 44
0.0000000001
 40
0.0
 40
0.0
 40
0.0
 40
0.0
 40
0.2570114173
 40
1.0
 40
1.0
 40
1.0
 40
1.0
 10
532.8018703424
 20
1426.51550227
 30
0.0
 10
532.6264682394
 20
1426.2640331736
 30
0.0
 10
532.0768920643
 20
1425.192723362
 30
0.0
 10
531.9178633664
 20
1423.9725293273
 30
0.0
 10
531.899753923
 20
1423.0863757445
 30
0.0
  0
SPLINE
  5
2F4
100
AcDbEntity
  8
0
100
AcDbSpline
 62
7
  6
CONTINUOUS
 70
0
 71
3
 72
8
 73
4
 74
0
 42
0.0000001
 43
0.0000001
 44
0.0000000001
 40
0.0
 40
0.0
 40
0.0
 40
0.0
 40
1.0
 40
1.0
 40
1.0
 40
1.0
 10
534.1311404365
 20
1427.8961182698
 30
0.0
 10
533.6097927213
 20
1427.5255895674
 30
0.0
 10
533.1663105579
 20
1427.0382954348
 30
0.0
 10
532.8005451261
 20
1426.5135949409
 30
0.0
  0
SPLINE
  5
2F5
100
AcDbEntity
  8
0
100
AcDbSpline
 62
7
  6
CONTINUOUS
 70
0
 71
3
 72
9
 73
5
 74
0
 42
0.0000001
 43
0.0000001
 44
0.0000000001
 40
0.0
 40
0.0
 40
0.0
 40
0.0
 40
0.3272039944
 40
1.0
 40
1.0
 40
1.0
 40
1.0
 10
531.8997538819
 20
622.2165166451
 30
0.0
 10
531.9036678052
 20
622.0397902183
 30
0.0
 10
531.924125875
 20
621.5164141878
 30
0.0
 10
532.1236969964
 20
620.901266358
 30
0.0
 10
532.4385280289
 20
620.7196226809
 30
0.0
  0
SPLINE
  5
2F6
100
AcDbEntity
  8
0
100
AcDbSpline
 62
7
  6
CONTINUOUS
 70
0
 71
3
 72
9
 73
5
 74
0
 42
0.0000001
 43
0.0000001
 44
0.0000000001
 40
0.0
 40
0.0
 40
0.0
 40
0.0
 40
0.2803165811
 40
1.0
 40
1.0
 40
1.0
 40
1.0
 10
1061.3438977252
 20
316.6041662065
 30
0.0
 10
1061.211221919
 20
316.5378580622
 30
0.0
 10
1060.726845785
 20
316.3298578709
 30
0.0
 10
1060.1670324281
 20
316.2541467465
 30
0.0
 10
1059.7952810837
 20
316.3366812852
 30
0.0
  0
SPLINE
  5
2F7
100
AcDbEntity
  8
0
100
AcDbSpline
 62
7
  6
CONTINUOUS
 70
0
 71
3
 72
9
 73
5
 74
0
 42
0.0000001
 43
0.0000001
 44
0.0000000001
 40
0.0
 40
0.0
 40
0.0
 40
0.0
 40
0.7589811699
 40
1.0
 40
1.0
 40
1.0
 40
1.0
 10
527.024232368
 20
1120.3157830026
 30
0.0
 10
527.2815598037
 20
1121.7381166911
 30
0.0
 10
528.2136943188
 20
1123.5462937907
 30
0.0
 10
529.6036973771
 20
1124.8562609786
 30
0.0
 10
529.9728553692
 20
1125.1290353335
 30
0.0
  0
SPLINE
  5
2F8
100
AcDbEntity
  8
0
100
AcDbSpline
 62
7
  6
CONTINUOUS
 70
0
 71
3
 72
9
 73
5
 74
0
 42
0.0000001
 43
0.0000001
 44
0.0000000001
 40
0.0
 40
0.0
 40
0.0
 40
0.0
 40
0.2396265238
 40
1.0
 40
1.0
 40
1.0
 40
1.0
 10
515.5467165404
 20
1011.0345093113
 30
0.0
 10
515.5467165404
 20
1019.8196779409
 30
0.0
 10
516.582671233
 20
1056.4793876883
 30
0.0
 10
521.5305321125
 20
1092.9857159126
 30
0.0
 10
527.024232368
 20
1120.3157830026
 30
0.0
  0
SPLINE
  5
2F9
100
AcDbEntity
  8
0
100
AcDbSpline
 62
7
  6
CONTINUOUS
 70
0
 71
3
 72
9
 73
5
 74
0
 42
0.0000001
 43
0.0000001
 44
0.0000000001
 40
0.0
 40
0.0
 40
0.0
 40
0.0
 40
0.2369601761
 40
1.0
 40
1.0
 40
1.0
 40
1.0
 10
527.024232368
 20
915.0062502154
 30
0.0
 10
525.0866894106
 20
922.4078728683
 30
0.0
 10
518.0837168821
 20
953.9491312002
 30
0.0
 10
515.5467165404
 20
986.39732247
 30
0.0
 10
515.5467165404
 20
1011.0345093113
 30
0.0
  0
SPLINE
  5
2FA
100
AcDbEntity
  8
0
100
AcDbSpline
 62
7
  6
CONTINUOUS
 70
0
 71
3
 72
8
 73
4
 74
0
 42
0.0000001
 43
0.0000001
 44
0.0000000001
 40
0.0
 40
0.0
 40
0.0
 40
0.0
 40
1.0
 40
1.0
 40
1.0
 40
1.0
 10
1059.3461418579
 20
316.5162519969
 30
0.0
 10
1059.2532280333
 20
316.5698700189
 30
0.0
 10
1059.1646279507
 20
316.6315577409
 30
0.0
 10
1059.0814284915
 20
316.6992756933
 30
0.0
  0
SPLINE
  5
2FB
100
AcDbEntity
  8
0
100
AcDbSpline
 62
7
  6
CONTINUOUS
 70
0
 71
3
 72
8
 73
4
 74
0
 42
0.0000001
 43
0.0000001
 44
0.0000000001
 40
0.0
 40
0.0
 40
0.0
 40
0.0
 40
1.0
 40
1.0
 40
1.0
 40
1.0
 10
1059.0814284915
 20
316.6992756933
 30
0.0
 10
1058.6034444772
 20
317.0883178706
 30
0.0
 10
1058.2788198574
 20
317.7285280977
 30
0.0
 10
1058.2355081906
 20
318.3433017415
 30
0.0
  0
SPLINE
  5
2FC
100
AcDbEntity
  8
0
100
AcDbSpline
 62
7
  6
CONTINUOUS
 70
0
 71
3
 72
14
 73
10
 74
0
 42
0.0000001
 43
0.0000001
 44
0.0000000001
 40
0.0
 40
0.0
 40
0.0
 40
0.0
 40
0.2602438713
 40
0.5179753425
 40
0.6453649467
 40
0.7710905621
 40
0.8936343985
 40
0.9521548874
 40
1.0
 40
1.0
 40
1.0
 40
1.0
 10
531.7253910001
 20
636.3183659256
 30
0.0
 10
531.7253907244
 20
637.7732335195
 30
0.0
 10
531.7402942984
 20
640.6710130987
 30
0.0
 10
531.8073536496
 20
644.2707534755
 30
0.0
 10
531.9202636379
 20
647.1398092045
 30
0.0
 10
532.0307025237
 20
649.191437165
 30
0.0
 10
532.2237364889
 20
651.0361344074
 30
0.0
 10
532.3657366874
 20
652.0461380995
 30
0.0
 10
532.6622388242
 20
653.0444552801
 30
0.0
 10
532.8962560598
 20
652.9149256149
 30
0.0
  0
SPLINE
  5
2FD
100
AcDbEntity
  8
0
100
AcDbSpline
 62
7
  6
CONTINUOUS
 70
0
 71
3
 72
16
 73
12
 74
0
 42
0.0000001
 43
0.0000001
 44
0.0000000001
 40
0.0
 40
0.0
 40
0.0
 40
0.0
 40
0.2442004041
 40
0.4900804043
 40
0.6139932487
 40
0.7389746002
 40
0.8020986401
 40
0.865927158
 40
0.9311148197
 40
0.9644587158
 40
1.0
 40
1.0
 40
1.0
 40
1.0
 10
531.7253911014
 20
1407.6358982167
 30
0.0
 10
531.7253906804
 20
1406.0099054386
 30
0.0
 10
531.7400801626
 20
1402.746676965
 30
0.0
 10
531.8097574234
 20
1398.6589846965
 30
0.0
 10
531.9188627236
 20
1395.3659483874
 30
0.0
 10
532.0214643605
 20
1393.2916522913
 30
0.0
 10
532.1382144539
 20
1391.616286082
 30
0.0
 10
532.258931823
 20
1390.348256359
 30
0.0
 10
532.3877110202
 20
1389.2562815144
 30
0.0
 10
532.5847330236
 20
1388.4208622073
 30
0.0
 10
532.6936720269
 20
1387.8975878954
 30
0.0
 10
532.8962560612
 20
1387.7752660549
 30
0.0
  0
SPLINE
  5
2FE
100
AcDbEntity
  8
0
100
AcDbSpline
 62
7
  6
CONTINUOUS
 70
0
 71
3
 72
9
 73
5
 74
0
 42
0.0000001
 43
0.0000001
 44
0.0000000001
 40
0.0
 40
0.0
 40
0.0
 40
0.0
 40
0.7658464137
 40
1.0
 40
1.0
 40
1.0
 40
1.0
 10
1059.7952810837
 20
1122.259925412
 30
0.0
 10
1060.1213640974
 20
1122.6834498455
 30
0.0
 10
1060.618050948
 20
1123.1917860643
 30
0.0
 10
1061.2010822721
 20
1123.577524441
 30
0.0
 10
1061.3426009619
 20
1123.6592554447
 30
0.0
  0
SPLINE
  5
2FF
100
AcDbEntity
  8
0
100
AcDbSpline
 62
7
  6
CONTINUOUS
 70
0
 71
3
 72
9
 73
5
 74
0
 42
0.0000001
 43
0.0000001
 44
0.0000000001
 40
0.0
 40
0.0
 40
0.0
 40
0.0
 40
0.2286134228
 40
1.0
 40
1.0
 40
1.0
 40
1.0
 10
1058.2355083254
 20
1119.2131607868
 30
0.0
 10
1058.253593177
 20
1119.4762396505
 30
0.0
 10
1058.5208079017
 20
1120.6159498817
 30
0.0
 10
1059.2540895108
 20
1121.556604405
 30
0.0
 10
1059.7967079047
 20
1122.2617740783
 30
0.0
  0
SPLINE
  5
300
100
AcDbEntity
  8
0
100
AcDbSpline
 62
7
  6
CONTINUOUS
 70
0
 71
3
 72
8
 73
4
 74
0
 42
0.0000001
 43
0.0000001
 44
0.0000000001
 40
0.0
 40
0.0
 40
0.0
 40
0.0
 40
1.0
 40
1.0
 40
1.0
 40
1.0
 10
532.8931114743
 20
1126.4632367104
 30
0.0
 10
532.7109119532
 20
1126.5686676211
 30
0.0
 10
532.5039861886
 20
1126.6740307953
 30
0.0
 10
532.3989641638
 20
1126.8564663092
 30
0.0
  0
SPLINE
  5
301
100
AcDbEntity
  8
0
100
AcDbSpline
 62
7
  6
CONTINUOUS
 70
0
 71
3
 72
17
 73
13
 74
0
 42
0.0000001
 43
0.0000001
 44
0.0000000001
 40
0.0
 40
0.0
 40
0.0
 40
0.0
 40
0.2565155212
 40
0.3841851508
 40
0.5113377066
 40
0.6377992001
 40
0.7632286427
 40
0.8253325125
 40
0.886742823
 40
0.9468156418
 40
0.9757175703
 40
1.0
 40
1.0
 40
1.0
 40
1.0
 10
1058.235468606
 20
1119.2131837183
 30
0.0
 10
1058.0429144558
 20
1116.4121141677
 30
0.0
 10
1057.7361261119
 20
1112.2182049841
 30
0.0
 10
1057.2766712696
 20
1106.6400434963
 30
0.0
 10
1056.9025523996
 20
1102.4840361143
 30
0.0
 10
1056.4878641165
 20
1098.3537943446
 30
0.0
 10
1056.0970002452
 20
1094.9456452024
 30
0.0
 10
1055.7285517007
 20
1092.2323093629
 30
0.0
 10
1055.4304543879
 20
1090.2852319645
 30
0.0
 10
1055.0838540238
 20
1088.5511455061
 30
0.0
 10
1054.8290234738
 20
1087.5734627566
 30
0.0
 10
1054.4735200751
 20
1086.6554527645
 30
0.0
 10
1054.2407285268
 20
1086.7837038753
 30
0.0
  0
SPLINE
  5
302
100
AcDbEntity
  8
0
100
AcDbSpline
 62
7
  6
CONTINUOUS
 70
0
 71
3
 72
19
 73
15
 74
0
 42
0.0000001
 43
0.0000001
 44
0.0000000001
 40
0.0
 40
0.0
 40
0.0
 40
0.0
 40
0.2437618462
 40
0.3662847921
 40
0.4893658479
 40
0.6131849542
 40
0.7380888224
 40
0.8011734895
 40
0.8649577583
 40
0.8972663998
 40
0.930039523
 40
0.9637360864
 40
0.9812001761
 40
1.0
 40
1.0
 40
1.0
 40
1.0
 10
1058.2354684712
 20
318.343324673
 30
0.0
 10
1058.0418371185
 20
321.0917631687
 30
0.0
 10
1057.7335737961
 20
325.2204926029
 30
0.0
 10
1057.2751839606
 20
330.7328205874
 30
0.0
 10
1056.9002056677
 20
334.8915952431
 30
0.0
 10
1056.4847962157
 20
339.0736210108
 30
0.0
 10
1056.0916752114
 20
342.5760974182
 30
0.0
 10
1055.7278352467
 20
345.3988332787
 30
0.0
 10
1055.4683367064
 20
347.1787854152
 30
0.0
 10
1055.2281766701
 20
348.6167327679
 30
0.0
 10
1055.017479269
 20
349.7094729147
 30
0.0
 10
1054.8113503356
 20
350.6481037875
 30
0.0
 10
1054.5686043836
 20
351.3768182872
 30
0.0
 10
1054.4228520121
 20
351.813886221
 30
0.0
 10
1054.2407285254
 20
351.9233634354
 30
0.0
  0
SPLINE
  5
303
100
AcDbEntity
  8
0
100
AcDbSpline
 62
7
  6
CONTINUOUS
 70
0
 71
3
 72
9
 73
5
 74
0
 42
0.0000001
 43
0.0000001
 44
0.0000000001
 40
0.0
 40
0.0
 40
0.0
 40
0.0
 40
0.2776082325
 40
1.0
 40
1.0
 40
1.0
 40
1.0
 10
549.6517435727
 20
901.9425460708
 30
0.0
 10
549.6872575471
 20
901.7864343738
 30
0.0
 10
549.8532790877
 20
901.2360503084
 30
0.0
 10
550.2348564873
 20
900.732164002
 30
0.0
 10
550.5956445349
 20
900.5238416921
 30
0.0
  0
SPLINE
  5
304
100
AcDbEntity
  8
0
100
AcDbSpline
 62
7
  6
CONTINUOUS
 70
0
 71
3
 72
9
 73
5
 74
0
 42
0.0000001
 43
0.0000001
 44
0.0000000001
 40
0.0
 40
0.0
 40
0.0
 40
0.0
 40
0.2635217452
 40
1.0
 40
1.0
 40
1.0
 40
1.0
 10
538.1742277451
 20
997.9708051666
 30
0.0
 10
538.1742277451
 20
989.4630827582
 30
0.0
 10
539.0558531844
 20
957.1955333332
 30
0.0
 10
543.6304632635
 20
924.9444849772
 30
0.0
 10
549.6517435727
 20
901.9425460708
 30
0.0
  0
SPLINE
  5
305
100
AcDbEntity
  8
0
100
AcDbSpline
 62
7
  6
CONTINUOUS
 70
0
 71
3
 72
9
 73
5
 74
0
 42
0.0000001
 43
0.0000001
 44
0.0000000001
 40
0.0
 40
0.0
 40
0.0
 40
0.0
 40
0.2602438651
 40
1.0
 40
1.0
 40
1.0
 40
1.0
 10
549.6517435727
 20
1107.252078858
 30
0.0
 10
547.7715759326
 20
1097.8986184662
 30
0.0
 10
541.3423688077
 20
1061.8082441273
 30
0.0
 10
538.1742277451
 20
1025.0903166716
 30
0.0
 10
538.1742277451
 20
997.9708051666
 30
0.0
  0
SPLINE
  5
306
100
AcDbEntity
  8
0
100
AcDbSpline
 62
7
  6
CONTINUOUS
 70
0
 71
3
 72
9
 73
5
 74
0
 42
0.0000001
 43
0.0000001
 44
0.0000000001
 40
0.0
 40
0.0
 40
0.0
 40
0.0
 40
0.2410182015
 40
1.0
 40
1.0
 40
1.0
 40
1.0
 10
552.6003665739
 20
1112.0653311889
 30
0.0
 10
552.2312095369
 20
1111.7925575396
 30
0.0
 10
550.8412049141
 20
1110.4825920184
 30
0.0
 10
549.9090712269
 20
1108.6744137542
 30
0.0
 10
549.6517435727
 20
1107.252078858
 30
0.0
  0
SPLINE
  5
307
100
AcDbEntity
  8
0
100
AcDbSpline
 62
7
  6
CONTINUOUS
 70
0
 71
3
 72
9
 73
5
 74
0
 42
0.0000001
 43
0.0000001
 44
0.0000000001
 40
0.0
 40
0.0
 40
0.0
 40
0.0
 40
0.4886684811
 40
1.0
 40
1.0
 40
1.0
 40
1.0
 10
1330.8979138978
 20
537.2001372681
 30
0.0
 10
1330.897926957
 20
537.2599347
 30
0.0
 10
1330.8810697922
 20
537.3828159493
 30
0.0
 10
1330.8332187616
 20
537.4969207518
 30
0.0
 10
1330.802796537
 20
537.5515977718
 30
0.0
  0
SPLINE
  5
308
100
AcDbEntity
  8
0
100
AcDbSpline
 62
7
  6
CONTINUOUS
 70
0
 71
3
 72
9
 73
5
 74
0
 42
0.0000001
 43
0.0000001
 44
0.0000000001
 40
0.0
 40
0.0
 40
0.0
 40
0.0
 40
0.4850979183
 40
1.0
 40
1.0
 40
1.0
 40
1.0
 10
1330.802796537
 20
537.5515977718
 30
0.0
 10
1330.7802566503
 20
537.5921080847
 30
0.0
 10
1330.7269016991
 20
537.6718869011
 30
0.0
 10
1330.6631374515
 20
537.7434513847
 30
0.0
 10
1330.6283023818
 20
537.7782054566
 30
0.0
  0
SPLINE
  5
309
100
AcDbEntity
  8
0
100
AcDbSpline
 62
7
  6
CONTINUOUS
 70
0
 71
3
 72
9
 73
5
 74
0
 42
0.0000001
 43
0.0000001
 44
0.0000000001
 40
0.0
 40
0.0
 40
0.0
 40
0.0
 40
0.4854556556
 40
1.0
 40
1.0
 40
1.0
 40
1.0
 10
1330.6283023818
 20
537.7782054566
 30
0.0
 10
1330.5892593732
 20
537.8171576833
 30
0.0
 10
1330.5034828495
 20
537.8921366867
 30
0.0
 10
1330.4097997084
 20
537.9568277271
 30
0.0
 10
1330.3600816675
 20
537.987571528
 30
0.0
  0
SPLINE
  5
30A
100
AcDbEntity
  8
0
100
AcDbSpline
 62
7
  6
CONTINUOUS
 70
0
 71
3
 72
8
 73
4
 74
0
 42
0.0000001
 43
0.0000001
 44
0.0000000001
 40
0.0
 40
0.0
 40
0.0
 40
0.0
 40
1.0
 40
1.0
 40
1.0
 40
1.0
 10
1330.8979139008
 20
558.3475498768
 30
0.0
 10
1330.8978629282
 20
558.1148403125
 30
0.0
 10
1330.7548546777
 20
557.8807717628
 30
0.0
 10
1330.5819641825
 20
557.7250071307
 30
0.0
  0
SPLINE
  5
30B
100
AcDbEntity
  8
0
100
AcDbSpline
 62
7
  6
CONTINUOUS
 70
0
 71
3
 72
9
 73
5
 74
0
 42
0.0000001
 43
0.0000001
 44
0.0000000001
 40
0.0
 40
0.0
 40
0.0
 40
0.0
 40
0.4886684811
 40
1.0
 40
1.0
 40
1.0
 40
1.0
 10
1330.8979138978
 20
741.3257415505
 30
0.0
 10
1330.897926957
 20
741.3855389824
 30
0.0
 10
1330.8810697922
 20
741.5084202317
 30
0.0
 10
1330.8332187616
 20
741.6225250342
 30
0.0
 10
1330.802796537
 20
741.6772020542
 30
0.0
  0
SPLINE
  5
30C
100
AcDbEntity
  8
0
100
AcDbSpline
 62
7
  6
CONTINUOUS
 70
0
 71
3
 72
9
 73
5
 74
0
 42
0.0000001
 43
0.0000001
 44
0.0000000001
 40
0.0
 40
0.0
 40
0.0
 40
0.0
 40
0.4850979183
 40
1.0
 40
1.0
 40
1.0
 40
1.0
 10
1330.802796537
 20
741.6772020542
 30
0.0
 10
1330.7802566503
 20
741.717712367
 30
0.0
 10
1330.7269016991
 20
741.7974911835
 30
0.0
 10
1330.6631374515
 20
741.8690556671
 30
0.0
 10
1330.6283023818
 20
741.903809739
 30
0.0
  0
SPLINE
  5
30D
100
AcDbEntity
  8
0
100
AcDbSpline
 62
7
  6
CONTINUOUS
 70
0
 71
3
 72
9
 73
5
 74
0
 42
0.0000001
 43
0.0000001
 44
0.0000000001
 40
0.0
 40
0.0
 40
0.0
 40
0.0
 40
0.4854556556
 40
1.0
 40
1.0
 40
1.0
 40
1.0
 10
1330.6283023818
 20
741.903809739
 30
0.0
 10
1330.5892593732
 20
741.9427619657
 30
0.0
 10
1330.5034828495
 20
742.017740969
 30
0.0
 10
1330.4097997084
 20
742.0824320095
 30
0.0
 10
1330.3600816675
 20
742.1131758104
 30
0.0
  0
SPLINE
  5
30E
100
AcDbEntity
  8
0
100
AcDbSpline
 62
7
  6
CONTINUOUS
 70
0
 71
3
 72
8
 73
4
 74
0
 42
0.0000001
 43
0.0000001
 44
0.0000000001
 40
0.0
 40
0.0
 40
0.0
 40
0.0
 40
1.0
 40
1.0
 40
1.0
 40
1.0
 10
1330.8979139008
 20
762.4731541592
 30
0.0
 10
1330.8978629282
 20
762.2404445949
 30
0.0
 10
1330.7548546777
 20
762.0063760452
 30
0.0
 10
1330.5819641825
 20
761.8506114131
 30
0.0
  0
SPLINE
  5
30F
100
AcDbEntity
  8
0
100
AcDbSpline
 62
7
  6
CONTINUOUS
 70
0
 71
3
 72
9
 73
5
 74
0
 42
0.0000001
 43
0.0000001
 44
0.0000000001
 40
0.0
 40
0.0
 40
0.0
 40
0.0
 40
0.4886684811
 40
1.0
 40
1.0
 40
1.0
 40
1.0
 10
1330.8979138978
 20
986.2764666894
 30
0.0
 10
1330.897926957
 20
986.3362641212
 30
0.0
 10
1330.8810697922
 20
986.4591453706
 30
0.0
 10
1330.8332187616
 20
986.5732501731
 30
0.0
 10
1330.802796537
 20
986.627927193
 30
0.0
  0
SPLINE
  5
310
100
AcDbEntity
  8
0
100
AcDbSpline
 62
7
  6
CONTINUOUS
 70
0
 71
3
 72
9
 73
5
 74
0
 42
0.0000001
 43
0.0000001
 44
0.0000000001
 40
0.0
 40
0.0
 40
0.0
 40
0.0
 40
0.4850979183
 40
1.0
 40
1.0
 40
1.0
 40
1.0
 10
1330.802796537
 20
986.627927193
 30
0.0
 10
1330.7802566503
 20
986.6684375059
 30
0.0
 10
1330.7269016991
 20
986.7482163224
 30
0.0
 10
1330.6631374515
 20
986.819780806
 30
0.0
 10
1330.6283023818
 20
986.8545348779
 30
0.0
  0
SPLINE
  5
311
100
AcDbEntity
  8
0
100
AcDbSpline
 62
7
  6
CONTINUOUS
 70
0
 71
3
 72
9
 73
5
 74
0
 42
0.0000001
 43
0.0000001
 44
0.0000000001
 40
0.0
 40
0.0
 40
0.0
 40
0.0
 40
0.4854556556
 40
1.0
 40
1.0
 40
1.0
 40
1.0
 10
1330.6283023818
 20
986.8545348779
 30
0.0
 10
1330.5892593732
 20
986.8934871046
 30
0.0
 10
1330.5034828495
 20
986.9684661079
 30
0.0
 10
1330.4097997084
 20
987.0331571483
 30
0.0
 10
1330.3600816675
 20
987.0639009493
 30
0.0
  0
SPLINE
  5
312
100
AcDbEntity
  8
0
100
AcDbSpline
 62
7
  6
CONTINUOUS
 70
0
 71
3
 72
8
 73
4
 74
0
 42
0.0000001
 43
0.0000001
 44
0.0000000001
 40
0.0
 40
0.0
 40
0.0
 40
0.0
 40
1.0
 40
1.0
 40
1.0
 40
1.0
 10
1330.8979139008
 20
1007.4238792981
 30
0.0
 10
1330.8978629282
 20
1007.1911697338
 30
0.0
 10
1330.7548546777
 20
1006.957101184
 30
0.0
 10
1330.5819641825
 20
1006.801336552
 30
0.0
  0
SPLINE
  5
313
100
AcDbEntity
  8
0
100
AcDbSpline
 62
7
  6
CONTINUOUS
 70
0
 71
3
 72
9
 73
5
 74
0
 42
0.0000001
 43
0.0000001
 44
0.0000000001
 40
0.0
 40
0.0
 40
0.0
 40
0.0
 40
0.4886684811
 40
1.0
 40
1.0
 40
1.0
 40
1.0
 10
1330.8979138978
 20
1190.4020709718
 30
0.0
 10
1330.897926957
 20
1190.4618684036
 30
0.0
 10
1330.8810697922
 20
1190.5847496529
 30
0.0
 10
1330.8332187616
 20
1190.6988544555
 30
0.0
 10
1330.802796537
 20
1190.7535314754
 30
0.0
  0
SPLINE
  5
314
100
AcDbEntity
  8
0
100
AcDbSpline
 62
7
  6
CONTINUOUS
 70
0
 71
3
 72
9
 73
5
 74
0
 42
0.0000001
 43
0.0000001
 44
0.0000000001
 40
0.0
 40
0.0
 40
0.0
 40
0.0
 40
0.4850979183
 40
1.0
 40
1.0
 40
1.0
 40
1.0
 10
1330.802796537
 20
1190.7535314754
 30
0.0
 10
1330.7802566503
 20
1190.7940417883
 30
0.0
 10
1330.7269016991
 20
1190.8738206048
 30
0.0
 10
1330.6631374515
 20
1190.9453850884
 30
0.0
 10
1330.6283023818
 20
1190.9801391603
 30
0.0
  0
SPLINE
  5
315
100
AcDbEntity
  8
0
100
AcDbSpline
 62
7
  6
CONTINUOUS
 70
0
 71
3
 72
9
 73
5
 74
0
 42
0.0000001
 43
0.0000001
 44
0.0000000001
 40
0.0
 40
0.0
 40
0.0
 40
0.0
 40
0.4854556556
 40
1.0
 40
1.0
 40
1.0
 40
1.0
 10
1330.6283023818
 20
1190.9801391603
 30
0.0
 10
1330.5892593732
 20
1191.019091387
 30
0.0
 10
1330.5034828495
 20
1191.0940703903
 30
0.0
 10
1330.4097997084
 20
1191.1587614307
 30
0.0
 10
1330.3600816675
 20
1191.1895052317
 30
0.0
  0
SPLINE
  5
316
100
AcDbEntity
  8
0
100
AcDbSpline
 62
7
  6
CONTINUOUS
 70
0
 71
3
 72
8
 73
4
 74
0
 42
0.0000001
 43
0.0000001
 44
0.0000000001
 40
0.0
 40
0.0
 40
0.0
 40
0.0
 40
1.0
 40
1.0
 40
1.0
 40
1.0
 10
1330.8979139008
 20
1211.5494835805
 30
0.0
 10
1330.8978629282
 20
1211.3167740162
 30
0.0
 10
1330.7548546777
 20
1211.0827054664
 30
0.0
 10
1330.5819641825
 20
1210.9269408343
 30
0.0
  0
SPLINE
  5
317
100
AcDbEntity
  8
0
100
AcDbSpline
 62
7
  6
CONTINUOUS
 70
0
 71
3
 72
8
 73
4
 74
0
 42
0.0000001
 43
0.0000001
 44
0.0000000001
 40
0.0
 40
0.0
 40
0.0
 40
0.0
 40
1.0
 40
1.0
 40
1.0
 40
1.0
 10
1083.8027249949
 20
864.3241268508
 30
0.0
 10
1083.038191766
 20
864.0412659508
 30
0.0
 10
1082.0781091278
 20
864.0654216919
 30
0.0
 10
1081.3605364311
 20
864.4522172086
 30
0.0
  0
SPLINE
  5
318
100
AcDbEntity
  8
0
100
AcDbSpline
 62
7
  6
CONTINUOUS
 70
0
 71
3
 72
8
 73
4
 74
0
 42
0.0000001
 43
0.0000001
 44
0.0000000001
 40
0.0
 40
0.0
 40
0.0
 40
0.0
 40
1.0
 40
1.0
 40
1.0
 40
1.0
 10
1083.8027249949
 20
1068.4497311332
 30
0.0
 10
1083.038191766
 20
1068.1668702332
 30
0.0
 10
1082.0781091278
 20
1068.1910259743
 30
0.0
 10
1081.3605364311
 20
1068.577821491
 30
0.0
  0
SPLINE
  5
319
100
AcDbEntity
  8
0
100
AcDbSpline
 62
7
  6
CONTINUOUS
 70
0
 71
3
 72
9
 73
5
 74
0
 42
0.0000001
 43
0.0000001
 44
0.0000000001
 40
0.0
 40
0.0
 40
0.0
 40
0.0
 40
0.2934769195
 40
1.0
 40
1.0
 40
1.0
 40
1.0
 10
1355.1473847159
 20
1308.7150866194
 30
0.0
 10
1355.1441125521
 20
1308.8619875168
 30
0.0
 10
1355.1068509569
 20
1309.3540819126
 30
0.0
 10
1354.8509099362
 20
1309.8795591442
 30
0.0
 10
1354.5440467689
 20
1310.0555341715
 30
0.0
  0
SPLINE
  5
31A
100
AcDbEntity
  8
0
100
AcDbSpline
 62
7
  6
CONTINUOUS
 70
0
 71
3
 72
8
 73
4
 74
0
 42
0.0000001
 43
0.0000001
 44
0.0000000001
 40
0.0
 40
0.0
 40
0.0
 40
0.0
 40
1.0
 40
1.0
 40
1.0
 40
1.0
 10
175.4202368978
 20
1648.2849899557
 30
0.0
 10
175.5579295017
 20
1649.5086085823
 30
0.0
 10
176.2251329573
 20
1650.7292539603
 30
0.0
 10
177.1384992222
 20
1651.5550649934
 30
0.0
  0
SPLINE
  5
31B
100
AcDbEntity
  8
0
100
AcDbSpline
 62
7
  6
CONTINUOUS
 70
0
 71
3
 72
9
 73
5
 74
0
 42
0.0000001
 43
0.0000001
 44
0.0000000001
 40
0.0
 40
0.0
 40
0.0
 40
0.0
 40
0.524561935
 40
1.0
 40
1.0
 40
1.0
 40
1.0
 10
177.1384992222
 20
1651.5550649934
 30
0.0
 10
223.2237316543
 20
1688.7999479353
 30
0.0
 10
316.0498192284
 20
1753.9697865682
 30
0.0
 10
418.7953751156
 20
1802.7881469706
 30
0.0
 10
469.5400779869
 20
1820.3721875024
 30
0.0
  0
SPLINE
  5
31C
100
AcDbEntity
  8
0
100
AcDbSpline
 62
7
  6
CONTINUOUS
 70
0
 71
3
 72
8
 73
4
 74
0
 42
0.0000001
 43
0.0000001
 44
0.0000000001
 40
0.0
 40
0.0
 40
0.0
 40
0.0
 40
1.0
 40
1.0
 40
1.0
 40
1.0
 10
469.5400779869
 20
1820.3721875024
 30
0.0
 10
469.8876970133
 20
1820.5068283386
 30
0.0
 10
470.3349227233
 20
1820.5411098521
 30
0.0
 10
470.6583047814
 20
1820.3556612422
 30
0.0
  0
SPLINE
  5
31D
100
AcDbEntity
  8
0
100
AcDbSpline
 62
7
  6
CONTINUOUS
 70
0
 71
3
 72
8
 73
4
 74
0
 42
0.0000001
 43
0.0000001
 44
0.0000000001
 40
0.0
 40
0.0
 40
0.0
 40
0.0
 40
1.0
 40
1.0
 40
1.0
 40
1.0
 10
1083.8027249949
 20
619.3734017119
 30
0.0
 10
1083.038191766
 20
619.090540812
 30
0.0
 10
1082.0781091278
 20
619.114696553
 30
0.0
 10
1081.3605364311
 20
619.5014920697
 30
0.0
  0
SPLINE
  5
31E
100
AcDbEntity
  8
0
100
AcDbSpline
 62
7
  6
CONTINUOUS
 70
0
 71
3
 72
8
 73
4
 74
0
 42
0.0000001
 43
0.0000001
 44
0.0000000001
 40
0.0
 40
0.0
 40
0.0
 40
0.0
 40
1.0
 40
1.0
 40
1.0
 40
1.0
 10
1083.8027249949
 20
415.2477974295
 30
0.0
 10
1083.038191766
 20
414.9649365296
 30
0.0
 10
1082.0781091278
 20
414.9890922707
 30
0.0
 10
1081.3605364311
 20
415.3758877874
 30
0.0
  0
SPLINE
  5
31F
100
AcDbEntity
  8
0
100
AcDbSpline
 62
7
  6
CONTINUOUS
 70
0
 71
3
 72
8
 73
4
 74
0
 42
0.0000001
 43
0.0000001
 44
0.0000000001
 40
0.0
 40
0.0
 40
0.0
 40
0.0
 40
1.0
 40
1.0
 40
1.0
 40
1.0
 10
1081.3605364311
 20
394.2284751837
 30
0.0
 10
1082.0781091278
 20
393.841679667
 30
0.0
 10
1083.038191766
 20
393.8175239259
 30
0.0
 10
1083.8027249949
 20
394.1003848259
 30
0.0
  0
SPLINE
  5
320
100
AcDbEntity
  8
0
100
AcDbSpline
 62
7
  6
CONTINUOUS
 70
0
 71
3
 72
8
 73
4
 74
0
 42
0.0000001
 43
0.0000001
 44
0.0000000001
 40
0.0
 40
0.0
 40
0.0
 40
0.0
 40
1.0
 40
1.0
 40
1.0
 40
1.0
 10
1081.3605364311
 20
598.3540794661
 30
0.0
 10
1082.0781091278
 20
597.9672839494
 30
0.0
 10
1083.038191766
 20
597.9431282083
 30
0.0
 10
1083.8027249949
 20
598.2259891083
 30
0.0
  0
SPLINE
  5
321
100
AcDbEntity
  8
0
100
AcDbSpline
 62
7
  6
CONTINUOUS
 70
0
 71
3
 72
8
 73
4
 74
0
 42
0.0000001
 43
0.0000001
 44
0.0000000001
 40
0.0
 40
0.0
 40
0.0
 40
0.0
 40
1.0
 40
1.0
 40
1.0
 40
1.0
 10
1081.3605364311
 20
843.304804605
 30
0.0
 10
1082.0781091278
 20
842.9180090883
 30
0.0
 10
1083.038191766
 20
842.8938533472
 30
0.0
 10
1083.8027249949
 20
843.1767142471
 30
0.0
  0
SPLINE
  5
322
100
AcDbEntity
  8
0
100
AcDbSpline
 62
7
  6
CONTINUOUS
 70
0
 71
3
 72
8
 73
4
 74
0
 42
0.0000001
 43
0.0000001
 44
0.0000000001
 40
0.0
 40
0.0
 40
0.0
 40
0.0
 40
1.0
 40
1.0
 40
1.0
 40
1.0
 10
1081.3605364311
 20
1047.4304088874
 30
0.0
 10
1082.0781091278
 20
1047.0436133707
 30
0.0
 10
1083.038191766
 20
1047.0194576296
 30
0.0
 10
1083.8027249949
 20
1047.3023185295
 30
0.0
  0
SPLINE
  5
323
100
AcDbEntity
  8
0
100
AcDbSpline
 62
7
  6
CONTINUOUS
 70
0
 71
3
 72
8
 73
4
 74
0
 42
0.0000001
 43
0.0000001
 44
0.0000000001
 40
0.0
 40
0.0
 40
0.0
 40
0.0
 40
1.0
 40
1.0
 40
1.0
 40
1.0
 10
1061.0242414365
 20
1141.2549383246
 30
0.0
 10
1060.1108751716
 20
1140.4291272914
 30
0.0
 10
1059.4436717159
 20
1139.2084819134
 30
0.0
 10
1059.3059791121
 20
1137.9848632869
 30
0.0
  0
SPLINE
  5
324
100
AcDbEntity
  8
0
100
AcDbSpline
 62
7
  6
CONTINUOUS
 70
0
 71
3
 72
8
 73
4
 74
0
 42
0.0000001
 43
0.0000001
 44
0.0000000001
 40
0.0
 40
0.0
 40
0.0
 40
0.0
 40
1.0
 40
1.0
 40
1.0
 40
1.0
 10
1354.5440467689
 20
1310.0555341715
 30
0.0
 10
1354.2206645198
 20
1310.2409823002
 30
0.0
 10
1353.773439159
 20
1310.2067016432
 30
0.0
 10
1353.4258202012
 20
1310.0720608335
 30
0.0
  0
SPLINE
  5
325
100
AcDbEntity
  8
0
100
AcDbSpline
 62
7
  6
CONTINUOUS
 70
0
 71
3
 72
8
 73
4
 74
0
 42
0.0000001
 43
0.0000001
 44
0.0000000001
 40
0.0
 40
0.0
 40
0.0
 40
0.0
 40
1.0
 40
1.0
 40
1.0
 40
1.0
 10
1330.5819641825
 20
985.6539239483
 30
0.0
 10
1330.7548546762
 20
985.8096885791
 30
0.0
 10
1330.8978630762
 20
986.043757127
 30
0.0
 10
1330.8979138978
 20
986.2764666894
 30
0.0
  0
SPLINE
  5
326
100
AcDbEntity
  8
0
100
AcDbSpline
 62
7
  6
CONTINUOUS
 70
0
 71
3
 72
8
 73
4
 74
0
 42
0.0000001
 43
0.0000001
 44
0.0000000001
 40
0.0
 40
0.0
 40
0.0
 40
0.0
 40
1.0
 40
1.0
 40
1.0
 40
1.0
 10
1330.5819641825
 20
740.7031988094
 30
0.0
 10
1330.7548546762
 20
740.8589634402
 30
0.0
 10
1330.8978630762
 20
741.0930319881
 30
0.0
 10
1330.8979138978
 20
741.3257415505
 30
0.0
  0
SPLINE
  5
327
100
AcDbEntity
  8
0
100
AcDbSpline
 62
7
  6
CONTINUOUS
 70
0
 71
3
 72
8
 73
4
 74
0
 42
0.0000001
 43
0.0000001
 44
0.0000000001
 40
0.0
 40
0.0
 40
0.0
 40
0.0
 40
1.0
 40
1.0
 40
1.0
 40
1.0
 10
1330.5819641825
 20
1189.7795282307
 30
0.0
 10
1330.7548546762
 20
1189.9352928615
 30
0.0
 10
1330.8978630762
 20
1190.1693614094
 30
0.0
 10
1330.8979138978
 20
1190.4020709718
 30
0.0
  0
SPLINE
  5
328
100
AcDbEntity
  8
0
100
AcDbSpline
 62
7
  6
CONTINUOUS
 70
0
 71
3
 72
8
 73
4
 74
0
 42
0.0000001
 43
0.0000001
 44
0.0000000001
 40
0.0
 40
0.0
 40
0.0
 40
0.0
 40
1.0
 40
1.0
 40
1.0
 40
1.0
 10
1330.5819641825
 20
536.577594527
 30
0.0
 10
1330.7548546762
 20
536.7333591578
 30
0.0
 10
1330.8978630762
 20
536.9674277057
 30
0.0
 10
1330.8979138978
 20
537.2001372681
 30
0.0
  0
ENDSEC
  0
SECTION
  2
OBJECTS
  0
DICTIONARY
  5
C
100
AcDbDictionary
280
0
281
1
  3
ACAD_GROUP
350
D
  3
ACAD_MLINESTYLE
350
17
  3
ACAD_LAYOUT
350
1A
  3
ACAD_PLOTSETTINGS
350
19
  3
ACAD_PLOTSTYLENAME
350
E
  0
DICTIONARY
  5
D
102
{ACAD_REACTORS
330
C
102
}
100
AcDbDictionary
280
0
281
1
  0
ACDBDICTIONARYWDFLT
  5
E
102
{ACAD_REACTORS
330
C
102
}
100
AcDbDictionary
281
1
  3
Normal
350
F
100
AcDbDictionaryWithDefault
340
F
  0
DICTIONARY
  5
17
102
{ACAD_REACTORS
330
C
102
}
100
AcDbDictionary
280
0
281
1
  3
Standard
350
18
  0
DICTIONARY
  5
19
102
{ACAD_REACTORS
330
C
102
}
100
AcDbDictionary
281
1
  0
DICTIONARY
  5
1A
102
{ACAD_REACTORS
330
C
102
}
100
AcDbDictionary
281
1
  3
Model
350
329
  3
Layout1
350
32A
  0
ACDBPLACEHOLDER
  5
F
102
{ACAD_REACTORS
330
E
102
}
  0
MLINESTYLE
  5
18
102
{ACAD_REACTORS
330
17
102
}
100
AcDbMlineStyle
  2
STANDARD
 70
0
  3

 62
256
 51
90.0
 52
90.0
 71
2
 49
0.5
 62
256
  6
BYLAYER
 49
-0.5
 62
256
  6
BYLAYER
  0
LAYOUT
  5
329
102
{ACAD_REACTORS
330
1A
102
}
100
AcDbPlotSettings
  1

  2
none_device
  4

  6

 40
0.0
 41
0.0
 42
0.0
 43
0.0
 44
210.0
 45
297.0
 46
0.0
 47
0.0
 48
0.0
 49
0.0
140
0.0
141
0.0
142
1.0
143
1.0
 70
1024
 72
1
 73
0
 74
0
  7

 75
0
147
1.0
148
0.0
149
0.0
100
AcDbLayout
  1
Model
 70
0
 71
0
 10
0.0
 20
0.0
 11
210.0
 21
297.0
 12
0.0
 22
0.0
 32
0.0
 14
0.0
 24
0.0
 34
0.0
 15
0.0
 25
0.0
 35
0.0
146
0.0
 13
0.0
 23
0.0
 33
0.0
 16
1.0
 26
0.0
 36
0.0
 17
0.0
 27
1.0
 37
0.0
 76
0
330
210
345
0
346
0
  0
LAYOUT
  5
32A
102
{ACAD_REACTORS
330
1A
102
}
100
AcDbPlotSettings
  1

  2
none_device
  4

  6

 40
0.0
 41
0.0
 42
0.0
 43
0.0
 44
210.0
 45
297.0
 46
0.0
 47
0.0
 48
0.0
 49
0.0
140
0.0
141
0.0
142
1.0
143
1.0
 70
0
 72
1
 73
0
 74
0
  7

 75
0
147
1.0
148
0.0
149
0.0
100
AcDbLayout
  1
Layout1
 70
0
 71
1
 10
0.0
 20
0.0
 11
210.0
 21
297.0
 12
0.0
 22
0.0
 32
0.0
 14
0.0
 24
0.0
 34
0.0
 15
0.0
 25
0.0
 35
0.0
146
0.0
 13
0.0
 23
0.0
 33
0.0
 16
1.0
 26
0.0
 36
0.0
 17
0.0
 27
1.0
 37
0.0
 76
0
330
211
345
0
346
0
  0
ENDSEC
  0
EOF
