999
DXF file: C:\Users\sesa63760\Dev\_Creo\CAD\MCADUE0001430_3D-CAD\drw0001_4.dxf
999
Pro/ENGINEER 2019471 by Parametric Technology Corporation
  0
SECTION
  2
HEADER
  9
$ACADVER
  1
AC1024
  9
$DWGCODEPAGE
  3
ANSI_1252
  9
$EXTMAX
 10
1244.9943109557
 20
1760.7776683516
 30
0.0
  9
$EXTMIN
 10
0.0
 20
0.0
 30
0.0
  9
$LIMMIN
 10
0.0
 20
0.0
  9
$LIMMAX
 10
1244.9943109557
 20
1760.7776683516
  9
$VIEWCTR
 10
622.4971554779
 20
880.3888341758
  9
$VIEWSIZE
 40
1760.7776683516
  9
$CLAYER
  8
0
  9
$LTSCALE
 40
114.7766183814
  9
$CELTYPE
  6
BYLAYER
  9
$DIMSCALE
 40
1.0
  9
$DIMASZ
 40
14.8213608447
  9
$DIMEXO
 40
1.0
  9
$DIMDLI
 40
79.3002090635
  9
$DIMEXE
 40
1.0
  9
$DIMCEN
 40
18.7816284624
  9
$DIMLFAC
 40
1.0
  9
$DIMBLK
  1
_FILLED
  9
$DIMALT
 70
0
  9
$DIMALTF
 40
0.0393700787
  9
$DIMTXT
 40
20.7499051826
  9
$DIMTOL
 70
1
  9
$DIMLIM
 70
0
  9
$DIMTFAC
 40
1.0
  9
$DIMTP
 40
0.01
  9
$DIMTM
 40
0.01
  9
$DIMGAP
 40
0.625
  9
$DIMDSEP
 70
46
  9
$AUNITS
 70
0
  9
$PDMODE
 70
3
  9
$PDSIZE
 40
0.3125
  9
$HANDSEED
  5
2CF
  9
$TILEMODE
 70
1
  9
$MEASUREMENT
 70
1
  9
$INSUNITS
 70
4
  0
ENDSEC
  0
SECTION
  2
CLASSES
  0
CLASS
  1
ACDBDICTIONARYWDFLT
  2
AcDbDictionaryWithDefault
  3
AutoCAD 2000
 90
0
 91
1
280
0
281
0
  0
CLASS
  1
ACDBPLACEHOLDER
  2
AcDbPlaceHolder
  3
AutoCAD 2000
 90
0
 91
1
280
0
281
0
  0
CLASS
  1
LAYOUT
  2
AcDbLayout
  3
AutoCAD 2000
 90
0
 91
0
280
0
281
0
  0
ENDSEC
  0
SECTION
  2
TABLES
  0
TABLE
  2
VPORT
  5
8
100
AcDbSymbolTable
 70
2
  0
VPORT
  5
1F4
100
AcDbSymbolTableRecord
100
AcDbViewportTableRecord
  2
*ACTIVE
 70
0
 10
0.0
 20
0.0
 11
1.0
 21
1.0
 12
622.4971554779
 22
880.3888341758
 13
0.0
 23
0.0
 14
1.0
 24
1.0
 15
0.0
 25
0.0
 16
0.0
 26
0.0
 36
1.0
 17
0.0
 27
0.0
 37
0.0
 40
1760.7776683516
 41
0.7070707071
 42
50.0
 43
0.0
 44
0.0
 50
0.0
 51
0.0
 71
0
 72
100
 73
1
 74
1
 75
0
 76
0
 77
0
 78
0
  0
ENDTAB
  0
TABLE
  2
LTYPE
  5
5
100
AcDbSymbolTable
 70
6
  0
LTYPE
  5
14
100
AcDbSymbolTableRecord
100
AcDbLinetypeTableRecord
  2
BYBLOCK
 70
0
  3

 72
65
 73
0
 40
0.0
  0
LTYPE
  5
15
100
AcDbSymbolTableRecord
100
AcDbLinetypeTableRecord
  2
BYLAYER
 70
0
  3

 72
65
 73
0
 40
0.0
  0
LTYPE
  5
16
100
AcDbSymbolTableRecord
100
AcDbLinetypeTableRecord
  2
CONTINUOUS
 70
64
  3
Solid line
 72
65
 73
0
 40
0.0
  0
LTYPE
  5
1F5
100
AcDbSymbolTableRecord
100
AcDbLinetypeTableRecord
  2
CENTER
 70
64
  3
____ _ ____ _ ____ _ ____ _ ____ _ ____ _ ____
 72
65
 73
4
 40
0.6
 49
0.375
 74
0
 49
-0.075
 74
0
 49
0.075
 74
0
 49
-0.075
 74
0
  0
LTYPE
  5
1F6
100
AcDbSymbolTableRecord
100
AcDbLinetypeTableRecord
  2
HIDDEN
 70
64
  3
- - - - - - - - - - - - - - - - - - - -
 72
65
 73
2
 40
0.2
 49
0.1
 74
0
 49
-0.1
 74
0
  0
LTYPE
  5
1F7
100
AcDbSymbolTableRecord
100
AcDbLinetypeTableRecord
  2
PHANTOM
 70
64
  3
_____ _ _ _____ _ _ _____ _ _ _____
 72
65
 73
6
 40
0.8
 49
0.45
 74
0
 49
-0.05
 74
0
 49
0.1
 74
0
 49
-0.05
 74
0
 49
0.1
 74
0
 49
-0.05
 74
0
  0
LTYPE
  5
1F8
100
AcDbSymbolTableRecord
100
AcDbLinetypeTableRecord
  2
DOT
 70
64
  3
. . . . . . . . . . . . . . . . . . . .
 72
65
 73
2
 40
0.2
 49
0.1
 74
0
 49
-0.1
 74
0
  0
LTYPE
  5
1F9
100
AcDbSymbolTableRecord
100
AcDbLinetypeTableRecord
  2
DASHED
 70
64
  3
- - - - - - - - - - - - - - - - - - - -
 72
65
 73
2
 40
0.2
 49
0.1
 74
0
 49
-0.1
 74
0
  0
ENDTAB
  0
TABLE
  2
LAYER
  5
2
100
AcDbSymbolTable
 70
36
  0
LAYER
  5
10
100
AcDbSymbolTableRecord
100
AcDbLayerTableRecord
  2
0
 70
0
 62
7
  6
CONTINUOUS
370
-3
390
F
  0
LAYER
  5
1FA
100
AcDbSymbolTableRecord
100
AcDbLayerTableRecord
  2
DEFAULT_1
 70
0
 62
7
  6
CENTER
370
-3
390
F
  0
LAYER
  5
1FB
100
AcDbSymbolTableRecord
100
AcDbLayerTableRecord
  2
DEFAULT_2
 70
0
 62
8
  6
HIDDEN
370
-3
390
F
  0
LAYER
  5
1FC
100
AcDbSymbolTableRecord
100
AcDbLayerTableRecord
  2
DEFAULT_3
 70
0
 62
7
  6
PHANTOM
370
-3
390
F
  0
LAYER
  5
1FD
100
AcDbSymbolTableRecord
100
AcDbLayerTableRecord
  2
00_COMPONENTS
 70
0
 62
7
  6
CONTINUOUS
370
-3
390
F
  0
LAYER
  5
1FE
100
AcDbSymbolTableRecord
100
AcDbLayerTableRecord
  2
01_1_DEFAULT_DATUMS
 70
0
 62
7
  6
CONTINUOUS
370
-3
390
F
  0
LAYER
  5
1FF
100
AcDbSymbolTableRecord
100
AcDbLayerTableRecord
  2
01_PLANES
 70
0
 62
7
  6
CONTINUOUS
370
-3
390
F
  0
LAYER
  5
200
100
AcDbSymbolTableRecord
100
AcDbLayerTableRecord
  2
02_COORD_SYS
 70
0
 62
7
  6
CONTINUOUS
370
-3
390
F
  0
LAYER
  5
201
100
AcDbSymbolTableRecord
100
AcDbLayerTableRecord
  2
03_AXES
 70
0
 62
7
  6
CONTINUOUS
370
-3
390
F
  0
LAYER
  5
202
100
AcDbSymbolTableRecord
100
AcDbLayerTableRecord
  2
04_POINTS
 70
0
 62
7
  6
CONTINUOUS
370
-3
390
F
  0
LAYER
  5
203
100
AcDbSymbolTableRecord
100
AcDbLayerTableRecord
  2
05_CURVES
 70
0
 62
7
  6
CONTINUOUS
370
-3
390
F
  0
LAYER
  5
204
100
AcDbSymbolTableRecord
100
AcDbLayerTableRecord
  2
06_SURFS
 70
0
 62
7
  6
CONTINUOUS
370
-3
390
F
  0
LAYER
  5
205
100
AcDbSymbolTableRecord
100
AcDbLayerTableRecord
  2
07_COSMETICS
 70
0
 62
7
  6
CONTINUOUS
370
-3
390
F
  0
LAYER
  5
206
100
AcDbSymbolTableRecord
100
AcDbLayerTableRecord
  2
10_NOTES
 70
0
 62
7
  6
CONTINUOUS
370
-3
390
F
  0
LAYER
  5
207
100
AcDbSymbolTableRecord
100
AcDbLayerTableRecord
  2
11_NOTES_PUB
 70
0
 62
7
  6
CONTINUOUS
370
-3
390
F
  0
LAYER
  5
208
100
AcDbSymbolTableRecord
100
AcDbLayerTableRecord
  2
13_REF_GTOL
 70
0
 62
7
  6
CONTINUOUS
370
-3
390
F
  0
LAYER
  5
209
100
AcDbSymbolTableRecord
100
AcDbLayerTableRecord
  2
16_MISC
 70
0
 62
7
  6
CONTINUOUS
370
-3
390
F
  0
LAYER
  5
20A
100
AcDbSymbolTableRecord
100
AcDbLayerTableRecord
  2
17_NO_PRINT
 70
0
 62
7
  6
CONTINUOUS
370
-3
390
F
  0
LAYER
  5
20B
100
AcDbSymbolTableRecord
100
AcDbLayerTableRecord
  2
18_DATUM_CAMS_JOINTS
 70
0
 62
7
  6
CONTINUOUS
370
-3
390
F
  0
LAYER
  5
20C
100
AcDbSymbolTableRecord
100
AcDbLayerTableRecord
  2
19_DATUM_FUNCTIONAL
 70
0
 62
7
  6
CONTINUOUS
370
-3
390
F
  0
LAYER
  5
20D
100
AcDbSymbolTableRecord
100
AcDbLayerTableRecord
  2
20_DATUM_KINEMATIC_SCHEME
 70
0
 62
7
  6
CONTINUOUS
370
-3
390
F
  0
ENDTAB
  0
TABLE
  2
STYLE
  5
3
100
AcDbSymbolTable
 70
1
  0
STYLE
  5
11
100
AcDbSymbolTableRecord
100
AcDbTextStyleTableRecord
  2
STANDARD
 70
0
 40
0.0
 41
0.8
 50
0.0
 71
0
 42
0.2
  3
txt
  4

  0
STYLE
  5
20E
100
AcDbSymbolTableRecord
100
AcDbTextStyleTableRecord
  2
TEXTSTYLE_1
 70
0
 40
0.0
 41
0.8
 50
0.0
 71
0
 42
0.2
  3
gdt
  4

  0
ENDTAB
  0
TABLE
  2
VIEW
  5
6
100
AcDbSymbolTable
 70
0
  0
ENDTAB
  0
TABLE
  2
UCS
  5
7
100
AcDbSymbolTable
 70
0
  0
ENDTAB
  0
TABLE
  2
APPID
  5
9
100
AcDbSymbolTable
 70
1
  0
APPID
  5
20F
100
AcDbSymbolTableRecord
100
AcDbRegAppTableRecord
  2
ACAD
 70
0
  0
ENDTAB
  0
TABLE
  2
BLOCK_RECORD
  5
1
100
AcDbSymbolTable
 70
0
  0
BLOCK_RECORD
  5
210
100
AcDbSymbolTableRecord
100
AcDbBlockTableRecord
  2
*Model_Space
  0
BLOCK_RECORD
  5
211
100
AcDbSymbolTableRecord
100
AcDbBlockTableRecord
  2
*Paper_Space
  0
BLOCK_RECORD
  5
212
100
AcDbSymbolTableRecord
100
AcDbBlockTableRecord
  2
_FILLED
  0
ENDTAB
  0
TABLE
  2
DIMSTYLE
  5
A
100
AcDbSymbolTable
 70
1
100
AcDbDimStyleTable
 71
0
  0
DIMSTYLE
105
213
100
AcDbSymbolTableRecord
100
AcDbDimStyleTableRecord
  2
STANDARD
 70
0
  3

  4

 40
1.0
 41
14.8213608447
 42
1.0
 43
0.38
 44
1.0
 45
0.0
 46
0.0
 47
0.01
 48
0.01
140
20.7499051826
141
0.09
142
0.0
143
25.4
144
1.0
145
0.0
146
1.0
147
0.625
 71
1
 72
0
 73
0
 74
0
 75
0
 76
0
 77
1
 78
8
 79
2
170
0
171
1
172
0
173
0
174
0
175
0
176
0
177
0
178
0
270
2
179
2
271
2
272
2
273
2
274
2
275
0
280
0
281
0
282
0
283
1
284
8
285
0
286
0
287
3
288
0
340
11
278
46
341
212
342
212
343
212
344
212
  0
ENDTAB
  0
ENDSEC
  0
SECTION
  2
BLOCKS
  0
BLOCK
  5
20
100
AcDbEntity
  8
0
100
AcDbBlockBegin
  2
*Model_Space
 70
0
 10
0.0
 20
0.0
 30
0.0
  3
*Model_Space
  1

  0
ENDBLK
  5
21
100
AcDbEntity
  8
0
100
AcDbBlockEnd
  0
BLOCK
  5
1C
100
AcDbEntity
  8
0
100
AcDbBlockBegin
  2
*Paper_Space
 70
0
 10
0.0
 20
0.0
 30
0.0
  3
*Paper_Space
  1

  0
ENDBLK
  5
1D
100
AcDbEntity
  8
0
100
AcDbBlockEnd
  0
BLOCK
  5
214
100
AcDbEntity
  8
0
100
AcDbBlockBegin
  2
_FILLED
 70
64
 10
0.0
 20
0.0
  3
_FILLED
  1

  0
SOLID
  5
215
100
AcDbEntity
  8
0
  6
BYBLOCK
 62
0
100
AcDbTrace
 10
0.0
 20
0.0
 11
-1.0
 21
0.25
 12
-1.0
 22
-0.25
 13
-1.0
 23
-0.25
  0
ENDBLK
  5
216
100
AcDbEntity
  8
0
  6
BYBLOCK
 62
0
100
AcDbBlockEnd
  0
ENDSEC
  0
SECTION
  2
ENTITIES
  0
LINE
  5
217
100
AcDbEntity
  8
0
100
AcDbLine
 62
7
  6
CONTINUOUS
 10
138.6614651628
 20
250.0008976142
 11
1138.6604651628
 21
250.0008976142
  0
LINE
  5
218
100
AcDbEntity
  8
0
100
AcDbLine
 62
7
  6
CONTINUOUS
 10
1136.7304651628
 20
251.9408976142
 11
640.5904651628
 21
251.9408976142
  0
LINE
  5
219
100
AcDbEntity
  8
0
100
AcDbLine
 62
7
  6
CONTINUOUS
 10
636.7314651628
 20
251.9408976142
 11
140.5914651628
 21
251.9408976142
  0
LINE
  5
21A
100
AcDbEntity
  8
0
100
AcDbLine
 62
7
  6
CONTINUOUS
 10
1137.1614651628
 20
255.001401291
 11
640.1614651628
 21
255.001401291
  0
LINE
  5
21B
100
AcDbEntity
  8
0
100
AcDbLine
 62
7
  6
CONTINUOUS
 10
637.1614651628
 20
255.001401291
 11
140.1614651628
 21
255.001401291
  0
LINE
  5
21C
100
AcDbEntity
  8
0
100
AcDbLine
 62
7
  6
CONTINUOUS
 10
140.9476035347
 20
255.7811858984
 11
636.375326791
 21
255.7811858984
  0
LINE
  5
21D
100
AcDbEntity
  8
0
100
AcDbLine
 62
7
  6
CONTINUOUS
 10
640.9476035347
 20
255.7811858984
 11
1136.375326791
 21
255.7811858984
  0
LINE
  5
21E
100
AcDbEntity
  8
0
100
AcDbLine
 62
7
  6
CONTINUOUS
 10
1135.8354405388
 20
259.5692817365
 11
641.4874897868
 21
259.5692817365
  0
LINE
  5
21F
100
AcDbEntity
  8
0
100
AcDbLine
 62
7
  6
CONTINUOUS
 10
635.8354405388
 20
259.5692817365
 11
141.4874897868
 21
259.5692817365
  0
LINE
  5
220
100
AcDbEntity
  8
0
100
AcDbLine
 62
7
  6
CONTINUOUS
 10
640.1614651628
 20
286.1593756038
 11
637.1614651628
 21
286.1593756038
  0
LINE
  5
221
100
AcDbEntity
  8
0
100
AcDbLine
 62
7
  6
CONTINUOUS
 10
637.1614651628
 20
288.2348976142
 11
640.1614651628
 21
288.2348976142
  0
LINE
  5
222
100
AcDbEntity
  8
0
100
AcDbLine
 62
7
  6
CONTINUOUS
 10
1081.4114651628
 20
298.9603950967
 11
695.9114651628
 21
298.9603950967
  0
LINE
  5
223
100
AcDbEntity
  8
0
100
AcDbLine
 62
7
  6
CONTINUOUS
 10
581.4114651628
 20
298.9603950967
 11
195.9114651628
 21
298.9603950967
  0
LINE
  5
224
100
AcDbEntity
  8
0
100
AcDbLine
 62
7
  6
CONTINUOUS
 10
1132.3061416087
 20
299.991401291
 11
1081.4114651628
 21
299.991401291
  0
LINE
  5
225
100
AcDbEntity
  8
0
100
AcDbLine
 62
7
  6
CONTINUOUS
 10
695.9114651628
 20
299.991401291
 11
645.0167887148
 21
299.991401291
  0
LINE
  5
226
100
AcDbEntity
  8
0
100
AcDbLine
 62
7
  6
CONTINUOUS
 10
632.3061416087
 20
299.991401291
 11
581.4114651628
 21
299.991401291
  0
LINE
  5
227
100
AcDbEntity
  8
0
100
AcDbLine
 62
7
  6
CONTINUOUS
 10
195.9114651628
 20
299.991401291
 11
145.0167887148
 21
299.991401291
  0
LINE
  5
228
100
AcDbEntity
  8
0
100
AcDbLine
 62
7
  6
CONTINUOUS
 10
640.1614651628
 20
325.1069755814
 11
637.1614651628
 21
325.1069755814
  0
LINE
  5
229
100
AcDbEntity
  8
0
100
AcDbLine
 62
7
  6
CONTINUOUS
 10
138.7076902803
 20
337.0508976142
 11
140.1614651628
 21
337.0508976142
  0
LINE
  5
22A
100
AcDbEntity
  8
0
100
AcDbLine
 62
7
  6
CONTINUOUS
 10
1137.1614651628
 20
337.0508976142
 11
1138.6142400454
 21
337.0508976142
  0
LINE
  5
22B
100
AcDbEntity
  8
0
100
AcDbLine
 62
7
  6
CONTINUOUS
 10
138.7076902803
 20
337.0508976142
 11
138.6845777216
 21
342.0008976142
  0
LINE
  5
22C
100
AcDbEntity
  8
0
100
AcDbLine
 62
7
  6
CONTINUOUS
 10
138.7076902803
 20
712.0508976142
 11
138.6845777216
 21
717.0008976142
  0
LINE
  5
22D
100
AcDbEntity
  8
0
100
AcDbLine
 62
7
  6
CONTINUOUS
 10
138.7076902803
 20
1012.0508976142
 11
138.6845777216
 21
1017.0008976142
  0
LINE
  5
22E
100
AcDbEntity
  8
0
100
AcDbLine
 62
7
  6
CONTINUOUS
 10
138.7076902803
 20
1387.0508976142
 11
138.6845777216
 21
1392.0008976142
  0
LINE
  5
22F
100
AcDbEntity
  8
0
100
AcDbLine
 62
7
  6
CONTINUOUS
 10
138.6614651628
 20
1500.0008976142
 11
138.6614651628
 21
1408.0008976142
  0
LINE
  5
230
100
AcDbEntity
  8
0
100
AcDbLine
 62
7
  6
CONTINUOUS
 10
138.6614651628
 20
1392.0008976142
 11
138.6614651628
 21
1033.0008976142
  0
LINE
  5
231
100
AcDbEntity
  8
0
100
AcDbLine
 62
7
  6
CONTINUOUS
 10
138.6614651628
 20
1017.0008976142
 11
138.6614651628
 21
733.0008976142
  0
LINE
  5
232
100
AcDbEntity
  8
0
100
AcDbLine
 62
7
  6
CONTINUOUS
 10
138.6614651628
 20
717.0008976142
 11
138.6614651628
 21
358.0008976142
  0
LINE
  5
233
100
AcDbEntity
  8
0
100
AcDbLine
 62
7
  6
CONTINUOUS
 10
138.6614651628
 20
342.0008976142
 11
138.6614651628
 21
250.0008976142
  0
LINE
  5
234
100
AcDbEntity
  8
0
100
AcDbLine
 62
7
  6
CONTINUOUS
 10
138.6845777216
 20
1408.0008976142
 11
138.6845777216
 21
1392.0008976142
  0
LINE
  5
235
100
AcDbEntity
  8
0
100
AcDbLine
 62
7
  6
CONTINUOUS
 10
138.6845777216
 20
1033.0008976142
 11
138.6845777216
 21
1017.0008976142
  0
LINE
  5
236
100
AcDbEntity
  8
0
100
AcDbLine
 62
7
  6
CONTINUOUS
 10
138.6845777216
 20
733.0008976142
 11
138.6845777216
 21
717.0008976142
  0
LINE
  5
237
100
AcDbEntity
  8
0
100
AcDbLine
 62
7
  6
CONTINUOUS
 10
138.6845777216
 20
358.0008976142
 11
138.6845777216
 21
342.0008976142
  0
LINE
  5
238
100
AcDbEntity
  8
0
100
AcDbLine
 62
7
  6
CONTINUOUS
 10
140.1614651628
 20
255.001401291
 11
140.1614651628
 21
1495.001401291
  0
LINE
  5
239
100
AcDbEntity
  8
0
100
AcDbLine
 62
7
  6
CONTINUOUS
 10
140.5914651628
 20
251.9408976142
 11
140.5914651628
 21
255.001401291
  0
LINE
  5
23A
100
AcDbEntity
  8
0
100
AcDbLine
 62
7
  6
CONTINUOUS
 10
140.5914651628
 20
1495.001401291
 11
140.5914651628
 21
1498.0608976142
  0
LINE
  5
23B
100
AcDbEntity
  8
0
100
AcDbLine
 62
7
  6
CONTINUOUS
 10
141.0214651628
 20
1493.5180548017
 11
141.0214651628
 21
256.4747500679
  0
LINE
  5
23C
100
AcDbEntity
  8
0
100
AcDbLine
 62
7
  6
CONTINUOUS
 10
145.0123410615
 20
299.991401291
 11
145.0123410615
 21
1450.001401291
  0
LINE
  5
23D
100
AcDbEntity
  8
0
100
AcDbLine
 62
7
  6
CONTINUOUS
 10
138.6845777216
 20
1408.0008976142
 11
138.7076902803
 21
1412.9508976142
  0
LINE
  5
23E
100
AcDbEntity
  8
0
100
AcDbLine
 62
7
  6
CONTINUOUS
 10
138.6845777216
 20
1033.0008976142
 11
138.7076902803
 21
1037.9508976142
  0
LINE
  5
23F
100
AcDbEntity
  8
0
100
AcDbLine
 62
7
  6
CONTINUOUS
 10
138.6845777216
 20
733.0008976142
 11
138.7076902803
 21
737.9508976142
  0
LINE
  5
240
100
AcDbEntity
  8
0
100
AcDbLine
 62
7
  6
CONTINUOUS
 10
138.6845777216
 20
358.0008976142
 11
138.7076902803
 21
362.9508976142
  0
LINE
  5
241
100
AcDbEntity
  8
0
100
AcDbLine
 62
7
  6
CONTINUOUS
 10
1138.6142400454
 20
362.9508976142
 11
1137.1614651628
 21
362.9508976142
  0
LINE
  5
242
100
AcDbEntity
  8
0
100
AcDbLine
 62
7
  6
CONTINUOUS
 10
140.1614651628
 20
362.9508976142
 11
138.7076902803
 21
362.9508976142
  0
LINE
  5
243
100
AcDbEntity
  8
0
100
AcDbLine
 62
7
  6
CONTINUOUS
 10
195.9114651628
 20
1451.0427793346
 11
195.9114651628
 21
1450.001401291
  0
LINE
  5
244
100
AcDbEntity
  8
0
100
AcDbLine
 62
7
  6
CONTINUOUS
 10
195.9114651628
 20
299.991401291
 11
195.9114651628
 21
298.9590158937
  0
LINE
  5
245
100
AcDbEntity
  8
0
100
AcDbLine
 62
7
  6
CONTINUOUS
 10
636.3752649416
 20
1494.211557309
 11
637.1614651628
 21
1495.001401291
  0
LINE
  5
246
100
AcDbEntity
  8
0
100
AcDbLine
 62
7
  6
CONTINUOUS
 10
633.6689942632
 20
1495.001401291
 11
636.7314651629
 21
1498.0608976142
  0
LINE
  5
247
100
AcDbEntity
  8
0
100
AcDbLine
 62
7
  6
CONTINUOUS
 10
637.1614651628
 20
255.001401291
 11
636.375326791
 21
255.7811858984
  0
LINE
  5
248
100
AcDbEntity
  8
0
100
AcDbLine
 62
7
  6
CONTINUOUS
 10
636.7314651628
 20
251.9408976142
 11
633.6679192358
 21
255.001401291
  0
LINE
  5
249
100
AcDbEntity
  8
0
100
AcDbLine
 62
7
  6
CONTINUOUS
 10
138.7076902803
 20
712.0508976142
 11
140.1614651628
 21
712.0508976142
  0
LINE
  5
24A
100
AcDbEntity
  8
0
100
AcDbLine
 62
7
  6
CONTINUOUS
 10
1137.1614651628
 20
712.0508976142
 11
1138.6142400454
 21
712.0508976142
  0
LINE
  5
24B
100
AcDbEntity
  8
0
100
AcDbLine
 62
7
  6
CONTINUOUS
 10
1138.6142400454
 20
737.9508976142
 11
1137.1614651628
 21
737.9508976142
  0
LINE
  5
24C
100
AcDbEntity
  8
0
100
AcDbLine
 62
7
  6
CONTINUOUS
 10
140.1614651628
 20
737.9508976142
 11
138.7076902803
 21
737.9508976142
  0
LINE
  5
24D
100
AcDbEntity
  8
0
100
AcDbLine
 62
7
  6
CONTINUOUS
 10
676.1614651628
 20
745.0408976142
 11
644.1614651628
 21
745.0408976142
  0
LINE
  5
24E
100
AcDbEntity
  8
0
100
AcDbLine
 62
7
  6
CONTINUOUS
 10
633.1614651628
 20
745.0408976142
 11
601.1614651628
 21
745.0408976142
  0
LINE
  5
24F
100
AcDbEntity
  8
0
100
AcDbLine
 62
7
  6
CONTINUOUS
 10
601.1614651628
 20
745.4608976142
 11
633.1614651628
 21
745.4608976142
  0
LINE
  5
250
100
AcDbEntity
  8
0
100
AcDbLine
 62
7
  6
CONTINUOUS
 10
644.1614651628
 20
745.4608976142
 11
676.1614651628
 21
745.4608976142
  0
LINE
  5
251
100
AcDbEntity
  8
0
100
AcDbLine
 62
7
  6
CONTINUOUS
 10
676.1614651628
 20
749.2808976142
 11
644.1614651628
 21
749.2808976142
  0
LINE
  5
252
100
AcDbEntity
  8
0
100
AcDbLine
 62
7
  6
CONTINUOUS
 10
633.1614651628
 20
749.2808976142
 11
601.1614651628
 21
749.2808976142
  0
LINE
  5
253
100
AcDbEntity
  8
0
100
AcDbLine
 62
7
  6
CONTINUOUS
 10
581.4114651628
 20
1451.041387892
 11
581.4114651628
 21
1450.001401291
  0
LINE
  5
254
100
AcDbEntity
  8
0
100
AcDbLine
 62
7
  6
CONTINUOUS
 10
581.4114651628
 20
299.991401291
 11
581.4114651628
 21
298.9603950967
  0
LINE
  5
255
100
AcDbEntity
  8
0
100
AcDbLine
 62
7
  6
CONTINUOUS
 10
1136.3752649416
 20
1494.211557309
 11
1137.1614651628
 21
1495.001401291
  0
LINE
  5
256
100
AcDbEntity
  8
0
100
AcDbLine
 62
7
  6
CONTINUOUS
 10
1133.6679942632
 20
1495.001401291
 11
1136.7304651629
 21
1498.0608976142
  0
LINE
  5
257
100
AcDbEntity
  8
0
100
AcDbLine
 62
7
  6
CONTINUOUS
 10
1137.1614651628
 20
255.001401291
 11
1136.375326791
 21
255.7811858984
  0
LINE
  5
258
100
AcDbEntity
  8
0
100
AcDbLine
 62
7
  6
CONTINUOUS
 10
1136.7304651628
 20
251.9408976142
 11
1133.6669192358
 21
255.001401291
  0
LINE
  5
259
100
AcDbEntity
  8
0
100
AcDbLine
 62
7
  6
CONTINUOUS
 10
601.1614651628
 20
745.0408976142
 11
601.1614651628
 21
1004.9608976142
  0
LINE
  5
25A
100
AcDbEntity
  8
0
100
AcDbLine
 62
7
  6
CONTINUOUS
 10
632.3105892684
 20
1450.001401291
 11
632.3105892684
 21
1004.9608976142
  0
LINE
  5
25B
100
AcDbEntity
  8
0
100
AcDbLine
 62
7
  6
CONTINUOUS
 10
632.3105892684
 20
745.0408976142
 11
632.3105892684
 21
299.991401291
  0
LINE
  5
25C
100
AcDbEntity
  8
0
100
AcDbLine
 62
7
  6
CONTINUOUS
 10
633.1614651628
 20
1004.9608976142
 11
633.1614651628
 21
745.0408976142
  0
LINE
  5
25D
100
AcDbEntity
  8
0
100
AcDbLine
 62
7
  6
CONTINUOUS
 10
636.3014651628
 20
256.4747500679
 11
636.3014651628
 21
1493.5180548017
  0
LINE
  5
25E
100
AcDbEntity
  8
0
100
AcDbLine
 62
7
  6
CONTINUOUS
 10
636.7314651628
 20
1498.0608976141
 11
636.7314651628
 21
1495.001401291
  0
LINE
  5
25F
100
AcDbEntity
  8
0
100
AcDbLine
 62
7
  6
CONTINUOUS
 10
636.7314651628
 20
255.001401291
 11
636.7314651628
 21
251.9408976141
  0
LINE
  5
260
100
AcDbEntity
  8
0
100
AcDbLine
 62
7
  6
CONTINUOUS
 10
637.1614651628
 20
1495.001401291
 11
637.1614651628
 21
255.001401291
  0
LINE
  5
261
100
AcDbEntity
  8
0
100
AcDbLine
 62
7
  6
CONTINUOUS
 10
638.6608980776
 20
1499.9931734092
 11
638.6608980776
 21
1463.8424196245
  0
LINE
  5
262
100
AcDbEntity
  8
0
100
AcDbLine
 62
7
  6
CONTINUOUS
 10
638.6609651628
 20
286.1593756038
 11
638.6609651628
 21
250.0016875213
  0
LINE
  5
263
100
AcDbEntity
  8
0
100
AcDbLine
 62
7
  6
CONTINUOUS
 10
640.1614651628
 20
255.001401291
 11
640.1614651628
 21
1495.001401291
  0
LINE
  5
264
100
AcDbEntity
  8
0
100
AcDbLine
 62
7
  6
CONTINUOUS
 10
640.5904651628
 20
251.9408976142
 11
640.5904651628
 21
255.001401291
  0
LINE
  5
265
100
AcDbEntity
  8
0
100
AcDbLine
 62
7
  6
CONTINUOUS
 10
640.5904651628
 20
1495.001401291
 11
640.5904651628
 21
1498.0608976142
  0
LINE
  5
266
100
AcDbEntity
  8
0
100
AcDbLine
 62
7
  6
CONTINUOUS
 10
641.0214651628
 20
1493.5180548017
 11
641.0214651628
 21
256.4747500679
  0
LINE
  5
267
100
AcDbEntity
  8
0
100
AcDbLine
 62
7
  6
CONTINUOUS
 10
644.1614651628
 20
745.0408976142
 11
644.1614651628
 21
1004.9608976142
  0
LINE
  5
268
100
AcDbEntity
  8
0
100
AcDbLine
 62
7
  6
CONTINUOUS
 10
645.0123410615
 20
299.991401291
 11
645.0123410615
 21
745.0408976142
  0
LINE
  5
269
100
AcDbEntity
  8
0
100
AcDbLine
 62
7
  6
CONTINUOUS
 10
645.0123410615
 20
1004.9608976142
 11
645.0123410615
 21
1450.001401291
  0
LINE
  5
26A
100
AcDbEntity
  8
0
100
AcDbLine
 62
7
  6
CONTINUOUS
 10
676.1614651628
 20
1004.9608976142
 11
676.1614651628
 21
745.0408976142
  0
LINE
  5
26B
100
AcDbEntity
  8
0
100
AcDbLine
 62
7
  6
CONTINUOUS
 10
695.9114651628
 20
1451.0427793346
 11
695.9114651628
 21
1450.001401291
  0
LINE
  5
26C
100
AcDbEntity
  8
0
100
AcDbLine
 62
7
  6
CONTINUOUS
 10
695.9114651628
 20
299.991401291
 11
695.9114651628
 21
298.9590158937
  0
LINE
  5
26D
100
AcDbEntity
  8
0
100
AcDbLine
 62
7
  6
CONTINUOUS
 10
143.6549443956
 20
255.001401291
 11
140.5914651628
 21
251.9408976142
  0
LINE
  5
26E
100
AcDbEntity
  8
0
100
AcDbLine
 62
7
  6
CONTINUOUS
 10
140.9476035347
 20
255.7811858984
 11
140.1614651628
 21
255.001401291
  0
LINE
  5
26F
100
AcDbEntity
  8
0
100
AcDbLine
 62
7
  6
CONTINUOUS
 10
140.5914651629
 20
1498.0608976142
 11
143.6540027348
 21
1495.001401291
  0
LINE
  5
270
100
AcDbEntity
  8
0
100
AcDbLine
 62
7
  6
CONTINUOUS
 10
140.1614651628
 20
1495.001401291
 11
140.9476653841
 21
1494.211557309
  0
LINE
  5
271
100
AcDbEntity
  8
0
100
AcDbLine
 62
7
  6
CONTINUOUS
 10
676.1614651628
 20
1000.7308976142
 11
644.1614651628
 21
1000.7308976142
  0
LINE
  5
272
100
AcDbEntity
  8
0
100
AcDbLine
 62
7
  6
CONTINUOUS
 10
633.1614651628
 20
1000.7308976142
 11
601.1614651628
 21
1000.7308976142
  0
LINE
  5
273
100
AcDbEntity
  8
0
100
AcDbLine
 62
7
  6
CONTINUOUS
 10
676.1614651628
 20
1004.5408976142
 11
644.1614651628
 21
1004.5408976142
  0
LINE
  5
274
100
AcDbEntity
  8
0
100
AcDbLine
 62
7
  6
CONTINUOUS
 10
633.1614651628
 20
1004.5408976142
 11
601.1614651628
 21
1004.5408976142
  0
LINE
  5
275
100
AcDbEntity
  8
0
100
AcDbLine
 62
7
  6
CONTINUOUS
 10
676.1614651628
 20
1004.9608976142
 11
644.1614651628
 21
1004.9608976142
  0
LINE
  5
276
100
AcDbEntity
  8
0
100
AcDbLine
 62
7
  6
CONTINUOUS
 10
633.1614651628
 20
1004.9608976142
 11
601.1614651628
 21
1004.9608976142
  0
LINE
  5
277
100
AcDbEntity
  8
0
100
AcDbLine
 62
7
  6
CONTINUOUS
 10
138.7076902803
 20
1012.0508976142
 11
140.1614651628
 21
1012.0508976142
  0
LINE
  5
278
100
AcDbEntity
  8
0
100
AcDbLine
 62
7
  6
CONTINUOUS
 10
1137.1614651628
 20
1012.0508976142
 11
1138.6142400454
 21
1012.0508976142
  0
LINE
  5
279
100
AcDbEntity
  8
0
100
AcDbLine
 62
7
  6
CONTINUOUS
 10
1138.6142400454
 20
1037.9508976142
 11
1137.1614651628
 21
1037.9508976142
  0
LINE
  5
27A
100
AcDbEntity
  8
0
100
AcDbLine
 62
7
  6
CONTINUOUS
 10
140.1614651628
 20
1037.9508976142
 11
138.7076902803
 21
1037.9508976142
  0
LINE
  5
27B
100
AcDbEntity
  8
0
100
AcDbLine
 62
7
  6
CONTINUOUS
 10
1081.4114651628
 20
1451.041387892
 11
1081.4114651628
 21
1450.001401291
  0
LINE
  5
27C
100
AcDbEntity
  8
0
100
AcDbLine
 62
7
  6
CONTINUOUS
 10
1081.4114651628
 20
299.991401291
 11
1081.4114651628
 21
298.9603950967
  0
LINE
  5
27D
100
AcDbEntity
  8
0
100
AcDbLine
 62
7
  6
CONTINUOUS
 10
643.6539443956
 20
255.001401291
 11
640.5904651628
 21
251.9408976142
  0
LINE
  5
27E
100
AcDbEntity
  8
0
100
AcDbLine
 62
7
  6
CONTINUOUS
 10
640.9476035347
 20
255.7811858984
 11
640.1614651628
 21
255.001401291
  0
LINE
  5
27F
100
AcDbEntity
  8
0
100
AcDbLine
 62
7
  6
CONTINUOUS
 10
640.5904651629
 20
1498.0608976142
 11
643.6530027348
 21
1495.001401291
  0
LINE
  5
280
100
AcDbEntity
  8
0
100
AcDbLine
 62
7
  6
CONTINUOUS
 10
640.1614651628
 20
1495.001401291
 11
640.9476653841
 21
1494.211557309
  0
LINE
  5
281
100
AcDbEntity
  8
0
100
AcDbLine
 62
7
  6
CONTINUOUS
 10
1138.6142400454
 20
362.9508976142
 11
1138.6373526041
 21
358.0008976142
  0
LINE
  5
282
100
AcDbEntity
  8
0
100
AcDbLine
 62
7
  6
CONTINUOUS
 10
1138.6142400454
 20
737.9508976142
 11
1138.6373526041
 21
733.0008976142
  0
LINE
  5
283
100
AcDbEntity
  8
0
100
AcDbLine
 62
7
  6
CONTINUOUS
 10
1138.6142400454
 20
1037.9508976142
 11
1138.6373526041
 21
1033.0008976142
  0
LINE
  5
284
100
AcDbEntity
  8
0
100
AcDbLine
 62
7
  6
CONTINUOUS
 10
1138.6142400454
 20
1412.9508976142
 11
1138.6373526041
 21
1408.0008976142
  0
LINE
  5
285
100
AcDbEntity
  8
0
100
AcDbLine
 62
7
  6
CONTINUOUS
 10
1132.3105892684
 20
1450.001401291
 11
1132.3105892684
 21
299.991401291
  0
LINE
  5
286
100
AcDbEntity
  8
0
100
AcDbLine
 62
7
  6
CONTINUOUS
 10
1136.3014651628
 20
256.4747500679
 11
1136.3014651628
 21
1493.5180548017
  0
LINE
  5
287
100
AcDbEntity
  8
0
100
AcDbLine
 62
7
  6
CONTINUOUS
 10
1136.7304651628
 20
1498.0608976141
 11
1136.7304651628
 21
1495.001401291
  0
LINE
  5
288
100
AcDbEntity
  8
0
100
AcDbLine
 62
7
  6
CONTINUOUS
 10
1136.7304651628
 20
255.001401291
 11
1136.7304651628
 21
251.9408976141
  0
LINE
  5
289
100
AcDbEntity
  8
0
100
AcDbLine
 62
7
  6
CONTINUOUS
 10
1137.1614651628
 20
1495.001401291
 11
1137.1614651628
 21
255.001401291
  0
LINE
  5
28A
100
AcDbEntity
  8
0
100
AcDbLine
 62
7
  6
CONTINUOUS
 10
1138.6373526041
 20
342.0008976142
 11
1138.6373526041
 21
358.0008976142
  0
LINE
  5
28B
100
AcDbEntity
  8
0
100
AcDbLine
 62
7
  6
CONTINUOUS
 10
1138.6373526041
 20
717.0008976142
 11
1138.6373526041
 21
733.0008976142
  0
LINE
  5
28C
100
AcDbEntity
  8
0
100
AcDbLine
 62
7
  6
CONTINUOUS
 10
1138.6373526041
 20
1017.0008976142
 11
1138.6373526041
 21
1033.0008976142
  0
LINE
  5
28D
100
AcDbEntity
  8
0
100
AcDbLine
 62
7
  6
CONTINUOUS
 10
1138.6373526041
 20
1392.0008976142
 11
1138.6373526041
 21
1408.0008976142
  0
LINE
  5
28E
100
AcDbEntity
  8
0
100
AcDbLine
 62
7
  6
CONTINUOUS
 10
1138.6604651628
 20
250.0008976142
 11
1138.6604651628
 21
342.0008976142
  0
LINE
  5
28F
100
AcDbEntity
  8
0
100
AcDbLine
 62
7
  6
CONTINUOUS
 10
1138.6604651628
 20
358.0008976142
 11
1138.6604651628
 21
717.0008976142
  0
LINE
  5
290
100
AcDbEntity
  8
0
100
AcDbLine
 62
7
  6
CONTINUOUS
 10
1138.6604651628
 20
733.0008976142
 11
1138.6604651628
 21
1017.0008976142
  0
LINE
  5
291
100
AcDbEntity
  8
0
100
AcDbLine
 62
7
  6
CONTINUOUS
 10
1138.6604651628
 20
1033.0008976142
 11
1138.6604651628
 21
1392.0008976142
  0
LINE
  5
292
100
AcDbEntity
  8
0
100
AcDbLine
 62
7
  6
CONTINUOUS
 10
1138.6604651628
 20
1408.0008976142
 11
1138.6604651628
 21
1500.0008976142
  0
LINE
  5
293
100
AcDbEntity
  8
0
100
AcDbLine
 62
7
  6
CONTINUOUS
 10
1138.6373526041
 20
1392.0008976142
 11
1138.6142400454
 21
1387.0508976142
  0
LINE
  5
294
100
AcDbEntity
  8
0
100
AcDbLine
 62
7
  6
CONTINUOUS
 10
1138.6373526041
 20
1017.0008976142
 11
1138.6142400454
 21
1012.0508976142
  0
LINE
  5
295
100
AcDbEntity
  8
0
100
AcDbLine
 62
7
  6
CONTINUOUS
 10
1138.6373526041
 20
717.0008976142
 11
1138.6142400454
 21
712.0508976142
  0
LINE
  5
296
100
AcDbEntity
  8
0
100
AcDbLine
 62
7
  6
CONTINUOUS
 10
1138.6373526041
 20
342.0008976142
 11
1138.6142400454
 21
337.0508976142
  0
LINE
  5
297
100
AcDbEntity
  8
0
100
AcDbLine
 62
7
  6
CONTINUOUS
 10
138.7076902803
 20
1387.0508976142
 11
140.1614651628
 21
1387.0508976142
  0
LINE
  5
298
100
AcDbEntity
  8
0
100
AcDbLine
 62
7
  6
CONTINUOUS
 10
1137.1614651628
 20
1387.0508976142
 11
1138.6142400454
 21
1387.0508976142
  0
LINE
  5
299
100
AcDbEntity
  8
0
100
AcDbLine
 62
7
  6
CONTINUOUS
 10
1138.6142400454
 20
1412.9508976142
 11
1137.1614651628
 21
1412.9508976142
  0
LINE
  5
29A
100
AcDbEntity
  8
0
100
AcDbLine
 62
7
  6
CONTINUOUS
 10
140.1614651628
 20
1412.9508976142
 11
138.7076902803
 21
1412.9508976142
  0
LINE
  5
29B
100
AcDbEntity
  8
0
100
AcDbLine
 62
7
  6
CONTINUOUS
 10
637.1614651628
 20
1424.8948196469
 11
640.1614651628
 21
1424.8948196469
  0
LINE
  5
29C
100
AcDbEntity
  8
0
100
AcDbLine
 62
7
  6
CONTINUOUS
 10
1132.3105892684
 20
1450.001401291
 11
1081.4114651628
 21
1450.001401291
  0
LINE
  5
29D
100
AcDbEntity
  8
0
100
AcDbLine
 62
7
  6
CONTINUOUS
 10
695.9114651628
 20
1450.001401291
 11
645.0123410615
 21
1450.001401291
  0
LINE
  5
29E
100
AcDbEntity
  8
0
100
AcDbLine
 62
7
  6
CONTINUOUS
 10
632.3105892684
 20
1450.001401291
 11
581.4114651628
 21
1450.001401291
  0
LINE
  5
29F
100
AcDbEntity
  8
0
100
AcDbLine
 62
7
  6
CONTINUOUS
 10
195.9114651628
 20
1450.001401291
 11
145.0123410615
 21
1450.001401291
  0
LINE
  5
2A0
100
AcDbEntity
  8
0
100
AcDbLine
 62
7
  6
CONTINUOUS
 10
1081.4114651628
 20
1451.0427793346
 11
695.9114651628
 21
1451.0427793346
  0
LINE
  5
2A1
100
AcDbEntity
  8
0
100
AcDbLine
 62
7
  6
CONTINUOUS
 10
581.4114651628
 20
1451.0427793346
 11
195.9114651628
 21
1451.0427793346
  0
LINE
  5
2A2
100
AcDbEntity
  8
0
100
AcDbLine
 62
7
  6
CONTINUOUS
 10
637.1614651628
 20
1461.7668976142
 11
640.1614651628
 21
1461.7668976142
  0
LINE
  5
2A3
100
AcDbEntity
  8
0
100
AcDbLine
 62
7
  6
CONTINUOUS
 10
637.1614651628
 20
1463.8424196245
 11
640.1614651628
 21
1463.8424196245
  0
LINE
  5
2A4
100
AcDbEntity
  8
0
100
AcDbLine
 62
7
  6
CONTINUOUS
 10
141.4874897206
 20
1490.4235232181
 11
635.835440605
 21
1490.4235232181
  0
LINE
  5
2A5
100
AcDbEntity
  8
0
100
AcDbLine
 62
7
  6
CONTINUOUS
 10
641.4874897206
 20
1490.4235232181
 11
1135.835440605
 21
1490.4235232181
  0
LINE
  5
2A6
100
AcDbEntity
  8
0
100
AcDbLine
 62
7
  6
CONTINUOUS
 10
1136.3752649416
 20
1494.211557309
 11
640.9476653841
 21
1494.211557309
  0
LINE
  5
2A7
100
AcDbEntity
  8
0
100
AcDbLine
 62
7
  6
CONTINUOUS
 10
636.3752649416
 20
1494.211557309
 11
140.9476653841
 21
1494.211557309
  0
LINE
  5
2A8
100
AcDbEntity
  8
0
100
AcDbLine
 62
7
  6
CONTINUOUS
 10
1137.1614651628
 20
1495.001401291
 11
640.1614651628
 21
1495.001401291
  0
LINE
  5
2A9
100
AcDbEntity
  8
0
100
AcDbLine
 62
7
  6
CONTINUOUS
 10
637.1614651628
 20
1495.001401291
 11
140.1614651628
 21
1495.001401291
  0
LINE
  5
2AA
100
AcDbEntity
  8
0
100
AcDbLine
 62
7
  6
CONTINUOUS
 10
140.5914651629
 20
1498.0608976142
 11
636.7314651629
 21
1498.0608976142
  0
LINE
  5
2AB
100
AcDbEntity
  8
0
100
AcDbLine
 62
7
  6
CONTINUOUS
 10
640.5904651629
 20
1498.0608976142
 11
1136.7304651629
 21
1498.0608976142
  0
LINE
  5
2AC
100
AcDbEntity
  8
0
100
AcDbLine
 62
7
  6
CONTINUOUS
 10
1138.6604651628
 20
1500.0008976142
 11
138.6614651628
 21
1500.0008976142
  0
SPLINE
  5
2AD
100
AcDbEntity
  8
0
100
AcDbSpline
 62
7
  6
CONTINUOUS
 70
0
 71
3
 72
20
 73
16
 74
0
 42
0.0000001
 43
0.0000001
 44
0.0000000001
 40
0.0
 40
0.0
 40
0.0
 40
0.0
 40
0.2500706734
 40
0.3751065481
 40
0.5001423835
 40
0.6251780508
 40
0.6876962777
 40
0.7502144836
 40
0.8127324993
 40
0.8752495385
 40
0.9065087863
 40
0.9377673919
 40
0.969020435
 40
0.9845441741
 40
1.0
 40
1.0
 40
1.0
 40
1.0
 10
635.835440605
 20
1490.4235232181
 30
0.0
 10
635.7406022794
 20
1487.0246974217
 30
0.0
 10
635.5729477757
 20
1481.9270659982
 30
0.0
 10
635.2800518692
 20
1475.1330094072
 30
0.0
 10
635.0170746487
 20
1470.0394775499
 30
0.0
 10
634.750913917
 20
1465.7974855148
 30
0.0
 10
634.4966059722
 20
1462.4067582766
 30
0.0
 10
634.2791982493
 20
1459.8659654183
 30
0.0
 10
634.025159306
 20
1457.3279775015
 30
0.0
 10
633.7696309238
 20
1455.2194413991
 30
0.0
 10
633.515374236
 20
1453.535275819
 30
0.0
 10
633.2905659744
 20
1452.2894280789
 30
0.0
 10
633.0366660867
 20
1451.2282515314
 30
0.0
 10
632.7768764135
 20
1450.4826734989
 30
0.0
 10
632.5162409074
 20
1450.0059724167
 30
0.0
 10
632.3061416111
 20
1450.001401291
 30
0.0
  0
SPLINE
  5
2AE
100
AcDbEntity
  8
0
100
AcDbSpline
 62
7
  6
CONTINUOUS
 70
0
 71
3
 72
20
 73
16
 74
0
 42
0.0000001
 43
0.0000001
 44
0.0000000001
 40
0.0
 40
0.0
 40
0.0
 40
0.0
 40
0.2500706739
 40
0.3751065488
 40
0.5001423844
 40
0.6251780521
 40
0.6876962791
 40
0.7502144851
 40
0.8127325009
 40
0.87524954
 40
0.9065087883
 40
0.9377673938
 40
0.9690204312
 40
0.9845441669
 40
1.0
 40
1.0
 40
1.0
 40
1.0
 10
141.4874897206
 20
1490.4235232181
 30
0.0
 10
141.5823280463
 20
1487.0246974213
 30
0.0
 10
141.7499832757
 20
1481.9270660281
 30
0.0
 10
142.0428781517
 20
1475.1330093861
 30
0.0
 10
142.3058560849
 20
1470.0394775793
 30
0.0
 10
142.5720145643
 20
1465.7974853727
 30
0.0
 10
142.8263259871
 20
1462.4067584074
 30
0.0
 10
143.043730287
 20
1459.8659652518
 30
0.0
 10
143.2977722502
 20
1457.3279776299
 30
0.0
 10
143.5532997668
 20
1455.2194414474
 30
0.0
 10
143.8075559491
 20
1453.5352757798
 30
0.0
 10
144.0323635016
 20
1452.2894280158
 30
0.0
 10
144.2862636721
 20
1451.228251544
 30
0.0
 10
144.5460543246
 20
1450.4826740292
 30
0.0
 10
144.8066893241
 20
1450.0059724145
 30
0.0
 10
145.0167887173
 20
1450.001401291
 30
0.0
  0
SPLINE
  5
2AF
100
AcDbEntity
  8
0
100
AcDbSpline
 62
7
  6
CONTINUOUS
 70
0
 71
3
 72
20
 73
16
 74
0
 42
0.0000001
 43
0.0000001
 44
0.0000000001
 40
0.0
 40
0.0
 40
0.0
 40
0.0
 40
0.2500706734
 40
0.3751065481
 40
0.5001423835
 40
0.6251780508
 40
0.6876962777
 40
0.7502144836
 40
0.8127324993
 40
0.8752495385
 40
0.9065087863
 40
0.9377673919
 40
0.969020435
 40
0.9845441741
 40
1.0
 40
1.0
 40
1.0
 40
1.0
 10
141.4874897868
 20
259.5692817365
 30
0.0
 10
141.5823281151
 20
262.968107335
 30
0.0
 10
141.749982621
 20
268.0657384618
 30
0.0
 10
142.0428785271
 20
274.859794657
 30
0.0
 10
142.3058557453
 20
279.9533262175
 30
0.0
 10
142.572016473
 20
284.1953180053
 30
0.0
 10
142.8263244131
 20
287.5860450456
 30
0.0
 10
143.0437321315
 20
290.1268377555
 30
0.0
 10
143.2977710692
 20
292.6648255238
 30
0.0
 10
143.5532994451
 20
294.7733615027
 30
0.0
 10
143.8075561265
 20
296.4575269835
 30
0.0
 10
144.0323643822
 20
297.70337465
 30
0.0
 10
144.2862642637
 20
298.7645511335
 30
0.0
 10
144.5460539291
 20
299.5101291206
 30
0.0
 10
144.8066894304
 20
299.9868301699
 30
0.0
 10
145.0167887148
 20
299.991401291
 30
0.0
  0
SPLINE
  5
2B0
100
AcDbEntity
  8
0
100
AcDbSpline
 62
7
  6
CONTINUOUS
 70
0
 71
3
 72
9
 73
5
 74
0
 42
0.0000001
 43
0.0000001
 44
0.0000000001
 40
0.0
 40
0.0
 40
0.0
 40
0.0
 40
0.435579381
 40
1.0
 40
1.0
 40
1.0
 40
1.0
 10
141.0213933185
 20
1493.5193818422
 30
0.0
 10
141.0443760442
 20
1493.0652733051
 30
0.0
 10
141.3198613308
 20
1492.0497839324
 30
0.0
 10
141.4709997986
 20
1491.0124776829
 30
0.0
 10
141.4874335492
 20
1490.4235232181
 30
0.0
  0
SPLINE
  5
2B1
100
AcDbEntity
  8
0
100
AcDbSpline
 62
7
  6
CONTINUOUS
 70
0
 71
3
 72
9
 73
5
 74
0
 42
0.0000001
 43
0.0000001
 44
0.0000000001
 40
0.0
 40
0.0
 40
0.0
 40
0.0
 40
0.286990168
 40
1.0
 40
1.0
 40
1.0
 40
1.0
 10
140.9476653841
 20
1494.211557309
 30
0.0
 10
140.994805604
 20
1494.1641986108
 30
0.0
 10
140.9703194992
 20
1493.895937698
 30
0.0
 10
141.0129743014
 20
1493.6838502948
 30
0.0
 10
141.0214651628
 20
1493.5180548017
 30
0.0
  0
SPLINE
  5
2B2
100
AcDbEntity
  8
0
100
AcDbSpline
 62
7
  6
CONTINUOUS
 70
0
 71
3
 72
9
 73
5
 74
0
 42
0.0000001
 43
0.0000001
 44
0.0000000001
 40
0.0
 40
0.0
 40
0.0
 40
0.0
 40
0.713009832
 40
1.0
 40
1.0
 40
1.0
 40
1.0
 10
636.3014651628
 20
1493.5180548017
 30
0.0
 10
636.3099560243
 20
1493.6838502948
 30
0.0
 10
636.3526108265
 20
1493.8959376979
 30
0.0
 10
636.3281247217
 20
1494.1641986108
 30
0.0
 10
636.3752649416
 20
1494.211557309
 30
0.0
  0
SPLINE
  5
2B3
100
AcDbEntity
  8
0
100
AcDbSpline
 62
7
  6
CONTINUOUS
 70
0
 71
3
 72
9
 73
5
 74
0
 42
0.0000001
 43
0.0000001
 44
0.0000000001
 40
0.0
 40
0.0
 40
0.0
 40
0.0
 40
0.5644206133
 40
1.0
 40
1.0
 40
1.0
 40
1.0
 10
635.8354967765
 20
1490.4235232181
 30
0.0
 10
635.8519305269
 20
1491.0124776768
 30
0.0
 10
636.0030689948
 20
1492.0497839257
 30
0.0
 10
636.2785542811
 20
1493.0652732981
 30
0.0
 10
636.3015370071
 20
1493.519381841
 30
0.0
  0
SPLINE
  5
2B4
100
AcDbEntity
  8
0
100
AcDbSpline
 62
7
  6
CONTINUOUS
 70
0
 71
3
 72
9
 73
5
 74
0
 42
0.0000001
 43
0.0000001
 44
0.0000000001
 40
0.0
 40
0.0
 40
0.0
 40
0.0
 40
0.5644206199
 40
1.0
 40
1.0
 40
1.0
 40
1.0
 10
141.4874336154
 20
259.5692817365
 30
0.0
 10
141.4709998628
 20
258.9803272494
 30
0.0
 10
141.3198613714
 20
257.9430209639
 30
0.0
 10
141.0443760435
 20
256.9275315609
 30
0.0
 10
141.0213933147
 20
256.4734230083
 30
0.0
  0
SPLINE
  5
2B5
100
AcDbEntity
  8
0
100
AcDbSpline
 62
7
  6
CONTINUOUS
 70
0
 71
3
 72
9
 73
5
 74
0
 42
0.0000001
 43
0.0000001
 44
0.0000000001
 40
0.0
 40
0.0
 40
0.0
 40
0.0
 40
0.4355793745
 40
1.0
 40
1.0
 40
1.0
 40
1.0
 10
636.301537011
 20
256.4734230071
 30
0.0
 10
636.2785542825
 20
256.9275315539
 30
0.0
 10
636.0030689544
 20
257.9430209573
 30
0.0
 10
635.8519304631
 20
258.9803272433
 30
0.0
 10
635.8354967103
 20
259.5692817365
 30
0.0
  0
SPLINE
  5
2B6
100
AcDbEntity
  8
0
100
AcDbSpline
 62
7
  6
CONTINUOUS
 70
0
 71
3
 72
9
 73
5
 74
0
 42
0.0000001
 43
0.0000001
 44
0.0000000001
 40
0.0
 40
0.0
 40
0.0
 40
0.0
 40
0.28666763
 40
1.0
 40
1.0
 40
1.0
 40
1.0
 10
636.375326791
 20
255.7811858984
 30
0.0
 10
636.3279342223
 20
255.8281954287
 30
0.0
 10
636.3529270358
 20
256.0971192194
 30
0.0
 10
636.3099607579
 20
256.3088621618
 30
0.0
 10
636.3014651628
 20
256.4747500679
 30
0.0
  0
SPLINE
  5
2B7
100
AcDbEntity
  8
0
100
AcDbSpline
 62
7
  6
CONTINUOUS
 70
0
 71
3
 72
9
 73
5
 74
0
 42
0.0000001
 43
0.0000001
 44
0.0000000001
 40
0.0
 40
0.0
 40
0.0
 40
0.0
 40
0.71333237
 40
1.0
 40
1.0
 40
1.0
 40
1.0
 10
141.0214651628
 20
256.4747500679
 30
0.0
 10
141.0129695678
 20
256.3088621618
 30
0.0
 10
140.9700032899
 20
256.0971192194
 30
0.0
 10
140.9949961034
 20
255.8281954287
 30
0.0
 10
140.9476035347
 20
255.7811858984
 30
0.0
  0
SPLINE
  5
2B8
100
AcDbEntity
  8
0
100
AcDbSpline
 62
7
  6
CONTINUOUS
 70
0
 71
3
 72
20
 73
16
 74
0
 42
0.0000001
 43
0.0000001
 44
0.0000000001
 40
0.0
 40
0.0
 40
0.0
 40
0.0
 40
0.2500706739
 40
0.3751065488
 40
0.5001423844
 40
0.6251780521
 40
0.6876962791
 40
0.7502144851
 40
0.8127325009
 40
0.87524954
 40
0.9065087883
 40
0.9377673938
 40
0.9690204312
 40
0.9845441669
 40
1.0
 40
1.0
 40
1.0
 40
1.0
 10
635.8354405388
 20
259.5692817365
 30
0.0
 10
635.7406022106
 20
262.9681073354
 30
0.0
 10
635.572946979
 20
268.0657384317
 30
0.0
 10
635.2800521034
 20
274.859794678
 30
0.0
 10
635.0170741726
 20
279.953326188
 30
0.0
 10
634.7509156971
 20
284.1953181472
 30
0.0
 10
634.496604279
 20
287.5860449146
 30
0.0
 10
634.2791999836
 20
290.1268379218
 30
0.0
 10
634.0251580261
 20
292.6648253952
 30
0.0
 10
633.7696305157
 20
294.7733614542
 30
0.0
 10
633.5153743397
 20
296.4575270222
 30
0.0
 10
633.2905667934
 20
297.7033747136
 30
0.0
 10
633.0366666285
 20
298.7645511185
 30
0.0
 10
632.7768759849
 20
299.5101285943
 30
0.0
 10
632.5162409895
 20
299.9868301635
 30
0.0
 10
632.3061416087
 20
299.991401291
 30
0.0
  0
SPLINE
  5
2B9
100
AcDbEntity
  8
0
100
AcDbSpline
 62
7
  6
CONTINUOUS
 70
0
 71
3
 72
9
 73
5
 74
0
 42
0.0000001
 43
0.0000001
 44
0.0000000001
 40
0.0
 40
0.0
 40
0.0
 40
0.0
 40
0.435579381
 40
1.0
 40
1.0
 40
1.0
 40
1.0
 10
641.0213933185
 20
1493.5193818422
 30
0.0
 10
641.0443760442
 20
1493.0652733051
 30
0.0
 10
641.3198613308
 20
1492.0497839324
 30
0.0
 10
641.4709997986
 20
1491.0124776829
 30
0.0
 10
641.4874335492
 20
1490.4235232181
 30
0.0
  0
SPLINE
  5
2BA
100
AcDbEntity
  8
0
100
AcDbSpline
 62
7
  6
CONTINUOUS
 70
0
 71
3
 72
9
 73
5
 74
0
 42
0.0000001
 43
0.0000001
 44
0.0000000001
 40
0.0
 40
0.0
 40
0.0
 40
0.0
 40
0.286990168
 40
1.0
 40
1.0
 40
1.0
 40
1.0
 10
640.9476653841
 20
1494.211557309
 30
0.0
 10
640.994805604
 20
1494.1641986108
 30
0.0
 10
640.9703194992
 20
1493.895937698
 30
0.0
 10
641.0129743014
 20
1493.6838502948
 30
0.0
 10
641.0214651628
 20
1493.5180548017
 30
0.0
  0
SPLINE
  5
2BB
100
AcDbEntity
  8
0
100
AcDbSpline
 62
7
  6
CONTINUOUS
 70
0
 71
3
 72
9
 73
5
 74
0
 42
0.0000001
 43
0.0000001
 44
0.0000000001
 40
0.0
 40
0.0
 40
0.0
 40
0.0
 40
0.713009832
 40
1.0
 40
1.0
 40
1.0
 40
1.0
 10
1136.3014651628
 20
1493.5180548017
 30
0.0
 10
1136.3099560243
 20
1493.6838502948
 30
0.0
 10
1136.3526108265
 20
1493.8959376979
 30
0.0
 10
1136.3281247217
 20
1494.1641986108
 30
0.0
 10
1136.3752649416
 20
1494.211557309
 30
0.0
  0
SPLINE
  5
2BC
100
AcDbEntity
  8
0
100
AcDbSpline
 62
7
  6
CONTINUOUS
 70
0
 71
3
 72
9
 73
5
 74
0
 42
0.0000001
 43
0.0000001
 44
0.0000000001
 40
0.0
 40
0.0
 40
0.0
 40
0.0
 40
0.5644206133
 40
1.0
 40
1.0
 40
1.0
 40
1.0
 10
1135.8354967765
 20
1490.4235232181
 30
0.0
 10
1135.8519305269
 20
1491.0124776768
 30
0.0
 10
1136.0030689948
 20
1492.0497839257
 30
0.0
 10
1136.2785542811
 20
1493.0652732981
 30
0.0
 10
1136.3015370071
 20
1493.519381841
 30
0.0
  0
SPLINE
  5
2BD
100
AcDbEntity
  8
0
100
AcDbSpline
 62
7
  6
CONTINUOUS
 70
0
 71
3
 72
9
 73
5
 74
0
 42
0.0000001
 43
0.0000001
 44
0.0000000001
 40
0.0
 40
0.0
 40
0.0
 40
0.0
 40
0.5644206199
 40
1.0
 40
1.0
 40
1.0
 40
1.0
 10
641.4874336154
 20
259.5692817365
 30
0.0
 10
641.4709998628
 20
258.9803272494
 30
0.0
 10
641.3198613714
 20
257.9430209639
 30
0.0
 10
641.0443760435
 20
256.9275315609
 30
0.0
 10
641.0213933147
 20
256.4734230083
 30
0.0
  0
SPLINE
  5
2BE
100
AcDbEntity
  8
0
100
AcDbSpline
 62
7
  6
CONTINUOUS
 70
0
 71
3
 72
9
 73
5
 74
0
 42
0.0000001
 43
0.0000001
 44
0.0000000001
 40
0.0
 40
0.0
 40
0.0
 40
0.0
 40
0.4355793745
 40
1.0
 40
1.0
 40
1.0
 40
1.0
 10
1136.301537011
 20
256.4734230071
 30
0.0
 10
1136.2785542825
 20
256.9275315539
 30
0.0
 10
1136.0030689544
 20
257.9430209573
 30
0.0
 10
1135.8519304631
 20
258.9803272433
 30
0.0
 10
1135.8354967103
 20
259.5692817365
 30
0.0
  0
SPLINE
  5
2BF
100
AcDbEntity
  8
0
100
AcDbSpline
 62
7
  6
CONTINUOUS
 70
0
 71
3
 72
9
 73
5
 74
0
 42
0.0000001
 43
0.0000001
 44
0.0000000001
 40
0.0
 40
0.0
 40
0.0
 40
0.0
 40
0.28666763
 40
1.0
 40
1.0
 40
1.0
 40
1.0
 10
1136.375326791
 20
255.7811858984
 30
0.0
 10
1136.3279342223
 20
255.8281954287
 30
0.0
 10
1136.3529270358
 20
256.0971192194
 30
0.0
 10
1136.3099607579
 20
256.3088621618
 30
0.0
 10
1136.3014651628
 20
256.4747500679
 30
0.0
  0
SPLINE
  5
2C0
100
AcDbEntity
  8
0
100
AcDbSpline
 62
7
  6
CONTINUOUS
 70
0
 71
3
 72
9
 73
5
 74
0
 42
0.0000001
 43
0.0000001
 44
0.0000000001
 40
0.0
 40
0.0
 40
0.0
 40
0.0
 40
0.71333237
 40
1.0
 40
1.0
 40
1.0
 40
1.0
 10
641.0214651628
 20
256.4747500679
 30
0.0
 10
641.0129695678
 20
256.3088621618
 30
0.0
 10
640.9700032899
 20
256.0971192194
 30
0.0
 10
640.9949961034
 20
255.8281954287
 30
0.0
 10
640.9476035347
 20
255.7811858984
 30
0.0
  0
SPLINE
  5
2C1
100
AcDbEntity
  8
0
100
AcDbSpline
 62
7
  6
CONTINUOUS
 70
0
 71
3
 72
20
 73
16
 74
0
 42
0.0000001
 43
0.0000001
 44
0.0000000001
 40
0.0
 40
0.0
 40
0.0
 40
0.0
 40
0.2500706739
 40
0.3751065488
 40
0.5001423844
 40
0.6251780521
 40
0.6876962791
 40
0.7502144851
 40
0.8127325009
 40
0.87524954
 40
0.9065087883
 40
0.9377673938
 40
0.9690204312
 40
0.9845441669
 40
1.0
 40
1.0
 40
1.0
 40
1.0
 10
1135.8354405388
 20
259.5692817365
 30
0.0
 10
1135.7406022106
 20
262.9681073354
 30
0.0
 10
1135.572946979
 20
268.0657384317
 30
0.0
 10
1135.2800521034
 20
274.859794678
 30
0.0
 10
1135.0170741726
 20
279.953326188
 30
0.0
 10
1134.7509156971
 20
284.1953181472
 30
0.0
 10
1134.496604279
 20
287.5860449146
 30
0.0
 10
1134.2791999836
 20
290.1268379218
 30
0.0
 10
1134.0251580261
 20
292.6648253952
 30
0.0
 10
1133.7696305157
 20
294.7733614542
 30
0.0
 10
1133.5153743397
 20
296.4575270222
 30
0.0
 10
1133.2905667934
 20
297.7033747136
 30
0.0
 10
1133.0366666285
 20
298.7645511185
 30
0.0
 10
1132.7768759849
 20
299.5101285943
 30
0.0
 10
1132.5162409895
 20
299.9868301635
 30
0.0
 10
1132.3061416087
 20
299.991401291
 30
0.0
  0
SPLINE
  5
2C2
100
AcDbEntity
  8
0
100
AcDbSpline
 62
7
  6
CONTINUOUS
 70
0
 71
3
 72
20
 73
16
 74
0
 42
0.0000001
 43
0.0000001
 44
0.0000000001
 40
0.0
 40
0.0
 40
0.0
 40
0.0
 40
0.2500706734
 40
0.3751065481
 40
0.5001423835
 40
0.6251780508
 40
0.6876962777
 40
0.7502144836
 40
0.8127324993
 40
0.8752495385
 40
0.9065087863
 40
0.9377673919
 40
0.969020435
 40
0.9845441741
 40
1.0
 40
1.0
 40
1.0
 40
1.0
 10
1135.835440605
 20
1490.4235232181
 30
0.0
 10
1135.7406022794
 20
1487.0246974217
 30
0.0
 10
1135.5729477757
 20
1481.9270659982
 30
0.0
 10
1135.2800518692
 20
1475.1330094072
 30
0.0
 10
1135.0170746487
 20
1470.0394775499
 30
0.0
 10
1134.750913917
 20
1465.7974855148
 30
0.0
 10
1134.4966059722
 20
1462.4067582766
 30
0.0
 10
1134.2791982493
 20
1459.8659654183
 30
0.0
 10
1134.025159306
 20
1457.3279775015
 30
0.0
 10
1133.7696309238
 20
1455.2194413991
 30
0.0
 10
1133.515374236
 20
1453.535275819
 30
0.0
 10
1133.2905659744
 20
1452.2894280789
 30
0.0
 10
1133.0366660867
 20
1451.2282515314
 30
0.0
 10
1132.7768764135
 20
1450.4826734989
 30
0.0
 10
1132.5162409074
 20
1450.0059724167
 30
0.0
 10
1132.3061416111
 20
1450.001401291
 30
0.0
  0
SPLINE
  5
2C3
100
AcDbEntity
  8
0
100
AcDbSpline
 62
7
  6
CONTINUOUS
 70
0
 71
3
 72
20
 73
16
 74
0
 42
0.0000001
 43
0.0000001
 44
0.0000000001
 40
0.0
 40
0.0
 40
0.0
 40
0.0
 40
0.2500706734
 40
0.3751065481
 40
0.5001423835
 40
0.6251780508
 40
0.6876962777
 40
0.7502144836
 40
0.8127324993
 40
0.8752495385
 40
0.9065087863
 40
0.9377673919
 40
0.969020435
 40
0.9845441741
 40
1.0
 40
1.0
 40
1.0
 40
1.0
 10
641.4874897868
 20
259.5692817365
 30
0.0
 10
641.5823281151
 20
262.968107335
 30
0.0
 10
641.749982621
 20
268.0657384618
 30
0.0
 10
642.0428785271
 20
274.859794657
 30
0.0
 10
642.3058557453
 20
279.9533262175
 30
0.0
 10
642.572016473
 20
284.1953180053
 30
0.0
 10
642.8263244131
 20
287.5860450456
 30
0.0
 10
643.0437321315
 20
290.1268377555
 30
0.0
 10
643.2977710692
 20
292.6648255238
 30
0.0
 10
643.5532994451
 20
294.7733615027
 30
0.0
 10
643.8075561265
 20
296.4575269835
 30
0.0
 10
644.0323643822
 20
297.70337465
 30
0.0
 10
644.2862642637
 20
298.7645511335
 30
0.0
 10
644.5460539291
 20
299.5101291206
 30
0.0
 10
644.8066894304
 20
299.9868301699
 30
0.0
 10
645.0167887148
 20
299.991401291
 30
0.0
  0
SPLINE
  5
2C4
100
AcDbEntity
  8
0
100
AcDbSpline
 62
7
  6
CONTINUOUS
 70
0
 71
3
 72
20
 73
16
 74
0
 42
0.0000001
 43
0.0000001
 44
0.0000000001
 40
0.0
 40
0.0
 40
0.0
 40
0.0
 40
0.2500706739
 40
0.3751065488
 40
0.5001423844
 40
0.6251780521
 40
0.6876962791
 40
0.7502144851
 40
0.8127325009
 40
0.87524954
 40
0.9065087883
 40
0.9377673938
 40
0.9690204312
 40
0.9845441669
 40
1.0
 40
1.0
 40
1.0
 40
1.0
 10
641.4874897206
 20
1490.4235232181
 30
0.0
 10
641.5823280463
 20
1487.0246974213
 30
0.0
 10
641.7499832757
 20
1481.9270660281
 30
0.0
 10
642.0428781517
 20
1475.1330093861
 30
0.0
 10
642.3058560849
 20
1470.0394775793
 30
0.0
 10
642.5720145643
 20
1465.7974853727
 30
0.0
 10
642.8263259871
 20
1462.4067584074
 30
0.0
 10
643.043730287
 20
1459.8659652518
 30
0.0
 10
643.2977722502
 20
1457.3279776299
 30
0.0
 10
643.5532997668
 20
1455.2194414474
 30
0.0
 10
643.8075559491
 20
1453.5352757798
 30
0.0
 10
644.0323635016
 20
1452.2894280158
 30
0.0
 10
644.2862636721
 20
1451.228251544
 30
0.0
 10
644.5460543246
 20
1450.4826740292
 30
0.0
 10
644.8066893241
 20
1450.0059724145
 30
0.0
 10
645.0167887173
 20
1450.001401291
 30
0.0
  0
SPLINE
  5
2C5
100
AcDbEntity
  8
0
100
AcDbSpline
 62
7
  6
CONTINUOUS
 70
0
 71
3
 72
11
 73
7
 74
0
 42
0.0000001
 43
0.0000001
 44
0.0000000001
 40
0.0
 40
0.0
 40
0.0
 40
0.0
 40
0.1070031328
 40
0.3548712463
 40
0.6655714658
 40
1.0
 40
1.0
 40
1.0
 40
1.0
 10
638.6709181387
 20
250.0008976142
 30
0.0
 10
638.575186913
 20
250.0211216535
 30
0.0
 10
638.3960148031
 20
250.3479626709
 30
0.0
 10
637.929586366
 20
250.7063488201
 30
0.0
 10
637.3682510311
 20
251.3147100574
 30
0.0
 10
636.9504616703
 20
251.7274562987
 30
0.0
 10
636.7314678879
 20
251.9408976142
 30
0.0
  0
SPLINE
  5
2C6
100
AcDbEntity
  8
0
100
AcDbSpline
 62
7
  6
CONTINUOUS
 70
0
 71
3
 72
10
 73
6
 74
0
 42
0.0000001
 43
0.0000001
 44
0.0000000001
 40
0.0
 40
0.0
 40
0.0
 40
0.0
 40
0.6463956631
 40
0.8949204985
 40
1.0
 40
1.0
 40
1.0
 40
1.0
 10
140.5914624392
 20
251.9408976142
 30
0.0
 10
140.1691063948
 20
251.529250175
 30
0.0
 10
139.5520583198
 20
250.9715324194
 30
0.0
 10
138.9995893813
 20
250.2730695998
 30
0.0
 10
138.6862358321
 20
250.0932416631
 30
0.0
 10
138.6604538
 20
250.0008976142
 30
0.0
  0
SPLINE
  5
2C7
100
AcDbEntity
  8
0
100
AcDbSpline
 62
7
  6
CONTINUOUS
 70
0
 71
3
 72
11
 73
7
 74
0
 42
0.0000001
 43
0.0000001
 44
0.0000000001
 40
0.0
 40
0.0
 40
0.0
 40
0.0
 40
0.3344404085
 40
0.6451466391
 40
0.8930059094
 40
1.0
 40
1.0
 40
1.0
 40
1.0
 10
640.5904624382
 20
251.9408976142
 30
0.0
 10
640.3714617324
 20
251.7274495508
 30
0.0
 10
639.9536423496
 20
251.3147137166
 30
0.0
 10
639.3923334928
 20
250.7063181842
 30
0.0
 10
638.9258988332
 20
250.347956574
 30
0.0
 10
638.7467499419
 20
250.0211198658
 30
0.0
 10
638.6510271783
 20
250.0008976142
 30
0.0
  0
SPLINE
  5
2C8
100
AcDbEntity
  8
0
100
AcDbSpline
 62
7
  6
CONTINUOUS
 70
0
 71
3
 72
10
 73
6
 74
0
 42
0.0000001
 43
0.0000001
 44
0.0000000001
 40
0.0
 40
0.0
 40
0.0
 40
0.0
 40
0.1050853009
 40
0.353620555
 40
1.0
 40
1.0
 40
1.0
 40
1.0
 10
1138.6614780852
 20
250.0008976142
 30
0.0
 10
1138.6356946194
 20
250.0932467965
 30
0.0
 10
1138.3223236592
 20
250.2730802784
 30
0.0
 10
1137.7698637738
 20
250.9715523372
 30
0.0
 10
1137.1528135035
 20
251.5292603383
 30
0.0
 10
1136.7304678869
 20
251.9408976142
 30
0.0
  0
SPLINE
  5
2C9
100
AcDbEntity
  8
0
100
AcDbSpline
 62
7
  6
CONTINUOUS
 70
0
 71
3
 72
10
 73
6
 74
0
 42
0.0000001
 43
0.0000001
 44
0.0000000001
 40
0.0
 40
0.0
 40
0.0
 40
0.0
 40
0.1050853009
 40
0.353620555
 40
1.0
 40
1.0
 40
1.0
 40
1.0
 10
138.6604522405
 20
1500.0008976142
 30
0.0
 10
138.6862357063
 20
1499.9085484318
 30
0.0
 10
138.9996066665
 20
1499.72871495
 30
0.0
 10
139.5520665519
 20
1499.0302428911
 30
0.0
 10
140.1691168222
 20
1498.47253489
 30
0.0
 10
140.5914624388
 20
1498.0608976142
 30
0.0
  0
SPLINE
  5
2CA
100
AcDbEntity
  8
0
100
AcDbSpline
 62
7
  6
CONTINUOUS
 70
0
 71
3
 72
11
 73
7
 74
0
 42
0.0000001
 43
0.0000001
 44
0.0000000001
 40
0.0
 40
0.0
 40
0.0
 40
0.0
 40
0.3343945366
 40
0.6450570047
 40
0.8928698134
 40
1.0
 40
1.0
 40
1.0
 40
1.0
 10
636.7314678876
 20
1498.0608976142
 30
0.0
 10
636.9504730613
 20
1498.2743500322
 30
0.0
 10
637.3682803625
 20
1498.6869577008
 30
0.0
 10
637.9296550967
 20
1499.2959093807
 30
0.0
 10
638.396071512
 20
1499.652996498
 30
0.0
 10
638.5754043752
 20
1499.9818304277
 30
0.0
 10
638.6715065082
 20
1500.0008976142
 30
0.0
  0
SPLINE
  5
2CB
100
AcDbEntity
  8
0
100
AcDbSpline
 62
7
  6
CONTINUOUS
 70
0
 71
3
 72
11
 73
7
 74
0
 42
0.0000001
 43
0.0000001
 44
0.0000000001
 40
0.0
 40
0.0
 40
0.0
 40
0.0
 40
0.1049367322
 40
0.3536688915
 40
0.6649193057
 40
1.0
 40
1.0
 40
1.0
 40
1.0
 10
638.6594522405
 20
1500.0008976142
 30
0.0
 10
638.7528227514
 20
1499.9797041626
 30
0.0
 10
638.9220055183
 20
1499.6481664435
 30
0.0
 10
639.3952103102
 20
1499.2976000371
 30
0.0
 10
639.9528170042
 20
1498.6860253717
 30
0.0
 10
640.371519662
 20
1498.2742892173
 30
0.0
 10
640.5904624388
 20
1498.0608976142
 30
0.0
  0
SPLINE
  5
2CC
100
AcDbEntity
  8
0
100
AcDbSpline
 62
7
  6
CONTINUOUS
 70
0
 71
3
 72
10
 73
6
 74
0
 42
0.0000001
 43
0.0000001
 44
0.0000000001
 40
0.0
 40
0.0
 40
0.0
 40
0.0
 40
0.6463956631
 40
0.8949204985
 40
1.0
 40
1.0
 40
1.0
 40
1.0
 10
1136.7304678865
 20
1498.0608976142
 30
0.0
 10
1137.1528239309
 20
1498.4725450534
 30
0.0
 10
1137.7698720059
 20
1499.0302628089
 30
0.0
 10
1138.3223409444
 20
1499.7287256285
 30
0.0
 10
1138.6356944936
 20
1499.9085535652
 30
0.0
 10
1138.6614765257
 20
1500.0008976142
 30
0.0
  0
ENDSEC
  0
SECTION
  2
OBJECTS
  0
DICTIONARY
  5
C
100
AcDbDictionary
280
0
281
1
  3
ACAD_GROUP
350
D
  3
ACAD_MLINESTYLE
350
17
  3
ACAD_LAYOUT
350
1A
  3
ACAD_PLOTSETTINGS
350
19
  3
ACAD_PLOTSTYLENAME
350
E
  0
DICTIONARY
  5
D
102
{ACAD_REACTORS
330
C
102
}
100
AcDbDictionary
280
0
281
1
  0
ACDBDICTIONARYWDFLT
  5
E
102
{ACAD_REACTORS
330
C
102
}
100
AcDbDictionary
281
1
  3
Normal
350
F
100
AcDbDictionaryWithDefault
340
F
  0
DICTIONARY
  5
17
102
{ACAD_REACTORS
330
C
102
}
100
AcDbDictionary
280
0
281
1
  3
Standard
350
18
  0
DICTIONARY
  5
19
102
{ACAD_REACTORS
330
C
102
}
100
AcDbDictionary
281
1
  0
DICTIONARY
  5
1A
102
{ACAD_REACTORS
330
C
102
}
100
AcDbDictionary
281
1
  3
Model
350
2CD
  3
Layout1
350
2CE
  0
ACDBPLACEHOLDER
  5
F
102
{ACAD_REACTORS
330
E
102
}
  0
MLINESTYLE
  5
18
102
{ACAD_REACTORS
330
17
102
}
100
AcDbMlineStyle
  2
STANDARD
 70
0
  3

 62
256
 51
90.0
 52
90.0
 71
2
 49
0.5
 62
256
  6
BYLAYER
 49
-0.5
 62
256
  6
BYLAYER
  0
LAYOUT
  5
2CD
102
{ACAD_REACTORS
330
1A
102
}
100
AcDbPlotSettings
  1

  2
none_device
  4

  6

 40
0.0
 41
0.0
 42
0.0
 43
0.0
 44
210.0
 45
297.0
 46
0.0
 47
0.0
 48
0.0
 49
0.0
140
0.0
141
0.0
142
1.0
143
1.0
 70
1024
 72
1
 73
0
 74
0
  7

 75
0
147
1.0
148
0.0
149
0.0
100
AcDbLayout
  1
Model
 70
0
 71
0
 10
0.0
 20
0.0
 11
210.0
 21
297.0
 12
0.0
 22
0.0
 32
0.0
 14
0.0
 24
0.0
 34
0.0
 15
0.0
 25
0.0
 35
0.0
146
0.0
 13
0.0
 23
0.0
 33
0.0
 16
1.0
 26
0.0
 36
0.0
 17
0.0
 27
1.0
 37
0.0
 76
0
330
210
345
0
346
0
  0
LAYOUT
  5
2CE
102
{ACAD_REACTORS
330
1A
102
}
100
AcDbPlotSettings
  1

  2
none_device
  4

  6

 40
0.0
 41
0.0
 42
0.0
 43
0.0
 44
210.0
 45
297.0
 46
0.0
 47
0.0
 48
0.0
 49
0.0
140
0.0
141
0.0
142
1.0
143
1.0
 70
0
 72
1
 73
0
 74
0
  7

 75
0
147
1.0
148
0.0
149
0.0
100
AcDbLayout
  1
Layout1
 70
0
 71
1
 10
0.0
 20
0.0
 11
210.0
 21
297.0
 12
0.0
 22
0.0
 32
0.0
 14
0.0
 24
0.0
 34
0.0
 15
0.0
 25
0.0
 35
0.0
146
0.0
 13
0.0
 23
0.0
 33
0.0
 16
1.0
 26
0.0
 36
0.0
 17
0.0
 27
1.0
 37
0.0
 76
0
330
211
345
0
346
0
  0
ENDSEC
  0
EOF
