  0
SECTION
  2
HEADER
  9
$ACADVER
  1
AC1009
  9
$DWGCODEPAGE
  3
ansi_1250
  9
$INSBASE
 10
0.0
 20
0.0
 30
0.0
  9
$EXTMIN
 10
-0.450787
 20
-1.877953
 30
0.0
  9
$EXTMAX
 10
0.450787
 20
1.771654
 30
0.0
  9
$LIMMIN
 10
0.0
 20
0.0
  9
$LIMMAX
 10
0.0
 20
0.0
  9
$ORTHOMODE
 70
     0
  9
$REGENMODE
 70
     1
  9
$FILLMODE
 70
     1
  9
$QTEXTMODE
 70
     0
  9
$MIRRTEXT
 70
     1
  9
$DRAGMODE
 70
     2
  9
$LTSCALE
 40
1.0
  9
$OSMODE
 70
     0
  9
$ATTMODE
 70
     1
  9
$TEXTSIZE
 40
0.2
  9
$TRACEWID
 40
0.05
  9
$TEXTSTYLE
  7
STANDARD
  9
$CLAYER
  8
0
  9
$CELTYPE
  6
CONTINUOUS
  9
$CECOLOR
 62
   256
  9
$DIMSCALE
 40
1.0
  9
$DIMASZ
 40
0.18
  9
$DIMEXO
 40
0.0625
  9
$DIMDLI
 40
0.38
  9
$DIMRND
 40
0.0
  9
$DIMDLE
 40
0.0
  9
$DIMEXE
 40
0.18
  9
$DIMTP
 40
0.0
  9
$DIMTM
 40
0.0
  9
$DIMTXT
 40
0.18
  9
$DIMCEN
 40
0.09
  9
$DIMTSZ
 40
0.0
  9
$DIMTOL
 70
     0
  9
$DIMLIM
 70
     0
  9
$DIMTIH
 70
     1
  9
$DIMTOH
 70
     1
  9
$DIMSE1
 70
     0
  9
$DIMSE2
 70
     0
  9
$DIMTAD
 70
     0
  9
$DIMZIN
 70
     0
  9
$DIMBLK
  1

  9
$DIMASO
 70
     1
  9
$DIMSHO
 70
     1
  9
$DIMPOST
  1

  9
$DIMAPOST
  1

  9
$DIMALT
 70
     0
  9
$DIMALTD
 70
     2
  9
$DIMALTF
 40
25.4
  9
$DIMLFAC
 40
1.0
  9
$DIMTOFL
 70
     0
  9
$DIMTVP
 40
0.0
  9
$DIMTIX
 70
     0
  9
$DIMSOXD
 70
     0
  9
$DIMSAH
 70
     0
  9
$DIMBLK1
  1

  9
$DIMBLK2
  1

  9
$DIMSTYLE
  2
STANDARD
  9
$DIMCLRD
 70
     0
  9
$DIMCLRE
 70
     0
  9
$DIMCLRT
 70
     0
  9
$DIMTFAC
 40
1.0
  9
$DIMGAP
 40
0.09
  9
$LUNITS
 70
     2
  9
$LUPREC
 70
     4
  9
$AXISMODE
 70
     0
  9
$AXISUNIT
 10
0.0
 20
0.0
  9
$SKETCHINC
 40
0.1
  9
$FILLETRAD
 40
0.0
  9
$AUNITS
 70
     0
  9
$AUPREC
 70
     0
  9
$MENU
  1
acad
  9
$ELEVATION
 40
0.0
  9
$PELEVATION
 40
0.0
  9
$THICKNESS
 40
0.0
  9
$LIMCHECK
 70
     0
  9
$BLIPMODE
 70
     1
  9
$CHAMFERA
 40
0.0
  9
$CHAMFERB
 40
0.0
  9
$SKPOLY
 70
     0
  9
$TDCREATE
 40
0.000000000
  9
$TDUPDATE
 40
0.000000000
  9
$TDINDWG
 40
0.0000000000
  9
$TDUSRTIMER
 40
0.0000000000
  9
$USRTIMER
 70
     1
  9
$ANGBASE
 50
0.0
  9
$ANGDIR
 70
     0
  9
$PDMODE
 70
     0
  9
$PDSIZE
 40
0.0
  9
$PLINEWID
 40
0.0
  9
$COORDS
 70
     0
  9
$SPLFRAME
 70
     0
  9
$SPLINETYPE
 70
     6
  9
$SPLINESEGS
 70
     8
  9
$ATTDIA
 70
     0
  9
$ATTREQ
 70
     1
  9
$HANDLING
 70
     1
  9
$HANDSEED
  5
418
  9
$SURFTAB1
 70
     6
  9
$SURFTAB2
 70
     6
  9
$SURFTYPE
 70
     6
  9
$SURFU
 70
     6
  9
$SURFV
 70
     6
  9
$UCSNAME
  2

  9
$UCSORG
 10
0.0
 20
0.0
 30
0.0
  9
$UCSXDIR
 10
1.0
 20
0.0
 30
0.0
  9
$UCSYDIR
 10
0.0
 20
1.0
 30
0.0
  9
$PUCSNAME
  2

  9
$PUCSORG
 10
0.0
 20
0.0
 30
0.0
  9
$PUCSXDIR
 10
1.0
 20
0.0
 30
0.0
  9
$PUCSYDIR
 10
0.0
 20
1.0
 30
0.0
  9
$USERI1
 70
     0
  9
$USERI2
 70
     0
  9
$USERI3
 70
     0
  9
$USERI4
 70
     0
  9
$USERI5
 70
     0
  9
$USERR1
 40
0.0
  9
$USERR2
 40
0.0
  9
$USERR3
 40
0.0
  9
$USERR4
 40
0.0
  9
$USERR5
 40
0.0
  9
$WORLDVIEW
 70
     1
  9
$SHADEDGE
 70
     3
  9
$SHADEDIF
 70
    70
  9
$TILEMODE
 70
     1
  9
$MAXACTVP
 70
    16
  9
$PINSBASE
 10
0.0
 20
0.0
 30
0.0
  9
$PLIMCHECK
 70
     0
  9
$PEXTMIN
 10
1.000000E+20
 20
1.000000E+20
 30
1.000000E+20
  9
$PEXTMAX
 10
-1.000000E+20
 20
-1.000000E+20
 30
-1.000000E+20
  9
$PLIMMIN
 10
0.0
 20
0.0
  9
$PLIMMAX
 10
12.0
 20
9.0
  9
$UNITMODE
 70
     0
  9
$VISRETAIN
 70
     0
  9
$PLINEGEN
 70
     1
  9
$PSLTSCALE
 70
     0
  9
$TREEDEPTH
 70
  3020
  0
ENDSEC
  0
SECTION
  2
TABLES
  0
TABLE
  2
VPORT
 70
     1
  0
VPORT
  2
*ACTIVE
 70
     0
 10
0.0
 20
0.0
 11
1.0
 21
1.0
 12
6.591288
 22
4.579184
 13
0.0
 23
0.0
 14
1.0
 24
1.0
 15
0.0
 25
0.0
 16
0.0
 26
0.0
 36
1.0
 17
0.0
 27
0.0
 37
0.0
 40
9.158369
 41
0.688564
 42
50.0
 43
0.0
 44
0.0
 50
0.0
 51
0.0
 71
     0
 72
   100
 73
     1
 74
     1
 75
     0
 76
     0
 77
     0
 78
     0
  0
ENDTAB
  0
TABLE
  2
LTYPE
 70
     5
  0
LTYPE
  2
CONTINUOUS
 70
    64
  3
Solid line
 72
    65
 73
     0
 40
0.0
  0
LTYPE
  2
CENTER
 70
    64
  3
Center ____ _ ____ _ ____ _ ____ _ ____ _ ____
 72
    65
 73
     4
 40
50.8
 49
31.75
 49
-6.35
 49
6.35
 49
-6.35
  0
LTYPE
  2
HIDDEN
 70
    64
  3
Hidden __ __ __ __ __ __ __ __ __ __ __ __ __ __
 72
    65
 73
     2
 40
9.525
 49
6.35
 49
-3.175
  0
LTYPE
  2
CENTER2
 70
    64
  3
Center (.5x) ___ _ ___ _ ___ _ ___ _ ___ _ ___
 72
    65
 73
     4
 40
28.575
 49
19.05
 49
-3.175
 49
3.175
 49
-3.175
  0
LTYPE
  2
HIDDEN2
 70
    64
  3
Hidden (.5x) _ _ _ _ _ _ _ _ _ _ _ _ _ _ _ _ _
 72
    65
 73
     2
 40
4.7625
 49
3.175
 49
-1.5875
  0
ENDTAB
  0
TABLE
  2
LAYER
 70
     1
  0
LAYER
  2
0
 70
     0
 62
     7
  6
CONTINUOUS
  0
ENDTAB
  0
TABLE
  2
STYLE
 70
     1
  0
STYLE
  2
STANDARD
 70
     0
 40
0.0
 41
1.0
 50
0.0
 71
     0
 42
0.0
  3
txt
  4

  0
ENDTAB
  0
TABLE
  2
VIEW
 70
     0
  0
ENDTAB
  0
TABLE
  2
UCS
 70
     0
  0
ENDTAB
  0
TABLE
  2
APPID
 70
     1
  0
APPID
  2
ACAD
 70
     0
  0
ENDTAB
  0
TABLE
  2
DIMSTYLE
 70
     1
  0
DIMSTYLE
  2
STANDARD
 70
     0
  3

  4

  5

  6

  7

 40
1.0
 41
0.18
 42
0.0625
 43
0.38
 44
0.18
 45
0.0
 46
0.0
 47
0.0
 48
0.0
 71
     0
 72
     0
 73
     1
 74
     1
 75
     0
 76
     0
 77
     0
 78
     0
140
0.18
141
0.09
142
0.0
143
25.4
144
1.0
145
0.0
146
1.0
147
0.09
170
     0
171
     2
172
     0
173
     0
174
     0
175
     0
176
     0
177
     0
178
     0
  0
ENDTAB
  0
ENDSEC
  0
SECTION
  2
BLOCKS
  0
ENDSEC
  0
SECTION
  2
ENTITIES
  0
LINE
  8
0
  6
CONTINUOUS
 62
     7
  5
23A
 10
-0.449787
 20
0.885827
 30
0.0
 11
-0.449787
 21
1.32774
 31
0.0
  0
LINE
  8
0
  6
CONTINUOUS
 62
     7
  5
23B
 10
0.449787
 20
0.885827
 30
0.0
 11
0.449787
 21
1.32774
 31
0.0
  0
LINE
  8
0
  6
CONTINUOUS
 62
     7
  5
23C
 10
-0.449787
 20
1.32774
 30
0.0
 11
0.449787
 21
1.32774
 31
0.0
  0
LINE
  8
0
  6
CONTINUOUS
 62
     7
  5
23D
 10
0.450787
 20
1.222441
 30
0.0
 11
0.450787
 21
1.32874
 31
0.0
  0
LINE
  8
0
  6
CONTINUOUS
 62
     7
  5
23E
 10
-0.450787
 20
1.32874
 30
0.0
 11
0.450787
 21
1.32874
 31
0.0
  0
LINE
  8
0
  6
CONTINUOUS
 62
     7
  5
23F
 10
-0.450787
 20
1.32874
 30
0.0
 11
-0.450787
 21
1.222441
 31
0.0
  0
LINE
  8
0
  6
CONTINUOUS
 62
     7
  5
240
 10
-0.450787
 20
1.222441
 30
0.0
 11
-0.449787
 21
1.222441
 31
0.0
  0
LINE
  8
0
  6
CONTINUOUS
 62
     7
  5
241
 10
-0.450787
 20
0.885827
 30
0.0
 11
-0.344488
 21
0.885827
 31
0.0
  0
LINE
  8
0
  6
CONTINUOUS
 62
     7
  5
242
 10
-0.344488
 20
0.885827
 30
0.0
 11
0.344488
 21
0.885827
 31
0.0
  0
LINE
  8
0
  6
CONTINUOUS
 62
     7
  5
243
 10
0.344488
 20
0.885827
 30
0.0
 11
0.450787
 21
0.885827
 31
0.0
  0
LINE
  8
0
  6
CONTINUOUS
 62
     7
  5
244
 10
-0.450787
 20
1.222441
 30
0.0
 11
-0.450787
 21
0.885827
 31
0.0
  0
LINE
  8
0
  6
CONTINUOUS
 62
     7
  5
245
 10
-0.449787
 20
-1.657954
 30
0.0
 11
-0.449787
 21
-1.770654
 31
0.0
  0
LINE
  8
0
  6
CONTINUOUS
 62
     7
  5
246
 10
-0.449787
 20
-1.512871
 30
0.0
 11
-0.449787
 21
-1.657954
 31
0.0
  0
LINE
  8
0
  6
CONTINUOUS
 62
     7
  5
247
 10
-0.449787
 20
-1.32874
 30
0.0
 11
-0.449787
 21
-1.512871
 31
0.0
  0
LINE
  8
0
  6
CONTINUOUS
 62
     7
  5
248
 10
0.449787
 20
-1.770654
 30
0.0
 11
-0.449787
 21
-1.770654
 31
0.0
  0
LINE
  8
0
  6
CONTINUOUS
 62
     7
  5
249
 10
0.16867
 20
-1.32874
 30
0.0
 11
0.16867
 21
-1.512871
 31
0.0
  0
LINE
  8
0
  6
CONTINUOUS
 62
     7
  5
24A
 10
0.16867
 20
-1.512871
 30
0.0
 11
0.16867
 21
-1.657954
 31
0.0
  0
LINE
  8
0
  6
CONTINUOUS
 62
     7
  5
24B
 10
0.131188
 20
-1.32874
 30
0.0
 11
0.131188
 21
-1.512871
 31
0.0
  0
LINE
  8
0
  6
CONTINUOUS
 62
     7
  5
24C
 10
0.16867
 20
-1.657954
 30
0.0
 11
0.131188
 21
-1.657954
 31
0.0
  0
LINE
  8
0
  6
CONTINUOUS
 62
     7
  5
24D
 10
0.131188
 20
-1.512871
 30
0.0
 11
0.131188
 21
-1.657954
 31
0.0
  0
LINE
  8
0
  6
CONTINUOUS
 62
     7
  5
24E
 10
-0.299858
 20
-1.376092
 30
0.0
 11
-0.282232
 21
-1.377658
 31
0.0
  0
LINE
  8
0
  6
CONTINUOUS
 62
     7
  5
24F
 10
-0.282232
 20
-1.377658
 30
0.0
 11
-0.264667
 21
-1.382492
 31
0.0
  0
LINE
  8
0
  6
CONTINUOUS
 62
     7
  5
250
 10
-0.264667
 20
-1.382492
 30
0.0
 11
-0.248214
 21
-1.390468
 31
0.0
  0
LINE
  8
0
  6
CONTINUOUS
 62
     7
  5
251
 10
-0.248214
 20
-1.390468
 30
0.0
 11
-0.233753
 21
-1.401074
 31
0.0
  0
LINE
  8
0
  6
CONTINUOUS
 62
     7
  5
252
 10
-0.233753
 20
-1.401074
 30
0.0
 11
-0.221693
 21
-1.413749
 31
0.0
  0
LINE
  8
0
  6
CONTINUOUS
 62
     7
  5
253
 10
-0.221693
 20
-1.413749
 30
0.0
 11
-0.211762
 21
-1.428825
 31
0.0
  0
LINE
  8
0
  6
CONTINUOUS
 62
     7
  5
254
 10
-0.211762
 20
-1.428825
 30
0.0
 11
-0.204645
 21
-1.445631
 31
0.0
  0
LINE
  8
0
  6
CONTINUOUS
 62
     7
  5
255
 10
-0.204645
 20
-1.445631
 30
0.0
 11
-0.200728
 21
-1.463247
 31
0.0
  0
LINE
  8
0
  6
CONTINUOUS
 62
     7
  5
256
 10
-0.200728
 20
-1.463247
 30
0.0
 11
-0.200012
 21
-1.480663
 31
0.0
  0
LINE
  8
0
  6
CONTINUOUS
 62
     7
  5
257
 10
-0.200012
 20
-1.480663
 30
0.0
 11
-0.202403
 21
-1.498247
 31
0.0
  0
LINE
  8
0
  6
CONTINUOUS
 62
     7
  5
258
 10
-0.202403
 20
-1.498247
 30
0.0
 11
-0.208012
 21
-1.515475
 31
0.0
  0
LINE
  8
0
  6
CONTINUOUS
 62
     7
  5
259
 10
-0.208012
 20
-1.515475
 30
0.0
 11
-0.216623
 21
-1.531384
 31
0.0
  0
LINE
  8
0
  6
CONTINUOUS
 62
     7
  5
25A
 10
-0.216623
 20
-1.531384
 30
0.0
 11
-0.227655
 21
-1.545163
 31
0.0
  0
LINE
  8
0
  6
CONTINUOUS
 62
     7
  5
25B
 10
-0.227655
 20
-1.545163
 30
0.0
 11
-0.240805
 21
-1.556688
 31
0.0
  0
LINE
  8
0
  6
CONTINUOUS
 62
     7
  5
25C
 10
-0.240805
 20
-1.556688
 30
0.0
 11
-0.256312
 21
-1.566013
 31
0.0
  0
LINE
  8
0
  6
CONTINUOUS
 62
     7
  5
25D
 10
-0.256312
 20
-1.566013
 30
0.0
 11
-0.273397
 21
-1.572431
 31
0.0
  0
LINE
  8
0
  6
CONTINUOUS
 62
     7
  5
25E
 10
-0.273397
 20
-1.572431
 30
0.0
 11
-0.291112
 21
-1.575614
 31
0.0
  0
LINE
  8
0
  6
CONTINUOUS
 62
     7
  5
25F
 10
-0.291112
 20
-1.575614
 30
0.0
 11
-0.308604
 21
-1.575614
 31
0.0
  0
LINE
  8
0
  6
CONTINUOUS
 62
     7
  5
260
 10
-0.308604
 20
-1.575614
 30
0.0
 11
-0.32632
 21
-1.572431
 31
0.0
  0
LINE
  8
0
  6
CONTINUOUS
 62
     7
  5
261
 10
-0.32632
 20
-1.572431
 30
0.0
 11
-0.343404
 21
-1.566013
 31
0.0
  0
LINE
  8
0
  6
CONTINUOUS
 62
     7
  5
262
 10
-0.343404
 20
-1.566013
 30
0.0
 11
-0.358911
 21
-1.556688
 31
0.0
  0
LINE
  8
0
  6
CONTINUOUS
 62
     7
  5
263
 10
-0.358911
 20
-1.556688
 30
0.0
 11
-0.372061
 21
-1.545163
 31
0.0
  0
LINE
  8
0
  6
CONTINUOUS
 62
     7
  5
264
 10
-0.372061
 20
-1.545163
 30
0.0
 11
-0.383093
 21
-1.531384
 31
0.0
  0
LINE
  8
0
  6
CONTINUOUS
 62
     7
  5
265
 10
-0.383093
 20
-1.531384
 30
0.0
 11
-0.391705
 21
-1.515475
 31
0.0
  0
LINE
  8
0
  6
CONTINUOUS
 62
     7
  5
266
 10
-0.391705
 20
-1.515475
 30
0.0
 11
-0.397314
 21
-1.498247
 31
0.0
  0
LINE
  8
0
  6
CONTINUOUS
 62
     7
  5
267
 10
-0.397314
 20
-1.498247
 30
0.0
 11
-0.399704
 21
-1.480663
 31
0.0
  0
LINE
  8
0
  6
CONTINUOUS
 62
     7
  5
268
 10
-0.399704
 20
-1.480663
 30
0.0
 11
-0.398988
 21
-1.463247
 31
0.0
  0
LINE
  8
0
  6
CONTINUOUS
 62
     7
  5
269
 10
-0.398988
 20
-1.463247
 30
0.0
 11
-0.395071
 21
-1.445631
 31
0.0
  0
LINE
  8
0
  6
CONTINUOUS
 62
     7
  5
26A
 10
-0.395071
 20
-1.445631
 30
0.0
 11
-0.387954
 21
-1.428825
 31
0.0
  0
LINE
  8
0
  6
CONTINUOUS
 62
     7
  5
26B
 10
-0.387954
 20
-1.428825
 30
0.0
 11
-0.378023
 21
-1.413749
 31
0.0
  0
LINE
  8
0
  6
CONTINUOUS
 62
     7
  5
26C
 10
-0.378023
 20
-1.413749
 30
0.0
 11
-0.365964
 21
-1.401074
 31
0.0
  0
LINE
  8
0
  6
CONTINUOUS
 62
     7
  5
26D
 10
-0.365964
 20
-1.401074
 30
0.0
 11
-0.351503
 21
-1.390468
 31
0.0
  0
LINE
  8
0
  6
CONTINUOUS
 62
     7
  5
26E
 10
-0.351503
 20
-1.390468
 30
0.0
 11
-0.335049
 21
-1.382492
 31
0.0
  0
LINE
  8
0
  6
CONTINUOUS
 62
     7
  5
26F
 10
-0.335049
 20
-1.382492
 30
0.0
 11
-0.317484
 21
-1.377658
 31
0.0
  0
LINE
  8
0
  6
CONTINUOUS
 62
     7
  5
270
 10
-0.317484
 20
-1.377658
 30
0.0
 11
-0.299858
 21
-1.376092
 31
0.0
  0
LINE
  8
0
  6
CONTINUOUS
 62
     7
  5
271
 10
0.0
 20
-1.376092
 30
0.0
 11
0.017626
 21
-1.377658
 31
0.0
  0
LINE
  8
0
  6
CONTINUOUS
 62
     7
  5
272
 10
0.017626
 20
-1.377658
 30
0.0
 11
0.035191
 21
-1.382492
 31
0.0
  0
LINE
  8
0
  6
CONTINUOUS
 62
     7
  5
273
 10
0.035191
 20
-1.382492
 30
0.0
 11
0.051644
 21
-1.390468
 31
0.0
  0
LINE
  8
0
  6
CONTINUOUS
 62
     7
  5
274
 10
0.051644
 20
-1.390468
 30
0.0
 11
0.066106
 21
-1.401074
 31
0.0
  0
LINE
  8
0
  6
CONTINUOUS
 62
     7
  5
275
 10
0.066106
 20
-1.401074
 30
0.0
 11
0.078165
 21
-1.413749
 31
0.0
  0
LINE
  8
0
  6
CONTINUOUS
 62
     7
  5
276
 10
0.078165
 20
-1.413749
 30
0.0
 11
0.088096
 21
-1.428825
 31
0.0
  0
LINE
  8
0
  6
CONTINUOUS
 62
     7
  5
277
 10
0.088096
 20
-1.428825
 30
0.0
 11
0.095213
 21
-1.445631
 31
0.0
  0
LINE
  8
0
  6
CONTINUOUS
 62
     7
  5
278
 10
0.095213
 20
-1.445631
 30
0.0
 11
0.09913
 21
-1.463247
 31
0.0
  0
LINE
  8
0
  6
CONTINUOUS
 62
     7
  5
279
 10
0.09913
 20
-1.463247
 30
0.0
 11
0.099846
 21
-1.480663
 31
0.0
  0
LINE
  8
0
  6
CONTINUOUS
 62
     7
  5
27A
 10
0.099846
 20
-1.480663
 30
0.0
 11
0.097456
 21
-1.498247
 31
0.0
  0
LINE
  8
0
  6
CONTINUOUS
 62
     7
  5
27B
 10
0.097456
 20
-1.498247
 30
0.0
 11
0.091847
 21
-1.515475
 31
0.0
  0
LINE
  8
0
  6
CONTINUOUS
 62
     7
  5
27C
 10
0.091847
 20
-1.515475
 30
0.0
 11
0.083235
 21
-1.531384
 31
0.0
  0
LINE
  8
0
  6
CONTINUOUS
 62
     7
  5
27D
 10
0.083235
 20
-1.531384
 30
0.0
 11
0.072203
 21
-1.545163
 31
0.0
  0
LINE
  8
0
  6
CONTINUOUS
 62
     7
  5
27E
 10
0.072203
 20
-1.545163
 30
0.0
 11
0.059053
 21
-1.556688
 31
0.0
  0
LINE
  8
0
  6
CONTINUOUS
 62
     7
  5
27F
 10
0.059053
 20
-1.556688
 30
0.0
 11
0.043546
 21
-1.566013
 31
0.0
  0
LINE
  8
0
  6
CONTINUOUS
 62
     7
  5
280
 10
0.043546
 20
-1.566013
 30
0.0
 11
0.026461
 21
-1.572431
 31
0.0
  0
LINE
  8
0
  6
CONTINUOUS
 62
     7
  5
281
 10
0.026461
 20
-1.572431
 30
0.0
 11
0.008746
 21
-1.575614
 31
0.0
  0
LINE
  8
0
  6
CONTINUOUS
 62
     7
  5
282
 10
0.008746
 20
-1.575614
 30
0.0
 11
-0.008746
 21
-1.575614
 31
0.0
  0
LINE
  8
0
  6
CONTINUOUS
 62
     7
  5
283
 10
-0.008746
 20
-1.575614
 30
0.0
 11
-0.026461
 21
-1.572431
 31
0.0
  0
LINE
  8
0
  6
CONTINUOUS
 62
     7
  5
284
 10
-0.026461
 20
-1.572431
 30
0.0
 11
-0.043546
 21
-1.566013
 31
0.0
  0
LINE
  8
0
  6
CONTINUOUS
 62
     7
  5
285
 10
-0.043546
 20
-1.566013
 30
0.0
 11
-0.059053
 21
-1.556688
 31
0.0
  0
LINE
  8
0
  6
CONTINUOUS
 62
     7
  5
286
 10
-0.059053
 20
-1.556688
 30
0.0
 11
-0.072203
 21
-1.545163
 31
0.0
  0
LINE
  8
0
  6
CONTINUOUS
 62
     7
  5
287
 10
-0.072203
 20
-1.545163
 30
0.0
 11
-0.083235
 21
-1.531384
 31
0.0
  0
LINE
  8
0
  6
CONTINUOUS
 62
     7
  5
288
 10
-0.083235
 20
-1.531384
 30
0.0
 11
-0.091847
 21
-1.515475
 31
0.0
  0
LINE
  8
0
  6
CONTINUOUS
 62
     7
  5
289
 10
-0.091847
 20
-1.515475
 30
0.0
 11
-0.097456
 21
-1.498247
 31
0.0
  0
LINE
  8
0
  6
CONTINUOUS
 62
     7
  5
28A
 10
-0.097456
 20
-1.498247
 30
0.0
 11
-0.099846
 21
-1.480663
 31
0.0
  0
LINE
  8
0
  6
CONTINUOUS
 62
     7
  5
28B
 10
-0.099846
 20
-1.480663
 30
0.0
 11
-0.09913
 21
-1.463247
 31
0.0
  0
LINE
  8
0
  6
CONTINUOUS
 62
     7
  5
28C
 10
-0.09913
 20
-1.463247
 30
0.0
 11
-0.095213
 21
-1.445631
 31
0.0
  0
LINE
  8
0
  6
CONTINUOUS
 62
     7
  5
28D
 10
-0.095213
 20
-1.445631
 30
0.0
 11
-0.088096
 21
-1.428825
 31
0.0
  0
LINE
  8
0
  6
CONTINUOUS
 62
     7
  5
28E
 10
-0.088096
 20
-1.428825
 30
0.0
 11
-0.078165
 21
-1.413749
 31
0.0
  0
LINE
  8
0
  6
CONTINUOUS
 62
     7
  5
28F
 10
-0.078165
 20
-1.413749
 30
0.0
 11
-0.066106
 21
-1.401074
 31
0.0
  0
LINE
  8
0
  6
CONTINUOUS
 62
     7
  5
290
 10
-0.066106
 20
-1.401074
 30
0.0
 11
-0.051644
 21
-1.390468
 31
0.0
  0
LINE
  8
0
  6
CONTINUOUS
 62
     7
  5
291
 10
-0.051644
 20
-1.390468
 30
0.0
 11
-0.035191
 21
-1.382492
 31
0.0
  0
LINE
  8
0
  6
CONTINUOUS
 62
     7
  5
292
 10
-0.035191
 20
-1.382492
 30
0.0
 11
-0.017626
 21
-1.377658
 31
0.0
  0
LINE
  8
0
  6
CONTINUOUS
 62
     7
  5
293
 10
-0.017626
 20
-1.377658
 30
0.0
 11
0.0
 21
-1.376092
 31
0.0
  0
LINE
  8
0
  6
CONTINUOUS
 62
     7
  5
294
 10
0.299858
 20
-1.376092
 30
0.0
 11
0.317484
 21
-1.377658
 31
0.0
  0
LINE
  8
0
  6
CONTINUOUS
 62
     7
  5
295
 10
0.317484
 20
-1.377658
 30
0.0
 11
0.335049
 21
-1.382492
 31
0.0
  0
LINE
  8
0
  6
CONTINUOUS
 62
     7
  5
296
 10
0.335049
 20
-1.382492
 30
0.0
 11
0.351503
 21
-1.390468
 31
0.0
  0
LINE
  8
0
  6
CONTINUOUS
 62
     7
  5
297
 10
0.351503
 20
-1.390468
 30
0.0
 11
0.365964
 21
-1.401074
 31
0.0
  0
LINE
  8
0
  6
CONTINUOUS
 62
     7
  5
298
 10
0.365964
 20
-1.401074
 30
0.0
 11
0.378023
 21
-1.413749
 31
0.0
  0
LINE
  8
0
  6
CONTINUOUS
 62
     7
  5
299
 10
0.378023
 20
-1.413749
 30
0.0
 11
0.387954
 21
-1.428825
 31
0.0
  0
LINE
  8
0
  6
CONTINUOUS
 62
     7
  5
29A
 10
0.387954
 20
-1.428825
 30
0.0
 11
0.395071
 21
-1.445631
 31
0.0
  0
LINE
  8
0
  6
CONTINUOUS
 62
     7
  5
29B
 10
0.395071
 20
-1.445631
 30
0.0
 11
0.398988
 21
-1.463247
 31
0.0
  0
LINE
  8
0
  6
CONTINUOUS
 62
     7
  5
29C
 10
0.398988
 20
-1.463247
 30
0.0
 11
0.399704
 21
-1.480663
 31
0.0
  0
LINE
  8
0
  6
CONTINUOUS
 62
     7
  5
29D
 10
0.399704
 20
-1.480663
 30
0.0
 11
0.397314
 21
-1.498247
 31
0.0
  0
LINE
  8
0
  6
CONTINUOUS
 62
     7
  5
29E
 10
0.397314
 20
-1.498247
 30
0.0
 11
0.391705
 21
-1.515475
 31
0.0
  0
LINE
  8
0
  6
CONTINUOUS
 62
     7
  5
29F
 10
0.391705
 20
-1.515475
 30
0.0
 11
0.383093
 21
-1.531384
 31
0.0
  0
LINE
  8
0
  6
CONTINUOUS
 62
     7
  5
2A0
 10
0.383093
 20
-1.531384
 30
0.0
 11
0.372061
 21
-1.545163
 31
0.0
  0
LINE
  8
0
  6
CONTINUOUS
 62
     7
  5
2A1
 10
0.372061
 20
-1.545163
 30
0.0
 11
0.358911
 21
-1.556688
 31
0.0
  0
LINE
  8
0
  6
CONTINUOUS
 62
     7
  5
2A2
 10
0.358911
 20
-1.556688
 30
0.0
 11
0.343404
 21
-1.566013
 31
0.0
  0
LINE
  8
0
  6
CONTINUOUS
 62
     7
  5
2A3
 10
0.343404
 20
-1.566013
 30
0.0
 11
0.32632
 21
-1.572431
 31
0.0
  0
LINE
  8
0
  6
CONTINUOUS
 62
     7
  5
2A4
 10
0.32632
 20
-1.572431
 30
0.0
 11
0.308604
 21
-1.575614
 31
0.0
  0
LINE
  8
0
  6
CONTINUOUS
 62
     7
  5
2A5
 10
0.308604
 20
-1.575614
 30
0.0
 11
0.291112
 21
-1.575614
 31
0.0
  0
LINE
  8
0
  6
CONTINUOUS
 62
     7
  5
2A6
 10
0.291112
 20
-1.575614
 30
0.0
 11
0.273397
 21
-1.572431
 31
0.0
  0
LINE
  8
0
  6
CONTINUOUS
 62
     7
  5
2A7
 10
0.273397
 20
-1.572431
 30
0.0
 11
0.256312
 21
-1.566013
 31
0.0
  0
LINE
  8
0
  6
CONTINUOUS
 62
     7
  5
2A8
 10
0.256312
 20
-1.566013
 30
0.0
 11
0.240805
 21
-1.556688
 31
0.0
  0
LINE
  8
0
  6
CONTINUOUS
 62
     7
  5
2A9
 10
0.240805
 20
-1.556688
 30
0.0
 11
0.227655
 21
-1.545163
 31
0.0
  0
LINE
  8
0
  6
CONTINUOUS
 62
     7
  5
2AA
 10
0.227655
 20
-1.545163
 30
0.0
 11
0.216623
 21
-1.531384
 31
0.0
  0
LINE
  8
0
  6
CONTINUOUS
 62
     7
  5
2AB
 10
0.216623
 20
-1.531384
 30
0.0
 11
0.208012
 21
-1.515475
 31
0.0
  0
LINE
  8
0
  6
CONTINUOUS
 62
     7
  5
2AC
 10
0.208012
 20
-1.515475
 30
0.0
 11
0.202403
 21
-1.498247
 31
0.0
  0
LINE
  8
0
  6
CONTINUOUS
 62
     7
  5
2AD
 10
0.202403
 20
-1.498247
 30
0.0
 11
0.200012
 21
-1.480663
 31
0.0
  0
LINE
  8
0
  6
CONTINUOUS
 62
     7
  5
2AE
 10
0.200012
 20
-1.480663
 30
0.0
 11
0.200728
 21
-1.463247
 31
0.0
  0
LINE
  8
0
  6
CONTINUOUS
 62
     7
  5
2AF
 10
0.200728
 20
-1.463247
 30
0.0
 11
0.204645
 21
-1.445631
 31
0.0
  0
LINE
  8
0
  6
CONTINUOUS
 62
     7
  5
2B0
 10
0.204645
 20
-1.445631
 30
0.0
 11
0.211762
 21
-1.428825
 31
0.0
  0
LINE
  8
0
  6
CONTINUOUS
 62
     7
  5
2B1
 10
0.211762
 20
-1.428825
 30
0.0
 11
0.221693
 21
-1.413749
 31
0.0
  0
LINE
  8
0
  6
CONTINUOUS
 62
     7
  5
2B2
 10
0.221693
 20
-1.413749
 30
0.0
 11
0.233753
 21
-1.401074
 31
0.0
  0
LINE
  8
0
  6
CONTINUOUS
 62
     7
  5
2B3
 10
0.233753
 20
-1.401074
 30
0.0
 11
0.248214
 21
-1.390468
 31
0.0
  0
LINE
  8
0
  6
CONTINUOUS
 62
     7
  5
2B4
 10
0.248214
 20
-1.390468
 30
0.0
 11
0.264667
 21
-1.382492
 31
0.0
  0
LINE
  8
0
  6
CONTINUOUS
 62
     7
  5
2B5
 10
0.264667
 20
-1.382492
 30
0.0
 11
0.282232
 21
-1.377658
 31
0.0
  0
LINE
  8
0
  6
CONTINUOUS
 62
     7
  5
2B6
 10
0.282232
 20
-1.377658
 30
0.0
 11
0.299858
 21
-1.376092
 31
0.0
  0
LINE
  8
0
  6
CONTINUOUS
 62
     7
  5
2B7
 10
-0.131188
 20
-1.657954
 30
0.0
 11
-0.16867
 21
-1.657954
 31
0.0
  0
LINE
  8
0
  6
CONTINUOUS
 62
     7
  5
2B8
 10
-0.412305
 20
-1.657954
 30
0.0
 11
-0.449787
 21
-1.657954
 31
0.0
  0
LINE
  8
0
  6
CONTINUOUS
 62
     7
  5
2B9
 10
0.449787
 20
-1.657954
 30
0.0
 11
0.449787
 21
-1.770654
 31
0.0
  0
LINE
  8
0
  6
CONTINUOUS
 62
     7
  5
2BA
 10
0.449787
 20
-1.657954
 30
0.0
 11
0.412305
 21
-1.657954
 31
0.0
  0
LINE
  8
0
  6
CONTINUOUS
 62
     7
  5
2BB
 10
-0.131188
 20
-1.512871
 30
0.0
 11
-0.131188
 21
-1.657954
 31
0.0
  0
LINE
  8
0
  6
CONTINUOUS
 62
     7
  5
2BC
 10
-0.16867
 20
-1.512871
 30
0.0
 11
-0.16867
 21
-1.657954
 31
0.0
  0
LINE
  8
0
  6
CONTINUOUS
 62
     7
  5
2BD
 10
-0.131188
 20
-1.32874
 30
0.0
 11
-0.131188
 21
-1.512871
 31
0.0
  0
LINE
  8
0
  6
CONTINUOUS
 62
     7
  5
2BE
 10
-0.16867
 20
-1.32874
 30
0.0
 11
-0.16867
 21
-1.512871
 31
0.0
  0
LINE
  8
0
  6
CONTINUOUS
 62
     7
  5
2BF
 10
0.412305
 20
-1.32874
 30
0.0
 11
0.412305
 21
-1.512871
 31
0.0
  0
LINE
  8
0
  6
CONTINUOUS
 62
     7
  5
2C0
 10
0.449787
 20
-1.32874
 30
0.0
 11
0.449787
 21
-1.512871
 31
0.0
  0
LINE
  8
0
  6
CONTINUOUS
 62
     7
  5
2C1
 10
0.449787
 20
-1.512871
 30
0.0
 11
0.449787
 21
-1.657954
 31
0.0
  0
LINE
  8
0
  6
CONTINUOUS
 62
     7
  5
2C2
 10
0.412305
 20
-1.512871
 30
0.0
 11
0.412305
 21
-1.657954
 31
0.0
  0
LINE
  8
0
  6
CONTINUOUS
 62
     7
  5
2C3
 10
-0.412305
 20
-1.512871
 30
0.0
 11
-0.412305
 21
-1.657954
 31
0.0
  0
LINE
  8
0
  6
CONTINUOUS
 62
     7
  5
2C4
 10
-0.412305
 20
-1.32874
 30
0.0
 11
-0.412305
 21
-1.512871
 31
0.0
  0
LINE
  8
0
  6
CONTINUOUS
 62
     7
  5
2C5
 10
-0.450787
 20
-1.32874
 30
0.0
 11
0.450787
 21
-1.32874
 31
0.0
  0
LINE
  8
0
  6
CONTINUOUS
 62
     7
  5
2C6
 10
0.450787
 20
-1.665354
 30
0.0
 11
0.450787
 21
-1.32874
 31
0.0
  0
LINE
  8
0
  6
CONTINUOUS
 62
     7
  5
2C7
 10
0.449787
 20
-1.665354
 30
0.0
 11
0.450787
 21
-1.665354
 31
0.0
  0
LINE
  8
0
  6
CONTINUOUS
 62
     7
  5
2C8
 10
-0.450787
 20
-1.665354
 30
0.0
 11
-0.449787
 21
-1.665354
 31
0.0
  0
LINE
  8
0
  6
CONTINUOUS
 62
     7
  5
2C9
 10
-0.449787
 20
-1.215041
 30
0.0
 11
-0.449787
 21
-1.32774
 31
0.0
  0
LINE
  8
0
  6
CONTINUOUS
 62
     7
  5
2CA
 10
-0.449787
 20
-1.069957
 30
0.0
 11
-0.449787
 21
-1.215041
 31
0.0
  0
LINE
  8
0
  6
CONTINUOUS
 62
     7
  5
2CB
 10
-0.449787
 20
-0.885827
 30
0.0
 11
-0.449787
 21
-1.069957
 31
0.0
  0
LINE
  8
0
  6
CONTINUOUS
 62
     7
  5
2CC
 10
0.449787
 20
-1.32774
 30
0.0
 11
-0.449787
 21
-1.32774
 31
0.0
  0
LINE
  8
0
  6
CONTINUOUS
 62
     7
  5
2CD
 10
0.16867
 20
-0.885827
 30
0.0
 11
0.16867
 21
-1.069957
 31
0.0
  0
LINE
  8
0
  6
CONTINUOUS
 62
     7
  5
2CE
 10
0.16867
 20
-1.069957
 30
0.0
 11
0.16867
 21
-1.215041
 31
0.0
  0
LINE
  8
0
  6
CONTINUOUS
 62
     7
  5
2CF
 10
0.131188
 20
-0.885827
 30
0.0
 11
0.131188
 21
-1.069957
 31
0.0
  0
LINE
  8
0
  6
CONTINUOUS
 62
     7
  5
2D0
 10
0.16867
 20
-1.215041
 30
0.0
 11
0.131188
 21
-1.215041
 31
0.0
  0
LINE
  8
0
  6
CONTINUOUS
 62
     7
  5
2D1
 10
0.131188
 20
-1.069957
 30
0.0
 11
0.131188
 21
-1.215041
 31
0.0
  0
LINE
  8
0
  6
CONTINUOUS
 62
     7
  5
2D2
 10
-0.299858
 20
-0.933178
 30
0.0
 11
-0.282232
 21
-0.934745
 31
0.0
  0
LINE
  8
0
  6
CONTINUOUS
 62
     7
  5
2D3
 10
-0.282232
 20
-0.934745
 30
0.0
 11
-0.264667
 21
-0.939578
 31
0.0
  0
LINE
  8
0
  6
CONTINUOUS
 62
     7
  5
2D4
 10
-0.264667
 20
-0.939578
 30
0.0
 11
-0.248214
 21
-0.947554
 31
0.0
  0
LINE
  8
0
  6
CONTINUOUS
 62
     7
  5
2D5
 10
-0.248214
 20
-0.947554
 30
0.0
 11
-0.233753
 21
-0.958161
 31
0.0
  0
LINE
  8
0
  6
CONTINUOUS
 62
     7
  5
2D6
 10
-0.233753
 20
-0.958161
 30
0.0
 11
-0.221693
 21
-0.970835
 31
0.0
  0
LINE
  8
0
  6
CONTINUOUS
 62
     7
  5
2D7
 10
-0.221693
 20
-0.970835
 30
0.0
 11
-0.211762
 21
-0.985912
 31
0.0
  0
LINE
  8
0
  6
CONTINUOUS
 62
     7
  5
2D8
 10
-0.211762
 20
-0.985912
 30
0.0
 11
-0.204645
 21
-1.002717
 31
0.0
  0
LINE
  8
0
  6
CONTINUOUS
 62
     7
  5
2D9
 10
-0.204645
 20
-1.002717
 30
0.0
 11
-0.200728
 21
-1.020334
 31
0.0
  0
LINE
  8
0
  6
CONTINUOUS
 62
     7
  5
2DA
 10
-0.200728
 20
-1.020334
 30
0.0
 11
-0.200012
 21
-1.03775
 31
0.0
  0
LINE
  8
0
  6
CONTINUOUS
 62
     7
  5
2DB
 10
-0.200012
 20
-1.03775
 30
0.0
 11
-0.202403
 21
-1.055333
 31
0.0
  0
LINE
  8
0
  6
CONTINUOUS
 62
     7
  5
2DC
 10
-0.202403
 20
-1.055333
 30
0.0
 11
-0.208012
 21
-1.072561
 31
0.0
  0
LINE
  8
0
  6
CONTINUOUS
 62
     7
  5
2DD
 10
-0.208012
 20
-1.072561
 30
0.0
 11
-0.216623
 21
-1.088471
 31
0.0
  0
LINE
  8
0
  6
CONTINUOUS
 62
     7
  5
2DE
 10
-0.216623
 20
-1.088471
 30
0.0
 11
-0.227655
 21
-1.102249
 31
0.0
  0
LINE
  8
0
  6
CONTINUOUS
 62
     7
  5
2DF
 10
-0.227655
 20
-1.102249
 30
0.0
 11
-0.240805
 21
-1.113774
 31
0.0
  0
LINE
  8
0
  6
CONTINUOUS
 62
     7
  5
2E0
 10
-0.240805
 20
-1.113774
 30
0.0
 11
-0.256312
 21
-1.1231
 31
0.0
  0
LINE
  8
0
  6
CONTINUOUS
 62
     7
  5
2E1
 10
-0.256312
 20
-1.1231
 30
0.0
 11
-0.273397
 21
-1.129518
 31
0.0
  0
LINE
  8
0
  6
CONTINUOUS
 62
     7
  5
2E2
 10
-0.273397
 20
-1.129518
 30
0.0
 11
-0.291112
 21
-1.132701
 31
0.0
  0
LINE
  8
0
  6
CONTINUOUS
 62
     7
  5
2E3
 10
-0.291112
 20
-1.132701
 30
0.0
 11
-0.308604
 21
-1.132701
 31
0.0
  0
LINE
  8
0
  6
CONTINUOUS
 62
     7
  5
2E4
 10
-0.308604
 20
-1.132701
 30
0.0
 11
-0.32632
 21
-1.129518
 31
0.0
  0
LINE
  8
0
  6
CONTINUOUS
 62
     7
  5
2E5
 10
-0.32632
 20
-1.129518
 30
0.0
 11
-0.343404
 21
-1.1231
 31
0.0
  0
LINE
  8
0
  6
CONTINUOUS
 62
     7
  5
2E6
 10
-0.343404
 20
-1.1231
 30
0.0
 11
-0.358911
 21
-1.113774
 31
0.0
  0
LINE
  8
0
  6
CONTINUOUS
 62
     7
  5
2E7
 10
-0.358911
 20
-1.113774
 30
0.0
 11
-0.372061
 21
-1.102249
 31
0.0
  0
LINE
  8
0
  6
CONTINUOUS
 62
     7
  5
2E8
 10
-0.372061
 20
-1.102249
 30
0.0
 11
-0.383093
 21
-1.088471
 31
0.0
  0
LINE
  8
0
  6
CONTINUOUS
 62
     7
  5
2E9
 10
-0.383093
 20
-1.088471
 30
0.0
 11
-0.391705
 21
-1.072561
 31
0.0
  0
LINE
  8
0
  6
CONTINUOUS
 62
     7
  5
2EA
 10
-0.391705
 20
-1.072561
 30
0.0
 11
-0.397314
 21
-1.055333
 31
0.0
  0
LINE
  8
0
  6
CONTINUOUS
 62
     7
  5
2EB
 10
-0.397314
 20
-1.055333
 30
0.0
 11
-0.399704
 21
-1.03775
 31
0.0
  0
LINE
  8
0
  6
CONTINUOUS
 62
     7
  5
2EC
 10
-0.399704
 20
-1.03775
 30
0.0
 11
-0.398988
 21
-1.020334
 31
0.0
  0
LINE
  8
0
  6
CONTINUOUS
 62
     7
  5
2ED
 10
-0.398988
 20
-1.020334
 30
0.0
 11
-0.395071
 21
-1.002717
 31
0.0
  0
LINE
  8
0
  6
CONTINUOUS
 62
     7
  5
2EE
 10
-0.395071
 20
-1.002717
 30
0.0
 11
-0.387954
 21
-0.985912
 31
0.0
  0
LINE
  8
0
  6
CONTINUOUS
 62
     7
  5
2EF
 10
-0.387954
 20
-0.985912
 30
0.0
 11
-0.378023
 21
-0.970835
 31
0.0
  0
LINE
  8
0
  6
CONTINUOUS
 62
     7
  5
2F0
 10
-0.378023
 20
-0.970835
 30
0.0
 11
-0.365964
 21
-0.958161
 31
0.0
  0
LINE
  8
0
  6
CONTINUOUS
 62
     7
  5
2F1
 10
-0.365964
 20
-0.958161
 30
0.0
 11
-0.351503
 21
-0.947554
 31
0.0
  0
LINE
  8
0
  6
CONTINUOUS
 62
     7
  5
2F2
 10
-0.351503
 20
-0.947554
 30
0.0
 11
-0.335049
 21
-0.939578
 31
0.0
  0
LINE
  8
0
  6
CONTINUOUS
 62
     7
  5
2F3
 10
-0.335049
 20
-0.939578
 30
0.0
 11
-0.317484
 21
-0.934745
 31
0.0
  0
LINE
  8
0
  6
CONTINUOUS
 62
     7
  5
2F4
 10
-0.317484
 20
-0.934745
 30
0.0
 11
-0.299858
 21
-0.933178
 31
0.0
  0
LINE
  8
0
  6
CONTINUOUS
 62
     7
  5
2F5
 10
0.0
 20
-0.933178
 30
0.0
 11
0.017626
 21
-0.934745
 31
0.0
  0
LINE
  8
0
  6
CONTINUOUS
 62
     7
  5
2F6
 10
0.017626
 20
-0.934745
 30
0.0
 11
0.035191
 21
-0.939578
 31
0.0
  0
LINE
  8
0
  6
CONTINUOUS
 62
     7
  5
2F7
 10
0.035191
 20
-0.939578
 30
0.0
 11
0.051644
 21
-0.947554
 31
0.0
  0
LINE
  8
0
  6
CONTINUOUS
 62
     7
  5
2F8
 10
0.051644
 20
-0.947554
 30
0.0
 11
0.066106
 21
-0.958161
 31
0.0
  0
LINE
  8
0
  6
CONTINUOUS
 62
     7
  5
2F9
 10
0.066106
 20
-0.958161
 30
0.0
 11
0.078165
 21
-0.970835
 31
0.0
  0
LINE
  8
0
  6
CONTINUOUS
 62
     7
  5
2FA
 10
0.078165
 20
-0.970835
 30
0.0
 11
0.088096
 21
-0.985912
 31
0.0
  0
LINE
  8
0
  6
CONTINUOUS
 62
     7
  5
2FB
 10
0.088096
 20
-0.985912
 30
0.0
 11
0.095213
 21
-1.002717
 31
0.0
  0
LINE
  8
0
  6
CONTINUOUS
 62
     7
  5
2FC
 10
0.095213
 20
-1.002717
 30
0.0
 11
0.09913
 21
-1.020334
 31
0.0
  0
LINE
  8
0
  6
CONTINUOUS
 62
     7
  5
2FD
 10
0.09913
 20
-1.020334
 30
0.0
 11
0.099846
 21
-1.03775
 31
0.0
  0
LINE
  8
0
  6
CONTINUOUS
 62
     7
  5
2FE
 10
0.099846
 20
-1.03775
 30
0.0
 11
0.097456
 21
-1.055333
 31
0.0
  0
LINE
  8
0
  6
CONTINUOUS
 62
     7
  5
2FF
 10
0.097456
 20
-1.055333
 30
0.0
 11
0.091847
 21
-1.072561
 31
0.0
  0
LINE
  8
0
  6
CONTINUOUS
 62
     7
  5
300
 10
0.091847
 20
-1.072561
 30
0.0
 11
0.083235
 21
-1.088471
 31
0.0
  0
LINE
  8
0
  6
CONTINUOUS
 62
     7
  5
301
 10
0.083235
 20
-1.088471
 30
0.0
 11
0.072203
 21
-1.102249
 31
0.0
  0
LINE
  8
0
  6
CONTINUOUS
 62
     7
  5
302
 10
0.072203
 20
-1.102249
 30
0.0
 11
0.059053
 21
-1.113774
 31
0.0
  0
LINE
  8
0
  6
CONTINUOUS
 62
     7
  5
303
 10
0.059053
 20
-1.113774
 30
0.0
 11
0.043546
 21
-1.1231
 31
0.0
  0
LINE
  8
0
  6
CONTINUOUS
 62
     7
  5
304
 10
0.043546
 20
-1.1231
 30
0.0
 11
0.026461
 21
-1.129518
 31
0.0
  0
LINE
  8
0
  6
CONTINUOUS
 62
     7
  5
305
 10
0.026461
 20
-1.129518
 30
0.0
 11
0.008746
 21
-1.132701
 31
0.0
  0
LINE
  8
0
  6
CONTINUOUS
 62
     7
  5
306
 10
0.008746
 20
-1.132701
 30
0.0
 11
-0.008746
 21
-1.132701
 31
0.0
  0
LINE
  8
0
  6
CONTINUOUS
 62
     7
  5
307
 10
-0.008746
 20
-1.132701
 30
0.0
 11
-0.026461
 21
-1.129518
 31
0.0
  0
LINE
  8
0
  6
CONTINUOUS
 62
     7
  5
308
 10
-0.026461
 20
-1.129518
 30
0.0
 11
-0.043546
 21
-1.1231
 31
0.0
  0
LINE
  8
0
  6
CONTINUOUS
 62
     7
  5
309
 10
-0.043546
 20
-1.1231
 30
0.0
 11
-0.059053
 21
-1.113774
 31
0.0
  0
LINE
  8
0
  6
CONTINUOUS
 62
     7
  5
30A
 10
-0.059053
 20
-1.113774
 30
0.0
 11
-0.072203
 21
-1.102249
 31
0.0
  0
LINE
  8
0
  6
CONTINUOUS
 62
     7
  5
30B
 10
-0.072203
 20
-1.102249
 30
0.0
 11
-0.083235
 21
-1.088471
 31
0.0
  0
LINE
  8
0
  6
CONTINUOUS
 62
     7
  5
30C
 10
-0.083235
 20
-1.088471
 30
0.0
 11
-0.091847
 21
-1.072561
 31
0.0
  0
LINE
  8
0
  6
CONTINUOUS
 62
     7
  5
30D
 10
-0.091847
 20
-1.072561
 30
0.0
 11
-0.097456
 21
-1.055333
 31
0.0
  0
LINE
  8
0
  6
CONTINUOUS
 62
     7
  5
30E
 10
-0.097456
 20
-1.055333
 30
0.0
 11
-0.099846
 21
-1.03775
 31
0.0
  0
LINE
  8
0
  6
CONTINUOUS
 62
     7
  5
30F
 10
-0.099846
 20
-1.03775
 30
0.0
 11
-0.09913
 21
-1.020334
 31
0.0
  0
LINE
  8
0
  6
CONTINUOUS
 62
     7
  5
310
 10
-0.09913
 20
-1.020334
 30
0.0
 11
-0.095213
 21
-1.002717
 31
0.0
  0
LINE
  8
0
  6
CONTINUOUS
 62
     7
  5
311
 10
-0.095213
 20
-1.002717
 30
0.0
 11
-0.088096
 21
-0.985912
 31
0.0
  0
LINE
  8
0
  6
CONTINUOUS
 62
     7
  5
312
 10
-0.088096
 20
-0.985912
 30
0.0
 11
-0.078165
 21
-0.970835
 31
0.0
  0
LINE
  8
0
  6
CONTINUOUS
 62
     7
  5
313
 10
-0.078165
 20
-0.970835
 30
0.0
 11
-0.066106
 21
-0.958161
 31
0.0
  0
LINE
  8
0
  6
CONTINUOUS
 62
     7
  5
314
 10
-0.066106
 20
-0.958161
 30
0.0
 11
-0.051644
 21
-0.947554
 31
0.0
  0
LINE
  8
0
  6
CONTINUOUS
 62
     7
  5
315
 10
-0.051644
 20
-0.947554
 30
0.0
 11
-0.035191
 21
-0.939578
 31
0.0
  0
LINE
  8
0
  6
CONTINUOUS
 62
     7
  5
316
 10
-0.035191
 20
-0.939578
 30
0.0
 11
-0.017626
 21
-0.934745
 31
0.0
  0
LINE
  8
0
  6
CONTINUOUS
 62
     7
  5
317
 10
-0.017626
 20
-0.934745
 30
0.0
 11
0.0
 21
-0.933178
 31
0.0
  0
LINE
  8
0
  6
CONTINUOUS
 62
     7
  5
318
 10
0.299858
 20
-0.933178
 30
0.0
 11
0.317484
 21
-0.934745
 31
0.0
  0
LINE
  8
0
  6
CONTINUOUS
 62
     7
  5
319
 10
0.317484
 20
-0.934745
 30
0.0
 11
0.335049
 21
-0.939578
 31
0.0
  0
LINE
  8
0
  6
CONTINUOUS
 62
     7
  5
31A
 10
0.335049
 20
-0.939578
 30
0.0
 11
0.351503
 21
-0.947554
 31
0.0
  0
LINE
  8
0
  6
CONTINUOUS
 62
     7
  5
31B
 10
0.351503
 20
-0.947554
 30
0.0
 11
0.365964
 21
-0.958161
 31
0.0
  0
LINE
  8
0
  6
CONTINUOUS
 62
     7
  5
31C
 10
0.365964
 20
-0.958161
 30
0.0
 11
0.378023
 21
-0.970835
 31
0.0
  0
LINE
  8
0
  6
CONTINUOUS
 62
     7
  5
31D
 10
0.378023
 20
-0.970835
 30
0.0
 11
0.387954
 21
-0.985912
 31
0.0
  0
LINE
  8
0
  6
CONTINUOUS
 62
     7
  5
31E
 10
0.387954
 20
-0.985912
 30
0.0
 11
0.395071
 21
-1.002717
 31
0.0
  0
LINE
  8
0
  6
CONTINUOUS
 62
     7
  5
31F
 10
0.395071
 20
-1.002717
 30
0.0
 11
0.398988
 21
-1.020334
 31
0.0
  0
LINE
  8
0
  6
CONTINUOUS
 62
     7
  5
320
 10
0.398988
 20
-1.020334
 30
0.0
 11
0.399704
 21
-1.03775
 31
0.0
  0
LINE
  8
0
  6
CONTINUOUS
 62
     7
  5
321
 10
0.399704
 20
-1.03775
 30
0.0
 11
0.397314
 21
-1.055333
 31
0.0
  0
LINE
  8
0
  6
CONTINUOUS
 62
     7
  5
322
 10
0.397314
 20
-1.055333
 30
0.0
 11
0.391705
 21
-1.072561
 31
0.0
  0
LINE
  8
0
  6
CONTINUOUS
 62
     7
  5
323
 10
0.391705
 20
-1.072561
 30
0.0
 11
0.383093
 21
-1.088471
 31
0.0
  0
LINE
  8
0
  6
CONTINUOUS
 62
     7
  5
324
 10
0.383093
 20
-1.088471
 30
0.0
 11
0.372061
 21
-1.102249
 31
0.0
  0
LINE
  8
0
  6
CONTINUOUS
 62
     7
  5
325
 10
0.372061
 20
-1.102249
 30
0.0
 11
0.358911
 21
-1.113774
 31
0.0
  0
LINE
  8
0
  6
CONTINUOUS
 62
     7
  5
326
 10
0.358911
 20
-1.113774
 30
0.0
 11
0.343404
 21
-1.1231
 31
0.0
  0
LINE
  8
0
  6
CONTINUOUS
 62
     7
  5
327
 10
0.343404
 20
-1.1231
 30
0.0
 11
0.32632
 21
-1.129518
 31
0.0
  0
LINE
  8
0
  6
CONTINUOUS
 62
     7
  5
328
 10
0.32632
 20
-1.129518
 30
0.0
 11
0.308604
 21
-1.132701
 31
0.0
  0
LINE
  8
0
  6
CONTINUOUS
 62
     7
  5
329
 10
0.308604
 20
-1.132701
 30
0.0
 11
0.291112
 21
-1.132701
 31
0.0
  0
LINE
  8
0
  6
CONTINUOUS
 62
     7
  5
32A
 10
0.291112
 20
-1.132701
 30
0.0
 11
0.273397
 21
-1.129518
 31
0.0
  0
LINE
  8
0
  6
CONTINUOUS
 62
     7
  5
32B
 10
0.273397
 20
-1.129518
 30
0.0
 11
0.256312
 21
-1.1231
 31
0.0
  0
LINE
  8
0
  6
CONTINUOUS
 62
     7
  5
32C
 10
0.256312
 20
-1.1231
 30
0.0
 11
0.240805
 21
-1.113774
 31
0.0
  0
LINE
  8
0
  6
CONTINUOUS
 62
     7
  5
32D
 10
0.240805
 20
-1.113774
 30
0.0
 11
0.227655
 21
-1.102249
 31
0.0
  0
LINE
  8
0
  6
CONTINUOUS
 62
     7
  5
32E
 10
0.227655
 20
-1.102249
 30
0.0
 11
0.216623
 21
-1.088471
 31
0.0
  0
LINE
  8
0
  6
CONTINUOUS
 62
     7
  5
32F
 10
0.216623
 20
-1.088471
 30
0.0
 11
0.208012
 21
-1.072561
 31
0.0
  0
LINE
  8
0
  6
CONTINUOUS
 62
     7
  5
330
 10
0.208012
 20
-1.072561
 30
0.0
 11
0.202403
 21
-1.055333
 31
0.0
  0
LINE
  8
0
  6
CONTINUOUS
 62
     7
  5
331
 10
0.202403
 20
-1.055333
 30
0.0
 11
0.200012
 21
-1.03775
 31
0.0
  0
LINE
  8
0
  6
CONTINUOUS
 62
     7
  5
332
 10
0.200012
 20
-1.03775
 30
0.0
 11
0.200728
 21
-1.020334
 31
0.0
  0
LINE
  8
0
  6
CONTINUOUS
 62
     7
  5
333
 10
0.200728
 20
-1.020334
 30
0.0
 11
0.204645
 21
-1.002717
 31
0.0
  0
LINE
  8
0
  6
CONTINUOUS
 62
     7
  5
334
 10
0.204645
 20
-1.002717
 30
0.0
 11
0.211762
 21
-0.985912
 31
0.0
  0
LINE
  8
0
  6
CONTINUOUS
 62
     7
  5
335
 10
0.211762
 20
-0.985912
 30
0.0
 11
0.221693
 21
-0.970835
 31
0.0
  0
LINE
  8
0
  6
CONTINUOUS
 62
     7
  5
336
 10
0.221693
 20
-0.970835
 30
0.0
 11
0.233753
 21
-0.958161
 31
0.0
  0
LINE
  8
0
  6
CONTINUOUS
 62
     7
  5
337
 10
0.233753
 20
-0.958161
 30
0.0
 11
0.248214
 21
-0.947554
 31
0.0
  0
LINE
  8
0
  6
CONTINUOUS
 62
     7
  5
338
 10
0.248214
 20
-0.947554
 30
0.0
 11
0.264667
 21
-0.939578
 31
0.0
  0
LINE
  8
0
  6
CONTINUOUS
 62
     7
  5
339
 10
0.264667
 20
-0.939578
 30
0.0
 11
0.282232
 21
-0.934745
 31
0.0
  0
LINE
  8
0
  6
CONTINUOUS
 62
     7
  5
33A
 10
0.282232
 20
-0.934745
 30
0.0
 11
0.299858
 21
-0.933178
 31
0.0
  0
LINE
  8
0
  6
CONTINUOUS
 62
     7
  5
33B
 10
-0.131188
 20
-1.215041
 30
0.0
 11
-0.16867
 21
-1.215041
 31
0.0
  0
LINE
  8
0
  6
CONTINUOUS
 62
     7
  5
33C
 10
-0.412305
 20
-1.215041
 30
0.0
 11
-0.449787
 21
-1.215041
 31
0.0
  0
LINE
  8
0
  6
CONTINUOUS
 62
     7
  5
33D
 10
0.449787
 20
-1.215041
 30
0.0
 11
0.449787
 21
-1.32774
 31
0.0
  0
LINE
  8
0
  6
CONTINUOUS
 62
     7
  5
33E
 10
0.449787
 20
-1.215041
 30
0.0
 11
0.412305
 21
-1.215041
 31
0.0
  0
LINE
  8
0
  6
CONTINUOUS
 62
     7
  5
33F
 10
-0.131188
 20
-1.069957
 30
0.0
 11
-0.131188
 21
-1.215041
 31
0.0
  0
LINE
  8
0
  6
CONTINUOUS
 62
     7
  5
340
 10
-0.16867
 20
-1.069957
 30
0.0
 11
-0.16867
 21
-1.215041
 31
0.0
  0
LINE
  8
0
  6
CONTINUOUS
 62
     7
  5
341
 10
-0.131188
 20
-0.885827
 30
0.0
 11
-0.131188
 21
-1.069957
 31
0.0
  0
LINE
  8
0
  6
CONTINUOUS
 62
     7
  5
342
 10
-0.16867
 20
-0.885827
 30
0.0
 11
-0.16867
 21
-1.069957
 31
0.0
  0
LINE
  8
0
  6
CONTINUOUS
 62
     7
  5
343
 10
0.412305
 20
-0.885827
 30
0.0
 11
0.412305
 21
-1.069957
 31
0.0
  0
LINE
  8
0
  6
CONTINUOUS
 62
     7
  5
344
 10
0.449787
 20
-0.885827
 30
0.0
 11
0.449787
 21
-1.069957
 31
0.0
  0
LINE
  8
0
  6
CONTINUOUS
 62
     7
  5
345
 10
0.449787
 20
-1.069957
 30
0.0
 11
0.449787
 21
-1.215041
 31
0.0
  0
LINE
  8
0
  6
CONTINUOUS
 62
     7
  5
346
 10
0.412305
 20
-1.069957
 30
0.0
 11
0.412305
 21
-1.215041
 31
0.0
  0
LINE
  8
0
  6
CONTINUOUS
 62
     7
  5
347
 10
-0.412305
 20
-1.069957
 30
0.0
 11
-0.412305
 21
-1.215041
 31
0.0
  0
LINE
  8
0
  6
CONTINUOUS
 62
     7
  5
348
 10
-0.412305
 20
-0.885827
 30
0.0
 11
-0.412305
 21
-1.069957
 31
0.0
  0
LINE
  8
0
  6
CONTINUOUS
 62
     7
  5
349
 10
-0.450787
 20
-0.885827
 30
0.0
 11
0.450787
 21
-0.885827
 31
0.0
  0
LINE
  8
0
  6
CONTINUOUS
 62
     7
  5
34A
 10
0.450787
 20
-1.222441
 30
0.0
 11
0.450787
 21
-0.885827
 31
0.0
  0
LINE
  8
0
  6
CONTINUOUS
 62
     7
  5
34B
 10
0.449787
 20
-1.222441
 30
0.0
 11
0.450787
 21
-1.222441
 31
0.0
  0
LINE
  8
0
  6
CONTINUOUS
 62
     7
  5
34C
 10
-0.450787
 20
-1.222441
 30
0.0
 11
-0.449787
 21
-1.222441
 31
0.0
  0
LINE
  8
0
  6
CONTINUOUS
 62
     7
  5
34D
 10
-0.449787
 20
1.770654
 30
0.0
 11
0.449787
 21
1.770654
 31
0.0
  0
LINE
  8
0
  6
CONTINUOUS
 62
     7
  5
34E
 10
-0.449787
 20
1.32874
 30
0.0
 11
-0.449787
 21
1.512871
 31
0.0
  0
LINE
  8
0
  6
CONTINUOUS
 62
     7
  5
34F
 10
-0.449787
 20
1.512871
 30
0.0
 11
-0.449787
 21
1.657954
 31
0.0
  0
LINE
  8
0
  6
CONTINUOUS
 62
     7
  5
350
 10
-0.449787
 20
1.657954
 30
0.0
 11
-0.449787
 21
1.770654
 31
0.0
  0
LINE
  8
0
  6
CONTINUOUS
 62
     7
  5
351
 10
-0.16867
 20
1.32874
 30
0.0
 11
-0.16867
 21
1.512871
 31
0.0
  0
LINE
  8
0
  6
CONTINUOUS
 62
     7
  5
352
 10
-0.16867
 20
1.512871
 30
0.0
 11
-0.16867
 21
1.657954
 31
0.0
  0
LINE
  8
0
  6
CONTINUOUS
 62
     7
  5
353
 10
-0.131188
 20
1.32874
 30
0.0
 11
-0.131188
 21
1.512871
 31
0.0
  0
LINE
  8
0
  6
CONTINUOUS
 62
     7
  5
354
 10
-0.16867
 20
1.657954
 30
0.0
 11
-0.131188
 21
1.657954
 31
0.0
  0
LINE
  8
0
  6
CONTINUOUS
 62
     7
  5
355
 10
-0.131188
 20
1.512871
 30
0.0
 11
-0.131188
 21
1.657954
 31
0.0
  0
LINE
  8
0
  6
CONTINUOUS
 62
     7
  5
356
 10
0.299858
 20
1.376092
 30
0.0
 11
0.282232
 21
1.377658
 31
0.0
  0
LINE
  8
0
  6
CONTINUOUS
 62
     7
  5
357
 10
0.282232
 20
1.377658
 30
0.0
 11
0.264667
 21
1.382492
 31
0.0
  0
LINE
  8
0
  6
CONTINUOUS
 62
     7
  5
358
 10
0.264667
 20
1.382492
 30
0.0
 11
0.248214
 21
1.390468
 31
0.0
  0
LINE
  8
0
  6
CONTINUOUS
 62
     7
  5
359
 10
0.248214
 20
1.390468
 30
0.0
 11
0.233753
 21
1.401074
 31
0.0
  0
LINE
  8
0
  6
CONTINUOUS
 62
     7
  5
35A
 10
0.233753
 20
1.401074
 30
0.0
 11
0.221693
 21
1.413749
 31
0.0
  0
LINE
  8
0
  6
CONTINUOUS
 62
     7
  5
35B
 10
0.221693
 20
1.413749
 30
0.0
 11
0.211762
 21
1.428826
 31
0.0
  0
LINE
  8
0
  6
CONTINUOUS
 62
     7
  5
35C
 10
0.211762
 20
1.428826
 30
0.0
 11
0.204645
 21
1.445631
 31
0.0
  0
LINE
  8
0
  6
CONTINUOUS
 62
     7
  5
35D
 10
0.204645
 20
1.445631
 30
0.0
 11
0.200728
 21
1.463247
 31
0.0
  0
LINE
  8
0
  6
CONTINUOUS
 62
     7
  5
35E
 10
0.200728
 20
1.463247
 30
0.0
 11
0.200012
 21
1.480664
 31
0.0
  0
LINE
  8
0
  6
CONTINUOUS
 62
     7
  5
35F
 10
0.200012
 20
1.480664
 30
0.0
 11
0.202403
 21
1.49825
 31
0.0
  0
LINE
  8
0
  6
CONTINUOUS
 62
     7
  5
360
 10
0.202403
 20
1.49825
 30
0.0
 11
0.208015
 21
1.515482
 31
0.0
  0
LINE
  8
0
  6
CONTINUOUS
 62
     7
  5
361
 10
0.208015
 20
1.515482
 30
0.0
 11
0.216628
 21
1.531392
 31
0.0
  0
LINE
  8
0
  6
CONTINUOUS
 62
     7
  5
362
 10
0.216628
 20
1.531392
 30
0.0
 11
0.227657
 21
1.545164
 31
0.0
  0
LINE
  8
0
  6
CONTINUOUS
 62
     7
  5
363
 10
0.227657
 20
1.545164
 30
0.0
 11
0.240812
 21
1.556693
 31
0.0
  0
LINE
  8
0
  6
CONTINUOUS
 62
     7
  5
364
 10
0.240812
 20
1.556693
 30
0.0
 11
0.25632
 21
1.566017
 31
0.0
  0
LINE
  8
0
  6
CONTINUOUS
 62
     7
  5
365
 10
0.25632
 20
1.566017
 30
0.0
 11
0.273401
 21
1.572432
 31
0.0
  0
LINE
  8
0
  6
CONTINUOUS
 62
     7
  5
366
 10
0.273401
 20
1.572432
 30
0.0
 11
0.291113
 21
1.575614
 31
0.0
  0
LINE
  8
0
  6
CONTINUOUS
 62
     7
  5
367
 10
0.291113
 20
1.575614
 30
0.0
 11
0.308604
 21
1.575614
 31
0.0
  0
LINE
  8
0
  6
CONTINUOUS
 62
     7
  5
368
 10
0.308604
 20
1.575614
 30
0.0
 11
0.326319
 21
1.572431
 31
0.0
  0
LINE
  8
0
  6
CONTINUOUS
 62
     7
  5
369
 10
0.326319
 20
1.572431
 30
0.0
 11
0.343404
 21
1.566013
 31
0.0
  0
LINE
  8
0
  6
CONTINUOUS
 62
     7
  5
36A
 10
0.343404
 20
1.566013
 30
0.0
 11
0.358911
 21
1.556688
 31
0.0
  0
LINE
  8
0
  6
CONTINUOUS
 62
     7
  5
36B
 10
0.358911
 20
1.556688
 30
0.0
 11
0.372061
 21
1.545163
 31
0.0
  0
LINE
  8
0
  6
CONTINUOUS
 62
     7
  5
36C
 10
0.372061
 20
1.545163
 30
0.0
 11
0.383093
 21
1.531384
 31
0.0
  0
LINE
  8
0
  6
CONTINUOUS
 62
     7
  5
36D
 10
0.383093
 20
1.531384
 30
0.0
 11
0.391705
 21
1.515475
 31
0.0
  0
LINE
  8
0
  6
CONTINUOUS
 62
     7
  5
36E
 10
0.391705
 20
1.515475
 30
0.0
 11
0.397314
 21
1.498247
 31
0.0
  0
LINE
  8
0
  6
CONTINUOUS
 62
     7
  5
36F
 10
0.397314
 20
1.498247
 30
0.0
 11
0.399704
 21
1.480663
 31
0.0
  0
LINE
  8
0
  6
CONTINUOUS
 62
     7
  5
370
 10
0.399704
 20
1.480663
 30
0.0
 11
0.398988
 21
1.463247
 31
0.0
  0
LINE
  8
0
  6
CONTINUOUS
 62
     7
  5
371
 10
0.398988
 20
1.463247
 30
0.0
 11
0.395071
 21
1.445631
 31
0.0
  0
LINE
  8
0
  6
CONTINUOUS
 62
     7
  5
372
 10
0.395071
 20
1.445631
 30
0.0
 11
0.387954
 21
1.428826
 31
0.0
  0
LINE
  8
0
  6
CONTINUOUS
 62
     7
  5
373
 10
0.387954
 20
1.428826
 30
0.0
 11
0.378023
 21
1.413749
 31
0.0
  0
LINE
  8
0
  6
CONTINUOUS
 62
     7
  5
374
 10
0.378023
 20
1.413749
 30
0.0
 11
0.365964
 21
1.401074
 31
0.0
  0
LINE
  8
0
  6
CONTINUOUS
 62
     7
  5
375
 10
0.365964
 20
1.401074
 30
0.0
 11
0.351503
 21
1.390468
 31
0.0
  0
LINE
  8
0
  6
CONTINUOUS
 62
     7
  5
376
 10
0.351503
 20
1.390468
 30
0.0
 11
0.335049
 21
1.382492
 31
0.0
  0
LINE
  8
0
  6
CONTINUOUS
 62
     7
  5
377
 10
0.335049
 20
1.382492
 30
0.0
 11
0.317484
 21
1.377658
 31
0.0
  0
LINE
  8
0
  6
CONTINUOUS
 62
     7
  5
378
 10
0.317484
 20
1.377658
 30
0.0
 11
0.299858
 21
1.376092
 31
0.0
  0
LINE
  8
0
  6
CONTINUOUS
 62
     7
  5
379
 10
0.0
 20
1.376092
 30
0.0
 11
-0.017626
 21
1.377658
 31
0.0
  0
LINE
  8
0
  6
CONTINUOUS
 62
     7
  5
37A
 10
-0.017626
 20
1.377658
 30
0.0
 11
-0.035191
 21
1.382492
 31
0.0
  0
LINE
  8
0
  6
CONTINUOUS
 62
     7
  5
37B
 10
-0.035191
 20
1.382492
 30
0.0
 11
-0.051644
 21
1.390468
 31
0.0
  0
LINE
  8
0
  6
CONTINUOUS
 62
     7
  5
37C
 10
-0.051644
 20
1.390468
 30
0.0
 11
-0.066106
 21
1.401074
 31
0.0
  0
LINE
  8
0
  6
CONTINUOUS
 62
     7
  5
37D
 10
-0.066106
 20
1.401074
 30
0.0
 11
-0.078165
 21
1.413749
 31
0.0
  0
LINE
  8
0
  6
CONTINUOUS
 62
     7
  5
37E
 10
-0.078165
 20
1.413749
 30
0.0
 11
-0.088096
 21
1.428825
 31
0.0
  0
LINE
  8
0
  6
CONTINUOUS
 62
     7
  5
37F
 10
-0.088096
 20
1.428825
 30
0.0
 11
-0.095213
 21
1.445631
 31
0.0
  0
LINE
  8
0
  6
CONTINUOUS
 62
     7
  5
380
 10
-0.095213
 20
1.445631
 30
0.0
 11
-0.09913
 21
1.463247
 31
0.0
  0
LINE
  8
0
  6
CONTINUOUS
 62
     7
  5
381
 10
-0.09913
 20
1.463247
 30
0.0
 11
-0.099846
 21
1.480663
 31
0.0
  0
LINE
  8
0
  6
CONTINUOUS
 62
     7
  5
382
 10
-0.099846
 20
1.480663
 30
0.0
 11
-0.097456
 21
1.498247
 31
0.0
  0
LINE
  8
0
  6
CONTINUOUS
 62
     7
  5
383
 10
-0.097456
 20
1.498247
 30
0.0
 11
-0.091847
 21
1.515475
 31
0.0
  0
LINE
  8
0
  6
CONTINUOUS
 62
     7
  5
384
 10
-0.091847
 20
1.515475
 30
0.0
 11
-0.083235
 21
1.531384
 31
0.0
  0
LINE
  8
0
  6
CONTINUOUS
 62
     7
  5
385
 10
-0.083235
 20
1.531384
 30
0.0
 11
-0.072203
 21
1.545163
 31
0.0
  0
LINE
  8
0
  6
CONTINUOUS
 62
     7
  5
386
 10
-0.072203
 20
1.545163
 30
0.0
 11
-0.059053
 21
1.556688
 31
0.0
  0
LINE
  8
0
  6
CONTINUOUS
 62
     7
  5
387
 10
-0.059053
 20
1.556688
 30
0.0
 11
-0.043546
 21
1.566013
 31
0.0
  0
LINE
  8
0
  6
CONTINUOUS
 62
     7
  5
388
 10
-0.043546
 20
1.566013
 30
0.0
 11
-0.026461
 21
1.572431
 31
0.0
  0
LINE
  8
0
  6
CONTINUOUS
 62
     7
  5
389
 10
-0.026461
 20
1.572431
 30
0.0
 11
-0.008746
 21
1.575614
 31
0.0
  0
LINE
  8
0
  6
CONTINUOUS
 62
     7
  5
38A
 10
-0.008746
 20
1.575614
 30
0.0
 11
0.008746
 21
1.575614
 31
0.0
  0
LINE
  8
0
  6
CONTINUOUS
 62
     7
  5
38B
 10
0.008746
 20
1.575614
 30
0.0
 11
0.026461
 21
1.572431
 31
0.0
  0
LINE
  8
0
  6
CONTINUOUS
 62
     7
  5
38C
 10
0.026461
 20
1.572431
 30
0.0
 11
0.043546
 21
1.566013
 31
0.0
  0
LINE
  8
0
  6
CONTINUOUS
 62
     7
  5
38D
 10
0.043546
 20
1.566013
 30
0.0
 11
0.059053
 21
1.556688
 31
0.0
  0
LINE
  8
0
  6
CONTINUOUS
 62
     7
  5
38E
 10
0.059053
 20
1.556688
 30
0.0
 11
0.072203
 21
1.545163
 31
0.0
  0
LINE
  8
0
  6
CONTINUOUS
 62
     7
  5
38F
 10
0.072203
 20
1.545163
 30
0.0
 11
0.083235
 21
1.531384
 31
0.0
  0
LINE
  8
0
  6
CONTINUOUS
 62
     7
  5
390
 10
0.083235
 20
1.531384
 30
0.0
 11
0.091847
 21
1.515475
 31
0.0
  0
LINE
  8
0
  6
CONTINUOUS
 62
     7
  5
391
 10
0.091847
 20
1.515475
 30
0.0
 11
0.097456
 21
1.498247
 31
0.0
  0
LINE
  8
0
  6
CONTINUOUS
 62
     7
  5
392
 10
0.097456
 20
1.498247
 30
0.0
 11
0.099846
 21
1.480663
 31
0.0
  0
LINE
  8
0
  6
CONTINUOUS
 62
     7
  5
393
 10
0.099846
 20
1.480663
 30
0.0
 11
0.09913
 21
1.463247
 31
0.0
  0
LINE
  8
0
  6
CONTINUOUS
 62
     7
  5
394
 10
0.09913
 20
1.463247
 30
0.0
 11
0.095213
 21
1.445631
 31
0.0
  0
LINE
  8
0
  6
CONTINUOUS
 62
     7
  5
395
 10
0.095213
 20
1.445631
 30
0.0
 11
0.088096
 21
1.428825
 31
0.0
  0
LINE
  8
0
  6
CONTINUOUS
 62
     7
  5
396
 10
0.088096
 20
1.428825
 30
0.0
 11
0.078165
 21
1.413749
 31
0.0
  0
LINE
  8
0
  6
CONTINUOUS
 62
     7
  5
397
 10
0.078165
 20
1.413749
 30
0.0
 11
0.066106
 21
1.401074
 31
0.0
  0
LINE
  8
0
  6
CONTINUOUS
 62
     7
  5
398
 10
0.066106
 20
1.401074
 30
0.0
 11
0.051644
 21
1.390468
 31
0.0
  0
LINE
  8
0
  6
CONTINUOUS
 62
     7
  5
399
 10
0.051644
 20
1.390468
 30
0.0
 11
0.035191
 21
1.382492
 31
0.0
  0
LINE
  8
0
  6
CONTINUOUS
 62
     7
  5
39A
 10
0.035191
 20
1.382492
 30
0.0
 11
0.017626
 21
1.377658
 31
0.0
  0
LINE
  8
0
  6
CONTINUOUS
 62
     7
  5
39B
 10
0.017626
 20
1.377658
 30
0.0
 11
0.0
 21
1.376092
 31
0.0
  0
LINE
  8
0
  6
CONTINUOUS
 62
     7
  5
39C
 10
-0.299858
 20
1.376092
 30
0.0
 11
-0.317484
 21
1.377658
 31
0.0
  0
LINE
  8
0
  6
CONTINUOUS
 62
     7
  5
39D
 10
-0.317484
 20
1.377658
 30
0.0
 11
-0.335049
 21
1.382492
 31
0.0
  0
LINE
  8
0
  6
CONTINUOUS
 62
     7
  5
39E
 10
-0.335049
 20
1.382492
 30
0.0
 11
-0.351503
 21
1.390468
 31
0.0
  0
LINE
  8
0
  6
CONTINUOUS
 62
     7
  5
39F
 10
-0.351503
 20
1.390468
 30
0.0
 11
-0.365964
 21
1.401074
 31
0.0
  0
LINE
  8
0
  6
CONTINUOUS
 62
     7
  5
3A0
 10
-0.365964
 20
1.401074
 30
0.0
 11
-0.378023
 21
1.413749
 31
0.0
  0
LINE
  8
0
  6
CONTINUOUS
 62
     7
  5
3A1
 10
-0.378023
 20
1.413749
 30
0.0
 11
-0.387954
 21
1.428826
 31
0.0
  0
LINE
  8
0
  6
CONTINUOUS
 62
     7
  5
3A2
 10
-0.387954
 20
1.428826
 30
0.0
 11
-0.395071
 21
1.445631
 31
0.0
  0
LINE
  8
0
  6
CONTINUOUS
 62
     7
  5
3A3
 10
-0.395071
 20
1.445631
 30
0.0
 11
-0.398988
 21
1.463247
 31
0.0
  0
LINE
  8
0
  6
CONTINUOUS
 62
     7
  5
3A4
 10
-0.398988
 20
1.463247
 30
0.0
 11
-0.399704
 21
1.480664
 31
0.0
  0
LINE
  8
0
  6
CONTINUOUS
 62
     7
  5
3A5
 10
-0.399704
 20
1.480664
 30
0.0
 11
-0.397313
 21
1.49825
 31
0.0
  0
LINE
  8
0
  6
CONTINUOUS
 62
     7
  5
3A6
 10
-0.397313
 20
1.49825
 30
0.0
 11
-0.391702
 21
1.515482
 31
0.0
  0
LINE
  8
0
  6
CONTINUOUS
 62
     7
  5
3A7
 10
-0.391702
 20
1.515482
 30
0.0
 11
-0.383088
 21
1.531392
 31
0.0
  0
LINE
  8
0
  6
CONTINUOUS
 62
     7
  5
3A8
 10
-0.383088
 20
1.531392
 30
0.0
 11
-0.372059
 21
1.545164
 31
0.0
  0
LINE
  8
0
  6
CONTINUOUS
 62
     7
  5
3A9
 10
-0.372059
 20
1.545164
 30
0.0
 11
-0.358905
 21
1.556693
 31
0.0
  0
LINE
  8
0
  6
CONTINUOUS
 62
     7
  5
3AA
 10
-0.358905
 20
1.556693
 30
0.0
 11
-0.343397
 21
1.566017
 31
0.0
  0
LINE
  8
0
  6
CONTINUOUS
 62
     7
  5
3AB
 10
-0.343397
 20
1.566017
 30
0.0
 11
-0.326315
 21
1.572432
 31
0.0
  0
LINE
  8
0
  6
CONTINUOUS
 62
     7
  5
3AC
 10
-0.326315
 20
1.572432
 30
0.0
 11
-0.308604
 21
1.575614
 31
0.0
  0
LINE
  8
0
  6
CONTINUOUS
 62
     7
  5
3AD
 10
-0.308604
 20
1.575614
 30
0.0
 11
-0.291112
 21
1.575614
 31
0.0
  0
LINE
  8
0
  6
CONTINUOUS
 62
     7
  5
3AE
 10
-0.291112
 20
1.575614
 30
0.0
 11
-0.273397
 21
1.572431
 31
0.0
  0
LINE
  8
0
  6
CONTINUOUS
 62
     7
  5
3AF
 10
-0.273397
 20
1.572431
 30
0.0
 11
-0.256312
 21
1.566013
 31
0.0
  0
LINE
  8
0
  6
CONTINUOUS
 62
     7
  5
3B0
 10
-0.256312
 20
1.566013
 30
0.0
 11
-0.240805
 21
1.556688
 31
0.0
  0
LINE
  8
0
  6
CONTINUOUS
 62
     7
  5
3B1
 10
-0.240805
 20
1.556688
 30
0.0
 11
-0.227655
 21
1.545163
 31
0.0
  0
LINE
  8
0
  6
CONTINUOUS
 62
     7
  5
3B2
 10
-0.227655
 20
1.545163
 30
0.0
 11
-0.216623
 21
1.531384
 31
0.0
  0
LINE
  8
0
  6
CONTINUOUS
 62
     7
  5
3B3
 10
-0.216623
 20
1.531384
 30
0.0
 11
-0.208012
 21
1.515475
 31
0.0
  0
LINE
  8
0
  6
CONTINUOUS
 62
     7
  5
3B4
 10
-0.208012
 20
1.515475
 30
0.0
 11
-0.202403
 21
1.498247
 31
0.0
  0
LINE
  8
0
  6
CONTINUOUS
 62
     7
  5
3B5
 10
-0.202403
 20
1.498247
 30
0.0
 11
-0.200012
 21
1.480663
 31
0.0
  0
LINE
  8
0
  6
CONTINUOUS
 62
     7
  5
3B6
 10
-0.200012
 20
1.480663
 30
0.0
 11
-0.200728
 21
1.463247
 31
0.0
  0
LINE
  8
0
  6
CONTINUOUS
 62
     7
  5
3B7
 10
-0.200728
 20
1.463247
 30
0.0
 11
-0.204645
 21
1.445631
 31
0.0
  0
LINE
  8
0
  6
CONTINUOUS
 62
     7
  5
3B8
 10
-0.204645
 20
1.445631
 30
0.0
 11
-0.211762
 21
1.428826
 31
0.0
  0
LINE
  8
0
  6
CONTINUOUS
 62
     7
  5
3B9
 10
-0.211762
 20
1.428826
 30
0.0
 11
-0.221693
 21
1.413749
 31
0.0
  0
LINE
  8
0
  6
CONTINUOUS
 62
     7
  5
3BA
 10
-0.221693
 20
1.413749
 30
0.0
 11
-0.233753
 21
1.401074
 31
0.0
  0
LINE
  8
0
  6
CONTINUOUS
 62
     7
  5
3BB
 10
-0.233753
 20
1.401074
 30
0.0
 11
-0.248214
 21
1.390468
 31
0.0
  0
LINE
  8
0
  6
CONTINUOUS
 62
     7
  5
3BC
 10
-0.248214
 20
1.390468
 30
0.0
 11
-0.264667
 21
1.382492
 31
0.0
  0
LINE
  8
0
  6
CONTINUOUS
 62
     7
  5
3BD
 10
-0.264667
 20
1.382492
 30
0.0
 11
-0.282232
 21
1.377658
 31
0.0
  0
LINE
  8
0
  6
CONTINUOUS
 62
     7
  5
3BE
 10
-0.282232
 20
1.377658
 30
0.0
 11
-0.299858
 21
1.376092
 31
0.0
  0
LINE
  8
0
  6
CONTINUOUS
 62
     7
  5
3BF
 10
0.131188
 20
1.657954
 30
0.0
 11
0.16867
 21
1.657954
 31
0.0
  0
LINE
  8
0
  6
CONTINUOUS
 62
     7
  5
3C0
 10
0.412305
 20
1.657954
 30
0.0
 11
0.449787
 21
1.657954
 31
0.0
  0
LINE
  8
0
  6
CONTINUOUS
 62
     7
  5
3C1
 10
0.449787
 20
1.657954
 30
0.0
 11
0.449787
 21
1.770654
 31
0.0
  0
LINE
  8
0
  6
CONTINUOUS
 62
     7
  5
3C2
 10
-0.449787
 20
1.657954
 30
0.0
 11
-0.412305
 21
1.657954
 31
0.0
  0
LINE
  8
0
  6
CONTINUOUS
 62
     7
  5
3C3
 10
0.131188
 20
1.512871
 30
0.0
 11
0.131188
 21
1.657954
 31
0.0
  0
LINE
  8
0
  6
CONTINUOUS
 62
     7
  5
3C4
 10
0.16867
 20
1.512871
 30
0.0
 11
0.16867
 21
1.657954
 31
0.0
  0
LINE
  8
0
  6
CONTINUOUS
 62
     7
  5
3C5
 10
0.131188
 20
1.32874
 30
0.0
 11
0.131188
 21
1.512871
 31
0.0
  0
LINE
  8
0
  6
CONTINUOUS
 62
     7
  5
3C6
 10
0.16867
 20
1.32874
 30
0.0
 11
0.16867
 21
1.512871
 31
0.0
  0
LINE
  8
0
  6
CONTINUOUS
 62
     7
  5
3C7
 10
-0.412305
 20
1.32874
 30
0.0
 11
-0.412305
 21
1.512871
 31
0.0
  0
LINE
  8
0
  6
CONTINUOUS
 62
     7
  5
3C8
 10
-0.412305
 20
1.512871
 30
0.0
 11
-0.412305
 21
1.657954
 31
0.0
  0
LINE
  8
0
  6
CONTINUOUS
 62
     7
  5
3C9
 10
0.412305
 20
1.512871
 30
0.0
 11
0.412305
 21
1.657954
 31
0.0
  0
LINE
  8
0
  6
CONTINUOUS
 62
     7
  5
3CA
 10
0.449787
 20
1.512871
 30
0.0
 11
0.449787
 21
1.657954
 31
0.0
  0
LINE
  8
0
  6
CONTINUOUS
 62
     7
  5
3CB
 10
0.412305
 20
1.32874
 30
0.0
 11
0.412305
 21
1.512871
 31
0.0
  0
LINE
  8
0
  6
CONTINUOUS
 62
     7
  5
3CC
 10
0.449787
 20
1.32874
 30
0.0
 11
0.449787
 21
1.512871
 31
0.0
  0
LINE
  8
0
  6
CONTINUOUS
 62
     7
  5
3CD
 10
-0.450787
 20
1.665354
 30
0.0
 11
-0.449787
 21
1.665354
 31
0.0
  0
LINE
  8
0
  6
CONTINUOUS
 62
     7
  5
3CE
 10
0.449787
 20
1.665354
 30
0.0
 11
0.450787
 21
1.665354
 31
0.0
  0
LINE
  8
0
  6
CONTINUOUS
 62
     7
  5
3CF
 10
-0.450787
 20
1.665354
 30
0.0
 11
-0.450787
 21
1.32874
 31
0.0
  0
LINE
  8
0
  6
CONTINUOUS
 62
     7
  5
3D0
 10
0.450787
 20
1.32874
 30
0.0
 11
0.450787
 21
1.665354
 31
0.0
  0
LINE
  8
0
  6
CONTINUOUS
 62
     7
  5
3D1
 10
0.153806
 20
0.123753
 30
0.0
 11
-0.048026
 21
0.091738
 31
0.0
  0
ARC
  8
0
  6
CONTINUOUS
 62
     7
  5
3D2
 10
0.068898
 20
0.208661
 30
0.0
 40
0.120079
 50
315.0
 51
135.0
  0
LINE
  8
0
  6
CONTINUOUS
 62
     7
  5
3D3
 10
-0.048026
 20
0.091738
 30
0.0
 11
-0.016011
 21
0.29357
 31
0.0
  0
ARC
  8
0
  6
CONTINUOUS
 62
     7
  5
3D4
 10
0.068898
 20
0.208661
 30
0.0
 40
0.120079
 50
135.0
 51
206.973591
  0
ARC
  8
0
  6
CONTINUOUS
 62
     7
  5
3D5
 10
0.068898
 20
0.208661
 30
0.0
 40
0.120079
 50
243.026409
 51
315.0
  0
ARC
  8
0
  6
CONTINUOUS
 62
     7
  5
3D6
 10
0.068898
 20
0.208661
 30
0.0
 40
0.135827
 50
234.684083
 51
215.315917
  0
LINE
  8
0
  6
CONTINUOUS
 62
     7
  5
3D7
 10
0.057087
 20
-0.061024
 30
0.0
 11
0.017717
 21
-0.061024
 31
0.0
  0
LINE
  8
0
  6
CONTINUOUS
 62
     7
  5
3D8
 10
0.037402
 20
-0.041339
 30
0.0
 11
0.057087
 21
-0.061024
 31
0.0
  0
LINE
  8
0
  6
CONTINUOUS
 62
     7
  5
3D9
 10
0.017717
 20
-0.061024
 30
0.0
 11
0.037402
 21
-0.041339
 31
0.0
  0
CIRCLE
  8
0
  6
CONTINUOUS
 62
     7
  5
3DA
 10
0.037402
 20
-0.141732
 30
0.0
 40
0.135827
  0
LINE
  8
0
  6
CONTINUOUS
 62
     7
  5
3DB
 10
0.411417
 20
-0.519685
 30
0.0
 11
0.411417
 21
-0.55494
 31
0.0
  0
LINE
  8
0
  6
CONTINUOUS
 62
     7
  5
3DC
 10
0.411417
 20
-0.55494
 30
0.0
 11
0.411417
 21
-0.811201
 31
0.0
  0
LINE
  8
0
  6
CONTINUOUS
 62
     7
  5
3DD
 10
0.411417
 20
-0.811201
 30
0.0
 11
0.411417
 21
-0.846457
 31
0.0
  0
LINE
  8
0
  6
CONTINUOUS
 62
     7
  5
3DE
 10
0.25
 20
-0.519685
 30
0.0
 11
0.411417
 21
-0.519685
 31
0.0
  0
LINE
  8
0
  6
CONTINUOUS
 62
     7
  5
3DF
 10
0.25
 20
-0.55494
 30
0.0
 11
0.25
 21
-0.519685
 31
0.0
  0
LINE
  8
0
  6
CONTINUOUS
 62
     7
  5
3E0
 10
0.25
 20
-0.55494
 30
0.0
 11
0.411417
 21
-0.55494
 31
0.0
  0
LINE
  8
0
  6
CONTINUOUS
 62
     7
  5
3E1
 10
0.411417
 20
-0.846457
 30
0.0
 11
0.25
 21
-0.846457
 31
0.0
  0
LINE
  8
0
  6
CONTINUOUS
 62
     7
  5
3E2
 10
0.411417
 20
-0.811201
 30
0.0
 11
0.25
 21
-0.811201
 31
0.0
  0
LINE
  8
0
  6
CONTINUOUS
 62
     7
  5
3E3
 10
0.25
 20
-0.846457
 30
0.0
 11
0.25
 21
-0.811201
 31
0.0
  0
LINE
  8
0
  6
CONTINUOUS
 62
     7
  5
3E4
 10
0.25
 20
-0.811201
 30
0.0
 11
0.25
 21
-0.55494
 31
0.0
  0
LINE
  8
0
  6
CONTINUOUS
 62
     7
  5
3E5
 10
-0.411417
 20
-0.740157
 30
0.0
 11
-0.411417
 21
-0.846457
 31
0.0
  0
LINE
  8
0
  6
CONTINUOUS
 62
     7
  5
3E6
 10
-0.411417
 20
-0.846457
 30
0.0
 11
-0.230315
 21
-0.846457
 31
0.0
  0
LINE
  8
0
  6
CONTINUOUS
 62
     7
  5
3E7
 10
-0.230315
 20
-0.740157
 30
0.0
 11
-0.230315
 21
-0.846457
 31
0.0
  0
LINE
  8
0
  6
CONTINUOUS
 62
     7
  5
3E8
 10
-0.230315
 20
-0.740157
 30
0.0
 11
-0.411417
 21
-0.740157
 31
0.0
  0
LINE
  8
0
  6
CONTINUOUS
 62
     7
  5
3E9
 10
-0.119094
 20
-1.771654
 30
0.0
 11
-0.119094
 21
-1.824803
 31
0.0
  0
LINE
  8
0
  6
CONTINUOUS
 62
     7
  5
3EA
 10
-0.119094
 20
-1.824803
 30
0.0
 11
0.119094
 21
-1.824803
 31
0.0
  0
LINE
  8
0
  6
CONTINUOUS
 62
     7
  5
3EB
 10
0.119094
 20
-1.824803
 30
0.0
 11
0.119094
 21
-1.771654
 31
0.0
  0
LINE
  8
0
  6
CONTINUOUS
 62
     7
  5
3EC
 10
0.225394
 20
-1.771654
 30
0.0
 11
0.154528
 21
-1.877953
 31
0.0
  0
LINE
  8
0
  6
CONTINUOUS
 62
     7
  5
3ED
 10
0.154528
 20
-1.877953
 30
0.0
 11
-0.154528
 21
-1.877953
 31
0.0
  0
LINE
  8
0
  6
CONTINUOUS
 62
     7
  5
3EE
 10
-0.154528
 20
-1.877953
 30
0.0
 11
-0.225394
 21
-1.771654
 31
0.0
  0
LINE
  8
0
  6
CONTINUOUS
 62
     7
  5
3EF
 10
0.391732
 20
-0.179134
 30
0.0
 11
0.391732
 21
-0.261811
 31
0.0
  0
LINE
  8
0
  6
CONTINUOUS
 62
     7
  5
3F0
 10
0.391732
 20
-0.261811
 30
0.0
 11
0.332677
 21
-0.261811
 31
0.0
  0
LINE
  8
0
  6
CONTINUOUS
 62
     7
  5
3F1
 10
0.332677
 20
-0.261811
 30
0.0
 11
0.332677
 21
-0.179134
 31
0.0
  0
LINE
  8
0
  6
CONTINUOUS
 62
     7
  5
3F2
 10
0.332677
 20
-0.179134
 30
0.0
 11
0.391732
 21
-0.179134
 31
0.0
  0
LINE
  8
0
  6
CONTINUOUS
 62
     7
  5
3F3
 10
0.391732
 20
-0.372047
 30
0.0
 11
0.391732
 21
-0.454724
 31
0.0
  0
LINE
  8
0
  6
CONTINUOUS
 62
     7
  5
3F4
 10
0.391732
 20
-0.454724
 30
0.0
 11
0.332677
 21
-0.454724
 31
0.0
  0
LINE
  8
0
  6
CONTINUOUS
 62
     7
  5
3F5
 10
0.332677
 20
-0.454724
 30
0.0
 11
0.332677
 21
-0.372047
 31
0.0
  0
LINE
  8
0
  6
CONTINUOUS
 62
     7
  5
3F6
 10
0.332677
 20
-0.372047
 30
0.0
 11
0.391732
 21
-0.372047
 31
0.0
  0
LINE
  8
0
  6
CONTINUOUS
 62
     7
  5
3F7
 10
-0.344488
 20
0.673228
 30
0.0
 11
-0.344488
 21
0.763723
 31
0.0
  0
LINE
  8
0
  6
CONTINUOUS
 62
     7
  5
3F8
 10
-0.450787
 20
0.763723
 30
0.0
 11
-0.450787
 21
0.673228
 31
0.0
  0
LINE
  8
0
  6
CONTINUOUS
 62
     7
  5
3F9
 10
-0.344488
 20
0.673228
 30
0.0
 11
-0.450787
 21
0.673228
 31
0.0
  0
LINE
  8
0
  6
CONTINUOUS
 62
     7
  5
3FA
 10
-0.344488
 20
0.763723
 30
0.0
 11
-0.344488
 21
0.807776
 31
0.0
  0
LINE
  8
0
  6
CONTINUOUS
 62
     7
  5
3FB
 10
-0.450787
 20
0.807776
 30
0.0
 11
-0.450787
 21
0.763723
 31
0.0
  0
LINE
  8
0
  6
CONTINUOUS
 62
     7
  5
3FC
 10
-0.344488
 20
0.807776
 30
0.0
 11
-0.344488
 21
0.832677
 31
0.0
  0
LINE
  8
0
  6
CONTINUOUS
 62
     7
  5
3FD
 10
-0.450787
 20
0.832677
 30
0.0
 11
-0.450787
 21
0.807776
 31
0.0
  0
LINE
  8
0
  6
CONTINUOUS
 62
     7
  5
3FE
 10
-0.344488
 20
0.832677
 30
0.0
 11
-0.344488
 21
0.885827
 31
0.0
  0
LINE
  8
0
  6
CONTINUOUS
 62
     7
  5
3FF
 10
-0.450787
 20
0.885827
 30
0.0
 11
-0.450787
 21
0.832677
 31
0.0
  0
LINE
  8
0
  6
CONTINUOUS
 62
     7
  5
400
 10
0.450787
 20
0.673228
 30
0.0
 11
0.450787
 21
0.763723
 31
0.0
  0
LINE
  8
0
  6
CONTINUOUS
 62
     7
  5
401
 10
0.344488
 20
0.763723
 30
0.0
 11
0.344488
 21
0.673228
 31
0.0
  0
LINE
  8
0
  6
CONTINUOUS
 62
     7
  5
402
 10
0.450787
 20
0.673228
 30
0.0
 11
0.344488
 21
0.673228
 31
0.0
  0
LINE
  8
0
  6
CONTINUOUS
 62
     7
  5
403
 10
0.450787
 20
0.763723
 30
0.0
 11
0.450787
 21
0.807776
 31
0.0
  0
LINE
  8
0
  6
CONTINUOUS
 62
     7
  5
404
 10
0.344488
 20
0.807776
 30
0.0
 11
0.344488
 21
0.763723
 31
0.0
  0
LINE
  8
0
  6
CONTINUOUS
 62
     7
  5
405
 10
0.450787
 20
0.807776
 30
0.0
 11
0.450787
 21
0.832677
 31
0.0
  0
LINE
  8
0
  6
CONTINUOUS
 62
     7
  5
406
 10
0.344488
 20
0.832677
 30
0.0
 11
0.344488
 21
0.807776
 31
0.0
  0
LINE
  8
0
  6
CONTINUOUS
 62
     7
  5
407
 10
0.450787
 20
0.832677
 30
0.0
 11
0.450787
 21
0.885827
 31
0.0
  0
LINE
  8
0
  6
CONTINUOUS
 62
     7
  5
408
 10
0.344488
 20
0.885827
 30
0.0
 11
0.344488
 21
0.832677
 31
0.0
  0
LINE
  8
0
  6
CONTINUOUS
 62
     7
  5
409
 10
-0.450787
 20
0.673228
 30
0.0
 11
-0.450787
 21
-0.885827
 31
0.0
  0
LINE
  8
0
  6
CONTINUOUS
 62
     7
  5
40A
 10
0.450787
 20
-0.885827
 30
0.0
 11
0.450787
 21
0.673228
 31
0.0
  0
LINE
  8
0
  6
CONTINUOUS
 62
     7
  5
40B
 10
-0.450787
 20
-1.771654
 30
0.0
 11
0.450787
 21
-1.771654
 31
0.0
  0
LINE
  8
0
  6
CONTINUOUS
 62
     7
  5
40C
 10
-0.450787
 20
-1.665354
 30
0.0
 11
-0.450787
 21
-1.771654
 31
0.0
  0
LINE
  8
0
  6
CONTINUOUS
 62
     7
  5
40D
 10
0.450787
 20
-1.771654
 30
0.0
 11
0.450787
 21
-1.665354
 31
0.0
  0
LINE
  8
0
  6
CONTINUOUS
 62
     7
  5
40E
 10
-0.450787
 20
-1.32874
 30
0.0
 11
-0.450787
 21
-1.665354
 31
0.0
  0
LINE
  8
0
  6
CONTINUOUS
 62
     7
  5
40F
 10
-0.450787
 20
-1.222441
 30
0.0
 11
-0.450787
 21
-1.32874
 31
0.0
  0
LINE
  8
0
  6
CONTINUOUS
 62
     7
  5
410
 10
0.450787
 20
-1.32874
 30
0.0
 11
0.450787
 21
-1.222441
 31
0.0
  0
LINE
  8
0
  6
CONTINUOUS
 62
     7
  5
411
 10
-0.450787
 20
-0.885827
 30
0.0
 11
-0.450787
 21
-1.222441
 31
0.0
  0
LINE
  8
0
  6
CONTINUOUS
 62
     7
  5
412
 10
0.450787
 20
0.885827
 30
0.0
 11
0.450787
 21
1.222441
 31
0.0
  0
LINE
  8
0
  6
CONTINUOUS
 62
     7
  5
413
 10
0.450787
 20
1.665354
 30
0.0
 11
0.450787
 21
1.771654
 31
0.0
  0
LINE
  8
0
  6
CONTINUOUS
 62
     7
  5
414
 10
-0.450787
 20
1.771654
 30
0.0
 11
0.450787
 21
1.771654
 31
0.0
  0
LINE
  8
0
  6
CONTINUOUS
 62
     7
  5
415
 10
-0.450787
 20
1.771654
 30
0.0
 11
-0.450787
 21
1.665354
 31
0.0
  0
ENDSEC
  0
EOF
