999
DXF file: C:\Users\sesa63760\Dev\_Creo\CAD\MCADUE0002783_3D-CAD\drw0001_5.dxf
999
Pro/ENGINEER 2019471 by Parametric Technology Corporation
  0
SECTION
  2
HEADER
  9
$ACADVER
  1
AC1024
  9
$DWGCODEPAGE
  3
ANSI_1252
  9
$EXTMAX
 10
57.2642547479
 20
80.9880174292
 30
0.0
  9
$EXTMIN
 10
0.0
 20
0.0
 30
0.0
  9
$LIMMIN
 10
0.0
 20
0.0
  9
$LIMMAX
 10
57.2642547479
 20
80.9880174292
  9
$VIEWCTR
 10
28.632127374
 20
40.4940087146
  9
$VIEWSIZE
 40
80.9880174292
  9
$CLAYER
  8
0
  9
$LTSCALE
 40
5.2792189139
  9
$CELTYPE
  6
BYLAYER
  9
$DIMSCALE
 40
1.0
  9
$DIMASZ
 40
0.6817173184
  9
$DIMEXO
 40
1.0
  9
$DIMDLI
 40
3.6474603405
  9
$DIMEXE
 40
1.0
  9
$DIMCEN
 40
0.8638721859
  9
$DIMLFAC
 40
1.0
  9
$DIMBLK
  1
_FILLED
  9
$DIMALT
 70
0
  9
$DIMALTF
 40
0.0393700787
  9
$DIMTXT
 40
0.9544042458
  9
$DIMTOL
 70
1
  9
$DIMLIM
 70
0
  9
$DIMTFAC
 40
1.0
  9
$DIMTP
 40
0.01
  9
$DIMTM
 40
0.01
  9
$DIMGAP
 40
0.625
  9
$DIMDSEP
 70
46
  9
$AUNITS
 70
0
  9
$PDMODE
 70
3
  9
$PDSIZE
 40
0.3125
  9
$HANDSEED
  5
28F
  9
$TILEMODE
 70
1
  9
$MEASUREMENT
 70
1
  9
$INSUNITS
 70
4
  0
ENDSEC
  0
SECTION
  2
CLASSES
  0
CLASS
  1
ACDBDICTIONARYWDFLT
  2
AcDbDictionaryWithDefault
  3
AutoCAD 2000
 90
0
 91
1
280
0
281
0
  0
CLASS
  1
ACDBPLACEHOLDER
  2
AcDbPlaceHolder
  3
AutoCAD 2000
 90
0
 91
1
280
0
281
0
  0
CLASS
  1
LAYOUT
  2
AcDbLayout
  3
AutoCAD 2000
 90
0
 91
0
280
0
281
0
  0
ENDSEC
  0
SECTION
  2
TABLES
  0
TABLE
  2
VPORT
  5
8
100
AcDbSymbolTable
 70
2
  0
VPORT
  5
1F4
100
AcDbSymbolTableRecord
100
AcDbViewportTableRecord
  2
*ACTIVE
 70
0
 10
0.0
 20
0.0
 11
1.0
 21
1.0
 12
28.632127374
 22
40.4940087146
 13
0.0
 23
0.0
 14
1.0
 24
1.0
 15
0.0
 25
0.0
 16
0.0
 26
0.0
 36
1.0
 17
0.0
 27
0.0
 37
0.0
 40
80.9880174292
 41
0.7070707071
 42
50.0
 43
0.0
 44
0.0
 50
0.0
 51
0.0
 71
0
 72
100
 73
1
 74
1
 75
0
 76
0
 77
0
 78
0
  0
ENDTAB
  0
TABLE
  2
LTYPE
  5
5
100
AcDbSymbolTable
 70
6
  0
LTYPE
  5
14
100
AcDbSymbolTableRecord
100
AcDbLinetypeTableRecord
  2
BYBLOCK
 70
0
  3

 72
65
 73
0
 40
0.0
  0
LTYPE
  5
15
100
AcDbSymbolTableRecord
100
AcDbLinetypeTableRecord
  2
BYLAYER
 70
0
  3

 72
65
 73
0
 40
0.0
  0
LTYPE
  5
16
100
AcDbSymbolTableRecord
100
AcDbLinetypeTableRecord
  2
CONTINUOUS
 70
64
  3
Solid line
 72
65
 73
0
 40
0.0
  0
LTYPE
  5
1F5
100
AcDbSymbolTableRecord
100
AcDbLinetypeTableRecord
  2
CENTER
 70
64
  3
____ _ ____ _ ____ _ ____ _ ____ _ ____ _ ____
 72
65
 73
4
 40
0.6
 49
0.375
 74
0
 49
-0.075
 74
0
 49
0.075
 74
0
 49
-0.075
 74
0
  0
LTYPE
  5
1F6
100
AcDbSymbolTableRecord
100
AcDbLinetypeTableRecord
  2
HIDDEN
 70
64
  3
- - - - - - - - - - - - - - - - - - - -
 72
65
 73
2
 40
0.2
 49
0.1
 74
0
 49
-0.1
 74
0
  0
LTYPE
  5
1F7
100
AcDbSymbolTableRecord
100
AcDbLinetypeTableRecord
  2
PHANTOM
 70
64
  3
_____ _ _ _____ _ _ _____ _ _ _____
 72
65
 73
6
 40
0.8
 49
0.45
 74
0
 49
-0.05
 74
0
 49
0.1
 74
0
 49
-0.05
 74
0
 49
0.1
 74
0
 49
-0.05
 74
0
  0
LTYPE
  5
1F8
100
AcDbSymbolTableRecord
100
AcDbLinetypeTableRecord
  2
DOT
 70
64
  3
. . . . . . . . . . . . . . . . . . . .
 72
65
 73
2
 40
0.2
 49
0.1
 74
0
 49
-0.1
 74
0
  0
LTYPE
  5
1F9
100
AcDbSymbolTableRecord
100
AcDbLinetypeTableRecord
  2
DASHED
 70
64
  3
- - - - - - - - - - - - - - - - - - - -
 72
65
 73
2
 40
0.2
 49
0.1
 74
0
 49
-0.1
 74
0
  0
ENDTAB
  0
TABLE
  2
LAYER
  5
2
100
AcDbSymbolTable
 70
36
  0
LAYER
  5
10
100
AcDbSymbolTableRecord
100
AcDbLayerTableRecord
  2
0
 70
0
 62
7
  6
CONTINUOUS
370
-3
390
F
  0
LAYER
  5
1FA
100
AcDbSymbolTableRecord
100
AcDbLayerTableRecord
  2
DEFAULT_1
 70
0
 62
7
  6
CENTER
370
-3
390
F
  0
LAYER
  5
1FB
100
AcDbSymbolTableRecord
100
AcDbLayerTableRecord
  2
DEFAULT_2
 70
0
 62
8
  6
HIDDEN
370
-3
390
F
  0
LAYER
  5
1FC
100
AcDbSymbolTableRecord
100
AcDbLayerTableRecord
  2
DEFAULT_3
 70
0
 62
7
  6
PHANTOM
370
-3
390
F
  0
LAYER
  5
1FD
100
AcDbSymbolTableRecord
100
AcDbLayerTableRecord
  2
00_COMPONENTS
 70
0
 62
7
  6
CONTINUOUS
370
-3
390
F
  0
LAYER
  5
1FE
100
AcDbSymbolTableRecord
100
AcDbLayerTableRecord
  2
01_1_DEFAULT_DATUMS
 70
0
 62
7
  6
CONTINUOUS
370
-3
390
F
  0
LAYER
  5
1FF
100
AcDbSymbolTableRecord
100
AcDbLayerTableRecord
  2
01_PLANES
 70
0
 62
7
  6
CONTINUOUS
370
-3
390
F
  0
LAYER
  5
200
100
AcDbSymbolTableRecord
100
AcDbLayerTableRecord
  2
02_COORD_SYS
 70
0
 62
7
  6
CONTINUOUS
370
-3
390
F
  0
LAYER
  5
201
100
AcDbSymbolTableRecord
100
AcDbLayerTableRecord
  2
03_AXES
 70
0
 62
7
  6
CONTINUOUS
370
-3
390
F
  0
LAYER
  5
202
100
AcDbSymbolTableRecord
100
AcDbLayerTableRecord
  2
04_POINTS
 70
0
 62
7
  6
CONTINUOUS
370
-3
390
F
  0
LAYER
  5
203
100
AcDbSymbolTableRecord
100
AcDbLayerTableRecord
  2
05_CURVES
 70
0
 62
7
  6
CONTINUOUS
370
-3
390
F
  0
LAYER
  5
204
100
AcDbSymbolTableRecord
100
AcDbLayerTableRecord
  2
06_SURFS
 70
0
 62
7
  6
CONTINUOUS
370
-3
390
F
  0
LAYER
  5
205
100
AcDbSymbolTableRecord
100
AcDbLayerTableRecord
  2
07_COSMETICS
 70
0
 62
7
  6
CONTINUOUS
370
-3
390
F
  0
LAYER
  5
206
100
AcDbSymbolTableRecord
100
AcDbLayerTableRecord
  2
10_NOTES
 70
0
 62
7
  6
CONTINUOUS
370
-3
390
F
  0
LAYER
  5
207
100
AcDbSymbolTableRecord
100
AcDbLayerTableRecord
  2
11_NOTES_PUB
 70
0
 62
7
  6
CONTINUOUS
370
-3
390
F
  0
LAYER
  5
208
100
AcDbSymbolTableRecord
100
AcDbLayerTableRecord
  2
13_REF_GTOL
 70
0
 62
7
  6
CONTINUOUS
370
-3
390
F
  0
LAYER
  5
209
100
AcDbSymbolTableRecord
100
AcDbLayerTableRecord
  2
16_MISC
 70
0
 62
7
  6
CONTINUOUS
370
-3
390
F
  0
LAYER
  5
20A
100
AcDbSymbolTableRecord
100
AcDbLayerTableRecord
  2
17_NO_PRINT
 70
0
 62
7
  6
CONTINUOUS
370
-3
390
F
  0
LAYER
  5
20B
100
AcDbSymbolTableRecord
100
AcDbLayerTableRecord
  2
18_DATUM_CAMS_JOINTS
 70
0
 62
7
  6
CONTINUOUS
370
-3
390
F
  0
LAYER
  5
20C
100
AcDbSymbolTableRecord
100
AcDbLayerTableRecord
  2
19_DATUM_FUNCTIONAL
 70
0
 62
7
  6
CONTINUOUS
370
-3
390
F
  0
LAYER
  5
20D
100
AcDbSymbolTableRecord
100
AcDbLayerTableRecord
  2
20_DATUM_KINEMATIC_SCHEME
 70
0
 62
7
  6
CONTINUOUS
370
-3
390
F
  0
ENDTAB
  0
TABLE
  2
STYLE
  5
3
100
AcDbSymbolTable
 70
1
  0
STYLE
  5
11
100
AcDbSymbolTableRecord
100
AcDbTextStyleTableRecord
  2
STANDARD
 70
0
 40
0.0
 41
0.8
 50
0.0
 71
0
 42
0.2
  3
txt
  4

  0
STYLE
  5
20E
100
AcDbSymbolTableRecord
100
AcDbTextStyleTableRecord
  2
TEXTSTYLE_1
 70
0
 40
0.0
 41
0.8
 50
0.0
 71
0
 42
0.2
  3
gdt
  4

  0
ENDTAB
  0
TABLE
  2
VIEW
  5
6
100
AcDbSymbolTable
 70
0
  0
ENDTAB
  0
TABLE
  2
UCS
  5
7
100
AcDbSymbolTable
 70
0
  0
ENDTAB
  0
TABLE
  2
APPID
  5
9
100
AcDbSymbolTable
 70
1
  0
APPID
  5
20F
100
AcDbSymbolTableRecord
100
AcDbRegAppTableRecord
  2
ACAD
 70
0
  0
ENDTAB
  0
TABLE
  2
BLOCK_RECORD
  5
1
100
AcDbSymbolTable
 70
0
  0
BLOCK_RECORD
  5
210
100
AcDbSymbolTableRecord
100
AcDbBlockTableRecord
  2
*Model_Space
  0
BLOCK_RECORD
  5
211
100
AcDbSymbolTableRecord
100
AcDbBlockTableRecord
  2
*Paper_Space
  0
BLOCK_RECORD
  5
212
100
AcDbSymbolTableRecord
100
AcDbBlockTableRecord
  2
_FILLED
  0
ENDTAB
  0
TABLE
  2
DIMSTYLE
  5
A
100
AcDbSymbolTable
 70
1
100
AcDbDimStyleTable
 71
0
  0
DIMSTYLE
105
213
100
AcDbSymbolTableRecord
100
AcDbDimStyleTableRecord
  2
STANDARD
 70
0
  3

  4

 40
1.0
 41
0.6817173184
 42
1.0
 43
0.38
 44
1.0
 45
0.0
 46
0.0
 47
0.01
 48
0.01
140
0.9544042458
141
0.09
142
0.0
143
25.4
144
1.0
145
0.0
146
1.0
147
0.625
 71
1
 72
0
 73
0
 74
0
 75
0
 76
0
 77
1
 78
8
 79
2
170
0
171
1
172
0
173
0
174
0
175
0
176
0
177
0
178
0
270
2
179
2
271
2
272
2
273
2
274
2
275
0
280
0
281
0
282
0
283
1
284
8
285
0
286
0
287
3
288
0
340
11
278
46
341
212
342
212
343
212
344
212
  0
ENDTAB
  0
ENDSEC
  0
SECTION
  2
BLOCKS
  0
BLOCK
  5
20
100
AcDbEntity
  8
0
100
AcDbBlockBegin
  2
*Model_Space
 70
0
 10
0.0
 20
0.0
 30
0.0
  3
*Model_Space
  1

  0
ENDBLK
  5
21
100
AcDbEntity
  8
0
100
AcDbBlockEnd
  0
BLOCK
  5
1C
100
AcDbEntity
  8
0
100
AcDbBlockBegin
  2
*Paper_Space
 70
0
 10
0.0
 20
0.0
 30
0.0
  3
*Paper_Space
  1

  0
ENDBLK
  5
1D
100
AcDbEntity
  8
0
100
AcDbBlockEnd
  0
BLOCK
  5
214
100
AcDbEntity
  8
0
100
AcDbBlockBegin
  2
_FILLED
 70
64
 10
0.0
 20
0.0
  3
_FILLED
  1

  0
SOLID
  5
215
100
AcDbEntity
  8
0
  6
BYBLOCK
 62
0
100
AcDbTrace
 10
0.0
 20
0.0
 11
-1.0
 21
0.25
 12
-1.0
 22
-0.25
 13
-1.0
 23
-0.25
  0
ENDBLK
  5
216
100
AcDbEntity
  8
0
  6
BYBLOCK
 62
0
100
AcDbBlockEnd
  0
ENDSEC
  0
SECTION
  2
ENTITIES
  0
LINE
  5
217
100
AcDbEntity
  8
0
100
AcDbLine
 62
7
  6
CONTINUOUS
 10
29.0751556964
 20
15.6599901644
 11
51.1013326447
 21
16.2367659065
  0
LINE
  5
218
100
AcDbEntity
  8
0
100
AcDbLine
 62
7
  6
CONTINUOUS
 10
6.6751556964
 20
35.8533475095
 11
6.6751556964
 21
43.466616164
  0
LINE
  5
219
100
AcDbEntity
  8
0
100
AcDbLine
 62
7
  6
CONTINUOUS
 10
6.8684027922
 20
42.4807366764
 11
6.8684027922
 21
36.8392436525
  0
LINE
  5
21A
100
AcDbEntity
  8
0
100
AcDbLine
 62
7
  6
CONTINUOUS
 10
6.8751556964
 20
43.6667296846
 11
6.8751556964
 21
42.4806107153
  0
LINE
  5
21B
100
AcDbEntity
  8
0
100
AcDbLine
 62
7
  6
CONTINUOUS
 10
6.8751556964
 20
36.8393696135
 11
6.8751556964
 21
35.6532334077
  0
LINE
  5
21C
100
AcDbEntity
  8
0
100
AcDbLine
 62
7
  6
CONTINUOUS
 10
51.1013326447
 20
17.2364232315
 11
29.0751556964
 21
16.6596474894
  0
LINE
  5
21D
100
AcDbEntity
  8
0
100
AcDbLine
 62
7
  6
CONTINUOUS
 10
51.1013326447
 20
17.2364232315
 11
52.0751556964
 21
17.2364232315
  0
LINE
  5
21E
100
AcDbEntity
  8
0
100
AcDbLine
 62
7
  6
CONTINUOUS
 10
10.3751556964
 20
42.3046782368
 11
10.3751556964
 21
37.0153020921
  0
LINE
  5
21F
100
AcDbEntity
  8
0
100
AcDbLine
 62
7
  6
CONTINUOUS
 10
10.3751556964
 20
35.5349901644
 11
10.3751556964
 21
34.7599901644
  0
LINE
  5
220
100
AcDbEntity
  8
0
100
AcDbLine
 62
7
  6
CONTINUOUS
 10
10.5751556964
 20
49.5099901644
 11
10.5751556964
 21
29.8099901644
  0
LINE
  5
221
100
AcDbEntity
  8
0
100
AcDbLine
 62
7
  6
CONTINUOUS
 10
40.9813215332
 20
23.4874390913
 11
29.0751556964
 21
23.7271520167
  0
LINE
  5
222
100
AcDbEntity
  8
0
100
AcDbLine
 62
7
  6
CONTINUOUS
 10
28.5751556964
 20
26.1599901644
 11
29.0751556964
 21
26.1599901644
  0
LINE
  5
223
100
AcDbEntity
  8
0
100
AcDbLine
 62
7
  6
CONTINUOUS
 10
16.7051556964
 20
29.8099901644
 11
16.7051556964
 21
35.6201881891
  0
LINE
  5
224
100
AcDbEntity
  8
0
100
AcDbLine
 62
7
  6
CONTINUOUS
 10
16.7051556964
 20
43.6997921398
 11
16.7051556964
 21
49.5099901644
  0
LINE
  5
225
100
AcDbEntity
  8
0
100
AcDbLine
 62
7
  6
CONTINUOUS
 10
17.4101556964
 20
49.5099901644
 11
17.4101556964
 21
45.1847073518
  0
LINE
  5
226
100
AcDbEntity
  8
0
100
AcDbLine
 62
7
  6
CONTINUOUS
 10
17.4101556964
 20
34.1352729771
 11
17.4101556964
 21
29.8099901644
  0
LINE
  5
227
100
AcDbEntity
  8
0
100
AcDbLine
 62
7
  6
CONTINUOUS
 10
18.1151556964
 20
29.8099901644
 11
18.1151556964
 21
35.6201881891
  0
LINE
  5
228
100
AcDbEntity
  8
0
100
AcDbLine
 62
7
  6
CONTINUOUS
 10
18.1151556964
 20
43.6997921398
 11
18.1151556964
 21
49.5099901644
  0
LINE
  5
229
100
AcDbEntity
  8
0
100
AcDbLine
 62
7
  6
CONTINUOUS
 10
39.6818247695
 20
27.5019680894
 11
29.0751556964
 21
27.6632112682
  0
LINE
  5
22A
100
AcDbEntity
  8
0
100
AcDbLine
 62
7
  6
CONTINUOUS
 10
18.8201556964
 20
29.8099901644
 11
18.8201556964
 21
34.1352729771
  0
LINE
  5
22B
100
AcDbEntity
  8
0
100
AcDbLine
 62
7
  6
CONTINUOUS
 10
18.8201556964
 20
45.1847073518
 11
18.8201556964
 21
49.5099901644
  0
LINE
  5
22C
100
AcDbEntity
  8
0
100
AcDbLine
 62
7
  6
CONTINUOUS
 10
19.5251556964
 20
29.8099901644
 11
19.5251556964
 21
35.6201881891
  0
LINE
  5
22D
100
AcDbEntity
  8
0
100
AcDbLine
 62
7
  6
CONTINUOUS
 10
19.5251556964
 20
43.6997921398
 11
19.5251556964
 21
49.5099901644
  0
LINE
  5
22E
100
AcDbEntity
  8
0
100
AcDbLine
 62
7
  6
CONTINUOUS
 10
20.2301556964
 20
29.8099901644
 11
20.2301556964
 21
33.9053957354
  0
LINE
  5
22F
100
AcDbEntity
  8
0
100
AcDbLine
 62
7
  6
CONTINUOUS
 10
20.2301556964
 20
45.4145845935
 11
20.2301556964
 21
49.5099901644
  0
LINE
  5
230
100
AcDbEntity
  8
0
100
AcDbLine
 62
7
  6
CONTINUOUS
 10
28.5751556964
 20
29.7599901644
 11
26.5751556964
 21
29.7599901644
  0
LINE
  5
231
100
AcDbEntity
  8
0
100
AcDbLine
 62
7
  6
CONTINUOUS
 10
10.5751556964
 20
29.8099901644
 11
26.5751593542
 21
29.8099901644
  0
LINE
  5
232
100
AcDbEntity
  8
0
100
AcDbLine
 62
7
  6
CONTINUOUS
 10
20.9351556964
 20
29.8099901644
 11
20.9351556964
 21
35.6201881891
  0
LINE
  5
233
100
AcDbEntity
  8
0
100
AcDbLine
 62
7
  6
CONTINUOUS
 10
20.9351556964
 20
43.6997921398
 11
20.9351556964
 21
49.5099901644
  0
LINE
  5
234
100
AcDbEntity
  8
0
100
AcDbLine
 62
7
  6
CONTINUOUS
 10
21.6401556964
 20
29.8099901644
 11
21.6401556964
 21
33.9053957354
  0
LINE
  5
235
100
AcDbEntity
  8
0
100
AcDbLine
 62
7
  6
CONTINUOUS
 10
21.6401556964
 20
45.4145845935
 11
21.6401556964
 21
49.5099901644
  0
LINE
  5
236
100
AcDbEntity
  8
0
100
AcDbLine
 62
7
  6
CONTINUOUS
 10
22.3451556964
 20
29.8099901644
 11
22.3451556964
 21
35.6201881891
  0
LINE
  5
237
100
AcDbEntity
  8
0
100
AcDbLine
 62
7
  6
CONTINUOUS
 10
22.3451556964
 20
43.6997921398
 11
22.3451556964
 21
49.5099901644
  0
LINE
  5
238
100
AcDbEntity
  8
0
100
AcDbLine
 62
7
  6
CONTINUOUS
 10
23.0501556964
 20
29.8099901644
 11
23.0501556964
 21
33.9053957354
  0
LINE
  5
239
100
AcDbEntity
  8
0
100
AcDbLine
 62
7
  6
CONTINUOUS
 10
23.0501556964
 20
45.4145845935
 11
23.0501556964
 21
49.5099901644
  0
LINE
  5
23A
100
AcDbEntity
  8
0
100
AcDbLine
 62
7
  6
CONTINUOUS
 10
23.7551556964
 20
29.8099901644
 11
23.7551556964
 21
35.6201881891
  0
LINE
  5
23B
100
AcDbEntity
  8
0
100
AcDbLine
 62
7
  6
CONTINUOUS
 10
23.7551556964
 20
43.6997921398
 11
23.7551556964
 21
49.5099901644
  0
LINE
  5
23C
100
AcDbEntity
  8
0
100
AcDbLine
 62
7
  6
CONTINUOUS
 10
24.4601556964
 20
29.8099901644
 11
24.4601556964
 21
33.9053957354
  0
LINE
  5
23D
100
AcDbEntity
  8
0
100
AcDbLine
 62
7
  6
CONTINUOUS
 10
24.4601556964
 20
45.4145845935
 11
24.4601556964
 21
49.5099901644
  0
LINE
  5
23E
100
AcDbEntity
  8
0
100
AcDbLine
 62
7
  6
CONTINUOUS
 10
25.1651556964
 20
29.8099901644
 11
25.1651556964
 21
35.6201881891
  0
LINE
  5
23F
100
AcDbEntity
  8
0
100
AcDbLine
 62
7
  6
CONTINUOUS
 10
25.1651556964
 20
43.6997921398
 11
25.1651556964
 21
49.5099901644
  0
LINE
  5
240
100
AcDbEntity
  8
0
100
AcDbLine
 62
7
  6
CONTINUOUS
 10
26.5751556964
 20
34.3165362253
 11
28.5751556964
 21
34.3165362253
  0
LINE
  5
241
100
AcDbEntity
  8
0
100
AcDbLine
 62
7
  6
CONTINUOUS
 10
10.5751556964
 20
34.7599901644
 11
10.3751556964
 21
34.7599901644
  0
LINE
  5
242
100
AcDbEntity
  8
0
100
AcDbLine
 62
7
  6
CONTINUOUS
 10
10.5751556964
 20
35.6201881891
 11
16.7051556964
 21
35.6201881891
  0
LINE
  5
243
100
AcDbEntity
  8
0
100
AcDbLine
 62
7
  6
CONTINUOUS
 10
6.8684027922
 20
35.6534615463
 11
10.3751556964
 21
35.5349901644
  0
LINE
  5
244
100
AcDbEntity
  8
0
100
AcDbLine
 62
7
  6
CONTINUOUS
 10
25.8701556964
 20
29.8099901644
 11
25.8701556964
 21
34.1352729771
  0
LINE
  5
245
100
AcDbEntity
  8
0
100
AcDbLine
 62
7
  6
CONTINUOUS
 10
25.8701556964
 20
45.1847073518
 11
25.8701556964
 21
49.5099901644
  0
LINE
  5
246
100
AcDbEntity
  8
0
100
AcDbLine
 62
7
  6
CONTINUOUS
 10
26.5751556964
 20
29.7599901644
 11
26.5751556964
 21
49.5599901644
  0
LINE
  5
247
100
AcDbEntity
  8
0
100
AcDbLine
 62
7
  6
CONTINUOUS
 10
28.5751556964
 20
53.1599826603
 11
28.5751556964
 21
26.1599976686
  0
LINE
  5
248
100
AcDbEntity
  8
0
100
AcDbLine
 62
7
  6
CONTINUOUS
 10
29.0751556964
 20
65.5598160129
 11
29.0751556964
 21
23.7274885495
  0
LINE
  5
249
100
AcDbEntity
  8
0
100
AcDbLine
 62
7
  6
CONTINUOUS
 10
29.0751556964
 20
15.6599901644
 11
29.0751556964
 21
23.7271520167
  0
LINE
  5
24A
100
AcDbEntity
  8
0
100
AcDbLine
 62
7
  6
CONTINUOUS
 10
10.5720718689
 20
43.7913068897
 11
6.8684199994
 21
43.6665027078
  0
LINE
  5
24B
100
AcDbEntity
  8
0
100
AcDbLine
 62
7
  6
CONTINUOUS
 10
16.7051556964
 20
43.6997921398
 11
10.5751556964
 21
43.6997921398
  0
LINE
  5
24C
100
AcDbEntity
  8
0
100
AcDbLine
 62
7
  6
CONTINUOUS
 10
28.5751556964
 20
45.0034441036
 11
26.5751556964
 21
45.0034441036
  0
LINE
  5
24D
100
AcDbEntity
  8
0
100
AcDbLine
 62
7
  6
CONTINUOUS
 10
52.0751556964
 20
47.3599901644
 11
52.1751556964
 21
47.3599901644
  0
LINE
  5
24E
100
AcDbEntity
  8
0
100
AcDbLine
 62
7
  6
CONTINUOUS
 10
29.0751556964
 20
49.6954669181
 11
38.4943979041
 21
49.8785610783
  0
LINE
  5
24F
100
AcDbEntity
  8
0
100
AcDbLine
 62
7
  6
CONTINUOUS
 10
10.5751556964
 20
49.5099901644
 11
26.5751593542
 21
49.5099901644
  0
LINE
  5
250
100
AcDbEntity
  8
0
100
AcDbLine
 62
7
  6
CONTINUOUS
 10
26.5751556964
 20
49.5599901644
 11
28.5751556964
 21
49.5599901644
  0
LINE
  5
251
100
AcDbEntity
  8
0
100
AcDbLine
 62
7
  6
CONTINUOUS
 10
41.2604294665
 20
25.0900754917
 11
41.2604294778
 21
48.0847289832
  0
LINE
  5
252
100
AcDbEntity
  8
0
100
AcDbLine
 62
7
  6
CONTINUOUS
 10
39.3167279513
 20
53.8831806242
 11
29.0751556964
 21
53.6938337409
  0
LINE
  5
253
100
AcDbEntity
  8
0
100
AcDbLine
 62
7
  6
CONTINUOUS
 10
28.5751556964
 20
53.1599901644
 11
29.0751556964
 21
53.1599901644
  0
LINE
  5
254
100
AcDbEntity
  8
0
100
AcDbLine
 62
7
  6
CONTINUOUS
 10
51.1013326447
 20
17.2364232315
 11
51.1013326447
 21
64.9832144224
  0
LINE
  5
255
100
AcDbEntity
  8
0
100
AcDbLine
 62
7
  6
CONTINUOUS
 10
52.0751556964
 20
17.2364232315
 11
52.0751556964
 21
63.9835413101
  0
LINE
  5
256
100
AcDbEntity
  8
0
100
AcDbLine
 62
7
  6
CONTINUOUS
 10
52.1751556964
 20
47.3600008126
 11
52.1751556964
 21
62.9599795162
  0
LINE
  5
257
100
AcDbEntity
  8
0
100
AcDbLine
 62
7
  6
CONTINUOUS
 10
52.0751556964
 20
62.9599901644
 11
52.1751556964
 21
62.9599901644
  0
LINE
  5
258
100
AcDbEntity
  8
0
100
AcDbLine
 62
7
  6
CONTINUOUS
 10
51.1013326447
 20
64.9832144224
 11
29.0751556964
 21
65.5599901644
  0
ARC
  5
259
100
AcDbEntity
  8
0
100
AcDbCircle
 62
7
  6
CONTINUOUS
 10
51.0751556964
 20
63.9835570974
 40
1.0
100
AcDbArc
 50
0.0
 51
88.4999999999
  0
ARC
  5
25A
100
AcDbEntity
  8
0
100
AcDbCircle
 62
7
  6
CONTINUOUS
 10
51.0751556964
 20
17.2364232315
 40
1.0
100
AcDbArc
 50
271.5000000002
 51
360.0
  0
ARC
  5
25B
100
AcDbEntity
  8
0
100
AcDbCircle
 62
7
  6
CONTINUOUS
 10
6.8751556964
 20
35.8533475095
 40
0.2
100
AcDbArc
 50
180.0
 51
268.0650676911
  0
ARC
  5
25C
100
AcDbEntity
  8
0
100
AcDbCircle
 62
7
  6
CONTINUOUS
 10
6.8751556964
 20
43.466616164
 40
0.2
100
AcDbArc
 50
91.9300000012
 51
180.0
  0
ARC
  5
25D
100
AcDbEntity
  8
0
100
AcDbCircle
 62
7
  6
CONTINUOUS
 10
6.8696318379
 20
36.9544313447
 40
0.1151942489
100
AcDbArc
 50
269.388680725
 51
272.7485330264
  0
ARC
  5
25E
100
AcDbEntity
  8
0
100
AcDbCircle
 62
7
  6
CONTINUOUS
 10
6.8696318379
 20
42.3655489842
 40
0.1151942489
100
AcDbArc
 50
87.2514669736
 51
90.611319275
  0
SPLINE
  5
25F
100
AcDbEntity
  8
0
100
AcDbSpline
 62
7
  6
CONTINUOUS
 70
0
 71
3
 72
15
 73
11
 74
0
 42
0.0000001
 43
0.0000001
 44
0.0000000001
 40
0.0
 40
0.0
 40
0.0
 40
0.0
 40
0.1818127578
 40
0.355824404
 40
0.5153700312
 40
0.6557812913
 40
0.773911506
 40
0.8684952886
 40
0.9414609008
 40
1.0
 40
1.0
 40
1.0
 40
1.0
 10
6.8684027922
 20
36.8392436525
 30
0.0
 10
6.8554089455
 20
36.8393826821
 30
0.0
 10
6.829979602
 20
36.840441036
 30
0.0
 10
6.7933235287
 20
36.8443223681
 30
0.0
 10
6.7599459907
 20
36.8503179791
 30
0.0
 10
6.731063157
 20
36.8581483351
 30
0.0
 10
6.7075196517
 20
36.867458662
 30
0.0
 10
6.6899015102
 20
36.8780020454
 30
0.0
 10
6.6782993422
 20
36.8896703141
 30
0.0
 10
6.6751556964
 20
36.8990923046
 30
0.0
 10
6.6751556964
 20
36.9032762333
 30
0.0
  0
SPLINE
  5
260
100
AcDbEntity
  8
0
100
AcDbSpline
 62
7
  6
CONTINUOUS
 70
0
 71
3
 72
15
 73
11
 74
0
 42
0.0000001
 43
0.0000001
 44
0.0000000001
 40
0.0
 40
0.0
 40
0.0
 40
0.0
 40
0.1818102921
 40
0.3558192885
 40
0.5153624348
 40
0.6557713203
 40
0.7738976423
 40
0.8684769835
 40
0.9414497559
 40
1.0
 40
1.0
 40
1.0
 40
1.0
 10
6.8684027922
 20
42.4807366764
 30
0.0
 10
6.8554089396
 20
42.4805976468
 30
0.0
 10
6.8299796108
 20
42.4795392414
 30
0.0
 10
6.7933235299
 20
42.4756584033
 30
0.0
 10
6.7599458616
 20
42.4696639697
 30
0.0
 10
6.7310629887
 20
42.4618343319
 30
0.0
 10
6.7075196051
 20
42.4525253911
 30
0.0
 10
6.6898997412
 20
42.4419839033
 30
0.0
 10
6.6782987824
 20
42.430312339
 30
0.0
 10
6.6751556964
 20
42.4208888795
 30
0.0
 10
6.6751556964
 20
42.4167040955
 30
0.0
  0
SPLINE
  5
261
100
AcDbEntity
  8
0
100
AcDbSpline
 62
7
  6
CONTINUOUS
 70
0
 71
3
 72
9
 73
5
 74
0
 42
0.0000001
 43
0.0000001
 44
0.0000000001
 40
0.0
 40
0.0
 40
0.0
 40
0.0
 40
0.2500328912
 40
1.0
 40
1.0
 40
1.0
 40
1.0
 10
16.7051556964
 20
35.6201881891
 30
0.0
 10
16.7575032082
 20
35.4935495978
 30
0.0
 10
16.974055979
 20
34.9900399852
 30
0.0
 10
17.2169296028
 20
34.4980439125
 30
0.0
 10
17.4101556964
 20
34.1352729771
 30
0.0
  0
SPLINE
  5
262
100
AcDbEntity
  8
0
100
AcDbSpline
 62
7
  6
CONTINUOUS
 70
0
 71
3
 72
9
 73
5
 74
0
 42
0.0000001
 43
0.0000001
 44
0.0000000001
 40
0.0
 40
0.0
 40
0.0
 40
0.0
 40
0.7499671247
 40
1.0
 40
1.0
 40
1.0
 40
1.0
 10
18.8201556964
 20
34.1352729771
 30
0.0
 10
19.0133817943
 20
34.4980439206
 30
0.0
 10
19.2562555152
 20
34.9900399499
 30
0.0
 10
19.4728081879
 20
35.4935496057
 30
0.0
 10
19.5251556964
 20
35.6201881891
 30
0.0
  0
SPLINE
  5
263
100
AcDbEntity
  8
0
100
AcDbSpline
 62
7
  6
CONTINUOUS
 70
0
 71
3
 72
9
 73
5
 74
0
 42
0.0000001
 43
0.0000001
 44
0.0000000001
 40
0.0
 40
0.0
 40
0.0
 40
0.0
 40
0.2500328912
 40
1.0
 40
1.0
 40
1.0
 40
1.0
 10
19.5251556964
 20
43.6997921398
 30
0.0
 10
19.4728081846
 20
43.8264307311
 30
0.0
 10
19.2562554138
 20
44.3299403437
 30
0.0
 10
19.01338179
 20
44.8219364164
 30
0.0
 10
18.8201556964
 20
45.1847073518
 30
0.0
  0
SPLINE
  5
264
100
AcDbEntity
  8
0
100
AcDbSpline
 62
7
  6
CONTINUOUS
 70
0
 71
3
 72
9
 73
5
 74
0
 42
0.0000001
 43
0.0000001
 44
0.0000000001
 40
0.0
 40
0.0
 40
0.0
 40
0.0
 40
0.2500338278
 40
1.0
 40
1.0
 40
1.0
 40
1.0
 10
22.3451556964
 20
43.6997921398
 30
0.0
 10
22.2939162931
 20
43.845615
 30
0.0
 10
22.0805398905
 20
44.4258536955
 30
0.0
 10
21.8362731539
 20
44.9945031419
 30
0.0
 10
21.6401556964
 20
45.4145845935
 30
0.0
  0
SPLINE
  5
265
100
AcDbEntity
  8
0
100
AcDbSpline
 62
7
  6
CONTINUOUS
 70
0
 71
3
 72
9
 73
5
 74
0
 42
0.0000001
 43
0.0000001
 44
0.0000000001
 40
0.0
 40
0.0
 40
0.0
 40
0.0
 40
0.7499661774
 40
1.0
 40
1.0
 40
1.0
 40
1.0
 10
20.2301556964
 20
33.9053957354
 30
0.0
 10
20.4262731557
 20
34.3254771909
 30
0.0
 10
20.6705400904
 20
34.8941265609
 30
0.0
 10
20.883916294
 20
35.4743653317
 30
0.0
 10
20.9351556964
 20
35.6201881891
 30
0.0
  0
SPLINE
  5
266
100
AcDbEntity
  8
0
100
AcDbSpline
 62
7
  6
CONTINUOUS
 70
0
 71
3
 72
9
 73
5
 74
0
 42
0.0000001
 43
0.0000001
 44
0.0000000001
 40
0.0
 40
0.0
 40
0.0
 40
0.0
 40
0.7499671247
 40
1.0
 40
1.0
 40
1.0
 40
1.0
 10
17.4101556964
 20
45.1847073518
 30
0.0
 10
17.2169295985
 20
44.8219364083
 30
0.0
 10
16.9740558776
 20
44.329940379
 30
0.0
 10
16.7575032049
 20
43.8264307232
 30
0.0
 10
16.7051556964
 20
43.6997921398
 30
0.0
  0
SPLINE
  5
267
100
AcDbEntity
  8
0
100
AcDbSpline
 62
7
  6
CONTINUOUS
 70
0
 71
3
 72
9
 73
5
 74
0
 42
0.0000001
 43
0.0000001
 44
0.0000000001
 40
0.0
 40
0.0
 40
0.0
 40
0.0
 40
0.7499661774
 40
1.0
 40
1.0
 40
1.0
 40
1.0
 10
21.6401556964
 20
33.9053957354
 30
0.0
 10
21.8362731557
 20
34.3254771909
 30
0.0
 10
22.0805400904
 20
34.8941265609
 30
0.0
 10
22.293916294
 20
35.4743653317
 30
0.0
 10
22.3451556964
 20
35.6201881891
 30
0.0
  0
SPLINE
  5
268
100
AcDbEntity
  8
0
100
AcDbSpline
 62
7
  6
CONTINUOUS
 70
0
 71
3
 72
9
 73
5
 74
0
 42
0.0000001
 43
0.0000001
 44
0.0000000001
 40
0.0
 40
0.0
 40
0.0
 40
0.0
 40
0.7499661774
 40
1.0
 40
1.0
 40
1.0
 40
1.0
 10
23.0501556964
 20
33.9053957354
 30
0.0
 10
23.2462731557
 20
34.3254771909
 30
0.0
 10
23.4905400904
 20
34.8941265609
 30
0.0
 10
23.703916294
 20
35.4743653317
 30
0.0
 10
23.7551556964
 20
35.6201881891
 30
0.0
  0
SPLINE
  5
269
100
AcDbEntity
  8
0
100
AcDbSpline
 62
7
  6
CONTINUOUS
 70
0
 71
3
 72
9
 73
5
 74
0
 42
0.0000001
 43
0.0000001
 44
0.0000000001
 40
0.0
 40
0.0
 40
0.0
 40
0.0
 40
0.7499663338
 40
1.0
 40
1.0
 40
1.0
 40
1.0
 10
17.4101556964
 20
45.1847073518
 30
0.0
 10
17.6033815996
 20
44.8219367739
 30
0.0
 10
17.846259033
 20
44.3299424112
 30
0.0
 10
18.0628080199
 20
43.8264311296
 30
0.0
 10
18.1151556964
 20
43.6997921398
 30
0.0
  0
SPLINE
  5
26A
100
AcDbEntity
  8
0
100
AcDbSpline
 62
7
  6
CONTINUOUS
 70
0
 71
3
 72
9
 73
5
 74
0
 42
0.0000001
 43
0.0000001
 44
0.0000000001
 40
0.0
 40
0.0
 40
0.0
 40
0.0
 40
0.2500336408
 40
1.0
 40
1.0
 40
1.0
 40
1.0
 10
18.1151556964
 20
43.6997921398
 30
0.0
 10
18.1675033676
 20
43.8264311167
 30
0.0
 10
18.38405238
 20
44.329942387
 30
0.0
 10
18.6269297868
 20
44.8219367617
 30
0.0
 10
18.8201556964
 20
45.1847073518
 30
0.0
  0
SPLINE
  5
26B
100
AcDbEntity
  8
0
100
AcDbSpline
 62
7
  6
CONTINUOUS
 70
0
 71
3
 72
9
 73
5
 74
0
 42
0.0000001
 43
0.0000001
 44
0.0000000001
 40
0.0
 40
0.0
 40
0.0
 40
0.0
 40
0.2500346869
 40
1.0
 40
1.0
 40
1.0
 40
1.0
 10
19.5251556964
 20
43.6997921398
 30
0.0
 10
19.5763952785
 20
43.8456155088
 30
0.0
 10
19.7897668498
 20
44.4258560325
 30
0.0
 10
20.0340384529
 20
44.9945036004
 30
0.0
 10
20.2301556964
 20
45.4145845935
 30
0.0
  0
SPLINE
  5
26C
100
AcDbEntity
  8
0
100
AcDbSpline
 62
7
  6
CONTINUOUS
 70
0
 71
3
 72
9
 73
5
 74
0
 42
0.0000001
 43
0.0000001
 44
0.0000000001
 40
0.0
 40
0.0
 40
0.0
 40
0.0
 40
0.2500346869
 40
1.0
 40
1.0
 40
1.0
 40
1.0
 10
20.9351556964
 20
43.6997921398
 30
0.0
 10
20.9863952785
 20
43.8456155088
 30
0.0
 10
21.1997668498
 20
44.4258560325
 30
0.0
 10
21.4440384529
 20
44.9945036004
 30
0.0
 10
21.6401556964
 20
45.4145845935
 30
0.0
  0
SPLINE
  5
26D
100
AcDbEntity
  8
0
100
AcDbSpline
 62
7
  6
CONTINUOUS
 70
0
 71
3
 72
9
 73
5
 74
0
 42
0.0000001
 43
0.0000001
 44
0.0000000001
 40
0.0
 40
0.0
 40
0.0
 40
0.0
 40
0.2500346869
 40
1.0
 40
1.0
 40
1.0
 40
1.0
 10
22.3451556964
 20
43.6997921398
 30
0.0
 10
22.3963952785
 20
43.8456155088
 30
0.0
 10
22.6097668498
 20
44.4258560325
 30
0.0
 10
22.8540384529
 20
44.9945036004
 30
0.0
 10
23.0501556964
 20
45.4145845935
 30
0.0
  0
SPLINE
  5
26E
100
AcDbEntity
  8
0
100
AcDbSpline
 62
7
  6
CONTINUOUS
 70
0
 71
3
 72
9
 73
5
 74
0
 42
0.0000001
 43
0.0000001
 44
0.0000000001
 40
0.0
 40
0.0
 40
0.0
 40
0.0
 40
0.2500346869
 40
1.0
 40
1.0
 40
1.0
 40
1.0
 10
23.7551556964
 20
43.6997921398
 30
0.0
 10
23.8063952785
 20
43.8456155088
 30
0.0
 10
24.0197668498
 20
44.4258560325
 30
0.0
 10
24.2640384529
 20
44.9945036004
 30
0.0
 10
24.4601556964
 20
45.4145845935
 30
0.0
  0
SPLINE
  5
26F
100
AcDbEntity
  8
0
100
AcDbSpline
 62
7
  6
CONTINUOUS
 70
0
 71
3
 72
9
 73
5
 74
0
 42
0.0000001
 43
0.0000001
 44
0.0000000001
 40
0.0
 40
0.0
 40
0.0
 40
0.0
 40
0.2500336408
 40
1.0
 40
1.0
 40
1.0
 40
1.0
 10
25.1651556964
 20
43.6997921398
 30
0.0
 10
25.2175033676
 20
43.8264311167
 30
0.0
 10
25.43405238
 20
44.329942387
 30
0.0
 10
25.6769297868
 20
44.8219367617
 30
0.0
 10
25.8701556964
 20
45.1847073518
 30
0.0
  0
SPLINE
  5
270
100
AcDbEntity
  8
0
100
AcDbSpline
 62
7
  6
CONTINUOUS
 70
0
 71
3
 72
9
 73
5
 74
0
 42
0.0000001
 43
0.0000001
 44
0.0000000001
 40
0.0
 40
0.0
 40
0.0
 40
0.0
 40
0.7499663338
 40
1.0
 40
1.0
 40
1.0
 40
1.0
 10
25.8701556964
 20
34.1352729771
 30
0.0
 10
25.6769297932
 20
34.498043555
 30
0.0
 10
25.4340523598
 20
34.9900379177
 30
0.0
 10
25.2175033729
 20
35.4935491992
 30
0.0
 10
25.1651556964
 20
35.6201881891
 30
0.0
  0
SPLINE
  5
271
100
AcDbEntity
  8
0
100
AcDbSpline
 62
7
  6
CONTINUOUS
 70
0
 71
3
 72
9
 73
5
 74
0
 42
0.0000001
 43
0.0000001
 44
0.0000000001
 40
0.0
 40
0.0
 40
0.0
 40
0.0
 40
0.7499652748
 40
1.0
 40
1.0
 40
1.0
 40
1.0
 10
24.4601556964
 20
33.9053957354
 30
0.0
 10
24.2640384629
 20
34.3254767071
 30
0.0
 10
24.0197668355
 20
34.8941242655
 30
0.0
 10
23.8063952864
 20
35.4743647977
 30
0.0
 10
23.7551556964
 20
35.6201881891
 30
0.0
  0
SPLINE
  5
272
100
AcDbEntity
  8
0
100
AcDbSpline
 62
7
  6
CONTINUOUS
 70
0
 71
3
 72
9
 73
5
 74
0
 42
0.0000001
 43
0.0000001
 44
0.0000000001
 40
0.0
 40
0.0
 40
0.0
 40
0.0
 40
0.7499652748
 40
1.0
 40
1.0
 40
1.0
 40
1.0
 10
23.0501556964
 20
33.9053957354
 30
0.0
 10
22.8540384629
 20
34.3254767071
 30
0.0
 10
22.6097668355
 20
34.8941242655
 30
0.0
 10
22.3963952864
 20
35.4743647977
 30
0.0
 10
22.3451556964
 20
35.6201881891
 30
0.0
  0
SPLINE
  5
273
100
AcDbEntity
  8
0
100
AcDbSpline
 62
7
  6
CONTINUOUS
 70
0
 71
3
 72
9
 73
5
 74
0
 42
0.0000001
 43
0.0000001
 44
0.0000000001
 40
0.0
 40
0.0
 40
0.0
 40
0.0
 40
0.7499652748
 40
1.0
 40
1.0
 40
1.0
 40
1.0
 10
21.6401556964
 20
33.9053957354
 30
0.0
 10
21.4440384629
 20
34.3254767071
 30
0.0
 10
21.1997668355
 20
34.8941242655
 30
0.0
 10
20.9863952864
 20
35.4743647977
 30
0.0
 10
20.9351556964
 20
35.6201881891
 30
0.0
  0
SPLINE
  5
274
100
AcDbEntity
  8
0
100
AcDbSpline
 62
7
  6
CONTINUOUS
 70
0
 71
3
 72
9
 73
5
 74
0
 42
0.0000001
 43
0.0000001
 44
0.0000000001
 40
0.0
 40
0.0
 40
0.0
 40
0.0
 40
0.7499652748
 40
1.0
 40
1.0
 40
1.0
 40
1.0
 10
20.2301556964
 20
33.9053957354
 30
0.0
 10
20.0340384629
 20
34.3254767071
 30
0.0
 10
19.7897668355
 20
34.8941242655
 30
0.0
 10
19.5763952864
 20
35.4743647977
 30
0.0
 10
19.5251556964
 20
35.6201881891
 30
0.0
  0
SPLINE
  5
275
100
AcDbEntity
  8
0
100
AcDbSpline
 62
7
  6
CONTINUOUS
 70
0
 71
3
 72
9
 73
5
 74
0
 42
0.0000001
 43
0.0000001
 44
0.0000000001
 40
0.0
 40
0.0
 40
0.0
 40
0.0
 40
0.7499663338
 40
1.0
 40
1.0
 40
1.0
 40
1.0
 10
18.8201556964
 20
34.1352729771
 30
0.0
 10
18.6269297932
 20
34.498043555
 30
0.0
 10
18.3840523598
 20
34.9900379177
 30
0.0
 10
18.1675033729
 20
35.4935491992
 30
0.0
 10
18.1151556964
 20
35.6201881891
 30
0.0
  0
SPLINE
  5
276
100
AcDbEntity
  8
0
100
AcDbSpline
 62
7
  6
CONTINUOUS
 70
0
 71
3
 72
9
 73
5
 74
0
 42
0.0000001
 43
0.0000001
 44
0.0000000001
 40
0.0
 40
0.0
 40
0.0
 40
0.0
 40
0.2500336408
 40
1.0
 40
1.0
 40
1.0
 40
1.0
 10
18.1151556964
 20
35.6201881891
 30
0.0
 10
18.0628080252
 20
35.4935492122
 30
0.0
 10
17.8462590128
 20
34.9900379419
 30
0.0
 10
17.603381606
 20
34.4980435672
 30
0.0
 10
17.4101556964
 20
34.1352729771
 30
0.0
  0
SPLINE
  5
277
100
AcDbEntity
  8
0
100
AcDbSpline
 62
7
  6
CONTINUOUS
 70
0
 71
3
 72
9
 73
5
 74
0
 42
0.0000001
 43
0.0000001
 44
0.0000000001
 40
0.0
 40
0.0
 40
0.0
 40
0.0
 40
0.7499661774
 40
1.0
 40
1.0
 40
1.0
 40
1.0
 10
24.4601556964
 20
33.9053957354
 30
0.0
 10
24.6562731557
 20
34.3254771909
 30
0.0
 10
24.9005400904
 20
34.8941265609
 30
0.0
 10
25.113916294
 20
35.4743653317
 30
0.0
 10
25.1651556964
 20
35.6201881891
 30
0.0
  0
SPLINE
  5
278
100
AcDbEntity
  8
0
100
AcDbSpline
 62
7
  6
CONTINUOUS
 70
0
 71
3
 72
9
 73
5
 74
0
 42
0.0000001
 43
0.0000001
 44
0.0000000001
 40
0.0
 40
0.0
 40
0.0
 40
0.0
 40
0.2500338278
 40
1.0
 40
1.0
 40
1.0
 40
1.0
 10
23.7551556964
 20
43.6997921398
 30
0.0
 10
23.7039162931
 20
43.845615
 30
0.0
 10
23.4905398905
 20
44.4258536955
 30
0.0
 10
23.2462731539
 20
44.9945031419
 30
0.0
 10
23.0501556964
 20
45.4145845935
 30
0.0
  0
SPLINE
  5
279
100
AcDbEntity
  8
0
100
AcDbSpline
 62
7
  6
CONTINUOUS
 70
0
 71
3
 72
9
 73
5
 74
0
 42
0.0000001
 43
0.0000001
 44
0.0000000001
 40
0.0
 40
0.0
 40
0.0
 40
0.0
 40
0.749967059
 40
1.0
 40
1.0
 40
1.0
 40
1.0
 10
25.8701556964
 20
34.1352729771
 30
0.0
 10
26.0633910267
 20
34.4980612539
 30
0.0
 10
26.3062921651
 20
34.990074487
 30
0.0
 10
26.522817688
 20
35.493624311
 30
0.0
 10
26.5751674243
 20
35.6202691103
 30
0.0
  0
SPLINE
  5
27A
100
AcDbEntity
  8
0
100
AcDbSpline
 62
7
  6
CONTINUOUS
 70
0
 71
3
 72
9
 73
5
 74
0
 42
0.0000001
 43
0.0000001
 44
0.0000000001
 40
0.0
 40
0.0
 40
0.0
 40
0.0
 40
0.2500338278
 40
1.0
 40
1.0
 40
1.0
 40
1.0
 10
25.1651556964
 20
43.6997921398
 30
0.0
 10
25.1139162931
 20
43.845615
 30
0.0
 10
24.9005398905
 20
44.4258536955
 30
0.0
 10
24.6562731539
 20
44.9945031419
 30
0.0
 10
24.4601556964
 20
45.4145845935
 30
0.0
  0
SPLINE
  5
27B
100
AcDbEntity
  8
0
100
AcDbSpline
 62
7
  6
CONTINUOUS
 70
0
 71
3
 72
9
 73
5
 74
0
 42
0.0000001
 43
0.0000001
 44
0.0000000001
 40
0.0
 40
0.0
 40
0.0
 40
0.0
 40
0.2500338278
 40
1.0
 40
1.0
 40
1.0
 40
1.0
 10
20.9351556964
 20
43.6997921398
 30
0.0
 10
20.8839162931
 20
43.845615
 30
0.0
 10
20.6705398905
 20
44.4258536955
 30
0.0
 10
20.4262731539
 20
44.9945031419
 30
0.0
 10
20.2301556964
 20
45.4145845935
 30
0.0
  0
SPLINE
  5
27C
100
AcDbEntity
  8
0
100
AcDbSpline
 62
7
  6
CONTINUOUS
 70
0
 71
3
 72
9
 73
5
 74
0
 42
0.0000001
 43
0.0000001
 44
0.0000000001
 40
0.0
 40
0.0
 40
0.0
 40
0.0
 40
0.2500329588
 40
1.0
 40
1.0
 40
1.0
 40
1.0
 10
26.5751674243
 20
43.6997112166
 30
0.0
 10
26.5228176844
 20
43.8263560248
 30
0.0
 10
26.3062920539
 20
44.3299058021
 30
0.0
 10
26.0633910221
 20
44.8219190836
 30
0.0
 10
25.8701556964
 20
45.1847073518
 30
0.0
  0
SPLINE
  5
27D
100
AcDbEntity
  8
0
100
AcDbSpline
 62
7
  6
CONTINUOUS
 70
0
 71
3
 72
11
 73
7
 74
0
 42
0.0000001
 43
0.0000001
 44
0.0000000001
 40
0.0
 40
0.0
 40
0.0
 40
0.0
 40
0.2315330278
 40
0.4911010981
 40
0.7556768338
 40
1.0
 40
1.0
 40
1.0
 40
1.0
 10
40.1142170483
 20
27.9005850547
 30
0.0
 10
40.0995357812
 20
27.8559355711
 30
0.0
 10
40.0542170353
 20
27.7656147309
 30
0.0
 10
39.9530760656
 20
27.6484292093
 30
0.0
 10
39.8257970172
 20
27.5559398864
 30
0.0
 10
39.7295924245
 20
27.5153163602
 30
0.0
 10
39.6818247687
 20
27.5019680903
 30
0.0
  0
SPLINE
  5
27E
100
AcDbEntity
  8
0
100
AcDbSpline
 62
7
  6
CONTINUOUS
 70
0
 71
3
 72
23
 73
19
 74
0
 42
0.0000001
 43
0.0000001
 44
0.0000000001
 40
0.0
 40
0.0
 40
0.0
 40
0.0
 40
0.0494687101
 40
0.1023466234
 40
0.1586237103
 40
0.2181898891
 40
0.2807933652
 40
0.3460478607
 40
0.4134298405
 40
0.4822953878
 40
0.5519095515
 40
0.621484353
 40
0.6902366001
 40
0.7574344696
 40
0.8224447321
 40
0.8847641984
 40
0.9440299394
 40
1.0
 40
1.0
 40
1.0
 40
1.0
 10
39.6818247695
 20
27.5019680894
 30
0.0
 10
39.452302755
 20
27.8114166073
 30
0.0
 10
39.0091994711
 20
28.4756380166
 30
0.0
 10
38.4155456564
 20
29.5605964799
 30
0.0
 10
37.8785607772
 20
30.76137118
 30
0.0
 10
37.4062114064
 20
32.0696887499
 30
0.0
 10
37.0064903721
 20
33.4747630169
 30
0.0
 10
36.6871944397
 20
34.9625223493
 30
0.0
 10
36.455014373
 20
36.5156291939
 30
0.0
 10
36.3152141389
 20
38.1138208939
 30
0.0
 10
36.2711910934
 20
39.7345856352
 30
0.0
 10
36.3240961002
 20
41.354202132
 30
0.0
 10
36.4725147042
 20
42.9489829265
 30
0.0
 10
36.7128694926
 20
44.4965822753
 30
0.0
 10
37.0397468481
 20
45.977009505
 30
0.0
 10
37.446213304
 20
47.3734511173
 30
0.0
 10
37.924646148
 20
48.6720998554
 30
0.0
 10
38.2972913044
 20
49.4897574557
 30
0.0
 10
38.4943979041
 20
49.8785610783
 30
0.0
  0
SPLINE
  5
27F
100
AcDbEntity
  8
0
100
AcDbSpline
 62
7
  6
CONTINUOUS
 70
0
 71
3
 72
11
 73
7
 74
0
 42
0.0000001
 43
0.0000001
 44
0.0000000001
 40
0.0
 40
0.0
 40
0.0
 40
0.0
 40
0.2182817426
 40
0.4584676154
 40
0.7199314216
 40
1.0
 40
1.0
 40
1.0
 40
1.0
 10
40.1142192567
 20
27.9005917675
 30
0.0
 10
40.2497690236
 20
27.7238311484
 30
0.0
 10
40.506030591
 20
27.3302762437
 30
0.0
 10
40.8251400012
 20
26.6666528428
 30
0.0
 10
41.0861282022
 20
25.9111326901
 30
0.0
 10
41.2101883332
 20
25.3714279503
 30
0.0
 10
41.2604294771
 20
25.0900754917
 30
0.0
  0
SPLINE
  5
280
100
AcDbEntity
  8
0
100
AcDbSpline
 62
7
  6
CONTINUOUS
 70
0
 71
3
 72
14
 73
10
 74
0
 42
0.0000001
 43
0.0000001
 44
0.0000000001
 40
0.0
 40
0.0
 40
0.0
 40
0.0
 40
0.2143042428
 40
0.3317101148
 40
0.4556529877
 40
0.5856552064
 40
0.7206593083
 40
0.8593649331
 40
1.0
 40
1.0
 40
1.0
 40
1.0
 10
39.6818261815
 20
27.5019684914
 30
0.0
 10
39.8804206112
 20
27.2676494333
 30
0.0
 10
40.1470122761
 20
26.8689626639
 30
0.0
 10
40.4333455068
 20
26.2815455877
 30
0.0
 10
40.623817728
 20
25.7837215159
 30
0.0
 10
40.7784059471
 20
25.2474864706
 30
0.0
 10
40.8933450725
 20
24.6797316412
 30
0.0
 10
40.9642289371
 20
24.0895171587
 30
0.0
 10
40.9809227658
 20
23.6890072077
 30
0.0
 10
40.9813217871
 20
23.4874390919
 30
0.0
  0
SPLINE
  5
281
100
AcDbEntity
  8
0
100
AcDbSpline
 62
7
  6
CONTINUOUS
 70
0
 71
3
 72
9
 73
5
 74
0
 42
0.0000001
 43
0.0000001
 44
0.0000000001
 40
0.0
 40
0.0
 40
0.0
 40
0.0
 40
0.5001291827
 40
1.0
 40
1.0
 40
1.0
 40
1.0
 10
40.9813215332
 20
23.4874390913
 30
0.0
 10
41.0632620065
 20
23.7467883289
 30
0.0
 10
41.2022841112
 20
24.2738357738
 30
0.0
 10
41.2604295347
 20
24.8182302121
 30
0.0
 10
41.2604294665
 20
25.0900754917
 30
0.0
  0
SPLINE
  5
282
100
AcDbEntity
  8
0
100
AcDbSpline
 62
7
  6
CONTINUOUS
 70
0
 71
3
 72
23
 73
19
 74
0
 42
0.0000001
 43
0.0000001
 44
0.0000000001
 40
0.0
 40
0.0
 40
0.0
 40
0.0
 40
0.0497568009
 40
0.1028200666
 40
0.1592044876
 40
0.2187879246
 40
0.2813623732
 40
0.3465337118
 40
0.4138184309
 40
0.4825640407
 40
0.5520587005
 40
0.6215197532
 40
0.690165659
 40
0.7572901166
 40
0.8222496935
 40
0.8845800286
 40
0.9439026629
 40
1.0
 40
1.0
 40
1.0
 40
1.0
 10
40.1142170491
 20
27.9005850536
 30
0.0
 10
39.8854995502
 20
28.1988393791
 30
0.0
 10
39.4436847965
 20
28.8392501401
 30
0.0
 10
38.8504546236
 20
29.8869122303
 30
0.0
 10
38.313610374
 20
31.0468837875
 30
0.0
 10
37.8409227036
 20
32.31130556
 30
0.0
 10
37.4410225583
 20
33.6698637559
 30
0.0
 10
37.1208941657
 20
35.1089998641
 30
0.0
 10
36.8883809951
 20
36.6120084494
 30
0.0
 10
36.7477573493
 20
38.1591537713
 30
0.0
 10
36.7037823578
 20
39.7284878564
 30
0.0
 10
36.7561991043
 20
41.2968097964
 30
0.0
 10
36.9050535142
 20
42.8409582553
 30
0.0
 10
37.1453890249
 20
44.3391308582
 30
0.0
 10
37.4727674983
 20
45.7718601029
 30
0.0
 10
37.8793492569
 20
47.1228083647
 30
0.0
 10
38.3579882892
 20
48.3785236362
 30
0.0
 10
38.7300686414
 20
49.1682109299
 30
0.0
 10
38.9267895998
 20
49.5435317586
 30
0.0
  0
SPLINE
  5
283
100
AcDbEntity
  8
0
100
AcDbSpline
 62
7
  6
CONTINUOUS
 70
0
 71
3
 72
11
 73
7
 74
0
 42
0.0000001
 43
0.0000001
 44
0.0000000001
 40
0.0
 40
0.0
 40
0.0
 40
0.0
 40
0.2205237472
 40
0.4756857102
 40
0.7442513666
 40
1.0
 40
1.0
 40
1.0
 40
1.0
 10
38.9267923889
 20
49.5435259659
 30
0.0
 10
38.9089183652
 20
49.5806823509
 30
0.0
 10
38.8584377275
 20
49.6552329738
 30
0.0
 10
38.7562587815
 20
49.7510401708
 30
0.0
 10
38.6320534227
 20
49.8288795823
 30
0.0
 10
38.5403398269
 20
49.8652925845
 30
0.0
 10
38.4943993339
 20
49.8785606679
 30
0.0
  0
SPLINE
  5
284
100
AcDbEntity
  8
0
100
AcDbSpline
 62
7
  6
CONTINUOUS
 70
0
 71
3
 72
11
 73
7
 74
0
 42
0.0000001
 43
0.0000001
 44
0.0000000001
 40
0.0
 40
0.0
 40
0.0
 40
0.0
 40
0.2709632804
 40
0.5306404758
 40
0.7745183798
 40
1.0
 40
1.0
 40
1.0
 40
1.0
 10
39.7407129208
 20
52.6254358563
 30
0.0
 10
39.7212104789
 20
52.3363006536
 30
0.0
 10
39.6565416026
 20
51.7714658955
 30
0.0
 10
39.4833129182
 20
50.9601056341
 30
0.0
 10
39.2440082995
 20
50.2166373374
 30
0.0
 10
39.038743737
 20
49.7571149311
 30
0.0
 10
38.9267923876
 20
49.5435259636
 30
0.0
  0
SPLINE
  5
285
100
AcDbEntity
  8
0
100
AcDbSpline
 62
7
  6
CONTINUOUS
 70
0
 71
3
 72
14
 73
10
 74
0
 42
0.0000001
 43
0.0000001
 44
0.0000000001
 40
0.0
 40
0.0
 40
0.0
 40
0.0
 40
0.1334009214
 40
0.2670333996
 40
0.3993296708
 40
0.5289045442
 40
0.654508211
 40
0.7753024163
 40
1.0
 40
1.0
 40
1.0
 40
1.0
 10
39.3167270231
 20
53.8831800597
 30
0.0
 10
39.3314601442
 20
53.6993789758
 30
0.0
 10
39.3473648392
 20
53.3302401279
 30
0.0
 10
39.3317773511
 20
52.778046096
 30
0.0
 10
39.2769021236
 20
52.2336448372
 30
0.0
 10
39.1850975658
 20
51.7055349563
 30
0.0
 10
39.0584361986
 20
51.2009614967
 30
0.0
 10
38.8528477846
 20
50.5827583786
 30
0.0
 10
38.6502867135
 20
50.1471890944
 30
0.0
 10
38.4943993185
 20
49.8785606414
 30
0.0
  0
LINE
  5
286
100
AcDbEntity
  8
0
100
AcDbLine
 62
7
  6
CONTINUOUS
 10
51.1013326447
 20
48.1911523348
 11
41.2604294778
 21
48.0847289832
  0
SPLINE
  5
287
100
AcDbEntity
  8
0
100
AcDbSpline
 62
7
  6
CONTINUOUS
 70
0
 71
3
 72
11
 73
7
 74
0
 42
0.0000001
 43
0.0000001
 44
0.0000000001
 40
0.0
 40
0.0
 40
0.0
 40
0.0
 40
0.2255492924
 40
0.4685463589
 40
0.7275849963
 40
1.0
 40
1.0
 40
1.0
 40
1.0
 10
41.2604294778
 20
48.0847289832
 30
0.0
 10
41.0777601527
 20
48.3972086969
 30
0.0
 10
40.7356521925
 20
49.0686661866
 30
0.0
 10
40.3118944373
 20
50.1584719154
 30
0.0
 10
39.9696657868
 20
51.3549209852
 30
0.0
 10
39.806658665
 20
52.1932742728
 30
0.0
 10
39.7407129208
 20
52.6254358563
 30
0.0
  0
SPLINE
  5
288
100
AcDbEntity
  8
0
100
AcDbSpline
 62
7
  6
CONTINUOUS
 70
0
 71
3
 72
10
 73
6
 74
0
 42
0.0000001
 43
0.0000001
 44
0.0000000001
 40
0.0
 40
0.0
 40
0.0
 40
0.0
 40
0.2475462705
 40
0.4970244334
 40
1.0
 40
1.0
 40
1.0
 40
1.0
 10
39.7407125847
 20
52.6254358485
 30
0.0
 10
39.7241396379
 20
52.7340396991
 30
0.0
 10
39.6777640152
 20
52.9502014633
 30
0.0
 10
39.5452266409
 20
53.3741607784
 30
0.0
 10
39.4123398227
 20
53.6814733209
 30
0.0
 10
39.3167279513
 20
53.8831806242
 30
0.0
  0
SPLINE
  5
289
100
AcDbEntity
  8
0
100
AcDbSpline
 62
7
  6
CONTINUOUS
 70
0
 71
3
 72
16
 73
12
 74
0
 42
0.0000001
 43
0.0000001
 44
0.0000000001
 40
0.0
 40
0.0
 40
0.0
 40
0.0
 40
0.0358282566
 40
0.0728170251
 40
0.1543340841
 40
0.251668604
 40
0.3681634815
 40
0.5041911117
 40
0.6577962261
 40
0.8250596885
 40
1.0
 40
1.0
 40
1.0
 40
1.0
 10
52.0751556964
 20
48.6203656942
 30
0.0
 10
52.0751556964
 20
48.6067206555
 30
0.0
 10
52.0721989172
 20
48.5789064722
 30
0.0
 10
52.054073325
 20
48.5226122304
 30
0.0
 10
52.0064105198
 20
48.4535568337
 30
0.0
 10
51.9187456514
 20
48.3816539249
 30
0.0
 10
51.8008635117
 20
48.3182300742
 30
0.0
 10
51.6550985926
 20
48.2652846715
 30
0.0
 10
51.4855499901
 20
48.2247756288
 30
0.0
 10
51.2982857755
 20
48.1986872183
 30
0.0
 10
51.1679539611
 20
48.1918783048
 30
0.0
 10
51.1013326447
 20
48.1911523348
 30
0.0
  0
SPLINE
  5
28A
100
AcDbEntity
  8
0
100
AcDbSpline
 62
7
  6
CONTINUOUS
 70
0
 71
3
 72
23
 73
19
 74
0
 42
0.0000001
 43
0.0000001
 44
0.0000000001
 40
0.0
 40
0.0
 40
0.0
 40
0.0
 40
0.0017593058
 40
0.0055899797
 40
0.0117231759
 40
0.0201907952
 40
0.0309939579
 40
0.0441234313
 40
0.0772286314
 40
0.1191741025
 40
0.1695943481
 40
0.2279998709
 40
0.2938217581
 40
0.3664571808
 40
0.445175973
 40
0.6177884642
 40
0.8052192576
 40
1.0
 40
1.0
 40
1.0
 40
1.0
 10
51.1013326447
 20
16.2367659065
 30
0.0
 10
51.1019193309
 20
16.2367812694
 30
0.0
 10
51.103090927
 20
16.2387801295
 30
0.0
 10
51.1039528581
 20
16.2422858247
 30
0.0
 10
51.1050882477
 20
16.2484957664
 30
0.0
 10
51.1060480671
 20
16.2568500907
 30
0.0
 10
51.1070076886
 20
16.267642396
 30
0.0
 10
51.108265243
 20
16.2866171387
 30
0.0
 10
51.1095564824
 20
16.3160153468
 30
0.0
 10
51.1107200574
 20
16.3578525161
 30
0.0
 10
51.1115589213
 20
16.4081433782
 30
0.0
 10
51.1120627427
 20
16.4664019891
 30
0.0
 10
51.1122213563
 20
16.5320738083
 30
0.0
 10
51.1120281322
 20
16.6045216058
 30
0.0
 10
51.1112818282
 20
16.712591448
 30
0.0
 10
51.1094486204
 20
16.8589479381
 30
0.0
 10
51.1060449575
 20
17.0440013608
 30
0.0
 10
51.1030323786
 20
17.1714685029
 30
0.0
 10
51.1013326447
 20
17.2364232315
 30
0.0
  0
ELLIPSE
  5
28B
100
AcDbEntity
  8
0
100
AcDbEllipse
 62
7
  6
CONTINUOUS
 10
-111.7248443036
 20
39.6599901644
 30
0.0
 11
145.04
 21
-0.0
 31
0.0
 40
0.0337837838
 41
0.5701190339
 42
0.6133827569
  0
ELLIPSE
  5
28C
100
AcDbEntity
  8
0
100
AcDbEllipse
 62
7
  6
CONTINUOUS
 10
-111.7248443036
 20
39.6599901644
 30
0.0
 11
145.04
 21
-0.0
 31
0.0
 40
0.0337837838
 41
-0.6133827569
 42
-0.5701190339
  0
ENDSEC
  0
SECTION
  2
OBJECTS
  0
DICTIONARY
  5
C
100
AcDbDictionary
280
0
281
1
  3
ACAD_GROUP
350
D
  3
ACAD_MLINESTYLE
350
17
  3
ACAD_LAYOUT
350
1A
  3
ACAD_PLOTSETTINGS
350
19
  3
ACAD_PLOTSTYLENAME
350
E
  0
DICTIONARY
  5
D
102
{ACAD_REACTORS
330
C
102
}
100
AcDbDictionary
280
0
281
1
  0
ACDBDICTIONARYWDFLT
  5
E
102
{ACAD_REACTORS
330
C
102
}
100
AcDbDictionary
281
1
  3
Normal
350
F
100
AcDbDictionaryWithDefault
340
F
  0
DICTIONARY
  5
17
102
{ACAD_REACTORS
330
C
102
}
100
AcDbDictionary
280
0
281
1
  3
Standard
350
18
  0
DICTIONARY
  5
19
102
{ACAD_REACTORS
330
C
102
}
100
AcDbDictionary
281
1
  0
DICTIONARY
  5
1A
102
{ACAD_REACTORS
330
C
102
}
100
AcDbDictionary
281
1
  3
Model
350
28D
  3
Layout1
350
28E
  0
ACDBPLACEHOLDER
  5
F
102
{ACAD_REACTORS
330
E
102
}
  0
MLINESTYLE
  5
18
102
{ACAD_REACTORS
330
17
102
}
100
AcDbMlineStyle
  2
STANDARD
 70
0
  3

 62
256
 51
90.0
 52
90.0
 71
2
 49
0.5
 62
256
  6
BYLAYER
 49
-0.5
 62
256
  6
BYLAYER
  0
LAYOUT
  5
28D
102
{ACAD_REACTORS
330
1A
102
}
100
AcDbPlotSettings
  1

  2
none_device
  4

  6

 40
0.0
 41
0.0
 42
0.0
 43
0.0
 44
210.0
 45
297.0
 46
0.0
 47
0.0
 48
0.0
 49
0.0
140
0.0
141
0.0
142
1.0
143
1.0
 70
1024
 72
1
 73
0
 74
0
  7

 75
0
147
1.0
148
0.0
149
0.0
100
AcDbLayout
  1
Model
 70
0
 71
0
 10
0.0
 20
0.0
 11
210.0
 21
297.0
 12
0.0
 22
0.0
 32
0.0
 14
0.0
 24
0.0
 34
0.0
 15
0.0
 25
0.0
 35
0.0
146
0.0
 13
0.0
 23
0.0
 33
0.0
 16
1.0
 26
0.0
 36
0.0
 17
0.0
 27
1.0
 37
0.0
 76
0
330
210
345
0
346
0
  0
LAYOUT
  5
28E
102
{ACAD_REACTORS
330
1A
102
}
100
AcDbPlotSettings
  1

  2
none_device
  4

  6

 40
0.0
 41
0.0
 42
0.0
 43
0.0
 44
210.0
 45
297.0
 46
0.0
 47
0.0
 48
0.0
 49
0.0
140
0.0
141
0.0
142
1.0
143
1.0
 70
0
 72
1
 73
0
 74
0
  7

 75
0
147
1.0
148
0.0
149
0.0
100
AcDbLayout
  1
Layout1
 70
0
 71
1
 10
0.0
 20
0.0
 11
210.0
 21
297.0
 12
0.0
 22
0.0
 32
0.0
 14
0.0
 24
0.0
 34
0.0
 15
0.0
 25
0.0
 35
0.0
146
0.0
 13
0.0
 23
0.0
 33
0.0
 16
1.0
 26
0.0
 36
0.0
 17
0.0
 27
1.0
 37
0.0
 76
0
330
211
345
0
346
0
  0
ENDSEC
  0
EOF
