999
DXF file: C:\Users\sesa63760\OneDrive - Schneider Electric\Documents\7-Dev\_Creo\CAD\MCADUE0000870_3D-CAD\drw0001_2.dxf
999
Pro/ENGINEER 2019471 by Parametric Technology Corporation
  0
SECTION
  2
HEADER
  9
$ACADVER
  1
AC1024
  9
$DWGCODEPAGE
  3
ANSI_1252
  9
$EXTMAX
 10
960.025812153
 20
1357.7507914736
 30
0.0
  9
$EXTMIN
 10
0.0
 20
0.0
 30
0.0
  9
$LIMMIN
 10
0.0
 20
0.0
  9
$LIMMAX
 10
960.025812153
 20
1357.7507914736
  9
$VIEWCTR
 10
480.0129060765
 20
678.8753957368
  9
$VIEWSIZE
 40
1357.7507914736
  9
$CLAYER
  8
0
  9
$LTSCALE
 40
88.5052367775
  9
$CELTYPE
  6
BYLAYER
  9
$DIMSCALE
 40
1.0
  9
$DIMASZ
 40
11.4288787161
  9
$DIMEXO
 40
1.0
  9
$DIMDLI
 40
61.1490726827
  9
$DIMEXE
 40
1.0
  9
$DIMCEN
 40
14.4826751091
  9
$DIMLFAC
 40
1.0
  9
$DIMBLK
  1
_FILLED
  9
$DIMALT
 70
0
  9
$DIMALTF
 40
0.0393700787
  9
$DIMTXT
 40
16.0004302026
  9
$DIMTOL
 70
1
  9
$DIMLIM
 70
0
  9
$DIMTFAC
 40
1.0
  9
$DIMTP
 40
0.01
  9
$DIMTM
 40
0.01
  9
$DIMGAP
 40
0.625
  9
$DIMDSEP
 70
46
  9
$AUNITS
 70
0
  9
$PDMODE
 70
3
  9
$PDSIZE
 40
0.3125
  9
$HANDSEED
  5
27E
  9
$TILEMODE
 70
1
  9
$MEASUREMENT
 70
1
  9
$INSUNITS
 70
4
  0
ENDSEC
  0
SECTION
  2
CLASSES
  0
CLASS
  1
ACDBDICTIONARYWDFLT
  2
AcDbDictionaryWithDefault
  3
AutoCAD 2000
 90
0
 91
1
280
0
281
0
  0
CLASS
  1
ACDBPLACEHOLDER
  2
AcDbPlaceHolder
  3
AutoCAD 2000
 90
0
 91
1
280
0
281
0
  0
CLASS
  1
LAYOUT
  2
AcDbLayout
  3
AutoCAD 2000
 90
0
 91
0
280
0
281
0
  0
ENDSEC
  0
SECTION
  2
TABLES
  0
TABLE
  2
VPORT
  5
8
100
AcDbSymbolTable
 70
2
  0
VPORT
  5
1F4
100
AcDbSymbolTableRecord
100
AcDbViewportTableRecord
  2
*ACTIVE
 70
0
 10
0.0
 20
0.0
 11
1.0
 21
1.0
 12
480.0129060765
 22
678.8753957368
 13
0.0
 23
0.0
 14
1.0
 24
1.0
 15
0.0
 25
0.0
 16
0.0
 26
0.0
 36
1.0
 17
0.0
 27
0.0
 37
0.0
 40
1357.7507914736
 41
0.7070707071
 42
50.0
 43
0.0
 44
0.0
 50
0.0
 51
0.0
 71
0
 72
100
 73
1
 74
1
 75
0
 76
0
 77
0
 78
0
  0
ENDTAB
  0
TABLE
  2
LTYPE
  5
5
100
AcDbSymbolTable
 70
6
  0
LTYPE
  5
14
100
AcDbSymbolTableRecord
100
AcDbLinetypeTableRecord
  2
BYBLOCK
 70
0
  3

 72
65
 73
0
 40
0.0
  0
LTYPE
  5
15
100
AcDbSymbolTableRecord
100
AcDbLinetypeTableRecord
  2
BYLAYER
 70
0
  3

 72
65
 73
0
 40
0.0
  0
LTYPE
  5
16
100
AcDbSymbolTableRecord
100
AcDbLinetypeTableRecord
  2
CONTINUOUS
 70
64
  3
Solid line
 72
65
 73
0
 40
0.0
  0
LTYPE
  5
1F5
100
AcDbSymbolTableRecord
100
AcDbLinetypeTableRecord
  2
CENTER
 70
64
  3
____ _ ____ _ ____ _ ____ _ ____ _ ____ _ ____
 72
65
 73
4
 40
0.6
 49
0.375
 74
0
 49
-0.075
 74
0
 49
0.075
 74
0
 49
-0.075
 74
0
  0
LTYPE
  5
1F6
100
AcDbSymbolTableRecord
100
AcDbLinetypeTableRecord
  2
HIDDEN
 70
64
  3
- - - - - - - - - - - - - - - - - - - -
 72
65
 73
2
 40
0.2
 49
0.1
 74
0
 49
-0.1
 74
0
  0
LTYPE
  5
1F7
100
AcDbSymbolTableRecord
100
AcDbLinetypeTableRecord
  2
PHANTOM
 70
64
  3
_____ _ _ _____ _ _ _____ _ _ _____
 72
65
 73
6
 40
0.8
 49
0.45
 74
0
 49
-0.05
 74
0
 49
0.1
 74
0
 49
-0.05
 74
0
 49
0.1
 74
0
 49
-0.05
 74
0
  0
LTYPE
  5
1F8
100
AcDbSymbolTableRecord
100
AcDbLinetypeTableRecord
  2
DOT
 70
64
  3
. . . . . . . . . . . . . . . . . . . .
 72
65
 73
2
 40
0.2
 49
0.1
 74
0
 49
-0.1
 74
0
  0
LTYPE
  5
1F9
100
AcDbSymbolTableRecord
100
AcDbLinetypeTableRecord
  2
DASHED
 70
64
  3
- - - - - - - - - - - - - - - - - - - -
 72
65
 73
2
 40
0.2
 49
0.1
 74
0
 49
-0.1
 74
0
  0
ENDTAB
  0
TABLE
  2
LAYER
  5
2
100
AcDbSymbolTable
 70
36
  0
LAYER
  5
10
100
AcDbSymbolTableRecord
100
AcDbLayerTableRecord
  2
0
 70
0
 62
7
  6
CONTINUOUS
370
-3
390
F
  0
LAYER
  5
1FA
100
AcDbSymbolTableRecord
100
AcDbLayerTableRecord
  2
DEFAULT_1
 70
0
 62
7
  6
CENTER
370
-3
390
F
  0
LAYER
  5
1FB
100
AcDbSymbolTableRecord
100
AcDbLayerTableRecord
  2
DEFAULT_2
 70
0
 62
8
  6
HIDDEN
370
-3
390
F
  0
LAYER
  5
1FC
100
AcDbSymbolTableRecord
100
AcDbLayerTableRecord
  2
DEFAULT_3
 70
0
 62
7
  6
PHANTOM
370
-3
390
F
  0
LAYER
  5
1FD
100
AcDbSymbolTableRecord
100
AcDbLayerTableRecord
  2
00_COMPONENTS
 70
0
 62
7
  6
CONTINUOUS
370
-3
390
F
  0
LAYER
  5
1FE
100
AcDbSymbolTableRecord
100
AcDbLayerTableRecord
  2
01_1_DEFAULT_DATUMS
 70
0
 62
7
  6
CONTINUOUS
370
-3
390
F
  0
LAYER
  5
1FF
100
AcDbSymbolTableRecord
100
AcDbLayerTableRecord
  2
01_PLANES
 70
0
 62
7
  6
CONTINUOUS
370
-3
390
F
  0
LAYER
  5
200
100
AcDbSymbolTableRecord
100
AcDbLayerTableRecord
  2
02_COORD_SYS
 70
0
 62
7
  6
CONTINUOUS
370
-3
390
F
  0
LAYER
  5
201
100
AcDbSymbolTableRecord
100
AcDbLayerTableRecord
  2
03_AXES
 70
0
 62
7
  6
CONTINUOUS
370
-3
390
F
  0
LAYER
  5
202
100
AcDbSymbolTableRecord
100
AcDbLayerTableRecord
  2
04_POINTS
 70
0
 62
7
  6
CONTINUOUS
370
-3
390
F
  0
LAYER
  5
203
100
AcDbSymbolTableRecord
100
AcDbLayerTableRecord
  2
05_CURVES
 70
0
 62
7
  6
CONTINUOUS
370
-3
390
F
  0
LAYER
  5
204
100
AcDbSymbolTableRecord
100
AcDbLayerTableRecord
  2
06_SURFS
 70
0
 62
7
  6
CONTINUOUS
370
-3
390
F
  0
LAYER
  5
205
100
AcDbSymbolTableRecord
100
AcDbLayerTableRecord
  2
07_COSMETICS
 70
0
 62
7
  6
CONTINUOUS
370
-3
390
F
  0
LAYER
  5
206
100
AcDbSymbolTableRecord
100
AcDbLayerTableRecord
  2
10_NOTES
 70
0
 62
7
  6
CONTINUOUS
370
-3
390
F
  0
LAYER
  5
207
100
AcDbSymbolTableRecord
100
AcDbLayerTableRecord
  2
11_NOTES_PUB
 70
0
 62
7
  6
CONTINUOUS
370
-3
390
F
  0
LAYER
  5
208
100
AcDbSymbolTableRecord
100
AcDbLayerTableRecord
  2
13_REF_GTOL
 70
0
 62
7
  6
CONTINUOUS
370
-3
390
F
  0
LAYER
  5
209
100
AcDbSymbolTableRecord
100
AcDbLayerTableRecord
  2
16_MISC
 70
0
 62
7
  6
CONTINUOUS
370
-3
390
F
  0
LAYER
  5
20A
100
AcDbSymbolTableRecord
100
AcDbLayerTableRecord
  2
17_NO_PRINT
 70
0
 62
7
  6
CONTINUOUS
370
-3
390
F
  0
LAYER
  5
20B
100
AcDbSymbolTableRecord
100
AcDbLayerTableRecord
  2
18_DATUM_CAMS_JOINTS
 70
0
 62
7
  6
CONTINUOUS
370
-3
390
F
  0
LAYER
  5
20C
100
AcDbSymbolTableRecord
100
AcDbLayerTableRecord
  2
19_DATUM_FUNCTIONAL
 70
0
 62
7
  6
CONTINUOUS
370
-3
390
F
  0
LAYER
  5
20D
100
AcDbSymbolTableRecord
100
AcDbLayerTableRecord
  2
20_DATUM_KINEMATIC_SCHEME
 70
0
 62
7
  6
CONTINUOUS
370
-3
390
F
  0
ENDTAB
  0
TABLE
  2
STYLE
  5
3
100
AcDbSymbolTable
 70
1
  0
STYLE
  5
11
100
AcDbSymbolTableRecord
100
AcDbTextStyleTableRecord
  2
STANDARD
 70
0
 40
0.0
 41
0.8
 50
0.0
 71
0
 42
0.2
  3
txt
  4

  0
STYLE
  5
20E
100
AcDbSymbolTableRecord
100
AcDbTextStyleTableRecord
  2
TEXTSTYLE_1
 70
0
 40
0.0
 41
0.8
 50
0.0
 71
0
 42
0.2
  3
gdt
  4

  0
ENDTAB
  0
TABLE
  2
VIEW
  5
6
100
AcDbSymbolTable
 70
0
  0
ENDTAB
  0
TABLE
  2
UCS
  5
7
100
AcDbSymbolTable
 70
0
  0
ENDTAB
  0
TABLE
  2
APPID
  5
9
100
AcDbSymbolTable
 70
1
  0
APPID
  5
20F
100
AcDbSymbolTableRecord
100
AcDbRegAppTableRecord
  2
ACAD
 70
0
  0
ENDTAB
  0
TABLE
  2
BLOCK_RECORD
  5
1
100
AcDbSymbolTable
 70
0
  0
BLOCK_RECORD
  5
210
100
AcDbSymbolTableRecord
100
AcDbBlockTableRecord
  2
*Model_Space
  0
BLOCK_RECORD
  5
211
100
AcDbSymbolTableRecord
100
AcDbBlockTableRecord
  2
*Paper_Space
  0
BLOCK_RECORD
  5
212
100
AcDbSymbolTableRecord
100
AcDbBlockTableRecord
  2
_FILLED
  0
ENDTAB
  0
TABLE
  2
DIMSTYLE
  5
A
100
AcDbSymbolTable
 70
1
100
AcDbDimStyleTable
 71
0
  0
DIMSTYLE
105
213
100
AcDbSymbolTableRecord
100
AcDbDimStyleTableRecord
  2
STANDARD
 70
0
  3

  4

 40
1.0
 41
11.4288787161
 42
1.0
 43
0.38
 44
1.0
 45
0.0
 46
0.0
 47
0.01
 48
0.01
140
16.0004302026
141
0.09
142
0.0
143
25.4
144
1.0
145
0.0
146
1.0
147
0.625
 71
1
 72
0
 73
0
 74
0
 75
0
 76
0
 77
1
 78
8
 79
2
170
0
171
1
172
0
173
0
174
0
175
0
176
0
177
0
178
0
270
2
179
2
271
2
272
2
273
2
274
2
275
0
280
0
281
0
282
0
283
1
284
8
285
0
286
0
287
3
288
0
340
11
278
46
341
212
342
212
343
212
344
212
  0
ENDTAB
  0
ENDSEC
  0
SECTION
  2
BLOCKS
  0
BLOCK
  5
20
100
AcDbEntity
  8
0
100
AcDbBlockBegin
  2
*Model_Space
 70
0
 10
0.0
 20
0.0
 30
0.0
  3
*Model_Space
  1

  0
ENDBLK
  5
21
100
AcDbEntity
  8
0
100
AcDbBlockEnd
  0
BLOCK
  5
1C
100
AcDbEntity
  8
0
100
AcDbBlockBegin
  2
*Paper_Space
 70
0
 10
0.0
 20
0.0
 30
0.0
  3
*Paper_Space
  1

  0
ENDBLK
  5
1D
100
AcDbEntity
  8
0
100
AcDbBlockEnd
  0
BLOCK
  5
214
100
AcDbEntity
  8
0
100
AcDbBlockBegin
  2
_FILLED
 70
64
 10
0.0
 20
0.0
  3
_FILLED
  1

  0
SOLID
  5
215
100
AcDbEntity
  8
0
  6
BYBLOCK
 62
0
100
AcDbTrace
 10
0.0
 20
0.0
 11
-1.0
 21
0.25
 12
-1.0
 22
-0.25
 13
-1.0
 23
-0.25
  0
ENDBLK
  5
216
100
AcDbEntity
  8
0
  6
BYBLOCK
 62
0
100
AcDbBlockEnd
  0
ENDSEC
  0
SECTION
  2
ENTITIES
  0
LINE
  5
217
100
AcDbEntity
  8
0
100
AcDbLine
 62
7
  6
CONTINUOUS
 10
823.432359163
 20
274.4733444867
 11
824.6604002948
 21
274.5038881418
  0
LINE
  5
218
100
AcDbEntity
  8
0
100
AcDbLine
 62
7
  6
CONTINUOUS
 10
824.6604002948
 20
274.5038881418
 11
868.0603898997
 21
274.8826346812
  0
LINE
  5
219
100
AcDbEntity
  8
0
100
AcDbLine
 62
7
  6
CONTINUOUS
 10
149.6840686336
 20
274.4733444867
 11
823.432359163
 21
274.4733444867
  0
LINE
  5
21A
100
AcDbEntity
  8
0
100
AcDbLine
 62
7
  6
CONTINUOUS
 10
105.2604116435
 20
274.8826346812
 11
148.6604012489
 21
274.5038881418
  0
LINE
  5
21B
100
AcDbEntity
  8
0
100
AcDbLine
 62
7
  6
CONTINUOUS
 10
148.6604012489
 20
274.5038881418
 11
149.6840686336
 21
274.4733444867
  0
LINE
  5
21C
100
AcDbEntity
  8
0
100
AcDbLine
 62
7
  6
CONTINUOUS
 10
111.7066258891
 20
415.4325852391
 11
111.6835133303
 21
420.3825852391
  0
LINE
  5
21D
100
AcDbEntity
  8
0
100
AcDbLine
 62
7
  6
CONTINUOUS
 10
111.7066258891
 20
965.4325852391
 11
111.6835133303
 21
970.3825852391
  0
LINE
  5
21E
100
AcDbEntity
  8
0
100
AcDbLine
 62
7
  6
CONTINUOUS
 10
105.2604116435
 20
280.1212846933
 11
105.2604116435
 21
274.8826346812
  0
LINE
  5
21F
100
AcDbEntity
  8
0
100
AcDbLine
 62
7
  6
CONTINUOUS
 10
111.6604007716
 20
1078.3825852391
 11
111.6604007716
 21
991.3325852391
  0
LINE
  5
220
100
AcDbEntity
  8
0
100
AcDbLine
 62
7
  6
CONTINUOUS
 10
111.6604007716
 20
965.4325852391
 11
111.6604007716
 21
441.3325852391
  0
LINE
  5
221
100
AcDbEntity
  8
0
100
AcDbLine
 62
7
  6
CONTINUOUS
 10
111.6604007716
 20
415.4325852391
 11
111.6604007716
 21
328.5462730713
  0
LINE
  5
222
100
AcDbEntity
  8
0
100
AcDbLine
 62
7
  6
CONTINUOUS
 10
111.6835133303
 20
986.3825852391
 11
111.6835133303
 21
970.3825852391
  0
LINE
  5
223
100
AcDbEntity
  8
0
100
AcDbLine
 62
7
  6
CONTINUOUS
 10
111.6835133303
 20
436.3825852391
 11
111.6835133303
 21
420.3825852391
  0
LINE
  5
224
100
AcDbEntity
  8
0
100
AcDbLine
 62
7
  6
CONTINUOUS
 10
113.1604007716
 20
333.383088916
 11
113.1604007716
 21
1073.383088916
  0
LINE
  5
225
100
AcDbEntity
  8
0
100
AcDbLine
 62
7
  6
CONTINUOUS
 10
113.5904007716
 20
330.3225852391
 11
113.5904007716
 21
333.383088916
  0
LINE
  5
226
100
AcDbEntity
  8
0
100
AcDbLine
 62
7
  6
CONTINUOUS
 10
113.5904007716
 20
1073.383088916
 11
113.5904007716
 21
1076.4425852392
  0
LINE
  5
227
100
AcDbEntity
  8
0
100
AcDbLine
 62
7
  6
CONTINUOUS
 10
114.0204007716
 20
1071.8997424267
 11
114.0204007716
 21
334.8564376928
  0
LINE
  5
228
100
AcDbEntity
  8
0
100
AcDbLine
 62
7
  6
CONTINUOUS
 10
118.0112766703
 20
378.373088916
 11
118.0112766703
 21
1028.383088916
  0
LINE
  5
229
100
AcDbEntity
  8
0
100
AcDbLine
 62
7
  6
CONTINUOUS
 10
111.6835133303
 20
986.3825852391
 11
111.7066258891
 21
991.3325852391
  0
LINE
  5
22A
100
AcDbEntity
  8
0
100
AcDbLine
 62
7
  6
CONTINUOUS
 10
111.6835133303
 20
436.3825852391
 11
111.7066258891
 21
441.3325852391
  0
LINE
  5
22B
100
AcDbEntity
  8
0
100
AcDbLine
 62
7
  6
CONTINUOUS
 10
109.6689567994
 20
325.9231671138
 11
108.5332861921
 21
282.5537710902
  0
LINE
  5
22C
100
AcDbEntity
  8
0
100
AcDbLine
 62
7
  6
CONTINUOUS
 10
108.5325575004
 20
282.5259435482
 11
108.5220076079
 21
282.1230604765
  0
LINE
  5
22D
100
AcDbEntity
  8
0
100
AcDbLine
 62
7
  6
CONTINUOUS
 10
105.3014393649
 20
280.5250304468
 11
868.0193621783
 21
280.5250304468
  0
LINE
  5
22E
100
AcDbEntity
  8
0
100
AcDbLine
 62
7
  6
CONTINUOUS
 10
865.854420652
 20
282.1230604765
 11
864.7987939353
 21
282.1230604765
  0
LINE
  5
22F
100
AcDbEntity
  8
0
100
AcDbLine
 62
7
  6
CONTINUOUS
 10
108.5220076079
 20
282.1230604765
 11
107.4663808912
 21
282.1230604765
  0
LINE
  5
230
100
AcDbEntity
  8
0
100
AcDbLine
 62
7
  6
CONTINUOUS
 10
864.7882858999
 20
282.5243450968
 11
108.5325156433
 21
282.5243450968
  0
LINE
  5
231
100
AcDbEntity
  8
0
100
AcDbLine
 62
7
  6
CONTINUOUS
 10
110.0281018974
 20
326.6274260479
 11
863.2926996457
 21
326.6274260479
  0
LINE
  5
232
100
AcDbEntity
  8
0
100
AcDbLine
 62
7
  6
CONTINUOUS
 10
860.3525047875
 20
329.4023487848
 11
112.9682967557
 21
329.4023487848
  0
LINE
  5
233
100
AcDbEntity
  8
0
100
AcDbLine
 62
7
  6
CONTINUOUS
 10
859.7304007716
 20
330.3225852391
 11
113.5904007716
 21
330.3225852391
  0
LINE
  5
234
100
AcDbEntity
  8
0
100
AcDbLine
 62
7
  6
CONTINUOUS
 10
860.1604007716
 20
333.383088916
 11
113.1604007716
 21
333.383088916
  0
LINE
  5
235
100
AcDbEntity
  8
0
100
AcDbLine
 62
7
  6
CONTINUOUS
 10
113.9465391435
 20
334.1628735234
 11
859.3742623998
 21
334.1628735234
  0
LINE
  5
236
100
AcDbEntity
  8
0
100
AcDbLine
 62
7
  6
CONTINUOUS
 10
858.8343761476
 20
337.9509693614
 11
114.4864253956
 21
337.9509693614
  0
LINE
  5
237
100
AcDbEntity
  8
0
100
AcDbLine
 62
7
  6
CONTINUOUS
 10
168.9104007716
 20
1029.4244669596
 11
168.9104007716
 21
1028.383088916
  0
LINE
  5
238
100
AcDbEntity
  8
0
100
AcDbLine
 62
7
  6
CONTINUOUS
 10
168.9104007716
 20
378.373088916
 11
168.9104007716
 21
377.3420827217
  0
LINE
  5
239
100
AcDbEntity
  8
0
100
AcDbLine
 62
7
  6
CONTINUOUS
 10
168.9104007716
 20
377.3420827217
 11
804.4104007716
 21
377.3420827217
  0
LINE
  5
23A
100
AcDbEntity
  8
0
100
AcDbLine
 62
7
  6
CONTINUOUS
 10
855.3051575225
 20
378.373088916
 11
804.4104007716
 21
378.373088916
  0
LINE
  5
23B
100
AcDbEntity
  8
0
100
AcDbLine
 62
7
  6
CONTINUOUS
 10
168.9104007716
 20
378.373088916
 11
118.0156440215
 21
378.373088916
  0
LINE
  5
23C
100
AcDbEntity
  8
0
100
AcDbLine
 62
7
  6
CONTINUOUS
 10
111.6933671095
 20
415.4325852391
 11
113.1604007716
 21
415.4325852391
  0
LINE
  5
23D
100
AcDbEntity
  8
0
100
AcDbLine
 62
7
  6
CONTINUOUS
 10
860.1604007716
 20
415.4325852391
 11
861.6274380416
 21
415.4325852391
  0
LINE
  5
23E
100
AcDbEntity
  8
0
100
AcDbLine
 62
7
  6
CONTINUOUS
 10
861.6274344337
 20
441.3325852391
 11
860.1604007716
 21
441.3325852391
  0
LINE
  5
23F
100
AcDbEntity
  8
0
100
AcDbLine
 62
7
  6
CONTINUOUS
 10
113.1604007716
 20
441.3325852391
 11
111.6933635016
 21
441.3325852391
  0
LINE
  5
240
100
AcDbEntity
  8
0
100
AcDbLine
 62
7
  6
CONTINUOUS
 10
859.3742005503
 20
1072.5932449339
 11
860.1604007716
 21
1073.383088916
  0
LINE
  5
241
100
AcDbEntity
  8
0
100
AcDbLine
 62
7
  6
CONTINUOUS
 10
856.6679298719
 20
1073.383088916
 11
859.7304007716
 21
1076.4425852391
  0
LINE
  5
242
100
AcDbEntity
  8
0
100
AcDbLine
 62
7
  6
CONTINUOUS
 10
116.6538800044
 20
333.383088916
 11
113.5904007716
 21
330.3225852391
  0
LINE
  5
243
100
AcDbEntity
  8
0
100
AcDbLine
 62
7
  6
CONTINUOUS
 10
113.9465391435
 20
334.1628735234
 11
113.1604007716
 21
333.383088916
  0
LINE
  5
244
100
AcDbEntity
  8
0
100
AcDbLine
 62
7
  6
CONTINUOUS
 10
860.1604007716
 20
333.383088916
 11
859.3742623998
 21
334.1628735234
  0
LINE
  5
245
100
AcDbEntity
  8
0
100
AcDbLine
 62
7
  6
CONTINUOUS
 10
859.7304007716
 20
330.3225852391
 11
856.6668548446
 21
333.383088916
  0
LINE
  5
246
100
AcDbEntity
  8
0
100
AcDbLine
 62
7
  6
CONTINUOUS
 10
113.5904007716
 20
1076.4425852391
 11
116.6529383436
 21
1073.383088916
  0
LINE
  5
247
100
AcDbEntity
  8
0
100
AcDbLine
 62
7
  6
CONTINUOUS
 10
113.1604007716
 20
1073.383088916
 11
113.9466009929
 21
1072.5932449339
  0
LINE
  5
248
100
AcDbEntity
  8
0
100
AcDbLine
 62
7
  6
CONTINUOUS
 10
111.6933671095
 20
965.4325852391
 11
113.1604007716
 21
965.4325852391
  0
LINE
  5
249
100
AcDbEntity
  8
0
100
AcDbLine
 62
7
  6
CONTINUOUS
 10
860.1604007716
 20
965.4325852391
 11
861.6274380416
 21
965.4325852391
  0
LINE
  5
24A
100
AcDbEntity
  8
0
100
AcDbLine
 62
7
  6
CONTINUOUS
 10
804.4104007716
 20
1029.4216623688
 11
804.4104007716
 21
1028.383088916
  0
LINE
  5
24B
100
AcDbEntity
  8
0
100
AcDbLine
 62
7
  6
CONTINUOUS
 10
804.4104007716
 20
377.3420827217
 11
804.4104007716
 21
378.373088916
  0
LINE
  5
24C
100
AcDbEntity
  8
0
100
AcDbLine
 62
7
  6
CONTINUOUS
 10
861.6274344337
 20
991.3325852391
 11
860.1604007716
 21
991.3325852391
  0
LINE
  5
24D
100
AcDbEntity
  8
0
100
AcDbLine
 62
7
  6
CONTINUOUS
 10
113.1604007716
 20
991.3325852391
 11
111.6933635016
 21
991.3325852391
  0
LINE
  5
24E
100
AcDbEntity
  8
0
100
AcDbLine
 62
7
  6
CONTINUOUS
 10
864.7987939353
 20
282.1230604765
 11
864.788244043
 21
282.5259435449
  0
LINE
  5
24F
100
AcDbEntity
  8
0
100
AcDbLine
 62
7
  6
CONTINUOUS
 10
864.7875153511
 20
282.5537710902
 11
863.6518447438
 21
325.9231671138
  0
LINE
  5
250
100
AcDbEntity
  8
0
100
AcDbLine
 62
7
  6
CONTINUOUS
 10
861.6141756541
 20
441.3325852391
 11
861.6372882129
 21
436.3825852391
  0
LINE
  5
251
100
AcDbEntity
  8
0
100
AcDbLine
 62
7
  6
CONTINUOUS
 10
855.3095248772
 20
1028.383088916
 11
855.3095248772
 21
378.373088916
  0
LINE
  5
252
100
AcDbEntity
  8
0
100
AcDbLine
 62
7
  6
CONTINUOUS
 10
859.3004007716
 20
334.8564376928
 11
859.3004007716
 21
1071.8997424267
  0
LINE
  5
253
100
AcDbEntity
  8
0
100
AcDbLine
 62
7
  6
CONTINUOUS
 10
859.7304007716
 20
1076.4425852391
 11
859.7304007716
 21
1073.383088916
  0
LINE
  5
254
100
AcDbEntity
  8
0
100
AcDbLine
 62
7
  6
CONTINUOUS
 10
859.7304007716
 20
333.383088916
 11
859.7304007716
 21
330.3225852391
  0
LINE
  5
255
100
AcDbEntity
  8
0
100
AcDbLine
 62
7
  6
CONTINUOUS
 10
860.1604007716
 20
1073.383088916
 11
860.1604007716
 21
333.383088916
  0
LINE
  5
256
100
AcDbEntity
  8
0
100
AcDbLine
 62
7
  6
CONTINUOUS
 10
861.6372882129
 20
970.3825852391
 11
861.6141756541
 21
965.4325852391
  0
LINE
  5
257
100
AcDbEntity
  8
0
100
AcDbLine
 62
7
  6
CONTINUOUS
 10
855.3095248772
 20
1028.383088916
 11
804.4104007716
 21
1028.383088916
  0
LINE
  5
258
100
AcDbEntity
  8
0
100
AcDbLine
 62
7
  6
CONTINUOUS
 10
168.9104007716
 20
1028.383088916
 11
118.0112766703
 21
1028.383088916
  0
LINE
  5
259
100
AcDbEntity
  8
0
100
AcDbLine
 62
7
  6
CONTINUOUS
 10
804.4104007716
 20
1029.4244669596
 11
168.9104007716
 21
1029.4244669596
  0
LINE
  5
25A
100
AcDbEntity
  8
0
100
AcDbLine
 62
7
  6
CONTINUOUS
 10
861.6141756541
 20
991.3325852391
 11
861.6372882129
 21
986.3825852391
  0
LINE
  5
25B
100
AcDbEntity
  8
0
100
AcDbLine
 62
7
  6
CONTINUOUS
 10
861.6372882129
 20
420.3825852391
 11
861.6372882129
 21
436.3825852391
  0
LINE
  5
25C
100
AcDbEntity
  8
0
100
AcDbLine
 62
7
  6
CONTINUOUS
 10
861.6372882129
 20
970.3825852391
 11
861.6372882129
 21
986.3825852391
  0
LINE
  5
25D
100
AcDbEntity
  8
0
100
AcDbLine
 62
7
  6
CONTINUOUS
 10
861.6604007716
 20
965.4325852391
 11
861.6604007716
 21
441.3325852391
  0
LINE
  5
25E
100
AcDbEntity
  8
0
100
AcDbLine
 62
7
  6
CONTINUOUS
 10
861.6604007716
 20
328.5462730713
 11
861.6604007716
 21
415.4325852391
  0
LINE
  5
25F
100
AcDbEntity
  8
0
100
AcDbLine
 62
7
  6
CONTINUOUS
 10
861.6604007716
 20
991.3325852391
 11
861.6604007716
 21
1078.3825852391
  0
LINE
  5
260
100
AcDbEntity
  8
0
100
AcDbLine
 62
7
  6
CONTINUOUS
 10
868.0603898997
 20
274.8826346812
 11
868.0603898997
 21
280.1212846933
  0
LINE
  5
261
100
AcDbEntity
  8
0
100
AcDbLine
 62
7
  6
CONTINUOUS
 10
861.6372882129
 20
420.3825852391
 11
861.6141756541
 21
415.4325852391
  0
LINE
  5
262
100
AcDbEntity
  8
0
100
AcDbLine
 62
7
  6
CONTINUOUS
 10
114.4864253294
 20
1068.805210843
 11
858.8343762138
 21
1068.805210843
  0
LINE
  5
263
100
AcDbEntity
  8
0
100
AcDbLine
 62
7
  6
CONTINUOUS
 10
859.3742005503
 20
1072.5932449339
 11
113.9466009929
 21
1072.5932449339
  0
LINE
  5
264
100
AcDbEntity
  8
0
100
AcDbLine
 62
7
  6
CONTINUOUS
 10
860.1604007716
 20
1073.383088916
 11
113.1604007716
 21
1073.383088916
  0
LINE
  5
265
100
AcDbEntity
  8
0
100
AcDbLine
 62
7
  6
CONTINUOUS
 10
113.5904007716
 20
1076.4425852391
 11
859.7304007716
 21
1076.4425852391
  0
LINE
  5
266
100
AcDbEntity
  8
0
100
AcDbLine
 62
7
  6
CONTINUOUS
 10
861.6604007716
 20
1078.3825852391
 11
111.6604007716
 21
1078.3825852391
  0
ARC
  5
267
100
AcDbEntity
  8
0
100
AcDbCircle
 62
7
  6
CONTINUOUS
 10
1024.2026427053
 20
492.8713065213
 40
231.239587137
100
AcDbArc
 50
224.829732734
 51
224.9905759355
  0
ARC
  5
268
100
AcDbEntity
  8
0
100
AcDbCircle
 62
7
  6
CONTINUOUS
 10
116.2072151318
 20
323.0268646812
 40
7.1510411691
100
AcDbArc
 50
116.931801414
 51
156.1077270021
  0
ARC
  5
269
100
AcDbEntity
  8
0
100
AcDbCircle
 62
7
  6
CONTINUOUS
 10
857.1135864114
 20
323.0268646812
 40
7.1510411691
100
AcDbArc
 50
23.8922729979
 51
63.068198586
  0
ARC
  5
26A
100
AcDbEntity
  8
0
100
AcDbCircle
 62
7
  6
CONTINUOUS
 10
866.0486697736
 20
280.1207214436
 40
2.0117391292
100
AcDbArc
 50
0.016041907
 51
95.5409046482
  0
ARC
  5
26B
100
AcDbEntity
  8
0
100
AcDbCircle
 62
7
  6
CONTINUOUS
 10
107.2721317696
 20
280.1207214436
 40
2.0117391292
100
AcDbArc
 50
84.4590120882
 51
179.983958093
  0
SPLINE
  5
26C
100
AcDbEntity
  8
0
100
AcDbSpline
 62
7
  6
CONTINUOUS
 70
0
 71
3
 72
9
 73
5
 74
0
 42
0.0000001
 43
0.0000001
 44
0.0000000001
 40
0.0
 40
0.0
 40
0.0
 40
0.0
 40
0.4355791409
 40
1.0
 40
1.0
 40
1.0
 40
1.0
 10
114.0203289244
 20
1071.9010695195
 30
0.0
 10
114.043311639
 20
1071.4469612252
 30
0.0
 10
114.3187969333
 20
1070.4314718367
 30
0.0
 10
114.4699354001
 20
1069.3941655682
 30
0.0
 10
114.4863691579
 20
1068.805210843
 30
0.0
  0
SPLINE
  5
26D
100
AcDbEntity
  8
0
100
AcDbSpline
 62
7
  6
CONTINUOUS
 70
0
 71
3
 72
9
 73
5
 74
0
 42
0.0000001
 43
0.0000001
 44
0.0000000001
 40
0.0
 40
0.0
 40
0.0
 40
0.0
 40
0.2869901671
 40
1.0
 40
1.0
 40
1.0
 40
1.0
 10
113.9466009929
 20
1072.5932449339
 30
0.0
 10
113.9937412127
 20
1072.5458862359
 30
0.0
 10
113.9692551082
 20
1072.2776253231
 30
0.0
 10
114.0119099098
 20
1072.0655379199
 30
0.0
 10
114.0204007716
 20
1071.8997424267
 30
0.0
  0
SPLINE
  5
26E
100
AcDbEntity
  8
0
100
AcDbSpline
 62
7
  6
CONTINUOUS
 70
0
 71
3
 72
9
 73
5
 74
0
 42
0.0000001
 43
0.0000001
 44
0.0000000001
 40
0.0
 40
0.0
 40
0.0
 40
0.0
 40
0.7130098332
 40
1.0
 40
1.0
 40
1.0
 40
1.0
 10
859.3004007716
 20
1071.8997424267
 30
0.0
 10
859.3088916336
 20
1072.06553792
 30
0.0
 10
859.3515464349
 20
1072.2776253232
 30
0.0
 10
859.3270603306
 20
1072.5458862359
 30
0.0
 10
859.3742005503
 20
1072.5932449339
 30
0.0
  0
SPLINE
  5
26F
100
AcDbEntity
  8
0
100
AcDbSpline
 62
7
  6
CONTINUOUS
 70
0
 71
3
 72
9
 73
5
 74
0
 42
0.0000001
 43
0.0000001
 44
0.0000000001
 40
0.0
 40
0.0
 40
0.0
 40
0.0
 40
0.5644209475
 40
1.0
 40
1.0
 40
1.0
 40
1.0
 10
858.8344323853
 20
1068.805210843
 30
0.0
 10
858.8508661458
 20
1069.3941656641
 30
0.0
 10
859.0020046122
 20
1070.4314719395
 30
0.0
 10
859.2774899094
 20
1071.4469613338
 30
0.0
 10
859.3004726198
 20
1071.9010695387
 30
0.0
  0
SPLINE
  5
270
100
AcDbEntity
  8
0
100
AcDbSpline
 62
7
  6
CONTINUOUS
 70
0
 71
3
 72
20
 73
16
 74
0
 42
0.0000001
 43
0.0000001
 44
0.0000000001
 40
0.0
 40
0.0
 40
0.0
 40
0.0
 40
0.2500911536
 40
0.3751372759
 40
0.5001833541
 40
0.6252292146
 40
0.687752546
 40
0.7502758671
 40
0.8127990249
 40
0.8753212594
 40
0.9065830649
 40
0.9378439581
 40
0.9690968221
 40
0.9847072685
 40
1.0
 40
1.0
 40
1.0
 40
1.0
 10
114.4864253956
 20
337.9509693614
 30
0.0
 10
114.5812707586
 20
341.350047074
 30
0.0
 10
114.7489404338
 20
346.4480563701
 30
0.0
 10
115.0418655023
 20
353.2426163237
 30
0.0
 10
115.3048770622
 20
358.3365245759
 30
0.0
 10
115.5710733286
 20
362.5788288706
 30
0.0
 10
115.8254245583
 20
365.969805518
 30
0.0
 10
116.0428788546
 20
368.5107816978
 30
0.0
 10
116.2969515974
 20
371.0489664284
 30
0.0
 10
116.5526384208
 20
373.1576177618
 30
0.0
 10
116.8068249816
 20
374.8419668696
 30
0.0
 10
117.0322683224
 20
376.0876243814
 30
0.0
 10
117.2849877774
 20
377.1506645485
 30
0.0
 10
117.5481193147
 20
377.893634243
 30
0.0
 10
117.8077633717
 20
378.3685660656
 30
0.0
 10
118.0156440215
 20
378.373088916
 30
0.0
  0
SPLINE
  5
271
100
AcDbEntity
  8
0
100
AcDbSpline
 62
7
  6
CONTINUOUS
 70
0
 71
3
 72
20
 73
16
 74
0
 42
0.0000001
 43
0.0000001
 44
0.0000000001
 40
0.0
 40
0.0
 40
0.0
 40
0.0
 40
0.2500911537
 40
0.375137276
 40
0.5001833542
 40
0.6252292147
 40
0.6877525461
 40
0.7502758673
 40
0.8127990251
 40
0.8753212596
 40
0.9065830652
 40
0.9378439583
 40
0.9690968224
 40
0.984707269
 40
1.0
 40
1.0
 40
1.0
 40
1.0
 10
114.4864253294
 20
1068.805210843
 30
0.0
 10
114.5812706899
 20
1065.4061329319
 30
0.0
 10
114.7489403628
 20
1060.3081233379
 30
0.0
 10
115.0418654319
 20
1053.5135629872
 30
0.0
 10
115.3048769943
 20
1048.4196544371
 30
0.0
 10
115.5710732646
 20
1044.1773498942
 30
0.0
 10
115.8254244991
 20
1040.7863730481
 30
0.0
 10
116.0428788001
 20
1038.2453967194
 30
0.0
 10
116.2969515486
 20
1035.7072118397
 30
0.0
 10
116.5526383789
 20
1033.5985603825
 30
0.0
 10
116.8068249455
 20
1031.9142111746
 30
0.0
 10
117.0322682951
 20
1030.6685535907
 30
0.0
 10
117.2849877497
 20
1029.605513351
 30
0.0
 10
117.5481193109
 20
1028.8625436251
 30
0.0
 10
117.8077633662
 20
1028.3876117665
 30
0.0
 10
118.0156440211
 20
1028.383088916
 30
0.0
  0
SPLINE
  5
272
100
AcDbEntity
  8
0
100
AcDbSpline
 62
7
  6
CONTINUOUS
 70
0
 71
3
 72
20
 73
16
 74
0
 42
0.0000001
 43
0.0000001
 44
0.0000000001
 40
0.0
 40
0.0
 40
0.0
 40
0.0
 40
0.2500911536
 40
0.3751372759
 40
0.5001833541
 40
0.6252292146
 40
0.687752546
 40
0.7502758671
 40
0.8127990249
 40
0.8753212594
 40
0.9065830649
 40
0.9378439581
 40
0.9690968222
 40
0.9847072685
 40
1.0
 40
1.0
 40
1.0
 40
1.0
 10
858.8343762138
 20
1068.805210843
 30
0.0
 10
858.7395308533
 20
1065.4061329326
 30
0.0
 10
858.5718611805
 20
1060.3081233397
 30
0.0
 10
858.2789361115
 20
1053.5135629903
 30
0.0
 10
858.0159245492
 20
1048.4196544412
 30
0.0
 10
857.7497282789
 20
1044.1773498991
 30
0.0
 10
857.4953770445
 20
1040.7863730537
 30
0.0
 10
857.2779227438
 20
1038.2453967255
 30
0.0
 10
857.0238499952
 20
1035.7072118464
 30
0.0
 10
856.7681631656
 20
1033.5985603893
 30
0.0
 10
856.5139765985
 20
1031.9142111823
 30
0.0
 10
856.2885332516
 20
1030.6685535969
 30
0.0
 10
856.0358137907
 20
1029.6055133657
 30
0.0
 10
855.7726822449
 20
1028.8625436261
 30
0.0
 10
855.5130381836
 20
1028.3876117708
 30
0.0
 10
855.3051575221
 20
1028.383088916
 30
0.0
  0
SPLINE
  5
273
100
AcDbEntity
  8
0
100
AcDbSpline
 62
7
  6
CONTINUOUS
 70
0
 71
3
 72
9
 73
5
 74
0
 42
0.0000001
 43
0.0000001
 44
0.0000000001
 40
0.0
 40
0.0
 40
0.0
 40
0.0
 40
0.564420954
 40
1.0
 40
1.0
 40
1.0
 40
1.0
 10
114.4863692241
 20
337.9509693614
 30
0.0
 10
114.4699354614
 20
337.362014512
 30
0.0
 10
114.3187969715
 20
336.3247082002
 30
0.0
 10
114.0433116328
 20
335.3092187752
 30
0.0
 10
114.0203289195
 20
334.8551105605
 30
0.0
  0
SPLINE
  5
274
100
AcDbEntity
  8
0
100
AcDbSpline
 62
7
  6
CONTINUOUS
 70
0
 71
3
 72
9
 73
5
 74
0
 42
0.0000001
 43
0.0000001
 44
0.0000000001
 40
0.0
 40
0.0
 40
0.0
 40
0.0
 40
0.4355791343
 40
1.0
 40
1.0
 40
1.0
 40
1.0
 10
859.3004726226
 20
334.8551105798
 30
0.0
 10
859.2774899053
 20
335.3092188838
 30
0.0
 10
859.0020045694
 20
336.324708303
 30
0.0
 10
858.8508660791
 20
337.3620146079
 30
0.0
 10
858.8344323191
 20
337.9509693614
 30
0.0
  0
SPLINE
  5
275
100
AcDbEntity
  8
0
100
AcDbSpline
 62
7
  6
CONTINUOUS
 70
0
 71
3
 72
9
 73
5
 74
0
 42
0.0000001
 43
0.0000001
 44
0.0000000001
 40
0.0
 40
0.0
 40
0.0
 40
0.0
 40
0.2866676292
 40
1.0
 40
1.0
 40
1.0
 40
1.0
 10
859.3742623998
 20
334.1628735234
 30
0.0
 10
859.3268698312
 20
334.2098830535
 30
0.0
 10
859.3518626443
 20
334.4788068442
 30
0.0
 10
859.3088963671
 20
334.6905497866
 30
0.0
 10
859.3004007716
 20
334.8564376928
 30
0.0
  0
SPLINE
  5
276
100
AcDbEntity
  8
0
100
AcDbSpline
 62
7
  6
CONTINUOUS
 70
0
 71
3
 72
9
 73
5
 74
0
 42
0.0000001
 43
0.0000001
 44
0.0000000001
 40
0.0
 40
0.0
 40
0.0
 40
0.0
 40
0.7133323712
 40
1.0
 40
1.0
 40
1.0
 40
1.0
 10
114.0204007716
 20
334.8564376928
 30
0.0
 10
114.011905176
 20
334.6905497865
 30
0.0
 10
113.9689388991
 20
334.4788068441
 30
0.0
 10
113.993931712
 20
334.2098830535
 30
0.0
 10
113.9465391435
 20
334.1628735234
 30
0.0
  0
SPLINE
  5
277
100
AcDbEntity
  8
0
100
AcDbSpline
 62
7
  6
CONTINUOUS
 70
0
 71
3
 72
20
 73
16
 74
0
 42
0.0000001
 43
0.0000001
 44
0.0000000001
 40
0.0
 40
0.0
 40
0.0
 40
0.0
 40
0.2500911537
 40
0.3751372759
 40
0.5001833542
 40
0.6252292147
 40
0.6877525461
 40
0.7502758673
 40
0.812799025
 40
0.8753212596
 40
0.9065830651
 40
0.9378439583
 40
0.9690968224
 40
0.984707269
 40
1.0
 40
1.0
 40
1.0
 40
1.0
 10
858.8343761476
 20
337.9509693614
 30
0.0
 10
858.7395307846
 20
341.3500470747
 30
0.0
 10
858.5718611094
 20
346.4480563717
 30
0.0
 10
858.2789360408
 20
353.2426163266
 30
0.0
 10
858.0159244808
 20
358.3365245798
 30
0.0
 10
857.7497282144
 20
362.5788288752
 30
0.0
 10
857.4953769846
 20
365.9698055233
 30
0.0
 10
857.2779226881
 20
368.5107817036
 30
0.0
 10
857.0238499453
 20
371.0489664346
 30
0.0
 10
856.7681631212
 20
373.1576177684
 30
0.0
 10
856.513976561
 20
374.8419668767
 30
0.0
 10
856.2885332175
 20
376.0876243879
 30
0.0
 10
856.0358137689
 20
377.1506645605
 30
0.0
 10
855.7726822161
 20
377.8936342474
 30
0.0
 10
855.5130381655
 20
378.3685660615
 30
0.0
 10
855.3051575225
 20
378.373088916
 30
0.0
  0
SPLINE
  5
278
100
AcDbEntity
  8
0
100
AcDbSpline
 62
7
  6
CONTINUOUS
 70
0
 71
3
 72
8
 73
4
 74
0
 42
0.0000001
 43
0.0000001
 44
0.0000000001
 40
0.0
 40
0.0
 40
0.0
 40
0.0
 40
1.0
 40
1.0
 40
1.0
 40
1.0
 10
113.5903980223
 20
330.3225852391
 30
0.0
 10
113.2751946764
 20
330.0153737006
 30
0.0
 10
112.9681723799
 20
329.6998784771
 30
0.0
 10
112.6572944956
 20
329.3882905766
 30
0.0
  0
SPLINE
  5
279
100
AcDbEntity
  8
0
100
AcDbSpline
 62
7
  6
CONTINUOUS
 70
0
 71
3
 72
8
 73
4
 74
0
 42
0.0000001
 43
0.0000001
 44
0.0000000001
 40
0.0
 40
0.0
 40
0.0
 40
0.0
 40
1.0
 40
1.0
 40
1.0
 40
1.0
 10
860.2063754051
 20
329.846857524
 30
0.0
 10
860.0483866167
 20
330.0060994707
 30
0.0
 10
859.8910435217
 20
330.166018177
 30
0.0
 10
859.7304035208
 20
330.3225852391
 30
0.0
  0
SPLINE
  5
27A
100
AcDbEntity
  8
0
100
AcDbSpline
 62
7
  6
CONTINUOUS
 70
0
 71
3
 72
13
 73
9
 74
0
 42
0.0000001
 43
0.0000001
 44
0.0000000001
 40
0.0
 40
0.0
 40
0.0
 40
0.0
 40
0.3351177879
 40
0.6464703585
 40
0.7825793116
 40
0.8949738895
 40
0.9714276253
 40
1.0
 40
1.0
 40
1.0
 40
1.0
 10
859.7304034943
 20
1076.4425852391
 30
0.0
 10
859.9493696689
 20
1076.6559996468
 30
0.0
 10
860.3626133471
 20
1077.0766148041
 30
0.0
 10
860.8694153705
 20
1077.5808341026
 30
0.0
 10
861.2252357245
 20
1077.9452935595
 30
0.0
 10
861.4445116914
 20
1078.1498745796
 30
0.0
 10
861.5624554823
 20
1078.3031035262
 30
0.0
 10
861.6543884658
 20
1078.3574758286
 30
0.0
 10
861.6613988973
 20
1078.3825852391
 30
0.0
  0
SPLINE
  5
27B
100
AcDbEntity
  8
0
100
AcDbSpline
 62
7
  6
CONTINUOUS
 70
0
 71
3
 72
13
 73
9
 74
0
 42
0.0000001
 43
0.0000001
 44
0.0000000001
 40
0.0
 40
0.0
 40
0.0
 40
0.0
 40
0.0285760647
 40
0.1050317428
 40
0.2174263944
 40
0.3535474373
 40
0.6648922824
 40
1.0
 40
1.0
 40
1.0
 40
1.0
 10
111.6594010566
 20
1078.3825852391
 30
0.0
 10
111.6664123962
 20
1078.357472576
 30
0.0
 10
111.7583511393
 20
1078.3030979492
 30
0.0
 10
111.8762992818
 20
1078.149865923
 30
0.0
 10
112.0955855158
 20
1077.9452768084
 30
0.0
 10
112.4514015311
 20
1077.5808070891
 30
0.0
 10
112.9582248811
 20
1077.0766160293
 30
0.0
 10
113.3714383682
 20
1076.6559933173
 30
0.0
 10
113.5903980486
 20
1076.4425852391
 30
0.0
  0
ENDSEC
  0
SECTION
  2
OBJECTS
  0
DICTIONARY
  5
C
100
AcDbDictionary
280
0
281
1
  3
ACAD_GROUP
350
D
  3
ACAD_MLINESTYLE
350
17
  3
ACAD_LAYOUT
350
1A
  3
ACAD_PLOTSETTINGS
350
19
  3
ACAD_PLOTSTYLENAME
350
E
  0
DICTIONARY
  5
D
102
{ACAD_REACTORS
330
C
102
}
100
AcDbDictionary
280
0
281
1
  0
ACDBDICTIONARYWDFLT
  5
E
102
{ACAD_REACTORS
330
C
102
}
100
AcDbDictionary
281
1
  3
Normal
350
F
100
AcDbDictionaryWithDefault
340
F
  0
DICTIONARY
  5
17
102
{ACAD_REACTORS
330
C
102
}
100
AcDbDictionary
280
0
281
1
  3
Standard
350
18
  0
DICTIONARY
  5
19
102
{ACAD_REACTORS
330
C
102
}
100
AcDbDictionary
281
1
  0
DICTIONARY
  5
1A
102
{ACAD_REACTORS
330
C
102
}
100
AcDbDictionary
281
1
  3
Model
350
27C
  3
Layout1
350
27D
  0
ACDBPLACEHOLDER
  5
F
102
{ACAD_REACTORS
330
E
102
}
  0
MLINESTYLE
  5
18
102
{ACAD_REACTORS
330
17
102
}
100
AcDbMlineStyle
  2
STANDARD
 70
0
  3

 62
256
 51
90.0
 52
90.0
 71
2
 49
0.5
 62
256
  6
BYLAYER
 49
-0.5
 62
256
  6
BYLAYER
  0
LAYOUT
  5
27C
102
{ACAD_REACTORS
330
1A
102
}
100
AcDbPlotSettings
  1

  2
none_device
  4

  6

 40
0.0
 41
0.0
 42
0.0
 43
0.0
 44
210.0
 45
297.0
 46
0.0
 47
0.0
 48
0.0
 49
0.0
140
0.0
141
0.0
142
1.0
143
1.0
 70
1024
 72
1
 73
0
 74
0
  7

 75
0
147
1.0
148
0.0
149
0.0
100
AcDbLayout
  1
Model
 70
0
 71
0
 10
0.0
 20
0.0
 11
210.0
 21
297.0
 12
0.0
 22
0.0
 32
0.0
 14
0.0
 24
0.0
 34
0.0
 15
0.0
 25
0.0
 35
0.0
146
0.0
 13
0.0
 23
0.0
 33
0.0
 16
1.0
 26
0.0
 36
0.0
 17
0.0
 27
1.0
 37
0.0
 76
0
330
210
345
0
346
0
  0
LAYOUT
  5
27D
102
{ACAD_REACTORS
330
1A
102
}
100
AcDbPlotSettings
  1

  2
none_device
  4

  6

 40
0.0
 41
0.0
 42
0.0
 43
0.0
 44
210.0
 45
297.0
 46
0.0
 47
0.0
 48
0.0
 49
0.0
140
0.0
141
0.0
142
1.0
143
1.0
 70
0
 72
1
 73
0
 74
0
  7

 75
0
147
1.0
148
0.0
149
0.0
100
AcDbLayout
  1
Layout1
 70
0
 71
1
 10
0.0
 20
0.0
 11
210.0
 21
297.0
 12
0.0
 22
0.0
 32
0.0
 14
0.0
 24
0.0
 34
0.0
 15
0.0
 25
0.0
 35
0.0
146
0.0
 13
0.0
 23
0.0
 33
0.0
 16
1.0
 26
0.0
 36
0.0
 17
0.0
 27
1.0
 37
0.0
 76
0
330
211
345
0
346
0
  0
ENDSEC
  0
EOF
