999
DXF file: C:\Users\sesa63760\Dev\_Creo\CAD\MCADUE0001477_3D-CAD\drw0001_2.dxf
999
Pro/ENGINEER 2019471 by Parametric Technology Corporation
  0
SECTION
  2
HEADER
  9
$ACADVER
  1
AC1024
  9
$DWGCODEPAGE
  3
ANSI_1252
  9
$EXTMAX
 10
1258.5550920156
 20
1779.9564872792
 30
0.0
  9
$EXTMIN
 10
0.0
 20
0.0
 30
0.0
  9
$LIMMIN
 10
0.0
 20
0.0
  9
$LIMMAX
 10
1258.5550920156
 20
1779.9564872792
  9
$VIEWCTR
 10
629.2775460078
 20
889.9782436396
  9
$VIEWSIZE
 40
1779.9564872792
  9
$CLAYER
  8
0
  9
$LTSCALE
 40
116.0267932449
  9
$CELTYPE
  6
BYLAYER
  9
$DIMSCALE
 40
1.0
  9
$DIMASZ
 40
14.9827987145
  9
$DIMEXO
 40
1.0
  9
$DIMDLI
 40
80.1639662419
  9
$DIMEXE
 40
1.0
  9
$DIMCEN
 40
18.986202531
  9
$DIMLFAC
 40
1.0
  9
$DIMBLK
  1
_FILLED
  9
$DIMALT
 70
0
  9
$DIMALTF
 40
0.0393700787
  9
$DIMTXT
 40
20.9759182003
  9
$DIMTOL
 70
1
  9
$DIMLIM
 70
0
  9
$DIMTFAC
 40
1.0
  9
$DIMTP
 40
0.01
  9
$DIMTM
 40
0.01
  9
$DIMGAP
 40
0.625
  9
$DIMDSEP
 70
46
  9
$AUNITS
 70
0
  9
$PDMODE
 70
3
  9
$PDSIZE
 40
0.3125
  9
$HANDSEED
  5
2BD
  9
$TILEMODE
 70
1
  9
$MEASUREMENT
 70
1
  9
$INSUNITS
 70
4
  0
ENDSEC
  0
SECTION
  2
CLASSES
  0
CLASS
  1
ACDBDICTIONARYWDFLT
  2
AcDbDictionaryWithDefault
  3
AutoCAD 2000
 90
0
 91
1
280
0
281
0
  0
CLASS
  1
ACDBPLACEHOLDER
  2
AcDbPlaceHolder
  3
AutoCAD 2000
 90
0
 91
1
280
0
281
0
  0
CLASS
  1
LAYOUT
  2
AcDbLayout
  3
AutoCAD 2000
 90
0
 91
0
280
0
281
0
  0
ENDSEC
  0
SECTION
  2
TABLES
  0
TABLE
  2
VPORT
  5
8
100
AcDbSymbolTable
 70
2
  0
VPORT
  5
1F4
100
AcDbSymbolTableRecord
100
AcDbViewportTableRecord
  2
*ACTIVE
 70
0
 10
0.0
 20
0.0
 11
1.0
 21
1.0
 12
629.2775460078
 22
889.9782436396
 13
0.0
 23
0.0
 14
1.0
 24
1.0
 15
0.0
 25
0.0
 16
0.0
 26
0.0
 36
1.0
 17
0.0
 27
0.0
 37
0.0
 40
1779.9564872792
 41
0.7070707071
 42
50.0
 43
0.0
 44
0.0
 50
0.0
 51
0.0
 71
0
 72
100
 73
1
 74
1
 75
0
 76
0
 77
0
 78
0
  0
ENDTAB
  0
TABLE
  2
LTYPE
  5
5
100
AcDbSymbolTable
 70
6
  0
LTYPE
  5
14
100
AcDbSymbolTableRecord
100
AcDbLinetypeTableRecord
  2
BYBLOCK
 70
0
  3

 72
65
 73
0
 40
0.0
  0
LTYPE
  5
15
100
AcDbSymbolTableRecord
100
AcDbLinetypeTableRecord
  2
BYLAYER
 70
0
  3

 72
65
 73
0
 40
0.0
  0
LTYPE
  5
16
100
AcDbSymbolTableRecord
100
AcDbLinetypeTableRecord
  2
CONTINUOUS
 70
64
  3
Solid line
 72
65
 73
0
 40
0.0
  0
LTYPE
  5
1F5
100
AcDbSymbolTableRecord
100
AcDbLinetypeTableRecord
  2
CENTER
 70
64
  3
____ _ ____ _ ____ _ ____ _ ____ _ ____ _ ____
 72
65
 73
4
 40
0.6
 49
0.375
 74
0
 49
-0.075
 74
0
 49
0.075
 74
0
 49
-0.075
 74
0
  0
LTYPE
  5
1F6
100
AcDbSymbolTableRecord
100
AcDbLinetypeTableRecord
  2
HIDDEN
 70
64
  3
- - - - - - - - - - - - - - - - - - - -
 72
65
 73
2
 40
0.2
 49
0.1
 74
0
 49
-0.1
 74
0
  0
LTYPE
  5
1F7
100
AcDbSymbolTableRecord
100
AcDbLinetypeTableRecord
  2
PHANTOM
 70
64
  3
_____ _ _ _____ _ _ _____ _ _ _____
 72
65
 73
6
 40
0.8
 49
0.45
 74
0
 49
-0.05
 74
0
 49
0.1
 74
0
 49
-0.05
 74
0
 49
0.1
 74
0
 49
-0.05
 74
0
  0
LTYPE
  5
1F8
100
AcDbSymbolTableRecord
100
AcDbLinetypeTableRecord
  2
DOT
 70
64
  3
. . . . . . . . . . . . . . . . . . . .
 72
65
 73
2
 40
0.2
 49
0.1
 74
0
 49
-0.1
 74
0
  0
LTYPE
  5
1F9
100
AcDbSymbolTableRecord
100
AcDbLinetypeTableRecord
  2
DASHED
 70
64
  3
- - - - - - - - - - - - - - - - - - - -
 72
65
 73
2
 40
0.2
 49
0.1
 74
0
 49
-0.1
 74
0
  0
ENDTAB
  0
TABLE
  2
LAYER
  5
2
100
AcDbSymbolTable
 70
36
  0
LAYER
  5
10
100
AcDbSymbolTableRecord
100
AcDbLayerTableRecord
  2
0
 70
0
 62
7
  6
CONTINUOUS
370
-3
390
F
  0
LAYER
  5
1FA
100
AcDbSymbolTableRecord
100
AcDbLayerTableRecord
  2
DEFAULT_1
 70
0
 62
7
  6
CENTER
370
-3
390
F
  0
LAYER
  5
1FB
100
AcDbSymbolTableRecord
100
AcDbLayerTableRecord
  2
DEFAULT_2
 70
0
 62
8
  6
HIDDEN
370
-3
390
F
  0
LAYER
  5
1FC
100
AcDbSymbolTableRecord
100
AcDbLayerTableRecord
  2
DEFAULT_3
 70
0
 62
7
  6
PHANTOM
370
-3
390
F
  0
LAYER
  5
1FD
100
AcDbSymbolTableRecord
100
AcDbLayerTableRecord
  2
00_COMPONENTS
 70
0
 62
7
  6
CONTINUOUS
370
-3
390
F
  0
LAYER
  5
1FE
100
AcDbSymbolTableRecord
100
AcDbLayerTableRecord
  2
01_1_DEFAULT_DATUMS
 70
0
 62
7
  6
CONTINUOUS
370
-3
390
F
  0
LAYER
  5
1FF
100
AcDbSymbolTableRecord
100
AcDbLayerTableRecord
  2
01_PLANES
 70
0
 62
7
  6
CONTINUOUS
370
-3
390
F
  0
LAYER
  5
200
100
AcDbSymbolTableRecord
100
AcDbLayerTableRecord
  2
02_COORD_SYS
 70
0
 62
7
  6
CONTINUOUS
370
-3
390
F
  0
LAYER
  5
201
100
AcDbSymbolTableRecord
100
AcDbLayerTableRecord
  2
03_AXES
 70
0
 62
7
  6
CONTINUOUS
370
-3
390
F
  0
LAYER
  5
202
100
AcDbSymbolTableRecord
100
AcDbLayerTableRecord
  2
04_POINTS
 70
0
 62
7
  6
CONTINUOUS
370
-3
390
F
  0
LAYER
  5
203
100
AcDbSymbolTableRecord
100
AcDbLayerTableRecord
  2
05_CURVES
 70
0
 62
7
  6
CONTINUOUS
370
-3
390
F
  0
LAYER
  5
204
100
AcDbSymbolTableRecord
100
AcDbLayerTableRecord
  2
06_SURFS
 70
0
 62
7
  6
CONTINUOUS
370
-3
390
F
  0
LAYER
  5
205
100
AcDbSymbolTableRecord
100
AcDbLayerTableRecord
  2
07_COSMETICS
 70
0
 62
7
  6
CONTINUOUS
370
-3
390
F
  0
LAYER
  5
206
100
AcDbSymbolTableRecord
100
AcDbLayerTableRecord
  2
10_NOTES
 70
0
 62
7
  6
CONTINUOUS
370
-3
390
F
  0
LAYER
  5
207
100
AcDbSymbolTableRecord
100
AcDbLayerTableRecord
  2
11_NOTES_PUB
 70
0
 62
7
  6
CONTINUOUS
370
-3
390
F
  0
LAYER
  5
208
100
AcDbSymbolTableRecord
100
AcDbLayerTableRecord
  2
13_REF_GTOL
 70
0
 62
7
  6
CONTINUOUS
370
-3
390
F
  0
LAYER
  5
209
100
AcDbSymbolTableRecord
100
AcDbLayerTableRecord
  2
16_MISC
 70
0
 62
7
  6
CONTINUOUS
370
-3
390
F
  0
LAYER
  5
20A
100
AcDbSymbolTableRecord
100
AcDbLayerTableRecord
  2
17_NO_PRINT
 70
0
 62
7
  6
CONTINUOUS
370
-3
390
F
  0
LAYER
  5
20B
100
AcDbSymbolTableRecord
100
AcDbLayerTableRecord
  2
18_DATUM_CAMS_JOINTS
 70
0
 62
7
  6
CONTINUOUS
370
-3
390
F
  0
LAYER
  5
20C
100
AcDbSymbolTableRecord
100
AcDbLayerTableRecord
  2
19_DATUM_FUNCTIONAL
 70
0
 62
7
  6
CONTINUOUS
370
-3
390
F
  0
LAYER
  5
20D
100
AcDbSymbolTableRecord
100
AcDbLayerTableRecord
  2
20_DATUM_KINEMATIC_SCHEME
 70
0
 62
7
  6
CONTINUOUS
370
-3
390
F
  0
ENDTAB
  0
TABLE
  2
STYLE
  5
3
100
AcDbSymbolTable
 70
1
  0
STYLE
  5
11
100
AcDbSymbolTableRecord
100
AcDbTextStyleTableRecord
  2
STANDARD
 70
0
 40
0.0
 41
0.8
 50
0.0
 71
0
 42
0.2
  3
txt
  4

  0
STYLE
  5
20E
100
AcDbSymbolTableRecord
100
AcDbTextStyleTableRecord
  2
TEXTSTYLE_1
 70
0
 40
0.0
 41
0.8
 50
0.0
 71
0
 42
0.2
  3
gdt
  4

  0
ENDTAB
  0
TABLE
  2
VIEW
  5
6
100
AcDbSymbolTable
 70
0
  0
ENDTAB
  0
TABLE
  2
UCS
  5
7
100
AcDbSymbolTable
 70
0
  0
ENDTAB
  0
TABLE
  2
APPID
  5
9
100
AcDbSymbolTable
 70
1
  0
APPID
  5
20F
100
AcDbSymbolTableRecord
100
AcDbRegAppTableRecord
  2
ACAD
 70
0
  0
ENDTAB
  0
TABLE
  2
BLOCK_RECORD
  5
1
100
AcDbSymbolTable
 70
0
  0
BLOCK_RECORD
  5
210
100
AcDbSymbolTableRecord
100
AcDbBlockTableRecord
  2
*Model_Space
  0
BLOCK_RECORD
  5
211
100
AcDbSymbolTableRecord
100
AcDbBlockTableRecord
  2
*Paper_Space
  0
BLOCK_RECORD
  5
212
100
AcDbSymbolTableRecord
100
AcDbBlockTableRecord
  2
_FILLED
  0
ENDTAB
  0
TABLE
  2
DIMSTYLE
  5
A
100
AcDbSymbolTable
 70
1
100
AcDbDimStyleTable
 71
0
  0
DIMSTYLE
105
213
100
AcDbSymbolTableRecord
100
AcDbDimStyleTableRecord
  2
STANDARD
 70
0
  3

  4

 40
1.0
 41
14.9827987145
 42
1.0
 43
0.38
 44
1.0
 45
0.0
 46
0.0
 47
0.01
 48
0.01
140
20.9759182003
141
0.09
142
0.0
143
25.4
144
1.0
145
0.0
146
1.0
147
0.625
 71
1
 72
0
 73
0
 74
0
 75
0
 76
0
 77
1
 78
8
 79
2
170
0
171
1
172
0
173
0
174
0
175
0
176
0
177
0
178
0
270
2
179
2
271
2
272
2
273
2
274
2
275
0
280
0
281
0
282
0
283
1
284
8
285
0
286
0
287
3
288
0
340
11
278
46
341
212
342
212
343
212
344
212
  0
ENDTAB
  0
ENDSEC
  0
SECTION
  2
BLOCKS
  0
BLOCK
  5
20
100
AcDbEntity
  8
0
100
AcDbBlockBegin
  2
*Model_Space
 70
0
 10
0.0
 20
0.0
 30
0.0
  3
*Model_Space
  1

  0
ENDBLK
  5
21
100
AcDbEntity
  8
0
100
AcDbBlockEnd
  0
BLOCK
  5
1C
100
AcDbEntity
  8
0
100
AcDbBlockBegin
  2
*Paper_Space
 70
0
 10
0.0
 20
0.0
 30
0.0
  3
*Paper_Space
  1

  0
ENDBLK
  5
1D
100
AcDbEntity
  8
0
100
AcDbBlockEnd
  0
BLOCK
  5
214
100
AcDbEntity
  8
0
100
AcDbBlockBegin
  2
_FILLED
 70
64
 10
0.0
 20
0.0
  3
_FILLED
  1

  0
SOLID
  5
215
100
AcDbEntity
  8
0
  6
BYBLOCK
 62
0
100
AcDbTrace
 10
0.0
 20
0.0
 11
-1.0
 21
0.25
 12
-1.0
 22
-0.25
 13
-1.0
 23
-0.25
  0
ENDBLK
  5
216
100
AcDbEntity
  8
0
  6
BYBLOCK
 62
0
100
AcDbBlockEnd
  0
ENDSEC
  0
SECTION
  2
ENTITIES
  0
LINE
  5
217
100
AcDbEntity
  8
0
100
AcDbLine
 62
7
  6
CONTINUOUS
 10
137.9931432527
 20
136.7102696727
 11
1137.9911432527
 21
136.7102696727
  0
LINE
  5
218
100
AcDbEntity
  8
0
100
AcDbLine
 62
7
  6
CONTINUOUS
 10
1136.0611432527
 20
138.6502696727
 11
639.9211432527
 21
138.6502696727
  0
LINE
  5
219
100
AcDbEntity
  8
0
100
AcDbLine
 62
7
  6
CONTINUOUS
 10
636.0631432527
 20
138.6502696727
 11
139.9231432527
 21
138.6502696727
  0
LINE
  5
21A
100
AcDbEntity
  8
0
100
AcDbLine
 62
7
  6
CONTINUOUS
 10
1136.4911432527
 20
141.7107733496
 11
639.4911432527
 21
141.7107733496
  0
LINE
  5
21B
100
AcDbEntity
  8
0
100
AcDbLine
 62
7
  6
CONTINUOUS
 10
636.4911432527
 20
141.7107733496
 11
139.4911432527
 21
141.7107733496
  0
LINE
  5
21C
100
AcDbEntity
  8
0
100
AcDbLine
 62
7
  6
CONTINUOUS
 10
140.2772816246
 20
142.490557957
 11
635.7050048809
 21
142.490557957
  0
LINE
  5
21D
100
AcDbEntity
  8
0
100
AcDbLine
 62
7
  6
CONTINUOUS
 10
640.2772816246
 20
142.490557957
 11
1135.7050048809
 21
142.490557957
  0
LINE
  5
21E
100
AcDbEntity
  8
0
100
AcDbLine
 62
7
  6
CONTINUOUS
 10
1135.165157473
 20
146.278653795
 11
640.8171290299
 21
146.278653795
  0
LINE
  5
21F
100
AcDbEntity
  8
0
100
AcDbLine
 62
7
  6
CONTINUOUS
 10
635.165157473
 20
146.278653795
 11
140.8171290299
 21
146.278653795
  0
LINE
  5
220
100
AcDbEntity
  8
0
100
AcDbLine
 62
7
  6
CONTINUOUS
 10
639.4911432527
 20
172.8687476624
 11
636.4911432527
 21
172.8687476624
  0
LINE
  5
221
100
AcDbEntity
  8
0
100
AcDbLine
 62
7
  6
CONTINUOUS
 10
636.4911432527
 20
174.9442696727
 11
639.4911432527
 21
174.9442696727
  0
LINE
  5
222
100
AcDbEntity
  8
0
100
AcDbLine
 62
7
  6
CONTINUOUS
 10
1080.7411432527
 20
185.6697671553
 11
695.2411432527
 21
185.6697671553
  0
LINE
  5
223
100
AcDbEntity
  8
0
100
AcDbLine
 62
7
  6
CONTINUOUS
 10
580.7411432527
 20
185.6697671553
 11
195.2411432527
 21
185.6697671553
  0
LINE
  5
224
100
AcDbEntity
  8
0
100
AcDbLine
 62
7
  6
CONTINUOUS
 10
1131.6358143764
 20
186.7007733496
 11
1080.7411432527
 21
186.7007733496
  0
LINE
  5
225
100
AcDbEntity
  8
0
100
AcDbLine
 62
7
  6
CONTINUOUS
 10
695.2411432527
 20
186.7007733496
 11
644.3464721261
 21
186.7007733496
  0
LINE
  5
226
100
AcDbEntity
  8
0
100
AcDbLine
 62
7
  6
CONTINUOUS
 10
631.6358143764
 20
186.7007733496
 11
580.7411432527
 21
186.7007733496
  0
LINE
  5
227
100
AcDbEntity
  8
0
100
AcDbLine
 62
7
  6
CONTINUOUS
 10
195.2411432527
 20
186.7007733496
 11
144.3464721261
 21
186.7007733496
  0
LINE
  5
228
100
AcDbEntity
  8
0
100
AcDbLine
 62
7
  6
CONTINUOUS
 10
639.4911432527
 20
211.81634764
 11
636.4911432527
 21
211.81634764
  0
LINE
  5
229
100
AcDbEntity
  8
0
100
AcDbLine
 62
7
  6
CONTINUOUS
 10
138.0393683702
 20
223.7602696727
 11
139.4911432527
 21
223.7602696727
  0
LINE
  5
22A
100
AcDbEntity
  8
0
100
AcDbLine
 62
7
  6
CONTINUOUS
 10
1136.4911432527
 20
223.7602696727
 11
1137.9449181353
 21
223.7602696727
  0
LINE
  5
22B
100
AcDbEntity
  8
0
100
AcDbLine
 62
7
  6
CONTINUOUS
 10
1137.9449181353
 20
249.6602696727
 11
1136.4911432527
 21
249.6602696727
  0
LINE
  5
22C
100
AcDbEntity
  8
0
100
AcDbLine
 62
7
  6
CONTINUOUS
 10
139.4911432527
 20
249.6602696727
 11
138.0393683702
 21
249.6602696727
  0
LINE
  5
22D
100
AcDbEntity
  8
0
100
AcDbLine
 62
7
  6
CONTINUOUS
 10
138.0393683702
 20
223.7602696727
 11
138.0162558115
 21
228.7102696727
  0
LINE
  5
22E
100
AcDbEntity
  8
0
100
AcDbLine
 62
7
  6
CONTINUOUS
 10
138.0393683702
 20
723.7602696727
 11
138.0162558115
 21
728.7102696727
  0
LINE
  5
22F
100
AcDbEntity
  8
0
100
AcDbLine
 62
7
  6
CONTINUOUS
 10
138.0393683702
 20
1023.7602696727
 11
138.0162558115
 21
1028.7102696727
  0
LINE
  5
230
100
AcDbEntity
  8
0
100
AcDbLine
 62
7
  6
CONTINUOUS
 10
138.0393683702
 20
1523.7602696727
 11
138.0162558115
 21
1528.7102696727
  0
LINE
  5
231
100
AcDbEntity
  8
0
100
AcDbLine
 62
7
  6
CONTINUOUS
 10
137.9931432527
 20
1636.7102696727
 11
137.9931432527
 21
1544.7102696727
  0
LINE
  5
232
100
AcDbEntity
  8
0
100
AcDbLine
 62
7
  6
CONTINUOUS
 10
137.9931432527
 20
1528.7102696727
 11
137.9931432527
 21
1044.7102696727
  0
LINE
  5
233
100
AcDbEntity
  8
0
100
AcDbLine
 62
7
  6
CONTINUOUS
 10
137.9931432527
 20
1028.7102696727
 11
137.9931432527
 21
744.7102696727
  0
LINE
  5
234
100
AcDbEntity
  8
0
100
AcDbLine
 62
7
  6
CONTINUOUS
 10
137.9931432527
 20
728.7102696727
 11
137.9931432527
 21
244.7102696727
  0
LINE
  5
235
100
AcDbEntity
  8
0
100
AcDbLine
 62
7
  6
CONTINUOUS
 10
137.9931432527
 20
228.7102696727
 11
137.9931432527
 21
136.7102696727
  0
LINE
  5
236
100
AcDbEntity
  8
0
100
AcDbLine
 62
7
  6
CONTINUOUS
 10
138.0162558115
 20
1544.7102696727
 11
138.0162558115
 21
1528.7102696727
  0
LINE
  5
237
100
AcDbEntity
  8
0
100
AcDbLine
 62
7
  6
CONTINUOUS
 10
138.0162558115
 20
1044.7102696727
 11
138.0162558115
 21
1028.7102696727
  0
LINE
  5
238
100
AcDbEntity
  8
0
100
AcDbLine
 62
7
  6
CONTINUOUS
 10
138.0162558115
 20
744.7102696727
 11
138.0162558115
 21
728.7102696727
  0
LINE
  5
239
100
AcDbEntity
  8
0
100
AcDbLine
 62
7
  6
CONTINUOUS
 10
138.0162558115
 20
244.7102696727
 11
138.0162558115
 21
228.7102696727
  0
LINE
  5
23A
100
AcDbEntity
  8
0
100
AcDbLine
 62
7
  6
CONTINUOUS
 10
139.4911432527
 20
141.7107733496
 11
139.4911432527
 21
1631.7107733496
  0
LINE
  5
23B
100
AcDbEntity
  8
0
100
AcDbLine
 62
7
  6
CONTINUOUS
 10
139.9231432527
 20
138.6502696728
 11
139.9231432527
 21
141.7107733496
  0
LINE
  5
23C
100
AcDbEntity
  8
0
100
AcDbLine
 62
7
  6
CONTINUOUS
 10
139.9231432527
 20
1631.7107733496
 11
139.9231432527
 21
1634.7702696728
  0
LINE
  5
23D
100
AcDbEntity
  8
0
100
AcDbLine
 62
7
  6
CONTINUOUS
 10
140.3511432527
 20
1630.2274268603
 11
140.3511432527
 21
143.1841221265
  0
LINE
  5
23E
100
AcDbEntity
  8
0
100
AcDbLine
 62
7
  6
CONTINUOUS
 10
144.3420191514
 20
186.7007733496
 11
144.3420191514
 21
1586.7107733496
  0
LINE
  5
23F
100
AcDbEntity
  8
0
100
AcDbLine
 62
7
  6
CONTINUOUS
 10
138.0162558115
 20
1544.7102696727
 11
138.0393683702
 21
1549.6602696727
  0
LINE
  5
240
100
AcDbEntity
  8
0
100
AcDbLine
 62
7
  6
CONTINUOUS
 10
138.0162558115
 20
1044.7102696727
 11
138.0393683702
 21
1049.6602696727
  0
LINE
  5
241
100
AcDbEntity
  8
0
100
AcDbLine
 62
7
  6
CONTINUOUS
 10
138.0162558115
 20
744.7102696727
 11
138.0393683702
 21
749.6602696727
  0
LINE
  5
242
100
AcDbEntity
  8
0
100
AcDbLine
 62
7
  6
CONTINUOUS
 10
138.0162558115
 20
244.7102696727
 11
138.0393683702
 21
249.6602696727
  0
LINE
  5
243
100
AcDbEntity
  8
0
100
AcDbLine
 62
7
  6
CONTINUOUS
 10
635.7049430315
 20
1630.9209293676
 11
636.4911432527
 21
1631.7107733496
  0
LINE
  5
244
100
AcDbEntity
  8
0
100
AcDbLine
 62
7
  6
CONTINUOUS
 10
633.0006723531
 20
1631.7107733496
 11
636.0631432528
 21
1634.7702696727
  0
LINE
  5
245
100
AcDbEntity
  8
0
100
AcDbLine
 62
7
  6
CONTINUOUS
 10
636.4911432527
 20
141.7107733496
 11
635.7050048809
 21
142.490557957
  0
LINE
  5
246
100
AcDbEntity
  8
0
100
AcDbLine
 62
7
  6
CONTINUOUS
 10
636.0631432527
 20
138.6502696727
 11
632.9995973257
 21
141.7107733496
  0
LINE
  5
247
100
AcDbEntity
  8
0
100
AcDbLine
 62
7
  6
CONTINUOUS
 10
195.2411432527
 20
185.6697671553
 11
195.2411432527
 21
186.7007733496
  0
LINE
  5
248
100
AcDbEntity
  8
0
100
AcDbLine
 62
7
  6
CONTINUOUS
 10
195.2411432527
 20
1586.7107733496
 11
195.2411432527
 21
1587.7507599505
  0
LINE
  5
249
100
AcDbEntity
  8
0
100
AcDbLine
 62
7
  6
CONTINUOUS
 10
1135.7049430315
 20
1630.9209293676
 11
1136.4911432527
 21
1631.7107733496
  0
LINE
  5
24A
100
AcDbEntity
  8
0
100
AcDbLine
 62
7
  6
CONTINUOUS
 10
1132.9986723531
 20
1631.7107733496
 11
1136.0611432528
 21
1634.7702696727
  0
LINE
  5
24B
100
AcDbEntity
  8
0
100
AcDbLine
 62
7
  6
CONTINUOUS
 10
1136.4911432527
 20
141.7107733496
 11
1135.7050048809
 21
142.490557957
  0
LINE
  5
24C
100
AcDbEntity
  8
0
100
AcDbLine
 62
7
  6
CONTINUOUS
 10
1136.0611432527
 20
138.6502696727
 11
1132.9975973257
 21
141.7107733496
  0
LINE
  5
24D
100
AcDbEntity
  8
0
100
AcDbLine
 62
7
  6
CONTINUOUS
 10
138.0393683702
 20
723.7602696727
 11
139.4911432527
 21
723.7602696727
  0
LINE
  5
24E
100
AcDbEntity
  8
0
100
AcDbLine
 62
7
  6
CONTINUOUS
 10
1136.4911432527
 20
723.7602696727
 11
1137.9449181353
 21
723.7602696727
  0
LINE
  5
24F
100
AcDbEntity
  8
0
100
AcDbLine
 62
7
  6
CONTINUOUS
 10
1137.9449181353
 20
749.6602696727
 11
1136.4911432527
 21
749.6602696727
  0
LINE
  5
250
100
AcDbEntity
  8
0
100
AcDbLine
 62
7
  6
CONTINUOUS
 10
139.4911432527
 20
749.6602696727
 11
138.0393683702
 21
749.6602696727
  0
LINE
  5
251
100
AcDbEntity
  8
0
100
AcDbLine
 62
7
  6
CONTINUOUS
 10
580.7411432527
 20
1587.7507599505
 11
580.7411432527
 21
1586.7107733496
  0
LINE
  5
252
100
AcDbEntity
  8
0
100
AcDbLine
 62
7
  6
CONTINUOUS
 10
580.7411432527
 20
186.7007733496
 11
580.7411432527
 21
185.6697671553
  0
LINE
  5
253
100
AcDbEntity
  8
0
100
AcDbLine
 62
7
  6
CONTINUOUS
 10
631.6402673583
 20
1586.7107733496
 11
631.6402673583
 21
186.7007733496
  0
LINE
  5
254
100
AcDbEntity
  8
0
100
AcDbLine
 62
7
  6
CONTINUOUS
 10
635.6311432527
 20
143.1841221265
 11
635.6311432527
 21
1630.2274268603
  0
LINE
  5
255
100
AcDbEntity
  8
0
100
AcDbLine
 62
7
  6
CONTINUOUS
 10
636.0631432527
 20
1634.7702696727
 11
636.0631432527
 21
1631.7107733496
  0
LINE
  5
256
100
AcDbEntity
  8
0
100
AcDbLine
 62
7
  6
CONTINUOUS
 10
636.0631432527
 20
141.7107733496
 11
636.0631432527
 21
138.6502696727
  0
LINE
  5
257
100
AcDbEntity
  8
0
100
AcDbLine
 62
7
  6
CONTINUOUS
 10
636.4911432527
 20
1631.7107733496
 11
636.4911432527
 21
141.7107733496
  0
LINE
  5
258
100
AcDbEntity
  8
0
100
AcDbLine
 62
7
  6
CONTINUOUS
 10
637.9921432527
 20
136.7116733607
 11
637.9921432527
 21
172.8687476624
  0
LINE
  5
259
100
AcDbEntity
  8
0
100
AcDbLine
 62
7
  6
CONTINUOUS
 10
637.9921432527
 20
1600.5517916831
 11
637.9921432527
 21
1636.7088659849
  0
LINE
  5
25A
100
AcDbEntity
  8
0
100
AcDbLine
 62
7
  6
CONTINUOUS
 10
639.4911432527
 20
141.7107733496
 11
639.4911432527
 21
1631.7107733496
  0
LINE
  5
25B
100
AcDbEntity
  8
0
100
AcDbLine
 62
7
  6
CONTINUOUS
 10
639.9211432527
 20
138.6502696728
 11
639.9211432527
 21
141.7107733496
  0
LINE
  5
25C
100
AcDbEntity
  8
0
100
AcDbLine
 62
7
  6
CONTINUOUS
 10
639.9211432527
 20
1631.7107733496
 11
639.9211432527
 21
1634.7702696728
  0
LINE
  5
25D
100
AcDbEntity
  8
0
100
AcDbLine
 62
7
  6
CONTINUOUS
 10
640.3511432527
 20
1630.2274268603
 11
640.3511432527
 21
143.1841221265
  0
LINE
  5
25E
100
AcDbEntity
  8
0
100
AcDbLine
 62
7
  6
CONTINUOUS
 10
644.3420191514
 20
186.7007733496
 11
644.3420191514
 21
1586.7107733496
  0
LINE
  5
25F
100
AcDbEntity
  8
0
100
AcDbLine
 62
7
  6
CONTINUOUS
 10
695.2411432527
 20
185.6697671553
 11
695.2411432527
 21
186.7007733496
  0
LINE
  5
260
100
AcDbEntity
  8
0
100
AcDbLine
 62
7
  6
CONTINUOUS
 10
695.2411432527
 20
1586.7107733496
 11
695.2411432527
 21
1587.7507599505
  0
LINE
  5
261
100
AcDbEntity
  8
0
100
AcDbLine
 62
7
  6
CONTINUOUS
 10
142.9866224855
 20
141.7107733496
 11
139.9231432527
 21
138.6502696727
  0
LINE
  5
262
100
AcDbEntity
  8
0
100
AcDbLine
 62
7
  6
CONTINUOUS
 10
140.2772816246
 20
142.490557957
 11
139.4911432527
 21
141.7107733496
  0
LINE
  5
263
100
AcDbEntity
  8
0
100
AcDbLine
 62
7
  6
CONTINUOUS
 10
138.0393683702
 20
1023.7602696727
 11
139.4911432527
 21
1023.7602696727
  0
LINE
  5
264
100
AcDbEntity
  8
0
100
AcDbLine
 62
7
  6
CONTINUOUS
 10
1136.4911432527
 20
1023.7602696727
 11
1137.9449181353
 21
1023.7602696727
  0
LINE
  5
265
100
AcDbEntity
  8
0
100
AcDbLine
 62
7
  6
CONTINUOUS
 10
1137.9449181353
 20
1049.6602696727
 11
1136.4911432527
 21
1049.6602696727
  0
LINE
  5
266
100
AcDbEntity
  8
0
100
AcDbLine
 62
7
  6
CONTINUOUS
 10
139.4911432527
 20
1049.6602696727
 11
138.0393683702
 21
1049.6602696727
  0
LINE
  5
267
100
AcDbEntity
  8
0
100
AcDbLine
 62
7
  6
CONTINUOUS
 10
139.9231432528
 20
1634.7702696727
 11
142.9856808247
 21
1631.7107733496
  0
LINE
  5
268
100
AcDbEntity
  8
0
100
AcDbLine
 62
7
  6
CONTINUOUS
 10
139.4911432527
 20
1631.7107733496
 11
140.277343474
 21
1630.9209293676
  0
LINE
  5
269
100
AcDbEntity
  8
0
100
AcDbLine
 62
7
  6
CONTINUOUS
 10
1080.7411432527
 20
1587.7507599505
 11
1080.7411432527
 21
1586.7107733496
  0
LINE
  5
26A
100
AcDbEntity
  8
0
100
AcDbLine
 62
7
  6
CONTINUOUS
 10
1080.7411432527
 20
186.7007733496
 11
1080.7411432527
 21
185.6697671553
  0
LINE
  5
26B
100
AcDbEntity
  8
0
100
AcDbLine
 62
7
  6
CONTINUOUS
 10
1137.9449181353
 20
249.6602696727
 11
1137.968030694
 21
244.7102696727
  0
LINE
  5
26C
100
AcDbEntity
  8
0
100
AcDbLine
 62
7
  6
CONTINUOUS
 10
1137.9449181353
 20
749.6602696727
 11
1137.968030694
 21
744.7102696727
  0
LINE
  5
26D
100
AcDbEntity
  8
0
100
AcDbLine
 62
7
  6
CONTINUOUS
 10
1137.9449181353
 20
1049.6602696727
 11
1137.968030694
 21
1044.7102696727
  0
LINE
  5
26E
100
AcDbEntity
  8
0
100
AcDbLine
 62
7
  6
CONTINUOUS
 10
1137.9449181353
 20
1549.6602696727
 11
1137.968030694
 21
1544.7102696727
  0
LINE
  5
26F
100
AcDbEntity
  8
0
100
AcDbLine
 62
7
  6
CONTINUOUS
 10
1131.6402673583
 20
1586.7107733496
 11
1131.6402673583
 21
186.7007733496
  0
LINE
  5
270
100
AcDbEntity
  8
0
100
AcDbLine
 62
7
  6
CONTINUOUS
 10
1135.6311432527
 20
143.1841221265
 11
1135.6311432527
 21
1630.2274268603
  0
LINE
  5
271
100
AcDbEntity
  8
0
100
AcDbLine
 62
7
  6
CONTINUOUS
 10
1136.0611432527
 20
1634.7702696727
 11
1136.0611432527
 21
1631.7107733496
  0
LINE
  5
272
100
AcDbEntity
  8
0
100
AcDbLine
 62
7
  6
CONTINUOUS
 10
1136.0611432527
 20
141.7107733496
 11
1136.0611432527
 21
138.6502696727
  0
LINE
  5
273
100
AcDbEntity
  8
0
100
AcDbLine
 62
7
  6
CONTINUOUS
 10
1136.4911432527
 20
1631.7107733496
 11
1136.4911432527
 21
141.7107733496
  0
LINE
  5
274
100
AcDbEntity
  8
0
100
AcDbLine
 62
7
  6
CONTINUOUS
 10
1137.968030694
 20
228.7102696727
 11
1137.968030694
 21
244.7102696727
  0
LINE
  5
275
100
AcDbEntity
  8
0
100
AcDbLine
 62
7
  6
CONTINUOUS
 10
1137.968030694
 20
728.7102696727
 11
1137.968030694
 21
744.7102696727
  0
LINE
  5
276
100
AcDbEntity
  8
0
100
AcDbLine
 62
7
  6
CONTINUOUS
 10
1137.968030694
 20
1028.7102696727
 11
1137.968030694
 21
1044.7102696727
  0
LINE
  5
277
100
AcDbEntity
  8
0
100
AcDbLine
 62
7
  6
CONTINUOUS
 10
1137.968030694
 20
1528.7102696727
 11
1137.968030694
 21
1544.7102696727
  0
LINE
  5
278
100
AcDbEntity
  8
0
100
AcDbLine
 62
7
  6
CONTINUOUS
 10
1137.9911432527
 20
1528.7102696727
 11
1137.9911432527
 21
1044.7102696727
  0
LINE
  5
279
100
AcDbEntity
  8
0
100
AcDbLine
 62
7
  6
CONTINUOUS
 10
1137.9911432527
 20
1028.7102696727
 11
1137.9911432527
 21
744.7102696727
  0
LINE
  5
27A
100
AcDbEntity
  8
0
100
AcDbLine
 62
7
  6
CONTINUOUS
 10
1137.9911432527
 20
728.7102696727
 11
1137.9911432527
 21
244.7102696727
  0
LINE
  5
27B
100
AcDbEntity
  8
0
100
AcDbLine
 62
7
  6
CONTINUOUS
 10
1137.9911432527
 20
136.7102696727
 11
1137.9911432527
 21
228.7102696727
  0
LINE
  5
27C
100
AcDbEntity
  8
0
100
AcDbLine
 62
7
  6
CONTINUOUS
 10
1137.9911432527
 20
1544.7102696727
 11
1137.9911432527
 21
1636.7102696727
  0
LINE
  5
27D
100
AcDbEntity
  8
0
100
AcDbLine
 62
7
  6
CONTINUOUS
 10
1137.968030694
 20
1528.7102696727
 11
1137.9449181353
 21
1523.7602696727
  0
LINE
  5
27E
100
AcDbEntity
  8
0
100
AcDbLine
 62
7
  6
CONTINUOUS
 10
1137.968030694
 20
1028.7102696727
 11
1137.9449181353
 21
1023.7602696727
  0
LINE
  5
27F
100
AcDbEntity
  8
0
100
AcDbLine
 62
7
  6
CONTINUOUS
 10
1137.968030694
 20
728.7102696727
 11
1137.9449181353
 21
723.7602696727
  0
LINE
  5
280
100
AcDbEntity
  8
0
100
AcDbLine
 62
7
  6
CONTINUOUS
 10
1137.968030694
 20
228.7102696727
 11
1137.9449181353
 21
223.7602696727
  0
LINE
  5
281
100
AcDbEntity
  8
0
100
AcDbLine
 62
7
  6
CONTINUOUS
 10
642.9846224855
 20
141.7107733496
 11
639.9211432527
 21
138.6502696727
  0
LINE
  5
282
100
AcDbEntity
  8
0
100
AcDbLine
 62
7
  6
CONTINUOUS
 10
640.2772816246
 20
142.490557957
 11
639.4911432527
 21
141.7107733496
  0
LINE
  5
283
100
AcDbEntity
  8
0
100
AcDbLine
 62
7
  6
CONTINUOUS
 10
639.9211432528
 20
1634.7702696727
 11
642.9836808247
 21
1631.7107733496
  0
LINE
  5
284
100
AcDbEntity
  8
0
100
AcDbLine
 62
7
  6
CONTINUOUS
 10
639.4911432527
 20
1631.7107733496
 11
640.277343474
 21
1630.9209293676
  0
LINE
  5
285
100
AcDbEntity
  8
0
100
AcDbLine
 62
7
  6
CONTINUOUS
 10
138.0393683702
 20
1523.7602696727
 11
139.4911432527
 21
1523.7602696727
  0
LINE
  5
286
100
AcDbEntity
  8
0
100
AcDbLine
 62
7
  6
CONTINUOUS
 10
1136.4911432527
 20
1523.7602696727
 11
1137.9449181353
 21
1523.7602696727
  0
LINE
  5
287
100
AcDbEntity
  8
0
100
AcDbLine
 62
7
  6
CONTINUOUS
 10
1137.9449181353
 20
1549.6602696727
 11
1136.4911432527
 21
1549.6602696727
  0
LINE
  5
288
100
AcDbEntity
  8
0
100
AcDbLine
 62
7
  6
CONTINUOUS
 10
139.4911432527
 20
1549.6602696727
 11
138.0393683702
 21
1549.6602696727
  0
LINE
  5
289
100
AcDbEntity
  8
0
100
AcDbLine
 62
7
  6
CONTINUOUS
 10
636.4911432527
 20
1561.6041917055
 11
639.4911432527
 21
1561.6041917055
  0
LINE
  5
28A
100
AcDbEntity
  8
0
100
AcDbLine
 62
7
  6
CONTINUOUS
 10
1131.6402673583
 20
1586.7107733496
 11
1080.7411432527
 21
1586.7107733496
  0
LINE
  5
28B
100
AcDbEntity
  8
0
100
AcDbLine
 62
7
  6
CONTINUOUS
 10
695.2411432527
 20
1586.7107733496
 11
644.3420191514
 21
1586.7107733496
  0
LINE
  5
28C
100
AcDbEntity
  8
0
100
AcDbLine
 62
7
  6
CONTINUOUS
 10
631.6402673583
 20
1586.7107733496
 11
580.7411432527
 21
1586.7107733496
  0
LINE
  5
28D
100
AcDbEntity
  8
0
100
AcDbLine
 62
7
  6
CONTINUOUS
 10
195.2411432527
 20
1586.7107733496
 11
144.3420191514
 21
1586.7107733496
  0
LINE
  5
28E
100
AcDbEntity
  8
0
100
AcDbLine
 62
7
  6
CONTINUOUS
 10
1080.7411432527
 20
1587.7521513932
 11
695.2411432527
 21
1587.7521513932
  0
LINE
  5
28F
100
AcDbEntity
  8
0
100
AcDbLine
 62
7
  6
CONTINUOUS
 10
580.7411432527
 20
1587.7521513932
 11
195.2411432527
 21
1587.7521513932
  0
LINE
  5
290
100
AcDbEntity
  8
0
100
AcDbLine
 62
7
  6
CONTINUOUS
 10
636.4911432527
 20
1598.4762696727
 11
639.4911432527
 21
1598.4762696727
  0
LINE
  5
291
100
AcDbEntity
  8
0
100
AcDbLine
 62
7
  6
CONTINUOUS
 10
636.4911432527
 20
1600.5517916831
 11
639.4911432527
 21
1600.5517916831
  0
LINE
  5
292
100
AcDbEntity
  8
0
100
AcDbLine
 62
7
  6
CONTINUOUS
 10
140.8171289621
 20
1627.1328952767
 11
635.1651575459
 21
1627.1328952767
  0
LINE
  5
293
100
AcDbEntity
  8
0
100
AcDbLine
 62
7
  6
CONTINUOUS
 10
640.8171289621
 20
1627.1328952767
 11
1135.1651575459
 21
1627.1328952767
  0
LINE
  5
294
100
AcDbEntity
  8
0
100
AcDbLine
 62
7
  6
CONTINUOUS
 10
1135.7049430315
 20
1630.9209293676
 11
640.277343474
 21
1630.9209293676
  0
LINE
  5
295
100
AcDbEntity
  8
0
100
AcDbLine
 62
7
  6
CONTINUOUS
 10
635.7049430315
 20
1630.9209293676
 11
140.277343474
 21
1630.9209293676
  0
LINE
  5
296
100
AcDbEntity
  8
0
100
AcDbLine
 62
7
  6
CONTINUOUS
 10
1136.4911432527
 20
1631.7107733496
 11
639.4911432527
 21
1631.7107733496
  0
LINE
  5
297
100
AcDbEntity
  8
0
100
AcDbLine
 62
7
  6
CONTINUOUS
 10
636.4911432527
 20
1631.7107733496
 11
139.4911432527
 21
1631.7107733496
  0
LINE
  5
298
100
AcDbEntity
  8
0
100
AcDbLine
 62
7
  6
CONTINUOUS
 10
139.9231432528
 20
1634.7702696727
 11
636.0631432528
 21
1634.7702696727
  0
LINE
  5
299
100
AcDbEntity
  8
0
100
AcDbLine
 62
7
  6
CONTINUOUS
 10
639.9211432528
 20
1634.7702696727
 11
1136.0611432528
 21
1634.7702696727
  0
LINE
  5
29A
100
AcDbEntity
  8
0
100
AcDbLine
 62
7
  6
CONTINUOUS
 10
1137.9911432527
 20
1636.7102696727
 11
137.9931432527
 21
1636.7102696727
  0
SPLINE
  5
29B
100
AcDbEntity
  8
0
100
AcDbSpline
 62
7
  6
CONTINUOUS
 70
0
 71
3
 72
19
 73
15
 74
0
 42
0.0000001
 43
0.0000001
 44
0.0000000001
 40
0.0
 40
0.0
 40
0.0
 40
0.0
 40
0.2499791473
 40
0.3749692564
 40
0.4999593175
 40
0.6249492149
 40
0.74993808
 40
0.8124332159
 40
0.8749273859
 40
0.9061753479
 40
0.9374216138
 40
0.9687244342
 40
0.9844203742
 40
1.0
 40
1.0
 40
1.0
 40
1.0
 10
1135.165157473
 20
146.278653795
 30
0.0
 10
1135.0703533069
 20
149.6761973411
 30
0.0
 10
1134.9027399234
 20
154.7719041936
 30
0.0
 10
1134.6099716435
 20
161.5634000103
 30
0.0
 10
1134.3472797288
 20
166.6550128785
 30
0.0
 10
1134.0276461271
 20
171.7434691946
 30
0.0
 10
1133.6942983661
 20
175.9790698536
 30
0.0
 10
1133.3562440709
 20
179.3617657993
 30
0.0
 10
1133.1009771196
 20
181.4695140675
 30
0.0
 10
1132.8473943117
 20
183.1531619486
 30
0.0
 10
1132.6226046232
 20
184.3992342652
 30
0.0
 10
1132.3702647948
 20
185.4641005898
 30
0.0
 10
1132.1085440942
 20
186.2128685872
 30
0.0
 10
1131.8475941675
 20
186.6961656614
 30
0.0
 10
1131.6358143764
 20
186.7007733496
 30
0.0
  0
SPLINE
  5
29C
100
AcDbEntity
  8
0
100
AcDbSpline
 62
7
  6
CONTINUOUS
 70
0
 71
3
 72
9
 73
5
 74
0
 42
0.0000001
 43
0.0000001
 44
0.0000000001
 40
0.0
 40
0.0
 40
0.0
 40
0.0
 40
0.7133323689
 40
1.0
 40
1.0
 40
1.0
 40
1.0
 10
640.3511432527
 20
143.1841221265
 30
0.0
 10
640.3426476583
 20
143.0182342206
 30
0.0
 10
640.2996813794
 20
142.8064912783
 30
0.0
 10
640.3246741935
 20
142.5375674875
 30
0.0
 10
640.2772816246
 20
142.490557957
 30
0.0
  0
SPLINE
  5
29D
100
AcDbEntity
  8
0
100
AcDbSpline
 62
7
  6
CONTINUOUS
 70
0
 71
3
 72
9
 73
5
 74
0
 42
0.0000001
 43
0.0000001
 44
0.0000000001
 40
0.0
 40
0.0
 40
0.0
 40
0.0
 40
0.2866676311
 40
1.0
 40
1.0
 40
1.0
 40
1.0
 10
1135.7050048809
 20
142.490557957
 30
0.0
 10
1135.657612312
 20
142.5375674875
 30
0.0
 10
1135.682605126
 20
142.8064912783
 30
0.0
 10
1135.6396388472
 20
143.0182342206
 30
0.0
 10
1135.6311432527
 20
143.1841221265
 30
0.0
  0
SPLINE
  5
29E
100
AcDbEntity
  8
0
100
AcDbSpline
 62
7
  6
CONTINUOUS
 70
0
 71
3
 72
9
 73
5
 74
0
 42
0.0000001
 43
0.0000001
 44
0.0000000001
 40
0.0
 40
0.0
 40
0.0
 40
0.0
 40
0.4355796913
 40
1.0
 40
1.0
 40
1.0
 40
1.0
 10
1135.6312150972
 20
143.1827951344
 30
0.0
 10
1135.608232354
 20
143.6369040019
 30
0.0
 10
1135.3327468797
 20
144.6523933738
 30
0.0
 10
1135.1816088225
 20
145.689699653
 30
0.0
 10
1135.1651748002
 20
146.278653795
 30
0.0
  0
SPLINE
  5
29F
100
AcDbEntity
  8
0
100
AcDbSpline
 62
7
  6
CONTINUOUS
 70
0
 71
3
 72
9
 73
5
 74
0
 42
0.0000001
 43
0.0000001
 44
0.0000000001
 40
0.0
 40
0.0
 40
0.0
 40
0.0
 40
0.5644203032
 40
1.0
 40
1.0
 40
1.0
 40
1.0
 10
640.8171117053
 20
146.278653795
 30
0.0
 10
640.8006776832
 20
145.6896996589
 30
0.0
 10
640.6495396259
 20
144.6523933801
 30
0.0
 10
640.3740541518
 20
143.6369040087
 30
0.0
 10
640.3510714083
 20
143.1827951356
 30
0.0
  0
SPLINE
  5
2A0
100
AcDbEntity
  8
0
100
AcDbSpline
 62
7
  6
CONTINUOUS
 70
0
 71
3
 72
19
 73
15
 74
0
 42
0.0000001
 43
0.0000001
 44
0.0000000001
 40
0.0
 40
0.0
 40
0.0
 40
0.0
 40
0.249979168
 40
0.3749692874
 40
0.4999593589
 40
0.6249492667
 40
0.7499381419
 40
0.8124332829
 40
0.8749274579
 40
0.9061754217
 40
0.9374216906
 40
0.9687245286
 40
0.9844203119
 40
1.0
 40
1.0
 40
1.0
 40
1.0
 10
1135.1651575459
 20
1627.1328952767
 30
0.0
 10
1135.0703533773
 20
1623.7353513417
 30
0.0
 10
1134.9027398138
 20
1618.639643912
 30
0.0
 10
1134.6099713472
 20
1611.8481473217
 30
0.0
 10
1134.3472796208
 20
1606.7565338712
 30
0.0
 10
1134.027646359
 20
1601.6680769056
 30
0.0
 10
1133.6942957724
 20
1597.4324760778
 30
0.0
 10
1133.3562458288
 20
1594.0497792208
 30
0.0
 10
1133.1009738242
 20
1591.9420314577
 30
0.0
 10
1132.8473956312
 20
1590.258382571
 30
0.0
 10
1132.6226030299
 20
1589.0123107346
 30
0.0
 10
1132.3702672276
 20
1587.9474445647
 30
0.0
 10
1132.1085402552
 20
1587.1986804267
 30
0.0
 10
1131.8475950242
 20
1586.7153810563
 30
0.0
 10
1131.6358143795
 20
1586.7107733496
 30
0.0
  0
SPLINE
  5
2A1
100
AcDbEntity
  8
0
100
AcDbSpline
 62
7
  6
CONTINUOUS
 70
0
 71
3
 72
19
 73
15
 74
0
 42
0.0000001
 43
0.0000001
 44
0.0000000001
 40
0.0
 40
0.0
 40
0.0
 40
0.0
 40
0.2499791473
 40
0.3749692564
 40
0.4999593176
 40
0.6249492149
 40
0.7499380801
 40
0.8124332159
 40
0.874927386
 40
0.906175348
 40
0.9374216139
 40
0.9687244343
 40
0.9844203741
 40
1.0
 40
1.0
 40
1.0
 40
1.0
 10
640.8171289621
 20
1627.1328952767
 30
0.0
 10
640.9119331256
 20
1623.7353515326
 30
0.0
 10
641.0795465121
 20
1618.6396443834
 30
0.0
 10
641.3723147913
 20
1611.8481481707
 30
0.0
 10
641.6350067085
 20
1606.7565350055
 30
0.0
 10
641.954640315
 20
1601.6680783924
 30
0.0
 10
642.2879880825
 20
1597.4324774859
 30
0.0
 10
642.6260423853
 20
1594.0497813421
 30
0.0
 10
642.8813093429
 20
1591.9420329504
 30
0.0
 10
643.1348921571
 20
1590.2583849696
 30
0.0
 10
643.3596818522
 20
1589.0123125804
 30
0.0
 10
643.6120216849
 20
1587.9474461896
 30
0.0
 10
643.8737423962
 20
1587.1986781545
 30
0.0
 10
644.1346923251
 20
1586.7153810337
 30
0.0
 10
644.3464721292
 20
1586.7107733496
 30
0.0
  0
SPLINE
  5
2A2
100
AcDbEntity
  8
0
100
AcDbSpline
 62
7
  6
CONTINUOUS
 70
0
 71
3
 72
19
 73
15
 74
0
 42
0.0000001
 43
0.0000001
 44
0.0000000001
 40
0.0
 40
0.0
 40
0.0
 40
0.0
 40
0.249979168
 40
0.3749692874
 40
0.4999593588
 40
0.6249492666
 40
0.7499381419
 40
0.8124332829
 40
0.8749274579
 40
0.9061754217
 40
0.9374216906
 40
0.9687245285
 40
0.9844203119
 40
1.0
 40
1.0
 40
1.0
 40
1.0
 10
640.8171290299
 20
146.278653795
 30
0.0
 10
640.9119332012
 20
149.676197532
 30
0.0
 10
641.0795467616
 20
154.771904665
 30
0.0
 10
641.372315229
 20
161.5634008593
 30
0.0
 10
641.6350069528
 20
166.6550140129
 30
0.0
 10
641.9546402099
 20
171.7434706815
 30
0.0
 10
642.28799079
 20
175.9790712618
 30
0.0
 10
642.6260407259
 20
179.3617679208
 30
0.0
 10
642.8813127242
 20
181.4695155603
 30
0.0
 10
643.134890911
 20
183.1531643476
 30
0.0
 10
643.3596835058
 20
184.3992361106
 30
0.0
 10
643.6120193038
 20
185.4641022173
 30
0.0
 10
643.8737462651
 20
186.2128663119
 30
0.0
 10
644.1346914945
 20
186.6961656474
 30
0.0
 10
644.3464721261
 20
186.7007733496
 30
0.0
  0
SPLINE
  5
2A3
100
AcDbEntity
  8
0
100
AcDbSpline
 62
7
  6
CONTINUOUS
 70
0
 71
3
 72
9
 73
5
 74
0
 42
0.0000001
 43
0.0000001
 44
0.0000000001
 40
0.0
 40
0.0
 40
0.0
 40
0.0
 40
0.5644202966
 40
1.0
 40
1.0
 40
1.0
 40
1.0
 10
1135.1651748664
 20
1627.1328952767
 30
0.0
 10
1135.1816088863
 20
1627.7218493844
 30
0.0
 10
1135.3327469201
 20
1628.7591556267
 30
0.0
 10
1135.6082323526
 20
1629.7746449675
 30
0.0
 10
1135.6312150933
 20
1630.2287538308
 30
0.0
  0
SPLINE
  5
2A4
100
AcDbEntity
  8
0
100
AcDbSpline
 62
7
  6
CONTINUOUS
 70
0
 71
3
 72
9
 73
5
 74
0
 42
0.0000001
 43
0.0000001
 44
0.0000000001
 40
0.0
 40
0.0
 40
0.0
 40
0.0
 40
0.7130098309
 40
1.0
 40
1.0
 40
1.0
 40
1.0
 10
1135.6311432527
 20
1630.2274268603
 30
0.0
 10
1135.6396341136
 20
1630.3932223531
 30
0.0
 10
1135.6822889168
 20
1630.6053097562
 30
0.0
 10
1135.6578028114
 20
1630.8735706692
 30
0.0
 10
1135.7049430315
 20
1630.9209293676
 30
0.0
  0
SPLINE
  5
2A5
100
AcDbEntity
  8
0
100
AcDbSpline
 62
7
  6
CONTINUOUS
 70
0
 71
3
 72
9
 73
5
 74
0
 42
0.0000001
 43
0.0000001
 44
0.0000000001
 40
0.0
 40
0.0
 40
0.0
 40
0.0
 40
0.2869901691
 40
1.0
 40
1.0
 40
1.0
 40
1.0
 10
640.277343474
 20
1630.9209293676
 30
0.0
 10
640.3244836941
 20
1630.8735706692
 30
0.0
 10
640.2999975887
 20
1630.6053097562
 30
0.0
 10
640.3426523919
 20
1630.3932223531
 30
0.0
 10
640.3511432527
 20
1630.2274268603
 30
0.0
  0
SPLINE
  5
2A6
100
AcDbEntity
  8
0
100
AcDbSpline
 62
7
  6
CONTINUOUS
 70
0
 71
3
 72
9
 73
5
 74
0
 42
0.0000001
 43
0.0000001
 44
0.0000000001
 40
0.0
 40
0.0
 40
0.0
 40
0.0
 40
0.4355796979
 40
1.0
 40
1.0
 40
1.0
 40
1.0
 10
640.3510714121
 20
1630.228753832
 30
0.0
 10
640.3740541526
 20
1629.7746449742
 30
0.0
 10
640.6495395853
 20
1628.7591556331
 30
0.0
 10
640.800677619
 20
1627.7218493904
 30
0.0
 10
640.8171116391
 20
1627.1328952767
 30
0.0
  0
SPLINE
  5
2A7
100
AcDbEntity
  8
0
100
AcDbSpline
 62
7
  6
CONTINUOUS
 70
0
 71
3
 72
19
 73
15
 74
0
 42
0.0000001
 43
0.0000001
 44
0.0000000001
 40
0.0
 40
0.0
 40
0.0
 40
0.0
 40
0.2499791473
 40
0.3749692564
 40
0.4999593175
 40
0.6249492149
 40
0.74993808
 40
0.8124332159
 40
0.8749273859
 40
0.9061753479
 40
0.9374216138
 40
0.9687244342
 40
0.9844203742
 40
1.0
 40
1.0
 40
1.0
 40
1.0
 10
635.165157473
 20
146.278653795
 30
0.0
 10
635.0703533069
 20
149.6761973411
 30
0.0
 10
634.9027399234
 20
154.7719041936
 30
0.0
 10
634.6099716435
 20
161.5634000103
 30
0.0
 10
634.3472797288
 20
166.6550128785
 30
0.0
 10
634.0276461271
 20
171.7434691946
 30
0.0
 10
633.6942983661
 20
175.9790698536
 30
0.0
 10
633.3562440709
 20
179.3617657993
 30
0.0
 10
633.1009771196
 20
181.4695140675
 30
0.0
 10
632.8473943117
 20
183.1531619486
 30
0.0
 10
632.6226046232
 20
184.3992342652
 30
0.0
 10
632.3702647948
 20
185.4641005898
 30
0.0
 10
632.1085440942
 20
186.2128685872
 30
0.0
 10
631.8475941675
 20
186.6961656614
 30
0.0
 10
631.6358143764
 20
186.7007733496
 30
0.0
  0
SPLINE
  5
2A8
100
AcDbEntity
  8
0
100
AcDbSpline
 62
7
  6
CONTINUOUS
 70
0
 71
3
 72
9
 73
5
 74
0
 42
0.0000001
 43
0.0000001
 44
0.0000000001
 40
0.0
 40
0.0
 40
0.0
 40
0.0
 40
0.7133323689
 40
1.0
 40
1.0
 40
1.0
 40
1.0
 10
140.3511432527
 20
143.1841221265
 30
0.0
 10
140.3426476583
 20
143.0182342206
 30
0.0
 10
140.2996813794
 20
142.8064912783
 30
0.0
 10
140.3246741935
 20
142.5375674875
 30
0.0
 10
140.2772816246
 20
142.490557957
 30
0.0
  0
SPLINE
  5
2A9
100
AcDbEntity
  8
0
100
AcDbSpline
 62
7
  6
CONTINUOUS
 70
0
 71
3
 72
9
 73
5
 74
0
 42
0.0000001
 43
0.0000001
 44
0.0000000001
 40
0.0
 40
0.0
 40
0.0
 40
0.0
 40
0.2866676311
 40
1.0
 40
1.0
 40
1.0
 40
1.0
 10
635.7050048809
 20
142.490557957
 30
0.0
 10
635.657612312
 20
142.5375674875
 30
0.0
 10
635.682605126
 20
142.8064912783
 30
0.0
 10
635.6396388472
 20
143.0182342206
 30
0.0
 10
635.6311432527
 20
143.1841221265
 30
0.0
  0
SPLINE
  5
2AA
100
AcDbEntity
  8
0
100
AcDbSpline
 62
7
  6
CONTINUOUS
 70
0
 71
3
 72
9
 73
5
 74
0
 42
0.0000001
 43
0.0000001
 44
0.0000000001
 40
0.0
 40
0.0
 40
0.0
 40
0.0
 40
0.4355796913
 40
1.0
 40
1.0
 40
1.0
 40
1.0
 10
635.6312150972
 20
143.1827951344
 30
0.0
 10
635.608232354
 20
143.6369040019
 30
0.0
 10
635.3327468797
 20
144.6523933738
 30
0.0
 10
635.1816088225
 20
145.689699653
 30
0.0
 10
635.1651748002
 20
146.278653795
 30
0.0
  0
SPLINE
  5
2AB
100
AcDbEntity
  8
0
100
AcDbSpline
 62
7
  6
CONTINUOUS
 70
0
 71
3
 72
9
 73
5
 74
0
 42
0.0000001
 43
0.0000001
 44
0.0000000001
 40
0.0
 40
0.0
 40
0.0
 40
0.0
 40
0.5644203032
 40
1.0
 40
1.0
 40
1.0
 40
1.0
 10
140.8171117053
 20
146.278653795
 30
0.0
 10
140.8006776832
 20
145.6896996589
 30
0.0
 10
140.6495396259
 20
144.6523933801
 30
0.0
 10
140.3740541518
 20
143.6369040087
 30
0.0
 10
140.3510714083
 20
143.1827951356
 30
0.0
  0
SPLINE
  5
2AC
100
AcDbEntity
  8
0
100
AcDbSpline
 62
7
  6
CONTINUOUS
 70
0
 71
3
 72
19
 73
15
 74
0
 42
0.0000001
 43
0.0000001
 44
0.0000000001
 40
0.0
 40
0.0
 40
0.0
 40
0.0
 40
0.249979168
 40
0.3749692874
 40
0.4999593589
 40
0.6249492667
 40
0.7499381419
 40
0.8124332829
 40
0.8749274579
 40
0.9061754217
 40
0.9374216906
 40
0.9687245286
 40
0.9844203119
 40
1.0
 40
1.0
 40
1.0
 40
1.0
 10
635.1651575459
 20
1627.1328952767
 30
0.0
 10
635.0703533773
 20
1623.7353513417
 30
0.0
 10
634.9027398138
 20
1618.639643912
 30
0.0
 10
634.6099713472
 20
1611.8481473217
 30
0.0
 10
634.3472796208
 20
1606.7565338712
 30
0.0
 10
634.027646359
 20
1601.6680769056
 30
0.0
 10
633.6942957724
 20
1597.4324760778
 30
0.0
 10
633.3562458288
 20
1594.0497792208
 30
0.0
 10
633.1009738242
 20
1591.9420314577
 30
0.0
 10
632.8473956312
 20
1590.258382571
 30
0.0
 10
632.6226030299
 20
1589.0123107346
 30
0.0
 10
632.3702672276
 20
1587.9474445647
 30
0.0
 10
632.1085402552
 20
1587.1986804267
 30
0.0
 10
631.8475950242
 20
1586.7153810563
 30
0.0
 10
631.6358143795
 20
1586.7107733496
 30
0.0
  0
SPLINE
  5
2AD
100
AcDbEntity
  8
0
100
AcDbSpline
 62
7
  6
CONTINUOUS
 70
0
 71
3
 72
19
 73
15
 74
0
 42
0.0000001
 43
0.0000001
 44
0.0000000001
 40
0.0
 40
0.0
 40
0.0
 40
0.0
 40
0.2499791473
 40
0.3749692564
 40
0.4999593176
 40
0.6249492149
 40
0.7499380801
 40
0.8124332159
 40
0.874927386
 40
0.906175348
 40
0.9374216139
 40
0.9687244343
 40
0.9844203741
 40
1.0
 40
1.0
 40
1.0
 40
1.0
 10
140.8171289621
 20
1627.1328952767
 30
0.0
 10
140.9119331256
 20
1623.7353515326
 30
0.0
 10
141.0795465121
 20
1618.6396443834
 30
0.0
 10
141.3723147913
 20
1611.8481481707
 30
0.0
 10
141.6350067085
 20
1606.7565350055
 30
0.0
 10
141.954640315
 20
1601.6680783924
 30
0.0
 10
142.2879880825
 20
1597.4324774859
 30
0.0
 10
142.6260423853
 20
1594.0497813421
 30
0.0
 10
142.8813093429
 20
1591.9420329504
 30
0.0
 10
143.1348921571
 20
1590.2583849696
 30
0.0
 10
143.3596818522
 20
1589.0123125804
 30
0.0
 10
143.6120216849
 20
1587.9474461896
 30
0.0
 10
143.8737423962
 20
1587.1986781545
 30
0.0
 10
144.1346923251
 20
1586.7153810337
 30
0.0
 10
144.3464721292
 20
1586.7107733496
 30
0.0
  0
SPLINE
  5
2AE
100
AcDbEntity
  8
0
100
AcDbSpline
 62
7
  6
CONTINUOUS
 70
0
 71
3
 72
19
 73
15
 74
0
 42
0.0000001
 43
0.0000001
 44
0.0000000001
 40
0.0
 40
0.0
 40
0.0
 40
0.0
 40
0.249979168
 40
0.3749692874
 40
0.4999593588
 40
0.6249492666
 40
0.7499381419
 40
0.8124332829
 40
0.8749274579
 40
0.9061754217
 40
0.9374216906
 40
0.9687245285
 40
0.9844203119
 40
1.0
 40
1.0
 40
1.0
 40
1.0
 10
140.8171290299
 20
146.278653795
 30
0.0
 10
140.9119332012
 20
149.676197532
 30
0.0
 10
141.0795467616
 20
154.771904665
 30
0.0
 10
141.372315229
 20
161.5634008593
 30
0.0
 10
141.6350069528
 20
166.6550140129
 30
0.0
 10
141.9546402099
 20
171.7434706815
 30
0.0
 10
142.28799079
 20
175.9790712618
 30
0.0
 10
142.6260407259
 20
179.3617679208
 30
0.0
 10
142.8813127242
 20
181.4695155603
 30
0.0
 10
143.134890911
 20
183.1531643476
 30
0.0
 10
143.3596835058
 20
184.3992361106
 30
0.0
 10
143.6120193038
 20
185.4641022173
 30
0.0
 10
143.8737462651
 20
186.2128663119
 30
0.0
 10
144.1346914945
 20
186.6961656474
 30
0.0
 10
144.3464721261
 20
186.7007733496
 30
0.0
  0
SPLINE
  5
2AF
100
AcDbEntity
  8
0
100
AcDbSpline
 62
7
  6
CONTINUOUS
 70
0
 71
3
 72
9
 73
5
 74
0
 42
0.0000001
 43
0.0000001
 44
0.0000000001
 40
0.0
 40
0.0
 40
0.0
 40
0.0
 40
0.5644202966
 40
1.0
 40
1.0
 40
1.0
 40
1.0
 10
635.1651748664
 20
1627.1328952767
 30
0.0
 10
635.1816088863
 20
1627.7218493844
 30
0.0
 10
635.3327469201
 20
1628.7591556267
 30
0.0
 10
635.6082323526
 20
1629.7746449675
 30
0.0
 10
635.6312150933
 20
1630.2287538308
 30
0.0
  0
SPLINE
  5
2B0
100
AcDbEntity
  8
0
100
AcDbSpline
 62
7
  6
CONTINUOUS
 70
0
 71
3
 72
9
 73
5
 74
0
 42
0.0000001
 43
0.0000001
 44
0.0000000001
 40
0.0
 40
0.0
 40
0.0
 40
0.0
 40
0.7130098309
 40
1.0
 40
1.0
 40
1.0
 40
1.0
 10
635.6311432527
 20
1630.2274268603
 30
0.0
 10
635.6396341136
 20
1630.3932223531
 30
0.0
 10
635.6822889168
 20
1630.6053097562
 30
0.0
 10
635.6578028114
 20
1630.8735706692
 30
0.0
 10
635.7049430315
 20
1630.9209293676
 30
0.0
  0
SPLINE
  5
2B1
100
AcDbEntity
  8
0
100
AcDbSpline
 62
7
  6
CONTINUOUS
 70
0
 71
3
 72
9
 73
5
 74
0
 42
0.0000001
 43
0.0000001
 44
0.0000000001
 40
0.0
 40
0.0
 40
0.0
 40
0.0
 40
0.2869901691
 40
1.0
 40
1.0
 40
1.0
 40
1.0
 10
140.277343474
 20
1630.9209293676
 30
0.0
 10
140.3244836941
 20
1630.8735706692
 30
0.0
 10
140.2999975887
 20
1630.6053097562
 30
0.0
 10
140.3426523919
 20
1630.3932223531
 30
0.0
 10
140.3511432527
 20
1630.2274268603
 30
0.0
  0
SPLINE
  5
2B2
100
AcDbEntity
  8
0
100
AcDbSpline
 62
7
  6
CONTINUOUS
 70
0
 71
3
 72
9
 73
5
 74
0
 42
0.0000001
 43
0.0000001
 44
0.0000000001
 40
0.0
 40
0.0
 40
0.0
 40
0.0
 40
0.4355796979
 40
1.0
 40
1.0
 40
1.0
 40
1.0
 10
140.3510714121
 20
1630.228753832
 30
0.0
 10
140.3740541526
 20
1629.7746449742
 30
0.0
 10
140.6495395853
 20
1628.7591556331
 30
0.0
 10
140.800677619
 20
1627.7218493904
 30
0.0
 10
140.8171116391
 20
1627.1328952767
 30
0.0
  0
SPLINE
  5
2B3
100
AcDbEntity
  8
0
100
AcDbSpline
 62
7
  6
CONTINUOUS
 70
0
 71
3
 72
11
 73
7
 74
0
 42
0.0000001
 43
0.0000001
 44
0.0000000001
 40
0.0
 40
0.0
 40
0.0
 40
0.0
 40
0.1079066298
 40
0.3554790129
 40
0.6658830863
 40
1.0
 40
1.0
 40
1.0
 40
1.0
 10
637.9777364808
 20
1636.7102696727
 30
0.0
 10
638.0754236765
 20
1636.6956669583
 30
0.0
 10
638.2569004574
 20
1636.3598330784
 30
0.0
 10
638.7224117293
 20
1636.0066444492
 30
0.0
 10
639.284524729
 20
1635.3959738422
 30
0.0
 10
639.702123999
 20
1634.983733157
 30
0.0
 10
639.9211405269
 20
1634.7702696727
 30
0.0
  0
SPLINE
  5
2B4
100
AcDbEntity
  8
0
100
AcDbSpline
 62
7
  6
CONTINUOUS
 70
0
 71
3
 72
11
 73
7
 74
0
 42
0.0000001
 43
0.0000001
 44
0.0000000001
 40
0.0
 40
0.0
 40
0.0
 40
0.0
 40
0.1079066298
 40
0.3554790129
 40
0.6658830863
 40
1.0
 40
1.0
 40
1.0
 40
1.0
 10
638.0065500247
 20
136.7102696727
 30
0.0
 10
637.9088628289
 20
136.7248723871
 30
0.0
 10
637.7273860481
 20
137.0607062671
 30
0.0
 10
637.2618747761
 20
137.4138948963
 30
0.0
 10
636.6997617764
 20
138.0245655033
 30
0.0
 10
636.2821625064
 20
138.4368061884
 30
0.0
 10
636.0631459785
 20
138.6502696727
 30
0.0
  0
SPLINE
  5
2B5
100
AcDbEntity
  8
0
100
AcDbSpline
 62
7
  6
CONTINUOUS
 70
0
 71
3
 72
10
 73
6
 74
0
 42
0.0000001
 43
0.0000001
 44
0.0000000001
 40
0.0
 40
0.0
 40
0.0
 40
0.0
 40
0.6463731852
 40
0.8949035711
 40
1.0
 40
1.0
 40
1.0
 40
1.0
 10
139.9231405287
 20
138.6502696727
 30
0.0
 10
139.5007987364
 20
138.2386361243
 30
0.0
 10
138.8837528614
 20
137.6809381387
 30
0.0
 10
138.3312961069
 20
136.9824609154
 30
0.0
 10
138.0179140833
 20
136.8026286926
 30
0.0
 10
137.9921278713
 20
136.7102696727
 30
0.0
  0
SPLINE
  5
2B6
100
AcDbEntity
  8
0
100
AcDbSpline
 62
7
  6
CONTINUOUS
 70
0
 71
3
 72
11
 73
7
 74
0
 42
0.0000001
 43
0.0000001
 44
0.0000000001
 40
0.0
 40
0.0
 40
0.0
 40
0.0
 40
0.3341289011
 40
0.6445391491
 40
0.8921038237
 40
1.0
 40
1.0
 40
1.0
 40
1.0
 10
639.9211405273
 20
138.6502696727
 30
0.0
 10
639.7021173547
 20
138.4367997122
 30
0.0
 10
639.2844890023
 20
138.024569585
 30
0.0
 10
638.722402298
 20
137.4138645986
 30
0.0
 10
638.2568837555
 20
137.0607035196
 30
0.0
 10
638.0754348499
 20
136.7248708916
 30
0.0
 10
637.9777576586
 20
136.7102696727
 30
0.0
  0
SPLINE
  5
2B7
100
AcDbEntity
  8
0
100
AcDbSpline
 62
7
  6
CONTINUOUS
 70
0
 71
3
 72
10
 73
6
 74
0
 42
0.0000001
 43
0.0000001
 44
0.0000000001
 40
0.0
 40
0.0
 40
0.0
 40
0.0
 40
0.1051022845
 40
0.353642505
 40
1.0
 40
1.0
 40
1.0
 40
1.0
 10
1137.9921601812
 20
136.7102696727
 30
0.0
 10
1137.9663725219
 20
136.8026338752
 30
0.0
 10
1137.6529734751
 20
136.9824713088
 30
0.0
 10
1137.1005261258
 20
137.6809581636
 30
0.0
 10
1136.4834776852
 20
138.2386459527
 30
0.0
 10
1136.0611459771
 20
138.6502696727
 30
0.0
  0
SPLINE
  5
2B8
100
AcDbEntity
  8
0
100
AcDbSpline
 62
7
  6
CONTINUOUS
 70
0
 71
3
 72
10
 73
6
 74
0
 42
0.0000001
 43
0.0000001
 44
0.0000000001
 40
0.0
 40
0.0
 40
0.0
 40
0.0
 40
0.6463731852
 40
0.8949035711
 40
1.0
 40
1.0
 40
1.0
 40
1.0
 10
1136.0611459767
 20
1634.7702696727
 30
0.0
 10
1136.483487769
 20
1635.1819032212
 30
0.0
 10
1137.1005336441
 20
1635.7396012068
 30
0.0
 10
1137.6529903985
 20
1636.4380784301
 30
0.0
 10
1137.9663724222
 20
1636.6179106528
 30
0.0
 10
1137.9921586341
 20
1636.7102696727
 30
0.0
  0
SPLINE
  5
2B9
100
AcDbEntity
  8
0
100
AcDbSpline
 62
7
  6
CONTINUOUS
 70
0
 71
3
 72
11
 73
7
 74
0
 42
0.0000001
 43
0.0000001
 44
0.0000000001
 40
0.0
 40
0.0
 40
0.0
 40
0.0
 40
0.3341289011
 40
0.6445391491
 40
0.8921038237
 40
1.0
 40
1.0
 40
1.0
 40
1.0
 10
636.0631459782
 20
1634.7702696727
 30
0.0
 10
636.2821691508
 20
1634.9837396333
 30
0.0
 10
636.6997975031
 20
1635.3959697605
 30
0.0
 10
637.2618842075
 20
1636.0066747469
 30
0.0
 10
637.7274027499
 20
1636.3598358259
 30
0.0
 10
637.9088516556
 20
1636.6956684539
 30
0.0
 10
638.0065288468
 20
1636.7102696727
 30
0.0
  0
SPLINE
  5
2BA
100
AcDbEntity
  8
0
100
AcDbSpline
 62
7
  6
CONTINUOUS
 70
0
 71
3
 72
10
 73
6
 74
0
 42
0.0000001
 43
0.0000001
 44
0.0000000001
 40
0.0
 40
0.0
 40
0.0
 40
0.0
 40
0.1051022845
 40
0.353642505
 40
1.0
 40
1.0
 40
1.0
 40
1.0
 10
137.9921263242
 20
1636.7102696727
 30
0.0
 10
138.0179139836
 20
1636.6179054703
 30
0.0
 10
138.3313130304
 20
1636.4380680367
 30
0.0
 10
138.8837603797
 20
1635.7395811819
 30
0.0
 10
139.5008088202
 20
1635.1818933928
 30
0.0
 10
139.9231405284
 20
1634.7702696727
 30
0.0
  0
ENDSEC
  0
SECTION
  2
OBJECTS
  0
DICTIONARY
  5
C
100
AcDbDictionary
280
0
281
1
  3
ACAD_GROUP
350
D
  3
ACAD_MLINESTYLE
350
17
  3
ACAD_LAYOUT
350
1A
  3
ACAD_PLOTSETTINGS
350
19
  3
ACAD_PLOTSTYLENAME
350
E
  0
DICTIONARY
  5
D
102
{ACAD_REACTORS
330
C
102
}
100
AcDbDictionary
280
0
281
1
  0
ACDBDICTIONARYWDFLT
  5
E
102
{ACAD_REACTORS
330
C
102
}
100
AcDbDictionary
281
1
  3
Normal
350
F
100
AcDbDictionaryWithDefault
340
F
  0
DICTIONARY
  5
17
102
{ACAD_REACTORS
330
C
102
}
100
AcDbDictionary
280
0
281
1
  3
Standard
350
18
  0
DICTIONARY
  5
19
102
{ACAD_REACTORS
330
C
102
}
100
AcDbDictionary
281
1
  0
DICTIONARY
  5
1A
102
{ACAD_REACTORS
330
C
102
}
100
AcDbDictionary
281
1
  3
Model
350
2BB
  3
Layout1
350
2BC
  0
ACDBPLACEHOLDER
  5
F
102
{ACAD_REACTORS
330
E
102
}
  0
MLINESTYLE
  5
18
102
{ACAD_REACTORS
330
17
102
}
100
AcDbMlineStyle
  2
STANDARD
 70
0
  3

 62
256
 51
90.0
 52
90.0
 71
2
 49
0.5
 62
256
  6
BYLAYER
 49
-0.5
 62
256
  6
BYLAYER
  0
LAYOUT
  5
2BB
102
{ACAD_REACTORS
330
1A
102
}
100
AcDbPlotSettings
  1

  2
none_device
  4

  6

 40
0.0
 41
0.0
 42
0.0
 43
0.0
 44
210.0
 45
297.0
 46
0.0
 47
0.0
 48
0.0
 49
0.0
140
0.0
141
0.0
142
1.0
143
1.0
 70
1024
 72
1
 73
0
 74
0
  7

 75
0
147
1.0
148
0.0
149
0.0
100
AcDbLayout
  1
Model
 70
0
 71
0
 10
0.0
 20
0.0
 11
210.0
 21
297.0
 12
0.0
 22
0.0
 32
0.0
 14
0.0
 24
0.0
 34
0.0
 15
0.0
 25
0.0
 35
0.0
146
0.0
 13
0.0
 23
0.0
 33
0.0
 16
1.0
 26
0.0
 36
0.0
 17
0.0
 27
1.0
 37
0.0
 76
0
330
210
345
0
346
0
  0
LAYOUT
  5
2BC
102
{ACAD_REACTORS
330
1A
102
}
100
AcDbPlotSettings
  1

  2
none_device
  4

  6

 40
0.0
 41
0.0
 42
0.0
 43
0.0
 44
210.0
 45
297.0
 46
0.0
 47
0.0
 48
0.0
 49
0.0
140
0.0
141
0.0
142
1.0
143
1.0
 70
0
 72
1
 73
0
 74
0
  7

 75
0
147
1.0
148
0.0
149
0.0
100
AcDbLayout
  1
Layout1
 70
0
 71
1
 10
0.0
 20
0.0
 11
210.0
 21
297.0
 12
0.0
 22
0.0
 32
0.0
 14
0.0
 24
0.0
 34
0.0
 15
0.0
 25
0.0
 35
0.0
146
0.0
 13
0.0
 23
0.0
 33
0.0
 16
1.0
 26
0.0
 36
0.0
 17
0.0
 27
1.0
 37
0.0
 76
0
330
211
345
0
346
0
  0
ENDSEC
  0
EOF
