999
DXF file: C:\Users\sesa63760\Dev\_Creo\CAD\MCADUE0001469_3D-CAD\drw0001_4.dxf
999
Pro/ENGINEER 2019471 by Parametric Technology Corporation
  0
SECTION
  2
HEADER
  9
$ACADVER
  1
AC1024
  9
$DWGCODEPAGE
  3
ANSI_1252
  9
$EXTMAX
 10
124678.4390669283
 20
176330.9352517985
 30
0.0
  9
$EXTMIN
 10
0.0
 20
0.0
 30
0.0
  9
$LIMMIN
 10
0.0
 20
0.0
  9
$LIMMAX
 10
124678.4390669283
 20
176330.9352517985
  9
$VIEWCTR
 10
62339.2195334642
 20
88165.4676258993
  9
$VIEWSIZE
 40
176330.9352517985
  9
$CLAYER
  8
0
  9
$LTSCALE
 40
11494.1646682654
  9
$CELTYPE
  6
BYLAYER
  9
$DIMSCALE
 40
1.0
  9
$DIMASZ
 40
1484.2671317491
  9
$DIMEXO
 40
1.0
  9
$DIMDLI
 40
7941.4228617106
  9
$DIMEXE
 40
1.0
  9
$DIMCEN
 40
1880.8633093525
  9
$DIMLFAC
 40
1.0
  9
$DIMBLK
  1
_FILLED
  9
$DIMALT
 70
0
  9
$DIMALTF
 40
0.0393700787
  9
$DIMTXT
 40
2077.9739844488
  9
$DIMTOL
 70
1
  9
$DIMLIM
 70
0
  9
$DIMTFAC
 40
1.0
  9
$DIMTP
 40
0.01
  9
$DIMTM
 40
0.01
  9
$DIMGAP
 40
0.625
  9
$DIMDSEP
 70
46
  9
$AUNITS
 70
0
  9
$PDMODE
 70
3
  9
$PDSIZE
 40
0.3125
  9
$HANDSEED
  5
3FF
  9
$TILEMODE
 70
1
  9
$MEASUREMENT
 70
1
  9
$INSUNITS
 70
4
  0
ENDSEC
  0
SECTION
  2
CLASSES
  0
CLASS
  1
ACDBDICTIONARYWDFLT
  2
AcDbDictionaryWithDefault
  3
AutoCAD 2000
 90
0
 91
1
280
0
281
0
  0
CLASS
  1
ACDBPLACEHOLDER
  2
AcDbPlaceHolder
  3
AutoCAD 2000
 90
0
 91
1
280
0
281
0
  0
CLASS
  1
LAYOUT
  2
AcDbLayout
  3
AutoCAD 2000
 90
0
 91
0
280
0
281
0
  0
ENDSEC
  0
SECTION
  2
TABLES
  0
TABLE
  2
VPORT
  5
8
100
AcDbSymbolTable
 70
2
  0
VPORT
  5
1F4
100
AcDbSymbolTableRecord
100
AcDbViewportTableRecord
  2
*ACTIVE
 70
0
 10
0.0
 20
0.0
 11
1.0
 21
1.0
 12
62339.2195334642
 22
88165.4676258993
 13
0.0
 23
0.0
 14
1.0
 24
1.0
 15
0.0
 25
0.0
 16
0.0
 26
0.0
 36
1.0
 17
0.0
 27
0.0
 37
0.0
 40
176330.9352517985
 41
0.7070707071
 42
50.0
 43
0.0
 44
0.0
 50
0.0
 51
0.0
 71
0
 72
100
 73
1
 74
1
 75
0
 76
0
 77
0
 78
0
  0
ENDTAB
  0
TABLE
  2
LTYPE
  5
5
100
AcDbSymbolTable
 70
6
  0
LTYPE
  5
14
100
AcDbSymbolTableRecord
100
AcDbLinetypeTableRecord
  2
BYBLOCK
 70
0
  3

 72
65
 73
0
 40
0.0
  0
LTYPE
  5
15
100
AcDbSymbolTableRecord
100
AcDbLinetypeTableRecord
  2
BYLAYER
 70
0
  3

 72
65
 73
0
 40
0.0
  0
LTYPE
  5
16
100
AcDbSymbolTableRecord
100
AcDbLinetypeTableRecord
  2
CONTINUOUS
 70
64
  3
Solid line
 72
65
 73
0
 40
0.0
  0
LTYPE
  5
1F5
100
AcDbSymbolTableRecord
100
AcDbLinetypeTableRecord
  2
CENTER
 70
64
  3
____ _ ____ _ ____ _ ____ _ ____ _ ____ _ ____
 72
65
 73
4
 40
0.6
 49
0.375
 74
0
 49
-0.075
 74
0
 49
0.075
 74
0
 49
-0.075
 74
0
  0
LTYPE
  5
1F6
100
AcDbSymbolTableRecord
100
AcDbLinetypeTableRecord
  2
HIDDEN
 70
64
  3
- - - - - - - - - - - - - - - - - - - -
 72
65
 73
2
 40
0.2
 49
0.1
 74
0
 49
-0.1
 74
0
  0
LTYPE
  5
1F7
100
AcDbSymbolTableRecord
100
AcDbLinetypeTableRecord
  2
PHANTOM
 70
64
  3
_____ _ _ _____ _ _ _____ _ _ _____
 72
65
 73
6
 40
0.8
 49
0.45
 74
0
 49
-0.05
 74
0
 49
0.1
 74
0
 49
-0.05
 74
0
 49
0.1
 74
0
 49
-0.05
 74
0
  0
LTYPE
  5
1F8
100
AcDbSymbolTableRecord
100
AcDbLinetypeTableRecord
  2
DOT
 70
64
  3
. . . . . . . . . . . . . . . . . . . .
 72
65
 73
2
 40
0.2
 49
0.1
 74
0
 49
-0.1
 74
0
  0
LTYPE
  5
1F9
100
AcDbSymbolTableRecord
100
AcDbLinetypeTableRecord
  2
DASHED
 70
64
  3
- - - - - - - - - - - - - - - - - - - -
 72
65
 73
2
 40
0.2
 49
0.1
 74
0
 49
-0.1
 74
0
  0
ENDTAB
  0
TABLE
  2
LAYER
  5
2
100
AcDbSymbolTable
 70
36
  0
LAYER
  5
10
100
AcDbSymbolTableRecord
100
AcDbLayerTableRecord
  2
0
 70
0
 62
7
  6
CONTINUOUS
370
-3
390
F
  0
LAYER
  5
1FA
100
AcDbSymbolTableRecord
100
AcDbLayerTableRecord
  2
DEFAULT_1
 70
0
 62
7
  6
CENTER
370
-3
390
F
  0
LAYER
  5
1FB
100
AcDbSymbolTableRecord
100
AcDbLayerTableRecord
  2
DEFAULT_2
 70
0
 62
8
  6
HIDDEN
370
-3
390
F
  0
LAYER
  5
1FC
100
AcDbSymbolTableRecord
100
AcDbLayerTableRecord
  2
DEFAULT_3
 70
0
 62
7
  6
PHANTOM
370
-3
390
F
  0
LAYER
  5
1FD
100
AcDbSymbolTableRecord
100
AcDbLayerTableRecord
  2
00_COMPONENTS
 70
0
 62
7
  6
CONTINUOUS
370
-3
390
F
  0
LAYER
  5
1FE
100
AcDbSymbolTableRecord
100
AcDbLayerTableRecord
  2
01_1_DEFAULT_DATUMS
 70
0
 62
7
  6
CONTINUOUS
370
-3
390
F
  0
LAYER
  5
1FF
100
AcDbSymbolTableRecord
100
AcDbLayerTableRecord
  2
01_PLANES
 70
0
 62
7
  6
CONTINUOUS
370
-3
390
F
  0
LAYER
  5
200
100
AcDbSymbolTableRecord
100
AcDbLayerTableRecord
  2
02_COORD_SYS
 70
0
 62
7
  6
CONTINUOUS
370
-3
390
F
  0
LAYER
  5
201
100
AcDbSymbolTableRecord
100
AcDbLayerTableRecord
  2
03_AXES
 70
0
 62
7
  6
CONTINUOUS
370
-3
390
F
  0
LAYER
  5
202
100
AcDbSymbolTableRecord
100
AcDbLayerTableRecord
  2
04_POINTS
 70
0
 62
7
  6
CONTINUOUS
370
-3
390
F
  0
LAYER
  5
203
100
AcDbSymbolTableRecord
100
AcDbLayerTableRecord
  2
05_CURVES
 70
0
 62
7
  6
CONTINUOUS
370
-3
390
F
  0
LAYER
  5
204
100
AcDbSymbolTableRecord
100
AcDbLayerTableRecord
  2
06_SURFS
 70
0
 62
7
  6
CONTINUOUS
370
-3
390
F
  0
LAYER
  5
205
100
AcDbSymbolTableRecord
100
AcDbLayerTableRecord
  2
07_COSMETICS
 70
0
 62
7
  6
CONTINUOUS
370
-3
390
F
  0
LAYER
  5
206
100
AcDbSymbolTableRecord
100
AcDbLayerTableRecord
  2
10_NOTES
 70
0
 62
7
  6
CONTINUOUS
370
-3
390
F
  0
LAYER
  5
207
100
AcDbSymbolTableRecord
100
AcDbLayerTableRecord
  2
11_NOTES_PUB
 70
0
 62
7
  6
CONTINUOUS
370
-3
390
F
  0
LAYER
  5
208
100
AcDbSymbolTableRecord
100
AcDbLayerTableRecord
  2
13_REF_GTOL
 70
0
 62
7
  6
CONTINUOUS
370
-3
390
F
  0
LAYER
  5
209
100
AcDbSymbolTableRecord
100
AcDbLayerTableRecord
  2
16_MISC
 70
0
 62
7
  6
CONTINUOUS
370
-3
390
F
  0
LAYER
  5
20A
100
AcDbSymbolTableRecord
100
AcDbLayerTableRecord
  2
17_NO_PRINT
 70
0
 62
7
  6
CONTINUOUS
370
-3
390
F
  0
LAYER
  5
20B
100
AcDbSymbolTableRecord
100
AcDbLayerTableRecord
  2
18_DATUM_CAMS_JOINTS
 70
0
 62
7
  6
CONTINUOUS
370
-3
390
F
  0
LAYER
  5
20C
100
AcDbSymbolTableRecord
100
AcDbLayerTableRecord
  2
19_DATUM_FUNCTIONAL
 70
0
 62
7
  6
CONTINUOUS
370
-3
390
F
  0
LAYER
  5
20D
100
AcDbSymbolTableRecord
100
AcDbLayerTableRecord
  2
20_DATUM_KINEMATIC_SCHEME
 70
0
 62
7
  6
CONTINUOUS
370
-3
390
F
  0
ENDTAB
  0
TABLE
  2
STYLE
  5
3
100
AcDbSymbolTable
 70
1
  0
STYLE
  5
11
100
AcDbSymbolTableRecord
100
AcDbTextStyleTableRecord
  2
STANDARD
 70
0
 40
0.0
 41
0.8
 50
0.0
 71
0
 42
0.2
  3
txt
  4

  0
STYLE
  5
20E
100
AcDbSymbolTableRecord
100
AcDbTextStyleTableRecord
  2
TEXTSTYLE_1
 70
0
 40
0.0
 41
0.8
 50
0.0
 71
0
 42
0.2
  3
gdt
  4

  0
ENDTAB
  0
TABLE
  2
VIEW
  5
6
100
AcDbSymbolTable
 70
0
  0
ENDTAB
  0
TABLE
  2
UCS
  5
7
100
AcDbSymbolTable
 70
0
  0
ENDTAB
  0
TABLE
  2
APPID
  5
9
100
AcDbSymbolTable
 70
1
  0
APPID
  5
20F
100
AcDbSymbolTableRecord
100
AcDbRegAppTableRecord
  2
ACAD
 70
0
  0
ENDTAB
  0
TABLE
  2
BLOCK_RECORD
  5
1
100
AcDbSymbolTable
 70
0
  0
BLOCK_RECORD
  5
210
100
AcDbSymbolTableRecord
100
AcDbBlockTableRecord
  2
*Model_Space
  0
BLOCK_RECORD
  5
211
100
AcDbSymbolTableRecord
100
AcDbBlockTableRecord
  2
*Paper_Space
  0
BLOCK_RECORD
  5
212
100
AcDbSymbolTableRecord
100
AcDbBlockTableRecord
  2
_FILLED
  0
ENDTAB
  0
TABLE
  2
DIMSTYLE
  5
A
100
AcDbSymbolTable
 70
1
100
AcDbDimStyleTable
 71
0
  0
DIMSTYLE
105
213
100
AcDbSymbolTableRecord
100
AcDbDimStyleTableRecord
  2
STANDARD
 70
0
  3

  4

 40
1.0
 41
1484.2671317491
 42
1.0
 43
0.38
 44
1.0
 45
0.0
 46
0.0
 47
0.01
 48
0.01
140
2077.9739844488
141
0.09
142
0.0
143
25.4
144
1.0
145
0.0
146
1.0
147
0.625
 71
1
 72
0
 73
0
 74
0
 75
0
 76
0
 77
1
 78
8
 79
2
170
0
171
1
172
0
173
0
174
0
175
0
176
0
177
0
178
0
270
2
179
2
271
2
272
2
273
2
274
2
275
0
280
0
281
0
282
0
283
1
284
8
285
0
286
0
287
3
288
0
340
11
278
46
341
212
342
212
343
212
344
212
  0
ENDTAB
  0
ENDSEC
  0
SECTION
  2
BLOCKS
  0
BLOCK
  5
20
100
AcDbEntity
  8
0
100
AcDbBlockBegin
  2
*Model_Space
 70
0
 10
0.0
 20
0.0
 30
0.0
  3
*Model_Space
  1

  0
ENDBLK
  5
21
100
AcDbEntity
  8
0
100
AcDbBlockEnd
  0
BLOCK
  5
1C
100
AcDbEntity
  8
0
100
AcDbBlockBegin
  2
*Paper_Space
 70
0
 10
0.0
 20
0.0
 30
0.0
  3
*Paper_Space
  1

  0
ENDBLK
  5
1D
100
AcDbEntity
  8
0
100
AcDbBlockEnd
  0
BLOCK
  5
214
100
AcDbEntity
  8
0
100
AcDbBlockBegin
  2
_FILLED
 70
64
 10
0.0
 20
0.0
  3
_FILLED
  1

  0
SOLID
  5
215
100
AcDbEntity
  8
0
  6
BYBLOCK
 62
0
100
AcDbTrace
 10
0.0
 20
0.0
 11
-1.0
 21
0.25
 12
-1.0
 22
-0.25
 13
-1.0
 23
-0.25
  0
ENDBLK
  5
216
100
AcDbEntity
  8
0
  6
BYBLOCK
 62
0
100
AcDbBlockEnd
  0
ENDSEC
  0
SECTION
  2
ENTITIES
  0
LINE
  5
217
100
AcDbEntity
  8
0
100
AcDbLine
 62
7
  6
CONTINUOUS
 10
13957.9745694354
 20
12625.8992805756
 11
113957.8745694353
 21
12625.8992805756
  0
LINE
  5
218
100
AcDbEntity
  8
0
100
AcDbLine
 62
7
  6
CONTINUOUS
 10
113764.874569433
 20
12819.8992805758
 11
64150.8745694374
 21
12819.8992805758
  0
LINE
  5
219
100
AcDbEntity
  8
0
100
AcDbLine
 62
7
  6
CONTINUOUS
 10
63764.974569433
 20
12819.8992805758
 11
14150.9745694375
 21
12819.8992805758
  0
LINE
  5
21A
100
AcDbEntity
  8
0
100
AcDbLine
 62
7
  6
CONTINUOUS
 10
15157.952646762
 20
13825.8992805756
 11
62757.9745694354
 21
13825.8992805756
  0
LINE
  5
21B
100
AcDbEntity
  8
0
100
AcDbLine
 62
7
  6
CONTINUOUS
 10
65157.8526467619
 20
13825.8992805756
 11
112757.8745694355
 21
13825.8992805756
  0
LINE
  5
21C
100
AcDbEntity
  8
0
100
AcDbLine
 62
7
  6
CONTINUOUS
 10
108232.8745694353
 20
15775.7777533382
 11
69682.8745694353
 21
15775.7777533382
  0
LINE
  5
21D
100
AcDbEntity
  8
0
100
AcDbLine
 62
7
  6
CONTINUOUS
 10
58232.9745694353
 20
15775.7777533382
 11
19682.9745694354
 21
15775.7777533382
  0
LINE
  5
21E
100
AcDbEntity
  8
0
100
AcDbLine
 62
7
  6
CONTINUOUS
 10
64507.9745694354
 20
16241.747079542
 11
63407.9745694353
 21
16241.747079542
  0
LINE
  5
21F
100
AcDbEntity
  8
0
100
AcDbLine
 62
7
  6
CONTINUOUS
 10
59751.0716522456
 20
155086.55568072
 11
59781.2745694353
 21
155096.6099235702
  0
LINE
  5
220
100
AcDbEntity
  8
0
100
AcDbLine
 62
7
  6
CONTINUOUS
 10
64524.8949981541
 20
16241.747079542
 11
65158.0745694354
 21
16366.549577599
  0
LWPOLYLINE
  5
221
100
AcDbEntity
  8
0
100
AcDbPolyline
 62
7
  6
CONTINUOUS
 90
4
 70
0
 10
67497.5745694354
 20
20154.3905632772
 10
67399.9719252766
 20
20153.8855269993
 10
67329.8345629114
 20
20152.6250871282
 10
67303.8776395461
 20
20150.9089306313
  0
LWPOLYLINE
  5
222
100
AcDbEntity
  8
0
100
AcDbPolyline
 62
7
  6
CONTINUOUS
 90
4
 70
0
 10
63203.4263062341
 20
20136.5070772972
 10
63180.8195717275
 20
20136.404661432
 10
63163.6882298663
 20
20136.1191859794
 10
63156.7266366942
 20
20135.692458105
  0
LINE
  5
223
100
AcDbEntity
  8
0
100
AcDbLine
 62
7
  6
CONTINUOUS
 10
67279.5745694354
 20
20137.7250989965
 11
65599.5168720498
 21
20132.4992805756
  0
LINE
  5
224
100
AcDbEntity
  8
0
100
AcDbLine
 62
7
  6
CONTINUOUS
 10
68110.4745694354
 20
20154.7774027868
 11
67497.5745694354
 21
20154.3905632772
  0
LINE
  5
225
100
AcDbEntity
  8
0
100
AcDbLine
 62
7
  6
CONTINUOUS
 10
63150.2853537491
 20
16449.2992805756
 11
64765.4637851216
 21
16449.2992805756
  0
LINE
  5
226
100
AcDbEntity
  8
0
100
AcDbLine
 62
7
  6
CONTINUOUS
 10
17607.974797325
 20
16712.1539975569
 11
17742.4658445868
 21
16712.1539975569
  0
LINE
  5
227
100
AcDbEntity
  8
0
100
AcDbLine
 62
7
  6
CONTINUOUS
 10
67607.874797325
 20
16712.1539975569
 11
67742.3658445867
 21
16712.1539975569
  0
LINE
  5
228
100
AcDbEntity
  8
0
100
AcDbLine
 62
7
  6
CONTINUOUS
 10
108232.8745694353
 20
16801.2642947627
 11
69682.8745694353
 21
16801.2642947627
  0
LINE
  5
229
100
AcDbEntity
  8
0
100
AcDbLine
 62
7
  6
CONTINUOUS
 10
58232.9745694353
 20
16801.2642947627
 11
19682.9745694354
 21
16801.2642947627
  0
LINE
  5
22A
100
AcDbEntity
  8
0
100
AcDbLine
 62
7
  6
CONTINUOUS
 10
108232.8745694353
 20
16844.8992805758
 11
69682.8745694353
 21
16844.8992805758
  0
LINE
  5
22B
100
AcDbEntity
  8
0
100
AcDbLine
 62
7
  6
CONTINUOUS
 10
58232.9745694353
 20
16844.8992805758
 11
19682.9745694354
 21
16844.8992805758
  0
LINE
  5
22C
100
AcDbEntity
  8
0
100
AcDbLine
 62
7
  6
CONTINUOUS
 10
108232.8745694353
 20
17125.8992805757
 11
69682.8745694353
 21
17125.8992805757
  0
LINE
  5
22D
100
AcDbEntity
  8
0
100
AcDbLine
 62
7
  6
CONTINUOUS
 10
58232.9745694353
 20
17125.8992805757
 11
19682.9745694354
 21
17125.8992805757
  0
LINE
  5
22E
100
AcDbEntity
  8
0
100
AcDbLine
 62
7
  6
CONTINUOUS
 10
108232.8745694353
 20
17276.9122747276
 11
69682.8745694353
 21
17276.9122747276
  0
LINE
  5
22F
100
AcDbEntity
  8
0
100
AcDbLine
 62
7
  6
CONTINUOUS
 10
58232.9745694353
 20
17276.9122747276
 11
19682.9745694354
 21
17276.9122747276
  0
LINE
  5
230
100
AcDbEntity
  8
0
100
AcDbLine
 62
7
  6
CONTINUOUS
 10
110114.9668800512
 20
18350.8992805756
 11
109781.3551076372
 21
18350.8992805756
  0
LINE
  5
231
100
AcDbEntity
  8
0
100
AcDbLine
 62
7
  6
CONTINUOUS
 10
109449.882544344
 20
18350.8992805756
 11
109306.7552768362
 21
18350.8992805756
  0
LINE
  5
232
100
AcDbEntity
  8
0
100
AcDbLine
 62
7
  6
CONTINUOUS
 10
68134.3255961638
 20
18350.8992805756
 11
67800.7824972302
 21
18350.8992805755
  0
LINE
  5
233
100
AcDbEntity
  8
0
100
AcDbLine
 62
7
  6
CONTINUOUS
 10
60115.0668800513
 20
18350.8992805756
 11
59781.4551076371
 21
18350.8992805756
  0
LINE
  5
234
100
AcDbEntity
  8
0
100
AcDbLine
 62
7
  6
CONTINUOUS
 10
59449.982544344
 20
18350.8992805756
 11
59306.8552768361
 21
18350.8992805756
  0
LINE
  5
235
100
AcDbEntity
  8
0
100
AcDbLine
 62
7
  6
CONTINUOUS
 10
18134.4255961638
 20
18350.8992805756
 11
17800.8824972302
 21
18350.8992805755
  0
LINE
  5
236
100
AcDbEntity
  8
0
100
AcDbLine
 62
7
  6
CONTINUOUS
 10
17607.9745694354
 20
18350.8992805756
 11
17795.942534719
 21
18350.8992805756
  0
LINE
  5
237
100
AcDbEntity
  8
0
100
AcDbLine
 62
7
  6
CONTINUOUS
 10
18134.9748082862
 20
18350.8992805756
 11
18609.0938620345
 21
18350.8992805756
  0
LINE
  5
238
100
AcDbEntity
  8
0
100
AcDbLine
 62
7
  6
CONTINUOUS
 10
59457.9745694354
 20
18350.8992805756
 11
59780.9745694352
 21
18350.8992805756
  0
LINE
  5
239
100
AcDbEntity
  8
0
100
AcDbLine
 62
7
  6
CONTINUOUS
 10
60125.0747510338
 20
18350.8992805756
 11
60307.9745694353
 21
18350.8992805756
  0
LINE
  5
23A
100
AcDbEntity
  8
0
100
AcDbLine
 62
7
  6
CONTINUOUS
 10
67607.8745694353
 20
18350.8992805756
 11
67795.8425347189
 21
18350.8992805756
  0
LINE
  5
23B
100
AcDbEntity
  8
0
100
AcDbLine
 62
7
  6
CONTINUOUS
 10
68134.8748082861
 20
18350.8992805756
 11
68608.9938620345
 21
18350.8992805756
  0
LINE
  5
23C
100
AcDbEntity
  8
0
100
AcDbLine
 62
7
  6
CONTINUOUS
 10
109457.8745694355
 20
18350.8992805756
 11
109780.8745694353
 21
18350.8992805756
  0
LINE
  5
23D
100
AcDbEntity
  8
0
100
AcDbLine
 62
7
  6
CONTINUOUS
 10
110124.9747510338
 20
18350.8992805756
 11
110307.8745694353
 21
18350.8992805756
  0
LINE
  5
23E
100
AcDbEntity
  8
0
100
AcDbLine
 62
7
  6
CONTINUOUS
 10
59307.9745694354
 20
20125.8992805756
 11
62310.2291706624
 21
20125.8992805756
  0
LINE
  5
23F
100
AcDbEntity
  8
0
100
AcDbLine
 62
7
  6
CONTINUOUS
 10
65605.3357365181
 20
20125.8992805756
 11
68457.8748186697
 21
20125.8992805756
  0
LINE
  5
240
100
AcDbEntity
  8
0
100
AcDbLine
 62
7
  6
CONTINUOUS
 10
68482.8748079972
 20
20125.8992805756
 11
68607.8748079972
 21
20125.8992805756
  0
LINE
  5
241
100
AcDbEntity
  8
0
100
AcDbLine
 62
7
  6
CONTINUOUS
 10
64712.2933782278
 20
20136.5070772972
 11
63203.4263062341
 21
20136.5070772972
  0
LINE
  5
242
100
AcDbEntity
  8
0
100
AcDbLine
 62
7
  6
CONTINUOUS
 10
68607.9745694354
 20
20154.7913429493
 11
68465.3745694353
 21
20154.7913429493
  0
LINE
  5
243
100
AcDbEntity
  8
0
100
AcDbLine
 62
7
  6
CONTINUOUS
 10
59450.5745694353
 20
20154.7913429493
 11
59307.9745694353
 21
20154.7913429493
  0
LINE
  5
244
100
AcDbEntity
  8
0
100
AcDbLine
 62
7
  6
CONTINUOUS
 10
59457.9728282589
 20
20169.5992805756
 11
59737.9850384876
 21
20169.5992805756
  0
LINE
  5
245
100
AcDbEntity
  8
0
100
AcDbLine
 62
7
  6
CONTINUOUS
 10
68457.9745694353
 20
20169.590567974
 11
68177.8641003832
 21
20169.5992805756
  0
LINE
  5
246
100
AcDbEntity
  8
0
100
AcDbLine
 62
7
  6
CONTINUOUS
 10
60507.9745694354
 20
21125.8992805756
 11
60612.0745078027
 21
21125.8992805756
  0
LINE
  5
247
100
AcDbEntity
  8
0
100
AcDbLine
 62
7
  6
CONTINUOUS
 10
60636.3745694353
 20
21125.8992805756
 11
63107.9745694354
 21
21125.8992805756
  0
LINE
  5
248
100
AcDbEntity
  8
0
100
AcDbLine
 62
7
  6
CONTINUOUS
 10
64807.9745694353
 20
21125.8992805756
 11
67279.5745694354
 21
21125.8992805756
  0
LINE
  5
249
100
AcDbEntity
  8
0
100
AcDbLine
 62
7
  6
CONTINUOUS
 10
67303.8778491839
 20
21125.8992805756
 11
67407.9745694353
 21
21125.8992805756
  0
LINE
  5
24A
100
AcDbEntity
  8
0
100
AcDbLine
 62
7
  6
CONTINUOUS
 10
13962.5970811817
 20
21330.8992805756
 11
17057.9745694354
 21
21330.8992805756
  0
LINE
  5
24B
100
AcDbEntity
  8
0
100
AcDbLine
 62
7
  6
CONTINUOUS
 10
110857.8745694353
 20
21330.8992805756
 11
113953.252057689
 21
21330.8992805756
  0
LINE
  5
24C
100
AcDbEntity
  8
0
100
AcDbLine
 62
7
  6
CONTINUOUS
 10
60418.2745694353
 20
20154.4027609194
 11
59781.2745694354
 21
20155.1886375809
  0
LINE
  5
24D
100
AcDbEntity
  8
0
100
AcDbLine
 62
7
  6
CONTINUOUS
 10
62317.3259663779
 20
20132.4992805756
 11
60636.3745694354
 21
20137.7372966387
  0
LWPOLYLINE
  5
24E
100
AcDbEntity
  8
0
100
AcDbPolyline
 62
7
  6
CONTINUOUS
 90
4
 70
0
 10
60612.0745113402
 20
20150.9194943274
 10
60586.1197062275
 20
20152.6360681074
 10
60515.9575296663
 20
20153.8972991024
 10
60418.2745694353
 20
20154.4027609194
  0
LWPOLYLINE
  5
24F
100
AcDbEntity
  8
0
100
AcDbPolyline
 62
7
  6
CONTINUOUS
 90
4
 70
0
 10
64759.0217050625
 20
20135.692978441
 10
64753.1379904848
 20
20136.0873614864
 10
64736.7558916607
 20
20136.3858910707
 10
64712.2933782278
 20
20136.5070772972
  0
LINE
  5
250
100
AcDbEntity
  8
0
100
AcDbLine
 62
7
  6
CONTINUOUS
 10
62757.9745694354
 20
16366.5058867278
 11
63390.9459980085
 21
16241.747079542
  0
LINE
  5
251
100
AcDbEntity
  8
0
100
AcDbLine
 62
7
  6
CONTINUOUS
 10
59781.2745694354
 20
20155.1886375809
 11
59751.0716522456
 21
20165.2428804311
  0
LINE
  5
252
100
AcDbEntity
  8
0
100
AcDbLine
 62
7
  6
CONTINUOUS
 10
113953.252057689
 20
23920.8992805756
 11
110857.8745694353
 21
23920.8992805756
  0
LINE
  5
253
100
AcDbEntity
  8
0
100
AcDbLine
 62
7
  6
CONTINUOUS
 10
17057.9745694354
 20
23920.8992805756
 11
13962.5970811817
 21
23920.8992805756
  0
LINE
  5
254
100
AcDbEntity
  8
0
100
AcDbLine
 62
7
  6
CONTINUOUS
 10
67407.9745694353
 20
24125.8992805756
 11
67303.8778275189
 21
24125.8992805756
  0
LINE
  5
255
100
AcDbEntity
  8
0
100
AcDbLine
 62
7
  6
CONTINUOUS
 10
67279.5745694354
 20
24125.8992805756
 11
64807.9745694353
 21
24125.8992805756
  0
LINE
  5
256
100
AcDbEntity
  8
0
100
AcDbLine
 62
7
  6
CONTINUOUS
 10
60612.0745072809
 20
24125.8992805756
 11
60507.9745694354
 21
24125.8992805756
  0
LINE
  5
257
100
AcDbEntity
  8
0
100
AcDbLine
 62
7
  6
CONTINUOUS
 10
63107.9745694354
 20
24125.8992805756
 11
60636.3745694353
 21
24125.8992805756
  0
LINE
  5
258
100
AcDbEntity
  8
0
100
AcDbLine
 62
7
  6
CONTINUOUS
 10
68621.2741466592
 20
155105.9321736085
 11
68641.1932233676
 21
155119.2992805755
  0
LINE
  5
259
100
AcDbEntity
  8
0
100
AcDbLine
 62
7
  6
CONTINUOUS
 10
64759.0225021766
 20
155116.1061030461
 11
64760.3745694353
 21
155116.9886986394
  0
LINE
  5
25A
100
AcDbEntity
  8
0
100
AcDbLine
 62
7
  6
CONTINUOUS
 10
64760.3745694355
 20
20134.8098625115
 11
64759.0217050625
 21
20135.692978441
  0
LINE
  5
25B
100
AcDbEntity
  8
0
100
AcDbLine
 62
7
  6
CONTINUOUS
 10
68641.1932233676
 20
20132.4992805756
 11
68621.2741466592
 21
20145.8663875426
  0
LINE
  5
25C
100
AcDbEntity
  8
0
100
AcDbLine
 62
7
  6
CONTINUOUS
 10
13962.5970811817
 20
21330.8992805756
 11
13960.2858253085
 21
21825.8992805756
  0
LINE
  5
25D
100
AcDbEntity
  8
0
100
AcDbLine
 62
7
  6
CONTINUOUS
 10
13962.5970811817
 20
71330.8992805756
 11
13960.2858253085
 21
71825.8992805756
  0
LINE
  5
25E
100
AcDbEntity
  8
0
100
AcDbLine
 62
7
  6
CONTINUOUS
 10
13962.5970811817
 20
101330.8992805756
 11
13960.2858253085
 21
101825.8992805756
  0
LINE
  5
25F
100
AcDbEntity
  8
0
100
AcDbLine
 62
7
  6
CONTINUOUS
 10
13962.5970811817
 20
151330.8992805755
 11
13960.2858253085
 21
151825.8992805756
  0
LINE
  5
260
100
AcDbEntity
  8
0
100
AcDbLine
 62
7
  6
CONTINUOUS
 10
13957.9745694354
 20
12625.8992805755
 11
13957.9745694354
 21
21825.8992805756
  0
LINE
  5
261
100
AcDbEntity
  8
0
100
AcDbLine
 62
7
  6
CONTINUOUS
 10
13957.9745694354
 20
23425.8992805756
 11
13957.9745694354
 21
71825.8992805756
  0
LINE
  5
262
100
AcDbEntity
  8
0
100
AcDbLine
 62
7
  6
CONTINUOUS
 10
13957.9745694354
 20
73425.8992805755
 11
13957.9745694354
 21
101825.8992805756
  0
LINE
  5
263
100
AcDbEntity
  8
0
100
AcDbLine
 62
7
  6
CONTINUOUS
 10
13957.9745694354
 20
103425.8992805756
 11
13957.9745694354
 21
151825.8992805756
  0
LINE
  5
264
100
AcDbEntity
  8
0
100
AcDbLine
 62
7
  6
CONTINUOUS
 10
13957.9745694354
 20
153425.8992805755
 11
13957.9745694354
 21
162625.8992805755
  0
LINE
  5
265
100
AcDbEntity
  8
0
100
AcDbLine
 62
7
  6
CONTINUOUS
 10
13960.2858253085
 20
153425.8992805755
 11
13960.2858253085
 21
151825.8992805756
  0
LINE
  5
266
100
AcDbEntity
  8
0
100
AcDbLine
 62
7
  6
CONTINUOUS
 10
13960.2858253085
 20
103425.8992805756
 11
13960.2858253085
 21
101825.8992805756
  0
LINE
  5
267
100
AcDbEntity
  8
0
100
AcDbLine
 62
7
  6
CONTINUOUS
 10
13960.2858253085
 20
73425.8992805756
 11
13960.2858253085
 21
71825.8992805756
  0
LINE
  5
268
100
AcDbEntity
  8
0
100
AcDbLine
 62
7
  6
CONTINUOUS
 10
13960.2858253085
 20
23425.8992805756
 11
13960.2858253085
 21
21825.8992805756
  0
LINE
  5
269
100
AcDbEntity
  8
0
100
AcDbLine
 62
7
  6
CONTINUOUS
 10
14150.9745694353
 20
12819.8992805736
 11
14150.9745694353
 21
21330.8992805755
  0
LINE
  5
26A
100
AcDbEntity
  8
0
100
AcDbLine
 62
7
  6
CONTINUOUS
 10
14150.9745694353
 20
23920.8992805756
 11
14150.9745694353
 21
71330.8992805756
  0
LINE
  5
26B
100
AcDbEntity
  8
0
100
AcDbLine
 62
7
  6
CONTINUOUS
 10
14150.9745694353
 20
73920.8992805756
 11
14150.9745694353
 21
101330.8992805755
  0
LINE
  5
26C
100
AcDbEntity
  8
0
100
AcDbLine
 62
7
  6
CONTINUOUS
 10
14150.9745694353
 20
103920.8992805756
 11
14150.9745694353
 21
151330.8992805755
  0
LINE
  5
26D
100
AcDbEntity
  8
0
100
AcDbLine
 62
7
  6
CONTINUOUS
 10
14150.9745694353
 20
153920.8992805756
 11
14150.9745694353
 21
162431.8992805778
  0
LINE
  5
26E
100
AcDbEntity
  8
0
100
AcDbLine
 62
7
  6
CONTINUOUS
 10
15158.0147293451
 20
153920.8992805756
 11
15157.9745694354
 21
161425.8992805753
  0
LINE
  5
26F
100
AcDbEntity
  8
0
100
AcDbLine
 62
7
  6
CONTINUOUS
 10
15158.0147293451
 20
151330.8992805755
 11
15158.0147293451
 21
103920.8992805756
  0
LINE
  5
270
100
AcDbEntity
  8
0
100
AcDbLine
 62
7
  6
CONTINUOUS
 10
15158.0147293451
 20
101330.8992805755
 11
15158.0147293451
 21
73920.8992805756
  0
LINE
  5
271
100
AcDbEntity
  8
0
100
AcDbLine
 62
7
  6
CONTINUOUS
 10
15158.0147293451
 20
71330.8992805756
 11
15158.0147293451
 21
23920.8992805756
  0
LINE
  5
272
100
AcDbEntity
  8
0
100
AcDbLine
 62
7
  6
CONTINUOUS
 10
15158.0147293451
 20
21330.8992805756
 11
15158.0147293451
 21
13825.9036535683
  0
LINE
  5
273
100
AcDbEntity
  8
0
100
AcDbLine
 62
7
  6
CONTINUOUS
 10
13960.2858253085
 20
153425.8992805755
 11
13962.5970811817
 21
153920.8992805756
  0
LINE
  5
274
100
AcDbEntity
  8
0
100
AcDbLine
 62
7
  6
CONTINUOUS
 10
13960.2858253085
 20
103425.8992805756
 11
13962.5970811817
 21
103920.8992805756
  0
LINE
  5
275
100
AcDbEntity
  8
0
100
AcDbLine
 62
7
  6
CONTINUOUS
 10
13960.2858253085
 20
73425.8992805756
 11
13962.5970811817
 21
73920.8992805756
  0
LINE
  5
276
100
AcDbEntity
  8
0
100
AcDbLine
 62
7
  6
CONTINUOUS
 10
13960.2858253085
 20
23425.8992805756
 11
13962.5970811817
 21
23920.8992805756
  0
LWPOLYLINE
  5
277
100
AcDbEntity
  8
0
100
AcDbPolyline
 62
7
  6
CONTINUOUS
 90
3
 70
0
 10
63764.9745694325
 20
162431.8992805753
 10
63898.5599493572
 20
162565.7719857257
 10
63957.8962151725
 20
162625.8716190573
  0
LINE
  5
278
100
AcDbEntity
  8
0
100
AcDbLine
 62
7
  6
CONTINUOUS
 10
60307.9743425001
 20
158971.4422521708
 11
62757.9787129839
 21
161425.8992805755
  0
LINE
  5
279
100
AcDbEntity
  8
0
100
AcDbLine
 62
7
  6
CONTINUOUS
 10
62676.8809819974
 20
158804.3402443828
 11
62757.8317232494
 21
158885.2889632858
  0
LINE
  5
27A
100
AcDbEntity
  8
0
100
AcDbLine
 62
7
  6
CONTINUOUS
 10
62757.9964921087
 20
161425.8992805755
 11
63764.9745694333
 21
162431.8992805753
  0
LINE
  5
27B
100
AcDbEntity
  8
0
100
AcDbLine
 62
7
  6
CONTINUOUS
 10
62757.9745694354
 20
13825.8992805756
 11
60907.974569426
 21
15673.7439864674
  0
LINE
  5
27C
100
AcDbEntity
  8
0
100
AcDbLine
 62
7
  6
CONTINUOUS
 10
63764.974569433
 20
12819.8992805758
 11
62757.9745694356
 21
13825.8992805756
  0
LINE
  5
27D
100
AcDbEntity
  8
0
100
AcDbLine
 62
7
  6
CONTINUOUS
 10
62757.9745694354
 20
16366.5052331688
 11
62677.0230318891
 21
16447.3994046811
  0
LINE
  5
27E
100
AcDbEntity
  8
0
100
AcDbLine
 62
7
  6
CONTINUOUS
 10
60907.974569426
 20
15673.7439864674
 11
60307.9745694353
 21
16274.5769276344
  0
LWPOLYLINE
  5
27F
100
AcDbEntity
  8
0
100
AcDbPolyline
 62
7
  6
CONTINUOUS
 90
3
 70
0
 10
63957.8995694353
 20
12625.9244927851
 10
63898.2899125919
 20
12686.298289643
 10
63764.9745694322
 20
12819.8992805758
  0
LINE
  5
280
100
AcDbEntity
  8
0
100
AcDbLine
 62
7
  6
CONTINUOUS
 10
17057.9745694354
 20
21330.8992805756
 11
17057.9745694354
 21
23920.8992805756
  0
LINE
  5
281
100
AcDbEntity
  8
0
100
AcDbLine
 62
7
  6
CONTINUOUS
 10
17057.9745694354
 20
71330.8992805756
 11
17057.9745694354
 21
73920.8992805756
  0
LINE
  5
282
100
AcDbEntity
  8
0
100
AcDbLine
 62
7
  6
CONTINUOUS
 10
17057.9745694354
 20
101330.8992805756
 11
17057.9745694354
 21
103920.8992805756
  0
LINE
  5
283
100
AcDbEntity
  8
0
100
AcDbLine
 62
7
  6
CONTINUOUS
 10
17057.9745694354
 20
151330.8992805755
 11
17057.9745694354
 21
153920.8992805756
  0
LINE
  5
284
100
AcDbEntity
  8
0
100
AcDbLine
 62
7
  6
CONTINUOUS
 10
17607.9747963706
 20
16280.3563089803
 11
17607.9748075467
 21
158425.7200662752
  0
LINE
  5
285
100
AcDbEntity
  8
0
100
AcDbLine
 62
7
  6
CONTINUOUS
 10
17607.9745694354
 20
158492.9978525921
 11
17607.9745694354
 21
158977.2216335173
  0
LINE
  5
286
100
AcDbEntity
  8
0
100
AcDbLine
 62
7
  6
CONTINUOUS
 10
17800.8824972302
 20
18350.8992805755
 11
17800.8824972302
 21
156900.8992805755
  0
LINE
  5
287
100
AcDbEntity
  8
0
100
AcDbLine
 62
7
  6
CONTINUOUS
 10
18110.9748079847
 20
156900.8992805755
 11
18110.9748079847
 21
18350.8992805756
  0
LINE
  5
288
100
AcDbEntity
  8
0
100
AcDbLine
 62
7
  6
CONTINUOUS
 10
18134.9748082862
 20
18350.8992805756
 11
18134.9748082862
 21
156900.8992805755
  0
LINE
  5
289
100
AcDbEntity
  8
0
100
AcDbLine
 62
7
  6
CONTINUOUS
 10
18177.9748186699
 20
156900.8992805755
 11
18177.9748186699
 21
18350.8992805756
  0
LINE
  5
28A
100
AcDbEntity
  8
0
100
AcDbLine
 62
7
  6
CONTINUOUS
 10
18457.9748186698
 20
156900.8992805755
 11
18457.9748186698
 21
18350.8992805756
  0
LINE
  5
28B
100
AcDbEntity
  8
0
100
AcDbLine
 62
7
  6
CONTINUOUS
 10
18482.9748079972
 20
156900.8992805755
 11
18482.9748079972
 21
18350.8992805756
  0
LINE
  5
28C
100
AcDbEntity
  8
0
100
AcDbLine
 62
7
  6
CONTINUOUS
 10
18607.9748079972
 20
156900.8992805755
 11
18607.9748079972
 21
18350.8992805756
  0
LINE
  5
28D
100
AcDbEntity
  8
0
100
AcDbLine
 62
7
  6
CONTINUOUS
 10
19682.9745694354
 20
15775.7777533382
 11
19682.9745694354
 21
17276.9122747276
  0
LINE
  5
28E
100
AcDbEntity
  8
0
100
AcDbLine
 62
7
  6
CONTINUOUS
 10
19682.9745694354
 20
157974.8862864235
 11
19682.9745694354
 21
159476.0208078129
  0
LWPOLYLINE
  5
28F
100
AcDbEntity
  8
0
100
AcDbPolyline
 62
7
  6
CONTINUOUS
 90
3
 70
0
 10
113764.8745694324
 20
162431.8992805753
 10
113899.9002174716
 20
162567.2195204122
 10
113957.8745694353
 20
162625.8978561298
  0
LINE
  5
290
100
AcDbEntity
  8
0
100
AcDbLine
 62
7
  6
CONTINUOUS
 10
110307.8743425001
 20
158971.4422521708
 11
112757.8787129839
 21
161425.8992805755
  0
LINE
  5
291
100
AcDbEntity
  8
0
100
AcDbLine
 62
7
  6
CONTINUOUS
 10
112757.8964921087
 20
161425.8992805755
 11
113764.8745694332
 21
162431.8992805753
  0
LINE
  5
292
100
AcDbEntity
  8
0
100
AcDbLine
 62
7
  6
CONTINUOUS
 10
112757.8745694355
 20
13825.8992805756
 11
110907.8745694262
 21
15673.7439864672
  0
LINE
  5
293
100
AcDbEntity
  8
0
100
AcDbLine
 62
7
  6
CONTINUOUS
 10
113764.874569433
 20
12819.8992805758
 11
112757.8745694356
 21
13825.8992805756
  0
LINE
  5
294
100
AcDbEntity
  8
0
100
AcDbLine
 62
7
  6
CONTINUOUS
 10
110907.8745694262
 20
15673.7439864672
 11
110307.8745694353
 21
16274.5769276344
  0
LINE
  5
295
100
AcDbEntity
  8
0
100
AcDbLine
 62
7
  6
CONTINUOUS
 10
60507.9745694354
 20
71125.8992805756
 11
60612.0745078027
 21
71125.8992805756
  0
LINE
  5
296
100
AcDbEntity
  8
0
100
AcDbLine
 62
7
  6
CONTINUOUS
 10
60636.3745694353
 20
71125.8992805756
 11
63107.9745694354
 21
71125.8992805756
  0
LINE
  5
297
100
AcDbEntity
  8
0
100
AcDbLine
 62
7
  6
CONTINUOUS
 10
64807.9745694353
 20
71125.8992805756
 11
67279.5745694354
 21
71125.8992805756
  0
LINE
  5
298
100
AcDbEntity
  8
0
100
AcDbLine
 62
7
  6
CONTINUOUS
 10
67303.8778491839
 20
71125.8992805756
 11
67407.9745694353
 21
71125.8992805756
  0
LINE
  5
299
100
AcDbEntity
  8
0
100
AcDbLine
 62
7
  6
CONTINUOUS
 10
13962.5970811817
 20
71330.8992805756
 11
17057.9745694354
 21
71330.8992805756
  0
LINE
  5
29A
100
AcDbEntity
  8
0
100
AcDbLine
 62
7
  6
CONTINUOUS
 10
110857.8745694353
 20
71330.8992805756
 11
113953.252057689
 21
71330.8992805756
  0
LINE
  5
29B
100
AcDbEntity
  8
0
100
AcDbLine
 62
7
  6
CONTINUOUS
 10
113953.252057689
 20
73920.8992805756
 11
110857.8745694353
 21
73920.8992805756
  0
LINE
  5
29C
100
AcDbEntity
  8
0
100
AcDbLine
 62
7
  6
CONTINUOUS
 10
17057.9745694354
 20
73920.8992805756
 11
13962.5970811817
 21
73920.8992805756
  0
LINE
  5
29D
100
AcDbEntity
  8
0
100
AcDbLine
 62
7
  6
CONTINUOUS
 10
67407.9745694353
 20
74125.8992805755
 11
67303.8778275189
 21
74125.8992805755
  0
LINE
  5
29E
100
AcDbEntity
  8
0
100
AcDbLine
 62
7
  6
CONTINUOUS
 10
67279.5745694354
 20
74125.8992805756
 11
64807.9745694353
 21
74125.8992805756
  0
LINE
  5
29F
100
AcDbEntity
  8
0
100
AcDbLine
 62
7
  6
CONTINUOUS
 10
60612.0745072809
 20
74125.8992805755
 11
60507.9745694354
 21
74125.8992805755
  0
LINE
  5
2A0
100
AcDbEntity
  8
0
100
AcDbLine
 62
7
  6
CONTINUOUS
 10
63107.9745694354
 20
74125.8992805756
 11
60636.3745694353
 21
74125.8992805756
  0
LWPOLYLINE
  5
2A1
100
AcDbEntity
  8
0
100
AcDbPolyline
 62
7
  6
CONTINUOUS
 90
3
 70
0
 10
113957.8745694353
 20
12625.9007050213
 10
113899.5741692663
 20
12684.9072627357
 10
113764.8745694319
 20
12819.8992805758
  0
LINE
  5
2A2
100
AcDbEntity
  8
0
100
AcDbLine
 62
7
  6
CONTINUOUS
 10
62677.0230318891
 20
16447.3994046811
 11
62317.7568313624
 21
20125.8992805756
  0
LINE
  5
2A3
100
AcDbEntity
  8
0
100
AcDbLine
 62
7
  6
CONTINUOUS
 10
58232.9745694353
 20
15775.7777533382
 11
58232.9745694353
 21
17276.9122747276
  0
LINE
  5
2A4
100
AcDbEntity
  8
0
100
AcDbLine
 62
7
  6
CONTINUOUS
 10
58232.9745694354
 20
157974.8862864235
 11
58232.9745694354
 21
159476.0208078129
  0
LINE
  5
2A5
100
AcDbEntity
  8
0
100
AcDbLine
 62
7
  6
CONTINUOUS
 10
62317.6482401722
 20
155125.8992805755
 11
62676.8809819974
 21
158804.3402443828
  0
LINE
  5
2A6
100
AcDbEntity
  8
0
100
AcDbLine
 62
7
  6
CONTINUOUS
 10
63149.5562280528
 20
158962.4711135705
 11
63150.2853537491
 21
158802.4992805755
  0
LINE
  5
2A7
100
AcDbEntity
  8
0
100
AcDbLine
 62
7
  6
CONTINUOUS
 10
64766.1930005738
 20
16289.307754924
 11
64765.4637851217
 21
16449.2992805756
  0
LINE
  5
2A8
100
AcDbEntity
  8
0
100
AcDbLine
 62
7
  6
CONTINUOUS
 10
59274.7081875521
 20
155119.2992805755
 11
59273.8533013984
 21
157002.4689170744
  0
LINE
  5
2A9
100
AcDbEntity
  8
0
100
AcDbLine
 62
7
  6
CONTINUOUS
 10
63151.9472967081
 20
155119.2992805755
 11
63150.2853537491
 21
158802.4992805755
  0
LINE
  5
2AA
100
AcDbEntity
  8
0
100
AcDbLine
 62
7
  6
CONTINUOUS
 10
64763.8018421626
 20
20132.4992805755
 11
64765.4637851216
 21
16449.2992805731
  0
LINE
  5
2AB
100
AcDbEntity
  8
0
100
AcDbLine
 62
7
  6
CONTINUOUS
 10
59264.9745694354
 20
20125.8992805756
 11
59264.9745694354
 21
155125.8992805755
  0
LINE
  5
2AC
100
AcDbEntity
  8
0
100
AcDbLine
 62
7
  6
CONTINUOUS
 10
59307.9745694354
 20
156900.8992805755
 11
59307.9745694354
 21
155125.8992805755
  0
LINE
  5
2AD
100
AcDbEntity
  8
0
100
AcDbLine
 62
7
  6
CONTINUOUS
 10
59307.9745694354
 20
20125.8992805756
 11
59307.9745694354
 21
18350.8992805756
  0
LINE
  5
2AE
100
AcDbEntity
  8
0
100
AcDbLine
 62
7
  6
CONTINUOUS
 10
59307.9745694354
 20
20154.7913429493
 11
59307.9745694354
 21
155097.0072182018
  0
LINE
  5
2AF
100
AcDbEntity
  8
0
100
AcDbLine
 62
7
  6
CONTINUOUS
 10
59457.9728282589
 20
155082.1992805756
 11
59457.9728282589
 21
20169.5992805756
  0
LINE
  5
2B0
100
AcDbEntity
  8
0
100
AcDbLine
 62
7
  6
CONTINUOUS
 10
59457.9745694354
 20
156900.8992805755
 11
59457.9745694354
 21
155125.8992805755
  0
LINE
  5
2B1
100
AcDbEntity
  8
0
100
AcDbLine
 62
7
  6
CONTINUOUS
 10
59457.9745694354
 20
20125.8992805756
 11
59457.9745694354
 21
18350.8992805756
  0
LINE
  5
2B2
100
AcDbEntity
  8
0
100
AcDbLine
 62
7
  6
CONTINUOUS
 10
59737.9745694353
 20
156900.8992805755
 11
59737.9745694353
 21
155125.8992805755
  0
LINE
  5
2B3
100
AcDbEntity
  8
0
100
AcDbLine
 62
7
  6
CONTINUOUS
 10
59737.9745694353
 20
20125.8992805756
 11
59737.9745694353
 21
18350.8992805756
  0
LINE
  5
2B4
100
AcDbEntity
  8
0
100
AcDbLine
 62
7
  6
CONTINUOUS
 10
59737.9850384876
 20
20169.5992805756
 11
59737.9850384876
 21
155082.1992805756
  0
LINE
  5
2B5
100
AcDbEntity
  8
0
100
AcDbLine
 62
7
  6
CONTINUOUS
 10
59780.9745694352
 20
156900.8992805755
 11
59780.9745694352
 21
155125.8992805755
  0
LINE
  5
2B6
100
AcDbEntity
  8
0
100
AcDbLine
 62
7
  6
CONTINUOUS
 10
59780.9745694352
 20
20125.8992805756
 11
59780.9745694352
 21
18350.8992805756
  0
LINE
  5
2B7
100
AcDbEntity
  8
0
100
AcDbLine
 62
7
  6
CONTINUOUS
 10
59781.2745694354
 20
20155.1886375809
 11
59781.2745694354
 21
155096.6099235703
  0
LINE
  5
2B8
100
AcDbEntity
  8
0
100
AcDbLine
 62
7
  6
CONTINUOUS
 10
59804.9745694355
 20
18350.8992805756
 11
59804.9745694355
 21
20125.8992805756
  0
LINE
  5
2B9
100
AcDbEntity
  8
0
100
AcDbLine
 62
7
  6
CONTINUOUS
 10
59804.9745694355
 20
155125.8992805755
 11
59804.9745694355
 21
156900.8992805755
  0
LINE
  5
2BA
100
AcDbEntity
  8
0
100
AcDbLine
 62
7
  6
CONTINUOUS
 10
60115.0668800513
 20
156900.8992805755
 11
60115.0668800513
 21
155125.8992805755
  0
LINE
  5
2BB
100
AcDbEntity
  8
0
100
AcDbLine
 62
7
  6
CONTINUOUS
 10
60115.0668800513
 20
20125.8992805756
 11
60115.0668800513
 21
18350.8992805756
  0
LINE
  5
2BC
100
AcDbEntity
  8
0
100
AcDbLine
 62
7
  6
CONTINUOUS
 10
60307.9745694354
 20
16758.8007085589
 11
60307.9745694354
 21
16274.5769276338
  0
LINE
  5
2BD
100
AcDbEntity
  8
0
100
AcDbLine
 62
7
  6
CONTINUOUS
 10
60307.9745694354
 20
16775.5025569688
 11
60307.9745694354
 21
20125.8992805756
  0
LINE
  5
2BE
100
AcDbEntity
  8
0
100
AcDbLine
 62
7
  6
CONTINUOUS
 10
60307.9745694354
 20
155125.8992805755
 11
60307.9743425001
 21
158971.4422521708
  0
LINE
  5
2BF
100
AcDbEntity
  8
0
100
AcDbLine
 62
7
  6
CONTINUOUS
 10
60418.2745694353
 20
155097.3958002318
 11
60418.2745694353
 21
20154.4027609193
  0
LINE
  5
2C0
100
AcDbEntity
  8
0
100
AcDbLine
 62
7
  6
CONTINUOUS
 10
60507.9745694354
 20
21125.8992805756
 11
60507.9745694354
 21
24125.8992805756
  0
LINE
  5
2C1
100
AcDbEntity
  8
0
100
AcDbLine
 62
7
  6
CONTINUOUS
 10
60507.9745694354
 20
71125.8992805756
 11
60507.9745694354
 21
74125.8992805756
  0
LINE
  5
2C2
100
AcDbEntity
  8
0
100
AcDbLine
 62
7
  6
CONTINUOUS
 10
60507.9745694354
 20
101125.8992805756
 11
60507.9745694354
 21
104125.8992805756
  0
LINE
  5
2C3
100
AcDbEntity
  8
0
100
AcDbLine
 62
7
  6
CONTINUOUS
 10
60507.9745694354
 20
151125.8992805756
 11
60507.9745694354
 21
154125.8992805755
  0
LINE
  5
2C4
100
AcDbEntity
  8
0
100
AcDbLine
 62
7
  6
CONTINUOUS
 10
60612.0745694353
 20
20150.9194628122
 11
60612.0745694353
 21
21125.8992805756
  0
LINE
  5
2C5
100
AcDbEntity
  8
0
100
AcDbLine
 62
7
  6
CONTINUOUS
 10
60612.0745694353
 20
24125.8992805756
 11
60612.0745694353
 21
71125.8992805756
  0
LINE
  5
2C6
100
AcDbEntity
  8
0
100
AcDbLine
 62
7
  6
CONTINUOUS
 10
60612.0745694353
 20
74125.8992805756
 11
60612.0745694353
 21
101125.8992805756
  0
LINE
  5
2C7
100
AcDbEntity
  8
0
100
AcDbLine
 62
7
  6
CONTINUOUS
 10
60612.0745694353
 20
104125.8992805756
 11
60612.0745694353
 21
151125.8992805756
  0
LINE
  5
2C8
100
AcDbEntity
  8
0
100
AcDbLine
 62
7
  6
CONTINUOUS
 10
60612.0745694353
 20
154125.8992805755
 11
60612.0745694353
 21
155100.8790983389
  0
LINE
  5
2C9
100
AcDbEntity
  8
0
100
AcDbLine
 62
7
  6
CONTINUOUS
 10
60636.3745694353
 20
20137.7372966387
 11
60636.3745694353
 21
21125.8992805756
  0
LINE
  5
2CA
100
AcDbEntity
  8
0
100
AcDbLine
 62
7
  6
CONTINUOUS
 10
60636.3745694353
 20
24125.8992805756
 11
60636.3745694353
 21
71125.8992805756
  0
LINE
  5
2CB
100
AcDbEntity
  8
0
100
AcDbLine
 62
7
  6
CONTINUOUS
 10
60636.3745694353
 20
74125.8992805756
 11
60636.3745694353
 21
101125.8992805756
  0
LINE
  5
2CC
100
AcDbEntity
  8
0
100
AcDbLine
 62
7
  6
CONTINUOUS
 10
60636.3745694353
 20
104125.8992805756
 11
60636.3745694353
 21
151125.8992805756
  0
LINE
  5
2CD
100
AcDbEntity
  8
0
100
AcDbLine
 62
7
  6
CONTINUOUS
 10
60636.3745694353
 20
154125.8992805755
 11
60636.3745694353
 21
155114.0612645124
  0
LINE
  5
2CE
100
AcDbEntity
  8
0
100
AcDbLine
 62
7
  6
CONTINUOUS
 10
62757.8317232494
 20
158885.2889632858
 11
62757.8317232494
 21
161425.8949075829
  0
LINE
  5
2CF
100
AcDbEntity
  8
0
100
AcDbLine
 62
7
  6
CONTINUOUS
 10
62757.9745694354
 20
16366.5052331689
 11
62757.9745694354
 21
13825.8992805758
  0
LINE
  5
2D0
100
AcDbEntity
  8
0
100
AcDbLine
 62
7
  6
CONTINUOUS
 10
62757.9745694354
 20
16367.0723156849
 11
62757.9745694354
 21
21125.8992805756
  0
LINE
  5
2D1
100
AcDbEntity
  8
0
100
AcDbLine
 62
7
  6
CONTINUOUS
 10
62757.9745694354
 20
24125.8992805756
 11
62757.9745694354
 21
71125.8992805756
  0
LINE
  5
2D2
100
AcDbEntity
  8
0
100
AcDbLine
 62
7
  6
CONTINUOUS
 10
62757.9745694354
 20
74125.8992805756
 11
62757.9745694354
 21
101125.8992805756
  0
LINE
  5
2D3
100
AcDbEntity
  8
0
100
AcDbLine
 62
7
  6
CONTINUOUS
 10
62757.9745694354
 20
104125.8992805756
 11
62757.9745694354
 21
151125.8992805756
  0
LINE
  5
2D4
100
AcDbEntity
  8
0
100
AcDbLine
 62
7
  6
CONTINUOUS
 10
62757.9745694354
 20
154125.8992805755
 11
62757.9745694354
 21
158884.726245466
  0
LINE
  5
2D5
100
AcDbEntity
  8
0
100
AcDbLine
 62
7
  6
CONTINUOUS
 10
63107.9745694354
 20
21125.8992805756
 11
63107.9745694354
 21
24125.8992805756
  0
LINE
  5
2D6
100
AcDbEntity
  8
0
100
AcDbLine
 62
7
  6
CONTINUOUS
 10
63107.9745694354
 20
71125.8992805756
 11
63107.9745694354
 21
74125.8992805756
  0
LINE
  5
2D7
100
AcDbEntity
  8
0
100
AcDbLine
 62
7
  6
CONTINUOUS
 10
63107.9745694354
 20
101125.8992805756
 11
63107.9745694354
 21
104125.8992805756
  0
LINE
  5
2D8
100
AcDbEntity
  8
0
100
AcDbLine
 62
7
  6
CONTINUOUS
 10
63107.9745694354
 20
151125.8992805756
 11
63107.9745694354
 21
154125.8992805755
  0
LINE
  5
2D9
100
AcDbEntity
  8
0
100
AcDbLine
 62
7
  6
CONTINUOUS
 10
63149.5745694353
 20
16289.325836755
 11
63149.5745694353
 21
20135.6584699043
  0
LINE
  5
2DA
100
AcDbEntity
  8
0
100
AcDbLine
 62
7
  6
CONTINUOUS
 10
63149.5745694353
 20
155116.1400912467
 11
63149.5745694353
 21
158962.4700866576
  0
LINE
  5
2DB
100
AcDbEntity
  8
0
100
AcDbLine
 62
7
  6
CONTINUOUS
 10
63156.6745694353
 20
20135.6584699043
 11
63156.6745694353
 21
155116.1400912467
  0
LINE
  5
2DC
100
AcDbEntity
  8
0
100
AcDbLine
 62
7
  6
CONTINUOUS
 10
63206.6745694354
 20
20136.5070772972
 11
63206.6745694354
 21
155115.2914838539
  0
LINE
  5
2DD
100
AcDbEntity
  8
0
100
AcDbLine
 62
7
  6
CONTINUOUS
 10
63764.9745694354
 20
162431.8992805774
 11
63764.9745694354
 21
158405.8992805755
  0
LINE
  5
2DE
100
AcDbEntity
  8
0
100
AcDbLine
 62
7
  6
CONTINUOUS
 10
63764.9745694354
 20
16241.747079542
 11
63764.9745694354
 21
12819.8992805734
  0
LINE
  5
2DF
100
AcDbEntity
  8
0
100
AcDbLine
 62
7
  6
CONTINUOUS
 10
63957.9245694354
 20
16241.747079542
 11
63957.9245694354
 21
12625.9776699199
  0
LINE
  5
2E0
100
AcDbEntity
  8
0
100
AcDbLine
 62
7
  6
CONTINUOUS
 10
63957.8866827866
 20
162625.8976825696
 11
63957.9133973222
 21
159010.0514816092
  0
LINE
  5
2E1
100
AcDbEntity
  8
0
100
AcDbLine
 62
7
  6
CONTINUOUS
 10
64150.8745694353
 20
12819.8992805737
 11
64150.8745694353
 21
16241.747079542
  0
LINE
  5
2E2
100
AcDbEntity
  8
0
100
AcDbLine
 62
7
  6
CONTINUOUS
 10
64150.8745694353
 20
158405.8992805755
 11
64150.8745694353
 21
162431.8992805778
  0
LINE
  5
2E3
100
AcDbEntity
  8
0
100
AcDbLine
 62
7
  6
CONTINUOUS
 10
64709.0745694354
 20
155115.2914838539
 11
64709.0745694354
 21
20136.5070772972
  0
LINE
  5
2E4
100
AcDbEntity
  8
0
100
AcDbLine
 62
7
  6
CONTINUOUS
 10
64759.0745694354
 20
155116.1400912468
 11
64759.0745694354
 21
20135.6584699044
  0
LINE
  5
2E5
100
AcDbEntity
  8
0
100
AcDbLine
 62
7
  6
CONTINUOUS
 10
59273.8533013984
 20
18249.3296440767
 11
59274.7081875521
 21
20132.4992805756
  0
LINE
  5
2E6
100
AcDbEntity
  8
0
100
AcDbLine
 62
7
  6
CONTINUOUS
 10
63150.2853537491
 20
16449.2992805734
 11
63151.9472967081
 21
20132.4992805756
  0
LINE
  5
2E7
100
AcDbEntity
  8
0
100
AcDbLine
 62
7
  6
CONTINUOUS
 10
64765.4637851216
 20
158802.4992805756
 11
64763.8018421627
 21
155119.2992805755
  0
LINE
  5
2E8
100
AcDbEntity
  8
0
100
AcDbLine
 62
7
  6
CONTINUOUS
 10
63150.2853537491
 20
16449.2992805756
 11
63149.5562160274
 21
16289.3248091913
  0
LINE
  5
2E9
100
AcDbEntity
  8
0
100
AcDbLine
 62
7
  6
CONTINUOUS
 10
64765.4637851216
 20
158802.4992805755
 11
64766.1775184949
 21
158959.0940029641
  0
LINE
  5
2EA
100
AcDbEntity
  8
0
100
AcDbLine
 62
7
  6
CONTINUOUS
 10
68641.1932233676
 20
20132.4992805758
 11
68642.0469543141
 21
18249.172322614
  0
LINE
  5
2EB
100
AcDbEntity
  8
0
100
AcDbLine
 62
7
  6
CONTINUOUS
 10
64766.1745694354
 20
16293.3515885389
 11
64766.1745694354
 21
20135.6584699044
  0
LINE
  5
2EC
100
AcDbEntity
  8
0
100
AcDbLine
 62
7
  6
CONTINUOUS
 10
64766.1745694354
 20
155116.1400912468
 11
64766.1745694354
 21
158958.4469726091
  0
LINE
  5
2ED
100
AcDbEntity
  8
0
100
AcDbLine
 62
7
  6
CONTINUOUS
 10
64807.9745694353
 20
154125.8992805755
 11
64807.9745694353
 21
151125.8992805756
  0
LINE
  5
2EE
100
AcDbEntity
  8
0
100
AcDbLine
 62
7
  6
CONTINUOUS
 10
64807.9745694353
 20
104125.8992805756
 11
64807.9745694353
 21
101125.8992805756
  0
LINE
  5
2EF
100
AcDbEntity
  8
0
100
AcDbLine
 62
7
  6
CONTINUOUS
 10
64807.9745694353
 20
74125.8992805756
 11
64807.9745694353
 21
71125.8992805756
  0
LINE
  5
2F0
100
AcDbEntity
  8
0
100
AcDbLine
 62
7
  6
CONTINUOUS
 10
64807.9745694353
 20
24125.8992805756
 11
64807.9745694353
 21
21125.8992805756
  0
LINE
  5
2F1
100
AcDbEntity
  8
0
100
AcDbLine
 62
7
  6
CONTINUOUS
 10
64838.2265278531
 20
158405.8992805755
 11
64838.2265278531
 21
158944.8932018343
  0
LINE
  5
2F2
100
AcDbEntity
  8
0
100
AcDbLine
 62
7
  6
CONTINUOUS
 10
65157.8747909464
 20
13825.9036535683
 11
65158.0745694354
 21
21125.8992805756
  0
LINE
  5
2F3
100
AcDbEntity
  8
0
100
AcDbLine
 62
7
  6
CONTINUOUS
 10
65158.0745694354
 20
24125.8992805756
 11
65158.0745694354
 21
71125.8992805756
  0
LINE
  5
2F4
100
AcDbEntity
  8
0
100
AcDbLine
 62
7
  6
CONTINUOUS
 10
65158.0745694354
 20
74125.8992805756
 11
65158.0745694354
 21
101125.8992805756
  0
LINE
  5
2F5
100
AcDbEntity
  8
0
100
AcDbLine
 62
7
  6
CONTINUOUS
 10
65158.0745694354
 20
104125.8992805756
 11
65158.0745694354
 21
151125.8992805756
  0
LINE
  5
2F6
100
AcDbEntity
  8
0
100
AcDbLine
 62
7
  6
CONTINUOUS
 10
65158.0745694354
 20
154125.8992805755
 11
65157.8745694353
 21
161425.8992805753
  0
LINE
  5
2F7
100
AcDbEntity
  8
0
100
AcDbLine
 62
7
  6
CONTINUOUS
 10
67279.5745694354
 20
20137.7250989965
 11
67279.5745694354
 21
21125.8992805756
  0
LINE
  5
2F8
100
AcDbEntity
  8
0
100
AcDbLine
 62
7
  6
CONTINUOUS
 10
67279.5745694354
 20
24125.8992805756
 11
67279.5745694354
 21
71125.8992805756
  0
LINE
  5
2F9
100
AcDbEntity
  8
0
100
AcDbLine
 62
7
  6
CONTINUOUS
 10
67279.5745694354
 20
74125.8992805756
 11
67279.5745694354
 21
101125.8992805756
  0
LINE
  5
2FA
100
AcDbEntity
  8
0
100
AcDbLine
 62
7
  6
CONTINUOUS
 10
67279.5745694354
 20
104125.8992805756
 11
67279.5745694354
 21
151125.8992805756
  0
LINE
  5
2FB
100
AcDbEntity
  8
0
100
AcDbLine
 62
7
  6
CONTINUOUS
 10
67279.5745694354
 20
154125.8992805755
 11
67279.5745694354
 21
155114.0734621546
  0
LINE
  5
2FC
100
AcDbEntity
  8
0
100
AcDbLine
 62
7
  6
CONTINUOUS
 10
67303.8745694353
 20
155100.8912959811
 11
67303.8745694353
 21
154125.8992805755
  0
LINE
  5
2FD
100
AcDbEntity
  8
0
100
AcDbLine
 62
7
  6
CONTINUOUS
 10
67303.8745694353
 20
151125.8992805756
 11
67303.8745694353
 21
104125.8992805756
  0
LINE
  5
2FE
100
AcDbEntity
  8
0
100
AcDbLine
 62
7
  6
CONTINUOUS
 10
67303.8745694353
 20
101125.8992805756
 11
67303.8745694353
 21
74125.8992805756
  0
LINE
  5
2FF
100
AcDbEntity
  8
0
100
AcDbLine
 62
7
  6
CONTINUOUS
 10
67303.8745694353
 20
71125.8992805756
 11
67303.8745694353
 21
24125.8992805756
  0
LINE
  5
300
100
AcDbEntity
  8
0
100
AcDbLine
 62
7
  6
CONTINUOUS
 10
67303.8745694353
 20
21125.8992805756
 11
67303.8745694353
 21
20150.90726517
  0
LINE
  5
301
100
AcDbEntity
  8
0
100
AcDbLine
 62
7
  6
CONTINUOUS
 10
67407.9745694353
 20
154125.8992805755
 11
67407.9745694353
 21
151125.8992805756
  0
LINE
  5
302
100
AcDbEntity
  8
0
100
AcDbLine
 62
7
  6
CONTINUOUS
 10
67407.9745694353
 20
104125.8992805756
 11
67407.9745694353
 21
101125.8992805756
  0
LINE
  5
303
100
AcDbEntity
  8
0
100
AcDbLine
 62
7
  6
CONTINUOUS
 10
67407.9745694353
 20
74125.8992805756
 11
67407.9745694353
 21
71125.8992805756
  0
LINE
  5
304
100
AcDbEntity
  8
0
100
AcDbLine
 62
7
  6
CONTINUOUS
 10
67407.9745694353
 20
24125.8992805756
 11
67407.9745694353
 21
21125.8992805756
  0
LINE
  5
305
100
AcDbEntity
  8
0
100
AcDbLine
 62
7
  6
CONTINUOUS
 10
67497.5745694354
 20
20154.3905632772
 11
67497.5745694354
 21
155097.4079978739
  0
LINE
  5
306
100
AcDbEntity
  8
0
100
AcDbLine
 62
7
  6
CONTINUOUS
 10
67607.8745694353
 20
158425.7200662751
 11
67607.8745694353
 21
155125.8992805755
  0
LINE
  5
307
100
AcDbEntity
  8
0
100
AcDbLine
 62
7
  6
CONTINUOUS
 10
67607.8745694353
 20
16280.3563089803
 11
67607.8745694353
 21
20125.8992805756
  0
LINE
  5
308
100
AcDbEntity
  8
0
100
AcDbLine
 62
7
  6
CONTINUOUS
 10
67607.8745694353
 20
158492.9978525921
 11
67607.8745694353
 21
158977.2216335173
  0
LINE
  5
309
100
AcDbEntity
  8
0
100
AcDbLine
 62
7
  6
CONTINUOUS
 10
67800.7824972302
 20
18350.8992805755
 11
67800.7824972302
 21
20125.8992805756
  0
LINE
  5
30A
100
AcDbEntity
  8
0
100
AcDbLine
 62
7
  6
CONTINUOUS
 10
67800.7824972302
 20
155125.8992805755
 11
67800.7824972302
 21
156900.8992805755
  0
LINE
  5
30B
100
AcDbEntity
  8
0
100
AcDbLine
 62
7
  6
CONTINUOUS
 10
68110.4745694353
 20
155097.0211583643
 11
68110.4745694353
 21
20154.7774027868
  0
LINE
  5
30C
100
AcDbEntity
  8
0
100
AcDbLine
 62
7
  6
CONTINUOUS
 10
68110.8748079848
 20
156900.8992805755
 11
68110.8748079848
 21
155125.8992805755
  0
LINE
  5
30D
100
AcDbEntity
  8
0
100
AcDbLine
 62
7
  6
CONTINUOUS
 10
68110.8748079848
 20
20125.8992805756
 11
68110.8748079848
 21
18350.8992805756
  0
LINE
  5
30E
100
AcDbEntity
  8
0
100
AcDbLine
 62
7
  6
CONTINUOUS
 10
68134.5745694354
 20
20155.188637581
 11
68134.5745694354
 21
155096.6099235702
  0
LINE
  5
30F
100
AcDbEntity
  8
0
100
AcDbLine
 62
7
  6
CONTINUOUS
 10
68134.8748082861
 20
18350.8992805756
 11
68134.8748082861
 21
20125.8992805756
  0
LINE
  5
310
100
AcDbEntity
  8
0
100
AcDbLine
 62
7
  6
CONTINUOUS
 10
68134.8748082861
 20
155125.8992805755
 11
68134.8748082861
 21
156900.8992805755
  0
LINE
  5
311
100
AcDbEntity
  8
0
100
AcDbLine
 62
7
  6
CONTINUOUS
 10
68177.8641003832
 20
155082.1992805756
 11
68177.8641003832
 21
20169.5992805756
  0
LINE
  5
312
100
AcDbEntity
  8
0
100
AcDbLine
 62
7
  6
CONTINUOUS
 10
68177.8748186698
 20
156900.8992805755
 11
68177.8748186698
 21
155125.8992805755
  0
LINE
  5
313
100
AcDbEntity
  8
0
100
AcDbLine
 62
7
  6
CONTINUOUS
 10
68177.8748186698
 20
20125.8992805756
 11
68177.8748186698
 21
18350.8992805756
  0
LINE
  5
314
100
AcDbEntity
  8
0
100
AcDbLine
 62
7
  6
CONTINUOUS
 10
68257.90314086
 20
20169.5992805756
 11
68257.9031408629
 21
155082.1992805756
  0
LINE
  5
315
100
AcDbEntity
  8
0
100
AcDbLine
 62
7
  6
CONTINUOUS
 10
68457.8748186697
 20
156900.8992805755
 11
68457.8748186697
 21
155125.8992805755
  0
LINE
  5
316
100
AcDbEntity
  8
0
100
AcDbLine
 62
7
  6
CONTINUOUS
 10
68457.8748186697
 20
20125.8992805756
 11
68457.8748186697
 21
18350.8992805756
  0
LINE
  5
317
100
AcDbEntity
  8
0
100
AcDbLine
 62
7
  6
CONTINUOUS
 10
68457.9745694353
 20
20169.590567974
 11
68457.9745694353
 21
155082.2079931771
  0
LINE
  5
318
100
AcDbEntity
  8
0
100
AcDbLine
 62
7
  6
CONTINUOUS
 10
68482.8748079972
 20
156900.8992805755
 11
68482.8748079972
 21
155125.8992805755
  0
LINE
  5
319
100
AcDbEntity
  8
0
100
AcDbLine
 62
7
  6
CONTINUOUS
 10
68482.8748079972
 20
20125.8992805756
 11
68482.8748079972
 21
18350.8992805756
  0
LINE
  5
31A
100
AcDbEntity
  8
0
100
AcDbLine
 62
7
  6
CONTINUOUS
 10
68607.8748079972
 20
156900.8992805755
 11
68607.8748079972
 21
155125.8992805755
  0
LINE
  5
31B
100
AcDbEntity
  8
0
100
AcDbLine
 62
7
  6
CONTINUOUS
 10
68607.8748079972
 20
20125.8992805756
 11
68607.8748079972
 21
18350.8992805756
  0
LINE
  5
31C
100
AcDbEntity
  8
0
100
AcDbLine
 62
7
  6
CONTINUOUS
 10
68607.9745694354
 20
20154.7913429494
 11
68607.9745694354
 21
155097.0072182017
  0
LINE
  5
31D
100
AcDbEntity
  8
0
100
AcDbLine
 62
7
  6
CONTINUOUS
 10
68650.9745694353
 20
155125.8992805755
 11
68650.9745694353
 21
20125.8992805755
  0
LINE
  5
31E
100
AcDbEntity
  8
0
100
AcDbLine
 62
7
  6
CONTINUOUS
 10
69682.8745694353
 20
15775.7777533382
 11
69682.8745694353
 21
17276.9122747276
  0
LINE
  5
31F
100
AcDbEntity
  8
0
100
AcDbLine
 62
7
  6
CONTINUOUS
 10
69682.8745694354
 20
157974.8862864235
 11
69682.8745694354
 21
159476.0208078129
  0
LINE
  5
320
100
AcDbEntity
  8
0
100
AcDbLine
 62
7
  6
CONTINUOUS
 10
68642.0469543142
 20
157002.6262385372
 11
68641.1932233676
 21
155119.2992805755
  0
LINE
  5
321
100
AcDbEntity
  8
0
100
AcDbLine
 62
7
  6
CONTINUOUS
 10
65279.9706525221
 20
158405.8992805755
 11
65604.6963232254
 21
155125.8992805755
  0
LINE
  5
322
100
AcDbEntity
  8
0
100
AcDbLine
 62
7
  6
CONTINUOUS
 10
65604.6822870996
 20
20125.8992805756
 11
65240.6713578921
 21
16449.2992805756
  0
LWPOLYLINE
  5
323
100
AcDbEntity
  8
0
100
AcDbPolyline
 62
7
  6
CONTINUOUS
 90
3
 70
0
 10
14150.9745694383
 20
12819.8992805758
 10
14015.9489214001
 20
12684.57904074
 10
13957.9745694354
 20
12625.9007050213
  0
LINE
  5
324
100
AcDbEntity
  8
0
100
AcDbLine
 62
7
  6
CONTINUOUS
 10
17607.9747963704
 20
16280.3563089802
 11
15157.9704258868
 21
13825.8992805756
  0
LINE
  5
325
100
AcDbEntity
  8
0
100
AcDbLine
 62
7
  6
CONTINUOUS
 10
15157.952646762
 20
13825.8992805756
 11
14150.9745694375
 21
12819.8992805758
  0
LINE
  5
326
100
AcDbEntity
  8
0
100
AcDbLine
 62
7
  6
CONTINUOUS
 10
60507.9745694354
 20
101125.8992805756
 11
60612.0745078027
 21
101125.8992805756
  0
LINE
  5
327
100
AcDbEntity
  8
0
100
AcDbLine
 62
7
  6
CONTINUOUS
 10
60636.3745694353
 20
101125.8992805756
 11
63107.9745694354
 21
101125.8992805756
  0
LINE
  5
328
100
AcDbEntity
  8
0
100
AcDbLine
 62
7
  6
CONTINUOUS
 10
64807.9745694353
 20
101125.8992805756
 11
67279.5745694354
 21
101125.8992805756
  0
LINE
  5
329
100
AcDbEntity
  8
0
100
AcDbLine
 62
7
  6
CONTINUOUS
 10
67303.8778491839
 20
101125.8992805756
 11
67407.9745694353
 21
101125.8992805756
  0
LINE
  5
32A
100
AcDbEntity
  8
0
100
AcDbLine
 62
7
  6
CONTINUOUS
 10
13962.5970811817
 20
101330.8992805755
 11
17057.9745694354
 21
101330.8992805756
  0
LINE
  5
32B
100
AcDbEntity
  8
0
100
AcDbLine
 62
7
  6
CONTINUOUS
 10
110857.8745694353
 20
101330.8992805756
 11
113953.252057689
 21
101330.8992805755
  0
LINE
  5
32C
100
AcDbEntity
  8
0
100
AcDbLine
 62
7
  6
CONTINUOUS
 10
113953.252057689
 20
103920.8992805756
 11
110857.8745694353
 21
103920.8992805756
  0
LINE
  5
32D
100
AcDbEntity
  8
0
100
AcDbLine
 62
7
  6
CONTINUOUS
 10
17057.9745694354
 20
103920.8992805756
 11
13962.5970811817
 21
103920.8992805756
  0
LINE
  5
32E
100
AcDbEntity
  8
0
100
AcDbLine
 62
7
  6
CONTINUOUS
 10
67407.9745694353
 20
104125.8992805756
 11
67303.8778275189
 21
104125.8992805756
  0
LINE
  5
32F
100
AcDbEntity
  8
0
100
AcDbLine
 62
7
  6
CONTINUOUS
 10
67279.5745694354
 20
104125.8992805756
 11
64807.9745694353
 21
104125.8992805756
  0
LINE
  5
330
100
AcDbEntity
  8
0
100
AcDbLine
 62
7
  6
CONTINUOUS
 10
60612.0745072809
 20
104125.8992805756
 11
60507.9745694354
 21
104125.8992805756
  0
LINE
  5
331
100
AcDbEntity
  8
0
100
AcDbLine
 62
7
  6
CONTINUOUS
 10
63107.9745694354
 20
104125.8992805756
 11
60636.3745694353
 21
104125.8992805756
  0
LINE
  5
332
100
AcDbEntity
  8
0
100
AcDbLine
 62
7
  6
CONTINUOUS
 10
14150.9745694377
 20
162431.8992805753
 11
15157.9745694351
 21
161425.8992805755
  0
LINE
  5
333
100
AcDbEntity
  8
0
100
AcDbLine
 62
7
  6
CONTINUOUS
 10
15158.116982738
 20
161425.8992805754
 11
17607.9745694354
 21
158977.2216335167
  0
LWPOLYLINE
  5
334
100
AcDbEntity
  8
0
100
AcDbPolyline
 62
7
  6
CONTINUOUS
 90
3
 70
0
 10
13957.9745694354
 20
162625.8978561298
 10
14016.2749696076
 20
162566.8912984121
 10
14150.9745694382
 20
162431.8992805753
  0
LINE
  5
335
100
AcDbEntity
  8
0
100
AcDbLine
 62
7
  6
CONTINUOUS
 10
108232.8745694353
 20
15775.7777533382
 11
108232.8745694353
 21
17276.9122747276
  0
LINE
  5
336
100
AcDbEntity
  8
0
100
AcDbLine
 62
7
  6
CONTINUOUS
 10
108232.8745694353
 20
157974.8862864235
 11
108232.8745694353
 21
159476.0208078129
  0
LINE
  5
337
100
AcDbEntity
  8
0
100
AcDbLine
 62
7
  6
CONTINUOUS
 10
109307.8745694354
 20
156900.8992805755
 11
109307.8745694354
 21
18350.8992805756
  0
LINE
  5
338
100
AcDbEntity
  8
0
100
AcDbLine
 62
7
  6
CONTINUOUS
 10
109457.8745694355
 20
156900.8992805755
 11
109457.8745694355
 21
18350.8992805756
  0
LINE
  5
339
100
AcDbEntity
  8
0
100
AcDbLine
 62
7
  6
CONTINUOUS
 10
109737.8745694353
 20
156900.8992805755
 11
109737.8745694353
 21
18350.8992805756
  0
LINE
  5
33A
100
AcDbEntity
  8
0
100
AcDbLine
 62
7
  6
CONTINUOUS
 10
109780.8745694353
 20
156900.8992805755
 11
109780.8745694353
 21
18350.8992805756
  0
LINE
  5
33B
100
AcDbEntity
  8
0
100
AcDbLine
 62
7
  6
CONTINUOUS
 10
109804.8745694354
 20
18350.8992805756
 11
109804.8745694354
 21
156900.8992805755
  0
LINE
  5
33C
100
AcDbEntity
  8
0
100
AcDbLine
 62
7
  6
CONTINUOUS
 10
110114.9668800512
 20
156900.8992805755
 11
110114.9668800512
 21
18350.8992805756
  0
LINE
  5
33D
100
AcDbEntity
  8
0
100
AcDbLine
 62
7
  6
CONTINUOUS
 10
110307.8745694353
 20
16758.8007085589
 11
110307.8745694353
 21
16274.5769276338
  0
LINE
  5
33E
100
AcDbEntity
  8
0
100
AcDbLine
 62
7
  6
CONTINUOUS
 10
110307.8745694354
 20
16775.5025569688
 11
110307.8743425001
 21
158971.4422521708
  0
LINE
  5
33F
100
AcDbEntity
  8
0
100
AcDbLine
 62
7
  6
CONTINUOUS
 10
110857.8745694353
 20
153920.8992805756
 11
110857.8745694353
 21
151330.8992805755
  0
LINE
  5
340
100
AcDbEntity
  8
0
100
AcDbLine
 62
7
  6
CONTINUOUS
 10
110857.8745694353
 20
103920.8992805756
 11
110857.8745694353
 21
101330.8992805756
  0
LINE
  5
341
100
AcDbEntity
  8
0
100
AcDbLine
 62
7
  6
CONTINUOUS
 10
110857.8745694353
 20
73920.8992805756
 11
110857.8745694353
 21
71330.8992805756
  0
LINE
  5
342
100
AcDbEntity
  8
0
100
AcDbLine
 62
7
  6
CONTINUOUS
 10
110857.8745694353
 20
23920.8992805756
 11
110857.8745694353
 21
21330.8992805756
  0
LINE
  5
343
100
AcDbEntity
  8
0
100
AcDbLine
 62
7
  6
CONTINUOUS
 10
112757.8745694353
 20
151330.8992805755
 11
112757.8745694353
 21
103920.8992805756
  0
LINE
  5
344
100
AcDbEntity
  8
0
100
AcDbLine
 62
7
  6
CONTINUOUS
 10
112757.8745694353
 20
101330.8992805755
 11
112757.8745694353
 21
73920.8992805756
  0
LINE
  5
345
100
AcDbEntity
  8
0
100
AcDbLine
 62
7
  6
CONTINUOUS
 10
112757.8745694353
 20
71330.8992805756
 11
112757.8745694353
 21
23920.8992805756
  0
LINE
  5
346
100
AcDbEntity
  8
0
100
AcDbLine
 62
7
  6
CONTINUOUS
 10
112757.8745694353
 20
21330.8992805755
 11
112757.8745694353
 21
13825.8992805758
  0
LINE
  5
347
100
AcDbEntity
  8
0
100
AcDbLine
 62
7
  6
CONTINUOUS
 10
112757.8745694353
 20
153920.8992805756
 11
112757.8743479242
 21
161425.8949075828
  0
LINE
  5
348
100
AcDbEntity
  8
0
100
AcDbLine
 62
7
  6
CONTINUOUS
 10
113953.2520576891
 20
23920.8992805756
 11
113955.5633135622
 21
23425.8992805756
  0
LINE
  5
349
100
AcDbEntity
  8
0
100
AcDbLine
 62
7
  6
CONTINUOUS
 10
113953.2520576891
 20
73920.8992805756
 11
113955.5633135622
 21
73425.8992805756
  0
LINE
  5
34A
100
AcDbEntity
  8
0
100
AcDbLine
 62
7
  6
CONTINUOUS
 10
113953.2520576891
 20
103920.8992805756
 11
113955.5633135622
 21
103425.8992805756
  0
LINE
  5
34B
100
AcDbEntity
  8
0
100
AcDbLine
 62
7
  6
CONTINUOUS
 10
113953.2520576891
 20
153920.8992805756
 11
113955.5633135622
 21
153425.8992805755
  0
LINE
  5
34C
100
AcDbEntity
  8
0
100
AcDbLine
 62
7
  6
CONTINUOUS
 10
113764.8745694354
 20
162431.8992805775
 11
113764.8745694354
 21
153920.8992805756
  0
LINE
  5
34D
100
AcDbEntity
  8
0
100
AcDbLine
 62
7
  6
CONTINUOUS
 10
113764.8745694354
 20
151330.8992805755
 11
113764.8745694354
 21
103920.8992805756
  0
LINE
  5
34E
100
AcDbEntity
  8
0
100
AcDbLine
 62
7
  6
CONTINUOUS
 10
113764.8745694354
 20
101330.8992805755
 11
113764.8745694354
 21
73920.8992805756
  0
LINE
  5
34F
100
AcDbEntity
  8
0
100
AcDbLine
 62
7
  6
CONTINUOUS
 10
113764.8745694354
 20
71330.8992805756
 11
113764.8745694354
 21
23920.8992805756
  0
LINE
  5
350
100
AcDbEntity
  8
0
100
AcDbLine
 62
7
  6
CONTINUOUS
 10
113764.8745694354
 20
21330.8992805755
 11
113764.8745694354
 21
12819.8992805733
  0
LINE
  5
351
100
AcDbEntity
  8
0
100
AcDbLine
 62
7
  6
CONTINUOUS
 10
113955.5633135622
 20
21825.8992805756
 11
113955.5633135622
 21
23425.8992805756
  0
LINE
  5
352
100
AcDbEntity
  8
0
100
AcDbLine
 62
7
  6
CONTINUOUS
 10
113955.5633135622
 20
71825.8992805756
 11
113955.5633135622
 21
73425.8992805756
  0
LINE
  5
353
100
AcDbEntity
  8
0
100
AcDbLine
 62
7
  6
CONTINUOUS
 10
113955.5633135622
 20
101825.8992805756
 11
113955.5633135622
 21
103425.8992805756
  0
LINE
  5
354
100
AcDbEntity
  8
0
100
AcDbLine
 62
7
  6
CONTINUOUS
 10
113955.5633135622
 20
151825.8992805756
 11
113955.5633135622
 21
153425.8992805755
  0
LINE
  5
355
100
AcDbEntity
  8
0
100
AcDbLine
 62
7
  6
CONTINUOUS
 10
113957.8745694353
 20
151825.8992805756
 11
113957.8745694353
 21
103425.8992805756
  0
LINE
  5
356
100
AcDbEntity
  8
0
100
AcDbLine
 62
7
  6
CONTINUOUS
 10
113957.8745694353
 20
101825.8992805756
 11
113957.8745694353
 21
73425.8992805755
  0
LINE
  5
357
100
AcDbEntity
  8
0
100
AcDbLine
 62
7
  6
CONTINUOUS
 10
113957.8745694353
 20
71825.8992805756
 11
113957.8745694353
 21
23425.8992805756
  0
LINE
  5
358
100
AcDbEntity
  8
0
100
AcDbLine
 62
7
  6
CONTINUOUS
 10
113957.8745694353
 20
12625.8992805756
 11
113957.8745694353
 21
21825.8992805756
  0
LINE
  5
359
100
AcDbEntity
  8
0
100
AcDbLine
 62
7
  6
CONTINUOUS
 10
113957.8745694353
 20
153425.8992805755
 11
113957.8745694353
 21
162625.8992805755
  0
LINE
  5
35A
100
AcDbEntity
  8
0
100
AcDbLine
 62
7
  6
CONTINUOUS
 10
113955.5633135622
 20
151825.8992805756
 11
113953.2520576891
 21
151330.8992805755
  0
LINE
  5
35B
100
AcDbEntity
  8
0
100
AcDbLine
 62
7
  6
CONTINUOUS
 10
113955.5633135622
 20
101825.8992805756
 11
113953.2520576891
 21
101330.8992805756
  0
LINE
  5
35C
100
AcDbEntity
  8
0
100
AcDbLine
 62
7
  6
CONTINUOUS
 10
113955.5633135622
 20
71825.8992805756
 11
113953.2520576891
 21
71330.8992805756
  0
LINE
  5
35D
100
AcDbEntity
  8
0
100
AcDbLine
 62
7
  6
CONTINUOUS
 10
113955.5633135622
 20
21825.8992805756
 11
113953.2520576891
 21
21330.8992805756
  0
LWPOLYLINE
  5
35E
100
AcDbEntity
  8
0
100
AcDbPolyline
 62
7
  6
CONTINUOUS
 90
3
 70
0
 10
64150.8745694382
 20
12819.8992805758
 10
64017.1933841552
 20
12685.9302940351
 10
63957.8995694353
 20
12625.9244927851
  0
LINE
  5
35F
100
AcDbEntity
  8
0
100
AcDbLine
 62
7
  6
CONTINUOUS
 10
67607.8747963705
 20
16280.3563089803
 11
65157.8704258868
 21
13825.8992805756
  0
LINE
  5
360
100
AcDbEntity
  8
0
100
AcDbLine
 62
7
  6
CONTINUOUS
 10
65240.6713578921
 20
16449.2992805756
 11
65157.8747909464
 21
16366.5095978655
  0
LINE
  5
361
100
AcDbEntity
  8
0
100
AcDbLine
 62
7
  6
CONTINUOUS
 10
65157.8526467619
 20
13825.8992805756
 11
64150.8745694374
 21
12819.8992805758
  0
LINE
  5
362
100
AcDbEntity
  8
0
100
AcDbLine
 62
7
  6
CONTINUOUS
 10
59294.613491172
 20
20145.8379800296
 11
59274.708187552
 21
20132.4992805756
  0
LINE
  5
363
100
AcDbEntity
  8
0
100
AcDbLine
 62
7
  6
CONTINUOUS
 10
59274.7081875521
 20
155119.2992805755
 11
59294.613491172
 21
155105.9605811215
  0
LINE
  5
364
100
AcDbEntity
  8
0
100
AcDbLine
 62
7
  6
CONTINUOUS
 10
64150.8745694377
 20
162431.8992805753
 11
65157.8745694351
 21
161425.8992805755
  0
LINE
  5
365
100
AcDbEntity
  8
0
100
AcDbLine
 62
7
  6
CONTINUOUS
 10
65158.016982738
 20
161425.8992805755
 11
67607.8745694353
 21
158977.2216335167
  0
LWPOLYLINE
  5
366
100
AcDbEntity
  8
0
100
AcDbPolyline
 62
7
  6
CONTINUOUS
 90
3
 70
0
 10
63957.8745694353
 20
162625.8978561298
 10
64016.1749696067
 20
162566.891298413
 10
64150.8745694382
 20
162431.8992805753
  0
LINE
  5
367
100
AcDbEntity
  8
0
100
AcDbLine
 62
7
  6
CONTINUOUS
 10
63156.7266366942
 20
20135.692458105
 11
63155.3745694353
 21
20134.8098625116
  0
LINE
  5
368
100
AcDbEntity
  8
0
100
AcDbLine
 62
7
  6
CONTINUOUS
 10
63155.3745694353
 20
155116.9886986395
 11
63156.7274338082
 21
155116.1055827101
  0
LINE
  5
369
100
AcDbEntity
  8
0
100
AcDbLine
 62
7
  6
CONTINUOUS
 10
68164.7777109957
 20
20165.2429551217
 11
68134.5745694354
 21
20155.1886375809
  0
LINE
  5
36A
100
AcDbEntity
  8
0
100
AcDbLine
 62
7
  6
CONTINUOUS
 10
60507.9745694354
 20
151125.8992805756
 11
60612.0745078027
 21
151125.8992805756
  0
LINE
  5
36B
100
AcDbEntity
  8
0
100
AcDbLine
 62
7
  6
CONTINUOUS
 10
60636.3745694353
 20
151125.8992805756
 11
63107.9745694354
 21
151125.8992805756
  0
LINE
  5
36C
100
AcDbEntity
  8
0
100
AcDbLine
 62
7
  6
CONTINUOUS
 10
64807.9745694353
 20
151125.8992805756
 11
67279.5745694354
 21
151125.8992805756
  0
LINE
  5
36D
100
AcDbEntity
  8
0
100
AcDbLine
 62
7
  6
CONTINUOUS
 10
67303.8778491839
 20
151125.8992805756
 11
67407.9745694353
 21
151125.8992805756
  0
LINE
  5
36E
100
AcDbEntity
  8
0
100
AcDbLine
 62
7
  6
CONTINUOUS
 10
13962.5970811817
 20
151330.8992805755
 11
17057.9745694354
 21
151330.8992805755
  0
LINE
  5
36F
100
AcDbEntity
  8
0
100
AcDbLine
 62
7
  6
CONTINUOUS
 10
110857.8745694353
 20
151330.8992805755
 11
113953.252057689
 21
151330.8992805755
  0
LINE
  5
370
100
AcDbEntity
  8
0
100
AcDbLine
 62
7
  6
CONTINUOUS
 10
113953.252057689
 20
153920.8992805756
 11
110857.9066817726
 21
153920.8992805755
  0
LINE
  5
371
100
AcDbEntity
  8
0
100
AcDbLine
 62
7
  6
CONTINUOUS
 10
17057.9745694354
 20
153920.8992805756
 11
13962.5970811817
 21
153920.8992805756
  0
LINE
  5
372
100
AcDbEntity
  8
0
100
AcDbLine
 62
7
  6
CONTINUOUS
 10
67407.9745694353
 20
154125.8992805755
 11
67303.8778275189
 21
154125.8992805755
  0
LINE
  5
373
100
AcDbEntity
  8
0
100
AcDbLine
 62
7
  6
CONTINUOUS
 10
67279.5745694354
 20
154125.8992805755
 11
64807.9745694353
 21
154125.8992805755
  0
LINE
  5
374
100
AcDbEntity
  8
0
100
AcDbLine
 62
7
  6
CONTINUOUS
 10
60612.0745072809
 20
154125.8992805755
 11
60507.9745694354
 21
154125.8992805755
  0
LINE
  5
375
100
AcDbEntity
  8
0
100
AcDbLine
 62
7
  6
CONTINUOUS
 10
63107.9745694354
 20
154125.8992805755
 11
60636.3745694353
 21
154125.8992805755
  0
LINE
  5
376
100
AcDbEntity
  8
0
100
AcDbLine
 62
7
  6
CONTINUOUS
 10
68134.5745694354
 20
155096.6099235702
 11
68164.7777109958
 21
155086.5556060294
  0
LINE
  5
377
100
AcDbEntity
  8
0
100
AcDbLine
 62
7
  6
CONTINUOUS
 10
63390.9541407177
 20
159010.0514816092
 11
62757.9745694354
 21
158885.2883583532
  0
LWPOLYLINE
  5
378
100
AcDbEntity
  8
0
100
AcDbPolyline
 62
7
  6
CONTINUOUS
 90
4
 70
0
 10
60418.274569435
 20
155097.3958002317
 10
60515.9261115837
 20
155097.9009289131
 10
60586.1004859841
 20
155099.1619022581
 10
60612.0745113434
 20
155100.8790668254
  0
LWPOLYLINE
  5
379
100
AcDbEntity
  8
0
100
AcDbPolyline
 62
7
  6
CONTINUOUS
 90
4
 70
0
 10
64712.3228326366
 20
155115.2914838539
 10
64734.9295671432
 20
155115.3938997191
 10
64752.0609090044
 20
155115.6793751717
 10
64759.0225021766
 20
155116.1061030461
  0
LINE
  5
37A
100
AcDbEntity
  8
0
100
AcDbLine
 62
7
  6
CONTINUOUS
 10
60636.3745694353
 20
155114.0612645124
 11
62317.3259663778
 21
155119.2992805755
  0
LINE
  5
37B
100
AcDbEntity
  8
0
100
AcDbLine
 62
7
  6
CONTINUOUS
 10
59781.2745694353
 20
155096.6099235702
 11
60418.274569435
 21
155097.3958002317
  0
LINE
  5
37C
100
AcDbEntity
  8
0
100
AcDbLine
 62
7
  6
CONTINUOUS
 10
68457.9745694353
 20
155082.2079931771
 11
68177.8641003832
 21
155082.1992805756
  0
LINE
  5
37D
100
AcDbEntity
  8
0
100
AcDbLine
 62
7
  6
CONTINUOUS
 10
59737.9850384876
 20
155082.1992805756
 11
59457.9728282589
 21
155082.1992805756
  0
LINE
  5
37E
100
AcDbEntity
  8
0
100
AcDbLine
 62
7
  6
CONTINUOUS
 10
59307.9745694353
 20
155097.0072182018
 11
59450.5745694353
 21
155097.0072182018
  0
LINE
  5
37F
100
AcDbEntity
  8
0
100
AcDbLine
 62
7
  6
CONTINUOUS
 10
68465.3745694354
 20
155097.0072182018
 11
68607.9745694354
 21
155097.0072182018
  0
LINE
  5
380
100
AcDbEntity
  8
0
100
AcDbLine
 62
7
  6
CONTINUOUS
 10
63203.4557606429
 20
155115.2914838539
 11
64712.3228326366
 21
155115.2914838539
  0
LINE
  5
381
100
AcDbEntity
  8
0
100
AcDbLine
 62
7
  6
CONTINUOUS
 10
68607.8748079972
 20
155125.8992805755
 11
68482.8748079972
 21
155125.8992805755
  0
LINE
  5
382
100
AcDbEntity
  8
0
100
AcDbLine
 62
7
  6
CONTINUOUS
 10
68457.8748186697
 20
155125.8992805755
 11
65605.3357365181
 21
155125.8992805755
  0
LINE
  5
383
100
AcDbEntity
  8
0
100
AcDbLine
 62
7
  6
CONTINUOUS
 10
62317.6482401722
 20
155125.8992805755
 11
59307.9745694354
 21
155125.8992805755
  0
LINE
  5
384
100
AcDbEntity
  8
0
100
AcDbLine
 62
7
  6
CONTINUOUS
 10
110307.8745694353
 20
156900.8992805755
 11
110124.9747510337
 21
156900.8992805755
  0
LINE
  5
385
100
AcDbEntity
  8
0
100
AcDbLine
 62
7
  6
CONTINUOUS
 10
109449.8825443439
 20
156900.8992805755
 11
109306.7552768362
 21
156900.8992805755
  0
LINE
  5
386
100
AcDbEntity
  8
0
100
AcDbLine
 62
7
  6
CONTINUOUS
 10
67795.8425347187
 20
156900.8992805755
 11
67607.8745694353
 21
156900.8992805755
  0
LINE
  5
387
100
AcDbEntity
  8
0
100
AcDbLine
 62
7
  6
CONTINUOUS
 10
60307.9745694354
 20
156900.8992805755
 11
60125.0747510336
 21
156900.8992805755
  0
LINE
  5
388
100
AcDbEntity
  8
0
100
AcDbLine
 62
7
  6
CONTINUOUS
 10
59449.9825443438
 20
156900.8992805755
 11
59306.8552768361
 21
156900.8992805755
  0
LINE
  5
389
100
AcDbEntity
  8
0
100
AcDbLine
 62
7
  6
CONTINUOUS
 10
17795.9425347187
 20
156900.8992805755
 11
17607.9745694354
 21
156900.8992805755
  0
LINE
  5
38A
100
AcDbEntity
  8
0
100
AcDbLine
 62
7
  6
CONTINUOUS
 10
17800.8824972302
 20
156900.8992805755
 11
18134.4255961638
 21
156900.8992805755
  0
LINE
  5
38B
100
AcDbEntity
  8
0
100
AcDbLine
 62
7
  6
CONTINUOUS
 10
18134.9748082862
 20
156900.8992805755
 11
18609.0938620345
 21
156900.8992805755
  0
LINE
  5
38C
100
AcDbEntity
  8
0
100
AcDbLine
 62
7
  6
CONTINUOUS
 10
59457.9745694354
 20
156900.8992805755
 11
59780.9745694352
 21
156900.8992805755
  0
LINE
  5
38D
100
AcDbEntity
  8
0
100
AcDbLine
 62
7
  6
CONTINUOUS
 10
59781.4551076371
 20
156900.8992805755
 11
60115.0668800513
 21
156900.8992805755
  0
LINE
  5
38E
100
AcDbEntity
  8
0
100
AcDbLine
 62
7
  6
CONTINUOUS
 10
67800.7824972302
 20
156900.8992805755
 11
68134.3255961638
 21
156900.8992805755
  0
LINE
  5
38F
100
AcDbEntity
  8
0
100
AcDbLine
 62
7
  6
CONTINUOUS
 10
68134.8748082861
 20
156900.8992805755
 11
68608.9938620345
 21
156900.8992805755
  0
LINE
  5
390
100
AcDbEntity
  8
0
100
AcDbLine
 62
7
  6
CONTINUOUS
 10
109457.8745694355
 20
156900.8992805755
 11
109780.8745694353
 21
156900.8992805755
  0
LINE
  5
391
100
AcDbEntity
  8
0
100
AcDbLine
 62
7
  6
CONTINUOUS
 10
109781.3551076372
 20
156900.8992805755
 11
110114.9668800512
 21
156900.8992805755
  0
LINE
  5
392
100
AcDbEntity
  8
0
100
AcDbLine
 62
7
  6
CONTINUOUS
 10
19682.9745694354
 20
157974.8862864235
 11
58232.9745694354
 21
157974.8862864235
  0
LINE
  5
393
100
AcDbEntity
  8
0
100
AcDbLine
 62
7
  6
CONTINUOUS
 10
69682.8745694354
 20
157974.8862864235
 11
108232.8745694353
 21
157974.8862864235
  0
LINE
  5
394
100
AcDbEntity
  8
0
100
AcDbLine
 62
7
  6
CONTINUOUS
 10
19682.9745694354
 20
158125.8992805755
 11
58232.9745694354
 21
158125.8992805755
  0
LINE
  5
395
100
AcDbEntity
  8
0
100
AcDbLine
 62
7
  6
CONTINUOUS
 10
69682.8745694354
 20
158125.8992805755
 11
108232.8745694353
 21
158125.8992805755
  0
LINE
  5
396
100
AcDbEntity
  8
0
100
AcDbLine
 62
7
  6
CONTINUOUS
 10
65278.0914277668
 20
158405.8992805755
 11
64838.2265278531
 21
158405.8992805755
  0
LINE
  5
397
100
AcDbEntity
  8
0
100
AcDbLine
 62
7
  6
CONTINUOUS
 10
19682.9745694354
 20
158406.8992805753
 11
58232.9745694354
 21
158406.8992805753
  0
LINE
  5
398
100
AcDbEntity
  8
0
100
AcDbLine
 62
7
  6
CONTINUOUS
 10
69682.8745694354
 20
158406.8992805753
 11
108232.8745694353
 21
158406.8992805753
  0
LINE
  5
399
100
AcDbEntity
  8
0
100
AcDbLine
 62
7
  6
CONTINUOUS
 10
19682.9745694354
 20
158450.5342663885
 11
58232.9745694354
 21
158450.5342663885
  0
LINE
  5
39A
100
AcDbEntity
  8
0
100
AcDbLine
 62
7
  6
CONTINUOUS
 10
69682.8745694354
 20
158450.5342663885
 11
108232.8745694353
 21
158450.5342663885
  0
LINE
  5
39B
100
AcDbEntity
  8
0
100
AcDbLine
 62
7
  6
CONTINUOUS
 10
110307.8743415457
 20
158539.6445635943
 11
110173.383294284
 21
158539.6445635943
  0
LINE
  5
39C
100
AcDbEntity
  8
0
100
AcDbLine
 62
7
  6
CONTINUOUS
 10
60307.9743415457
 20
158539.6445635943
 11
60173.4832942839
 21
158539.6445635943
  0
LINE
  5
39D
100
AcDbEntity
  8
0
100
AcDbLine
 62
7
  6
CONTINUOUS
 10
63150.2853537491
 20
158802.4992805755
 11
64765.4637851216
 21
158802.4992805755
  0
LINE
  5
39E
100
AcDbEntity
  8
0
100
AcDbLine
 62
7
  6
CONTINUOUS
 10
63390.9541407179
 20
159010.0514816092
 11
64507.6402837201
 21
159010.0514816092
  0
LINE
  5
39F
100
AcDbEntity
  8
0
100
AcDbLine
 62
7
  6
CONTINUOUS
 10
19682.9745694354
 20
159476.0208078129
 11
58232.9745694354
 21
159476.0208078129
  0
LINE
  5
3A0
100
AcDbEntity
  8
0
100
AcDbLine
 62
7
  6
CONTINUOUS
 10
69682.8745694354
 20
159476.0208078129
 11
108232.8745694353
 21
159476.0208078129
  0
LINE
  5
3A1
100
AcDbEntity
  8
0
100
AcDbLine
 62
7
  6
CONTINUOUS
 10
67497.5745694356
 20
155097.4079978739
 11
68110.4745694355
 21
155097.0211583643
  0
LINE
  5
3A2
100
AcDbEntity
  8
0
100
AcDbLine
 62
7
  6
CONTINUOUS
 10
65599.5168720498
 20
155119.2992805755
 11
67279.5745694354
 21
155114.0734621546
  0
LWPOLYLINE
  5
3A3
100
AcDbEntity
  8
0
100
AcDbPolyline
 62
7
  6
CONTINUOUS
 90
4
 70
0
 10
67303.8776397159
 20
155100.8896304277
 10
67329.8153553611
 20
155099.1740644669
 10
67399.9405274564
 20
155097.9133671243
 10
67497.5745694356
 20
155097.4079978739
  0
LWPOLYLINE
  5
3A4
100
AcDbEntity
  8
0
100
AcDbPolyline
 62
7
  6
CONTINUOUS
 90
4
 70
0
 10
63156.7274338082
 20
155116.1055827101
 10
63162.6111483859
 20
155115.7111996647
 10
63178.99324721
 20
155115.4126700804
 10
63203.4557606429
 20
155115.2914838539
  0
LINE
  5
3A5
100
AcDbEntity
  8
0
100
AcDbLine
 62
7
  6
CONTINUOUS
 10
64838.2265278531
 20
158944.8932018343
 11
64507.6402837199
 21
159010.0514816092
  0
LINE
  5
3A6
100
AcDbEntity
  8
0
100
AcDbLine
 62
7
  6
CONTINUOUS
 10
15157.9745694352
 20
161425.8992805755
 11
62757.9964921087
 21
161425.8992805755
  0
LINE
  5
3A7
100
AcDbEntity
  8
0
100
AcDbLine
 62
7
  6
CONTINUOUS
 10
65157.8745694352
 20
161425.8992805755
 11
112757.8964921087
 21
161425.8992805755
  0
LINE
  5
3A8
100
AcDbEntity
  8
0
100
AcDbLine
 62
7
  6
CONTINUOUS
 10
14150.9745694377
 20
162431.8992805753
 11
63764.9745694333
 21
162431.8992805753
  0
LINE
  5
3A9
100
AcDbEntity
  8
0
100
AcDbLine
 62
7
  6
CONTINUOUS
 10
64150.8745694377
 20
162431.8992805753
 11
113764.8745694332
 21
162431.8992805753
  0
LINE
  5
3AA
100
AcDbEntity
  8
0
100
AcDbLine
 62
7
  6
CONTINUOUS
 10
113957.8745694353
 20
162625.8992805755
 11
13957.9745694354
 21
162625.8992805755
  0
ARC
  5
3AB
100
AcDbEntity
  8
0
100
AcDbCircle
 62
7
  6
CONTINUOUS
 10
19682.9745694354
 20
18350.8992805756
 40
2575.0152287903
100
AcDbArc
 50
216.3104322326
 51
270.0
  0
ARC
  5
3AC
100
AcDbEntity
  8
0
100
AcDbCircle
 62
7
  6
CONTINUOUS
 10
19682.9745694354
 20
18350.8992805756
 40
1549.5286873658
100
AcDbArc
 50
180.0
 51
270.0
  0
ARC
  5
3AD
100
AcDbEntity
  8
0
100
AcDbCircle
 62
7
  6
CONTINUOUS
 10
19682.9745694354
 20
18350.8992805756
 40
1506.8937015527
100
AcDbArc
 50
180.0
 51
270.0
  0
ARC
  5
3AE
100
AcDbEntity
  8
0
100
AcDbCircle
 62
7
  6
CONTINUOUS
 10
19682.9745694354
 20
18350.8992805756
 40
1224.8937015526
100
AcDbArc
 50
180.0
 51
270.0
  0
ARC
  5
3AF
100
AcDbEntity
  8
0
100
AcDbCircle
 62
7
  6
CONTINUOUS
 10
19682.9745694354
 20
18350.8992805756
 40
1073.8807074008
100
AcDbArc
 50
180.0
 51
270.0
  0
CIRCLE
  5
3B0
100
AcDbEntity
  8
0
100
AcDbCircle
 62
7
  6
CONTINUOUS
 10
16107.9745694354
 20
22625.8992805756
 40
500.0
  0
CIRCLE
  5
3B1
100
AcDbEntity
  8
0
100
AcDbCircle
 62
7
  6
CONTINUOUS
 10
16107.9745694354
 20
22625.8992805756
 40
300.0
  0
CIRCLE
  5
3B2
100
AcDbEntity
  8
0
100
AcDbCircle
 62
7
  6
CONTINUOUS
 10
16107.9745694354
 20
22625.8992805756
 40
270.0
  0
CIRCLE
  5
3B3
100
AcDbEntity
  8
0
100
AcDbCircle
 62
7
  6
CONTINUOUS
 10
16107.9745694354
 20
72625.8992805756
 40
500.0
  0
CIRCLE
  5
3B4
100
AcDbEntity
  8
0
100
AcDbCircle
 62
7
  6
CONTINUOUS
 10
16107.9745694354
 20
72625.8992805756
 40
300.0
  0
CIRCLE
  5
3B5
100
AcDbEntity
  8
0
100
AcDbCircle
 62
7
  6
CONTINUOUS
 10
16107.9745694354
 20
72625.8992805756
 40
270.0
  0
ARC
  5
3B6
100
AcDbEntity
  8
0
100
AcDbCircle
 62
7
  6
CONTINUOUS
 10
58232.9745694353
 20
18350.8992805756
 40
2575.0152287903
100
AcDbArc
 50
270.0
 51
323.6895677674
  0
ARC
  5
3B7
100
AcDbEntity
  8
0
100
AcDbCircle
 62
7
  6
CONTINUOUS
 10
58232.9745694353
 20
18350.8992805756
 40
1549.5286873658
100
AcDbArc
 50
270.0
 51
360.0
  0
ARC
  5
3B8
100
AcDbEntity
  8
0
100
AcDbCircle
 62
7
  6
CONTINUOUS
 10
58232.9745694353
 20
18350.8992805756
 40
1506.8937015527
100
AcDbArc
 50
270.0
 51
360.0
  0
ARC
  5
3B9
100
AcDbEntity
  8
0
100
AcDbCircle
 62
7
  6
CONTINUOUS
 10
58232.9745694353
 20
18350.8992805756
 40
1224.8937015526
100
AcDbArc
 50
270.0
 51
360.0
  0
ARC
  5
3BA
100
AcDbEntity
  8
0
100
AcDbCircle
 62
7
  6
CONTINUOUS
 10
58232.9745694353
 20
18350.8992805756
 40
1073.8807074008
100
AcDbArc
 50
270.0
 51
360.0
  0
CIRCLE
  5
3BB
100
AcDbEntity
  8
0
100
AcDbCircle
 62
7
  6
CONTINUOUS
 10
62607.9745694354
 20
22625.8992805756
 40
205.0
  0
CIRCLE
  5
3BC
100
AcDbEntity
  8
0
100
AcDbCircle
 62
7
  6
CONTINUOUS
 10
61007.9745694354
 20
22625.8992805756
 40
205.0
  0
CIRCLE
  5
3BD
100
AcDbEntity
  8
0
100
AcDbCircle
 62
7
  6
CONTINUOUS
 10
62607.9745694354
 20
72625.8992805756
 40
205.0
  0
CIRCLE
  5
3BE
100
AcDbEntity
  8
0
100
AcDbCircle
 62
7
  6
CONTINUOUS
 10
61007.9745694354
 20
72625.8992805756
 40
205.0
  0
CIRCLE
  5
3BF
100
AcDbEntity
  8
0
100
AcDbCircle
 62
7
  6
CONTINUOUS
 10
16107.9745694354
 20
102625.8992805756
 40
500.0
  0
CIRCLE
  5
3C0
100
AcDbEntity
  8
0
100
AcDbCircle
 62
7
  6
CONTINUOUS
 10
16107.9745694354
 20
102625.8992805756
 40
300.0
  0
CIRCLE
  5
3C1
100
AcDbEntity
  8
0
100
AcDbCircle
 62
7
  6
CONTINUOUS
 10
16107.9745694354
 20
102625.8992805756
 40
270.0
  0
ARC
  5
3C2
100
AcDbEntity
  8
0
100
AcDbCircle
 62
7
  6
CONTINUOUS
 10
19682.9745694354
 20
156900.8992805755
 40
2575.0152287903
100
AcDbArc
 50
90.0
 51
143.6895677674
  0
ARC
  5
3C3
100
AcDbEntity
  8
0
100
AcDbCircle
 62
7
  6
CONTINUOUS
 10
19682.9745694354
 20
156900.8992805755
 40
1549.5286873658
100
AcDbArc
 50
90.0
 51
180.0
  0
ARC
  5
3C4
100
AcDbEntity
  8
0
100
AcDbCircle
 62
7
  6
CONTINUOUS
 10
19682.9745694354
 20
156900.8992805755
 40
1506.8937015527
100
AcDbArc
 50
90.0
 51
180.0
  0
ARC
  5
3C5
100
AcDbEntity
  8
0
100
AcDbCircle
 62
7
  6
CONTINUOUS
 10
19682.9745694354
 20
156900.8992805755
 40
1224.8937015526
100
AcDbArc
 50
90.0
 51
180.0
  0
ARC
  5
3C6
100
AcDbEntity
  8
0
100
AcDbCircle
 62
7
  6
CONTINUOUS
 10
19682.9745694354
 20
156900.8992805755
 40
1073.8807074008
100
AcDbArc
 50
90.0
 51
180.0
  0
CIRCLE
  5
3C7
100
AcDbEntity
  8
0
100
AcDbCircle
 62
7
  6
CONTINUOUS
 10
16107.9745694354
 20
152625.8992805755
 40
500.0
  0
CIRCLE
  5
3C8
100
AcDbEntity
  8
0
100
AcDbCircle
 62
7
  6
CONTINUOUS
 10
16107.9745694354
 20
152625.8992805755
 40
300.0
  0
CIRCLE
  5
3C9
100
AcDbEntity
  8
0
100
AcDbCircle
 62
7
  6
CONTINUOUS
 10
16107.9745694354
 20
152625.8992805755
 40
270.0
  0
CIRCLE
  5
3CA
100
AcDbEntity
  8
0
100
AcDbCircle
 62
7
  6
CONTINUOUS
 10
62607.9745694354
 20
102625.8992805756
 40
205.0
  0
CIRCLE
  5
3CB
100
AcDbEntity
  8
0
100
AcDbCircle
 62
7
  6
CONTINUOUS
 10
61007.9745694354
 20
102625.8992805756
 40
205.0
  0
ARC
  5
3CC
100
AcDbEntity
  8
0
100
AcDbCircle
 62
7
  6
CONTINUOUS
 10
58232.9745694354
 20
156900.8992805755
 40
2575.0152287903
100
AcDbArc
 50
36.3104322326
 51
90.0
  0
ARC
  5
3CD
100
AcDbEntity
  8
0
100
AcDbCircle
 62
7
  6
CONTINUOUS
 10
58232.9745694354
 20
156900.8992805755
 40
1549.5286873658
100
AcDbArc
 50
0.0
 51
90.0
  0
ARC
  5
3CE
100
AcDbEntity
  8
0
100
AcDbCircle
 62
7
  6
CONTINUOUS
 10
58232.9745694354
 20
156900.8992805755
 40
1506.8937015527
100
AcDbArc
 50
0.0
 51
90.0
  0
ARC
  5
3CF
100
AcDbEntity
  8
0
100
AcDbCircle
 62
7
  6
CONTINUOUS
 10
58232.9745694354
 20
156900.8992805755
 40
1224.8937015526
100
AcDbArc
 50
0.0
 51
90.0
  0
ARC
  5
3D0
100
AcDbEntity
  8
0
100
AcDbCircle
 62
7
  6
CONTINUOUS
 10
58232.9745694354
 20
156900.8992805755
 40
1073.8807074008
100
AcDbArc
 50
0.0
 51
90.0
  0
CIRCLE
  5
3D1
100
AcDbEntity
  8
0
100
AcDbCircle
 62
7
  6
CONTINUOUS
 10
62607.9745694354
 20
152625.8992805755
 40
205.0
  0
CIRCLE
  5
3D2
100
AcDbEntity
  8
0
100
AcDbCircle
 62
7
  6
CONTINUOUS
 10
61007.9745694354
 20
152625.8992805755
 40
205.0
  0
ARC
  5
3D3
100
AcDbEntity
  8
0
100
AcDbCircle
 62
7
  6
CONTINUOUS
 10
69682.8745694353
 20
18350.8992805756
 40
2575.0152287903
100
AcDbArc
 50
216.3104322326
 51
270.0
  0
ARC
  5
3D4
100
AcDbEntity
  8
0
100
AcDbCircle
 62
7
  6
CONTINUOUS
 10
69682.8745694353
 20
18350.8992805756
 40
1549.5286873658
100
AcDbArc
 50
180.0
 51
270.0
  0
ARC
  5
3D5
100
AcDbEntity
  8
0
100
AcDbCircle
 62
7
  6
CONTINUOUS
 10
69682.8745694353
 20
18350.8992805756
 40
1506.8937015527
100
AcDbArc
 50
180.0
 51
270.0
  0
ARC
  5
3D6
100
AcDbEntity
  8
0
100
AcDbCircle
 62
7
  6
CONTINUOUS
 10
69682.8745694353
 20
18350.8992805756
 40
1224.8937015526
100
AcDbArc
 50
180.0
 51
270.0
  0
ARC
  5
3D7
100
AcDbEntity
  8
0
100
AcDbCircle
 62
7
  6
CONTINUOUS
 10
69682.8745694353
 20
18350.8992805756
 40
1073.8807074008
100
AcDbArc
 50
180.0
 51
270.0
  0
CIRCLE
  5
3D8
100
AcDbEntity
  8
0
100
AcDbCircle
 62
7
  6
CONTINUOUS
 10
66907.9745694353
 20
22625.8992805756
 40
205.0
  0
CIRCLE
  5
3D9
100
AcDbEntity
  8
0
100
AcDbCircle
 62
7
  6
CONTINUOUS
 10
65307.9745694354
 20
22625.8992805756
 40
205.0
  0
CIRCLE
  5
3DA
100
AcDbEntity
  8
0
100
AcDbCircle
 62
7
  6
CONTINUOUS
 10
66907.9745694353
 20
72625.8992805756
 40
205.0
  0
CIRCLE
  5
3DB
100
AcDbEntity
  8
0
100
AcDbCircle
 62
7
  6
CONTINUOUS
 10
65307.9745694354
 20
72625.8992805756
 40
205.0
  0
ARC
  5
3DC
100
AcDbEntity
  8
0
100
AcDbCircle
 62
7
  6
CONTINUOUS
 10
108232.8745694353
 20
18350.8992805756
 40
2575.0152287903
100
AcDbArc
 50
270.0
 51
323.6895677674
  0
ARC
  5
3DD
100
AcDbEntity
  8
0
100
AcDbCircle
 62
7
  6
CONTINUOUS
 10
108232.8745694353
 20
18350.8992805756
 40
1549.5286873658
100
AcDbArc
 50
270.0
 51
360.0
  0
ARC
  5
3DE
100
AcDbEntity
  8
0
100
AcDbCircle
 62
7
  6
CONTINUOUS
 10
108232.8745694353
 20
18350.8992805756
 40
1506.8937015527
100
AcDbArc
 50
270.0
 51
360.0
  0
ARC
  5
3DF
100
AcDbEntity
  8
0
100
AcDbCircle
 62
7
  6
CONTINUOUS
 10
108232.8745694353
 20
18350.8992805756
 40
1224.8937015526
100
AcDbArc
 50
270.0
 51
360.0
  0
ARC
  5
3E0
100
AcDbEntity
  8
0
100
AcDbCircle
 62
7
  6
CONTINUOUS
 10
108232.8745694353
 20
18350.8992805756
 40
1073.8807074008
100
AcDbArc
 50
270.0
 51
360.0
  0
CIRCLE
  5
3E1
100
AcDbEntity
  8
0
100
AcDbCircle
 62
7
  6
CONTINUOUS
 10
111807.8745694353
 20
22625.8992805756
 40
500.0
  0
CIRCLE
  5
3E2
100
AcDbEntity
  8
0
100
AcDbCircle
 62
7
  6
CONTINUOUS
 10
111807.8745694353
 20
22625.8992805756
 40
300.0
  0
CIRCLE
  5
3E3
100
AcDbEntity
  8
0
100
AcDbCircle
 62
7
  6
CONTINUOUS
 10
111807.8745694353
 20
22625.8992805756
 40
270.0
  0
CIRCLE
  5
3E4
100
AcDbEntity
  8
0
100
AcDbCircle
 62
7
  6
CONTINUOUS
 10
111807.8745694353
 20
72625.8992805756
 40
500.0
  0
CIRCLE
  5
3E5
100
AcDbEntity
  8
0
100
AcDbCircle
 62
7
  6
CONTINUOUS
 10
111807.8745694353
 20
72625.8992805756
 40
300.0
  0
CIRCLE
  5
3E6
100
AcDbEntity
  8
0
100
AcDbCircle
 62
7
  6
CONTINUOUS
 10
111807.8745694353
 20
72625.8992805756
 40
270.0
  0
CIRCLE
  5
3E7
100
AcDbEntity
  8
0
100
AcDbCircle
 62
7
  6
CONTINUOUS
 10
66907.9745694353
 20
102625.8992805756
 40
205.0
  0
CIRCLE
  5
3E8
100
AcDbEntity
  8
0
100
AcDbCircle
 62
7
  6
CONTINUOUS
 10
65307.9745694354
 20
102625.8992805756
 40
205.0
  0
ARC
  5
3E9
100
AcDbEntity
  8
0
100
AcDbCircle
 62
7
  6
CONTINUOUS
 10
69682.8745694353
 20
156900.8992805755
 40
2575.0152287903
100
AcDbArc
 50
90.0
 51
143.6895677674
  0
ARC
  5
3EA
100
AcDbEntity
  8
0
100
AcDbCircle
 62
7
  6
CONTINUOUS
 10
69682.8745694353
 20
156900.8992805755
 40
1549.5286873658
100
AcDbArc
 50
90.0
 51
180.0
  0
ARC
  5
3EB
100
AcDbEntity
  8
0
100
AcDbCircle
 62
7
  6
CONTINUOUS
 10
69682.8745694353
 20
156900.8992805755
 40
1506.8937015527
100
AcDbArc
 50
90.0
 51
180.0
  0
ARC
  5
3EC
100
AcDbEntity
  8
0
100
AcDbCircle
 62
7
  6
CONTINUOUS
 10
69682.8745694353
 20
156900.8992805755
 40
1224.8937015526
100
AcDbArc
 50
90.0
 51
180.0
  0
ARC
  5
3ED
100
AcDbEntity
  8
0
100
AcDbCircle
 62
7
  6
CONTINUOUS
 10
69682.8745694353
 20
156900.8992805755
 40
1073.8807074008
100
AcDbArc
 50
90.0
 51
180.0
  0
CIRCLE
  5
3EE
100
AcDbEntity
  8
0
100
AcDbCircle
 62
7
  6
CONTINUOUS
 10
66907.9745694353
 20
152625.8992805755
 40
205.0
  0
CIRCLE
  5
3EF
100
AcDbEntity
  8
0
100
AcDbCircle
 62
7
  6
CONTINUOUS
 10
65307.9745694354
 20
152625.8992805755
 40
205.0
  0
CIRCLE
  5
3F0
100
AcDbEntity
  8
0
100
AcDbCircle
 62
7
  6
CONTINUOUS
 10
111807.8745694353
 20
102625.8992805756
 40
500.0
  0
CIRCLE
  5
3F1
100
AcDbEntity
  8
0
100
AcDbCircle
 62
7
  6
CONTINUOUS
 10
111807.8745694353
 20
102625.8992805756
 40
300.0
  0
CIRCLE
  5
3F2
100
AcDbEntity
  8
0
100
AcDbCircle
 62
7
  6
CONTINUOUS
 10
111807.8745694353
 20
102625.8992805756
 40
270.0
  0
ARC
  5
3F3
100
AcDbEntity
  8
0
100
AcDbCircle
 62
7
  6
CONTINUOUS
 10
108232.8745694353
 20
156900.8992805755
 40
2575.0152287903
100
AcDbArc
 50
36.3104322326
 51
90.0
  0
ARC
  5
3F4
100
AcDbEntity
  8
0
100
AcDbCircle
 62
7
  6
CONTINUOUS
 10
108232.8745694353
 20
156900.8992805755
 40
1549.5286873658
100
AcDbArc
 50
0.0
 51
90.0
  0
ARC
  5
3F5
100
AcDbEntity
  8
0
100
AcDbCircle
 62
7
  6
CONTINUOUS
 10
108232.8745694353
 20
156900.8992805755
 40
1506.8937015527
100
AcDbArc
 50
0.0
 51
90.0
  0
ARC
  5
3F6
100
AcDbEntity
  8
0
100
AcDbCircle
 62
7
  6
CONTINUOUS
 10
108232.8745694353
 20
156900.8992805755
 40
1224.8937015526
100
AcDbArc
 50
0.0
 51
90.0
  0
ARC
  5
3F7
100
AcDbEntity
  8
0
100
AcDbCircle
 62
7
  6
CONTINUOUS
 10
108232.8745694353
 20
156900.8992805755
 40
1073.8807074008
100
AcDbArc
 50
0.0
 51
90.0
  0
CIRCLE
  5
3F8
100
AcDbEntity
  8
0
100
AcDbCircle
 62
7
  6
CONTINUOUS
 10
111807.8745694353
 20
152625.8992805755
 40
500.0
  0
CIRCLE
  5
3F9
100
AcDbEntity
  8
0
100
AcDbCircle
 62
7
  6
CONTINUOUS
 10
111807.8745694353
 20
152625.8992805755
 40
300.0
  0
CIRCLE
  5
3FA
100
AcDbEntity
  8
0
100
AcDbCircle
 62
7
  6
CONTINUOUS
 10
111807.8745694353
 20
152625.8992805755
 40
270.0
  0
ELLIPSE
  5
3FB
100
AcDbEntity
  8
0
100
AcDbEllipse
 62
7
  6
CONTINUOUS
 10
68102.450263362
 20
20155.3402300379
 30
0.0
 11
33.2814398783
 21
0.0
 31
0.0
 40
0.0174252031
 41
-1.3272925265
 42
-0.2644673931
  0
ELLIPSE
  5
3FC
100
AcDbEntity
  8
0
100
AcDbEllipse
 62
7
  6
CONTINUOUS
 10
68102.4502633621
 20
155096.4583311133
 30
0.0
 11
33.281439878
 21
0.0
 31
0.0
 40
0.0174252031
 41
0.2644673931
 42
1.3272925265
  0
ENDSEC
  0
SECTION
  2
OBJECTS
  0
DICTIONARY
  5
C
100
AcDbDictionary
280
0
281
1
  3
ACAD_GROUP
350
D
  3
ACAD_MLINESTYLE
350
17
  3
ACAD_LAYOUT
350
1A
  3
ACAD_PLOTSETTINGS
350
19
  3
ACAD_PLOTSTYLENAME
350
E
  0
DICTIONARY
  5
D
102
{ACAD_REACTORS
330
C
102
}
100
AcDbDictionary
280
0
281
1
  0
ACDBDICTIONARYWDFLT
  5
E
102
{ACAD_REACTORS
330
C
102
}
100
AcDbDictionary
281
1
  3
Normal
350
F
100
AcDbDictionaryWithDefault
340
F
  0
DICTIONARY
  5
17
102
{ACAD_REACTORS
330
C
102
}
100
AcDbDictionary
280
0
281
1
  3
Standard
350
18
  0
DICTIONARY
  5
19
102
{ACAD_REACTORS
330
C
102
}
100
AcDbDictionary
281
1
  0
DICTIONARY
  5
1A
102
{ACAD_REACTORS
330
C
102
}
100
AcDbDictionary
281
1
  3
Model
350
3FD
  3
Layout1
350
3FE
  0
ACDBPLACEHOLDER
  5
F
102
{ACAD_REACTORS
330
E
102
}
  0
MLINESTYLE
  5
18
102
{ACAD_REACTORS
330
17
102
}
100
AcDbMlineStyle
  2
STANDARD
 70
0
  3

 62
256
 51
90.0
 52
90.0
 71
2
 49
0.5
 62
256
  6
BYLAYER
 49
-0.5
 62
256
  6
BYLAYER
  0
LAYOUT
  5
3FD
102
{ACAD_REACTORS
330
1A
102
}
100
AcDbPlotSettings
  1

  2
none_device
  4

  6

 40
0.0
 41
0.0
 42
0.0
 43
0.0
 44
210.0
 45
297.0
 46
0.0
 47
0.0
 48
0.0
 49
0.0
140
0.0
141
0.0
142
1.0
143
1.0
 70
1024
 72
1
 73
0
 74
0
  7

 75
0
147
1.0
148
0.0
149
0.0
100
AcDbLayout
  1
Model
 70
0
 71
0
 10
0.0
 20
0.0
 11
210.0
 21
297.0
 12
0.0
 22
0.0
 32
0.0
 14
0.0
 24
0.0
 34
0.0
 15
0.0
 25
0.0
 35
0.0
146
0.0
 13
0.0
 23
0.0
 33
0.0
 16
1.0
 26
0.0
 36
0.0
 17
0.0
 27
1.0
 37
0.0
 76
0
330
210
345
0
346
0
  0
LAYOUT
  5
3FE
102
{ACAD_REACTORS
330
1A
102
}
100
AcDbPlotSettings
  1

  2
none_device
  4

  6

 40
0.0
 41
0.0
 42
0.0
 43
0.0
 44
210.0
 45
297.0
 46
0.0
 47
0.0
 48
0.0
 49
0.0
140
0.0
141
0.0
142
1.0
143
1.0
 70
0
 72
1
 73
0
 74
0
  7

 75
0
147
1.0
148
0.0
149
0.0
100
AcDbLayout
  1
Layout1
 70
0
 71
1
 10
0.0
 20
0.0
 11
210.0
 21
297.0
 12
0.0
 22
0.0
 32
0.0
 14
0.0
 24
0.0
 34
0.0
 15
0.0
 25
0.0
 35
0.0
146
0.0
 13
0.0
 23
0.0
 33
0.0
 16
1.0
 26
0.0
 36
0.0
 17
0.0
 27
1.0
 37
0.0
 76
0
330
211
345
0
346
0
  0
ENDSEC
  0
EOF
