999
DXF file: C:\Users\sesa63760\Dev\_Creo\CAD\MCADUE0001430_3D-CAD\drw0001_1.dxf
999
Pro/ENGINEER 2019471 by Parametric Technology Corporation
  0
SECTION
  2
HEADER
  9
$ACADVER
  1
AC1024
  9
$DWGCODEPAGE
  3
ANSI_1252
  9
$EXTMAX
 10
1321.2573574333
 20
1868.6354055128
 30
0.0
  9
$EXTMIN
 10
-0.0
 20
0.0
 30
0.0
  9
$LIMMIN
 10
-0.0
 20
0.0
  9
$LIMMAX
 10
1321.2573574333
 20
1868.6354055128
  9
$VIEWCTR
 10
660.6286787167
 20
934.3177027564
  9
$VIEWSIZE
 40
1868.6354055128
  9
$CLAYER
  8
0
  9
$LTSCALE
 40
121.8073449519
  9
$CELTYPE
  6
BYLAYER
  9
$DIMSCALE
 40
1.0
  9
$DIMASZ
 40
15.7292542552
  9
$DIMEXO
 40
1.0
  9
$DIMDLI
 40
84.1578019668
  9
$DIMEXE
 40
1.0
  9
$DIMCEN
 40
19.9321109921
  9
$DIMLFAC
 40
1.0
  9
$DIMBLK
  1
_FILLED
  9
$DIMALT
 70
0
  9
$DIMALTF
 40
0.0393700787
  9
$DIMTXT
 40
22.0209559572
  9
$DIMTOL
 70
1
  9
$DIMLIM
 70
0
  9
$DIMTFAC
 40
1.0
  9
$DIMTP
 40
0.01
  9
$DIMTM
 40
0.01
  9
$DIMGAP
 40
0.625
  9
$DIMDSEP
 70
46
  9
$AUNITS
 70
0
  9
$PDMODE
 70
3
  9
$PDSIZE
 40
0.3125
  9
$HANDSEED
  5
356
  9
$TILEMODE
 70
1
  9
$MEASUREMENT
 70
1
  9
$INSUNITS
 70
4
  0
ENDSEC
  0
SECTION
  2
CLASSES
  0
CLASS
  1
ACDBDICTIONARYWDFLT
  2
AcDbDictionaryWithDefault
  3
AutoCAD 2000
 90
0
 91
1
280
0
281
0
  0
CLASS
  1
ACDBPLACEHOLDER
  2
AcDbPlaceHolder
  3
AutoCAD 2000
 90
0
 91
1
280
0
281
0
  0
CLASS
  1
LAYOUT
  2
AcDbLayout
  3
AutoCAD 2000
 90
0
 91
0
280
0
281
0
  0
ENDSEC
  0
SECTION
  2
TABLES
  0
TABLE
  2
VPORT
  5
8
100
AcDbSymbolTable
 70
2
  0
VPORT
  5
1F4
100
AcDbSymbolTableRecord
100
AcDbViewportTableRecord
  2
*ACTIVE
 70
0
 10
0.0
 20
0.0
 11
1.0
 21
1.0
 12
660.6286787167
 22
934.3177027564
 13
0.0
 23
0.0
 14
1.0
 24
1.0
 15
0.0
 25
0.0
 16
0.0
 26
0.0
 36
1.0
 17
0.0
 27
0.0
 37
0.0
 40
1868.6354055128
 41
0.7070707071
 42
50.0
 43
0.0
 44
0.0
 50
0.0
 51
0.0
 71
0
 72
100
 73
1
 74
1
 75
0
 76
0
 77
0
 78
0
  0
ENDTAB
  0
TABLE
  2
LTYPE
  5
5
100
AcDbSymbolTable
 70
6
  0
LTYPE
  5
14
100
AcDbSymbolTableRecord
100
AcDbLinetypeTableRecord
  2
BYBLOCK
 70
0
  3

 72
65
 73
0
 40
0.0
  0
LTYPE
  5
15
100
AcDbSymbolTableRecord
100
AcDbLinetypeTableRecord
  2
BYLAYER
 70
0
  3

 72
65
 73
0
 40
0.0
  0
LTYPE
  5
16
100
AcDbSymbolTableRecord
100
AcDbLinetypeTableRecord
  2
CONTINUOUS
 70
64
  3
Solid line
 72
65
 73
0
 40
0.0
  0
LTYPE
  5
1F5
100
AcDbSymbolTableRecord
100
AcDbLinetypeTableRecord
  2
CENTER
 70
64
  3
____ _ ____ _ ____ _ ____ _ ____ _ ____ _ ____
 72
65
 73
4
 40
0.6
 49
0.375
 74
0
 49
-0.075
 74
0
 49
0.075
 74
0
 49
-0.075
 74
0
  0
LTYPE
  5
1F6
100
AcDbSymbolTableRecord
100
AcDbLinetypeTableRecord
  2
HIDDEN
 70
64
  3
- - - - - - - - - - - - - - - - - - - -
 72
65
 73
2
 40
0.2
 49
0.1
 74
0
 49
-0.1
 74
0
  0
LTYPE
  5
1F7
100
AcDbSymbolTableRecord
100
AcDbLinetypeTableRecord
  2
PHANTOM
 70
64
  3
_____ _ _ _____ _ _ _____ _ _ _____
 72
65
 73
6
 40
0.8
 49
0.45
 74
0
 49
-0.05
 74
0
 49
0.1
 74
0
 49
-0.05
 74
0
 49
0.1
 74
0
 49
-0.05
 74
0
  0
LTYPE
  5
1F8
100
AcDbSymbolTableRecord
100
AcDbLinetypeTableRecord
  2
DOT
 70
64
  3
. . . . . . . . . . . . . . . . . . . .
 72
65
 73
2
 40
0.2
 49
0.1
 74
0
 49
-0.1
 74
0
  0
LTYPE
  5
1F9
100
AcDbSymbolTableRecord
100
AcDbLinetypeTableRecord
  2
DASHED
 70
64
  3
- - - - - - - - - - - - - - - - - - - -
 72
65
 73
2
 40
0.2
 49
0.1
 74
0
 49
-0.1
 74
0
  0
ENDTAB
  0
TABLE
  2
LAYER
  5
2
100
AcDbSymbolTable
 70
36
  0
LAYER
  5
10
100
AcDbSymbolTableRecord
100
AcDbLayerTableRecord
  2
0
 70
0
 62
7
  6
CONTINUOUS
370
-3
390
F
  0
LAYER
  5
1FA
100
AcDbSymbolTableRecord
100
AcDbLayerTableRecord
  2
DEFAULT_1
 70
0
 62
7
  6
CENTER
370
-3
390
F
  0
LAYER
  5
1FB
100
AcDbSymbolTableRecord
100
AcDbLayerTableRecord
  2
DEFAULT_2
 70
0
 62
8
  6
HIDDEN
370
-3
390
F
  0
LAYER
  5
1FC
100
AcDbSymbolTableRecord
100
AcDbLayerTableRecord
  2
DEFAULT_3
 70
0
 62
7
  6
PHANTOM
370
-3
390
F
  0
LAYER
  5
1FD
100
AcDbSymbolTableRecord
100
AcDbLayerTableRecord
  2
00_COMPONENTS
 70
0
 62
7
  6
CONTINUOUS
370
-3
390
F
  0
LAYER
  5
1FE
100
AcDbSymbolTableRecord
100
AcDbLayerTableRecord
  2
01_1_DEFAULT_DATUMS
 70
0
 62
7
  6
CONTINUOUS
370
-3
390
F
  0
LAYER
  5
1FF
100
AcDbSymbolTableRecord
100
AcDbLayerTableRecord
  2
01_PLANES
 70
0
 62
7
  6
CONTINUOUS
370
-3
390
F
  0
LAYER
  5
200
100
AcDbSymbolTableRecord
100
AcDbLayerTableRecord
  2
02_COORD_SYS
 70
0
 62
7
  6
CONTINUOUS
370
-3
390
F
  0
LAYER
  5
201
100
AcDbSymbolTableRecord
100
AcDbLayerTableRecord
  2
03_AXES
 70
0
 62
7
  6
CONTINUOUS
370
-3
390
F
  0
LAYER
  5
202
100
AcDbSymbolTableRecord
100
AcDbLayerTableRecord
  2
04_POINTS
 70
0
 62
7
  6
CONTINUOUS
370
-3
390
F
  0
LAYER
  5
203
100
AcDbSymbolTableRecord
100
AcDbLayerTableRecord
  2
05_CURVES
 70
0
 62
7
  6
CONTINUOUS
370
-3
390
F
  0
LAYER
  5
204
100
AcDbSymbolTableRecord
100
AcDbLayerTableRecord
  2
06_SURFS
 70
0
 62
7
  6
CONTINUOUS
370
-3
390
F
  0
LAYER
  5
205
100
AcDbSymbolTableRecord
100
AcDbLayerTableRecord
  2
07_COSMETICS
 70
0
 62
7
  6
CONTINUOUS
370
-3
390
F
  0
LAYER
  5
206
100
AcDbSymbolTableRecord
100
AcDbLayerTableRecord
  2
10_NOTES
 70
0
 62
7
  6
CONTINUOUS
370
-3
390
F
  0
LAYER
  5
207
100
AcDbSymbolTableRecord
100
AcDbLayerTableRecord
  2
11_NOTES_PUB
 70
0
 62
7
  6
CONTINUOUS
370
-3
390
F
  0
LAYER
  5
208
100
AcDbSymbolTableRecord
100
AcDbLayerTableRecord
  2
13_REF_GTOL
 70
0
 62
7
  6
CONTINUOUS
370
-3
390
F
  0
LAYER
  5
209
100
AcDbSymbolTableRecord
100
AcDbLayerTableRecord
  2
16_MISC
 70
0
 62
7
  6
CONTINUOUS
370
-3
390
F
  0
LAYER
  5
20A
100
AcDbSymbolTableRecord
100
AcDbLayerTableRecord
  2
17_NO_PRINT
 70
0
 62
7
  6
CONTINUOUS
370
-3
390
F
  0
LAYER
  5
20B
100
AcDbSymbolTableRecord
100
AcDbLayerTableRecord
  2
18_DATUM_CAMS_JOINTS
 70
0
 62
7
  6
CONTINUOUS
370
-3
390
F
  0
LAYER
  5
20C
100
AcDbSymbolTableRecord
100
AcDbLayerTableRecord
  2
19_DATUM_FUNCTIONAL
 70
0
 62
7
  6
CONTINUOUS
370
-3
390
F
  0
LAYER
  5
20D
100
AcDbSymbolTableRecord
100
AcDbLayerTableRecord
  2
20_DATUM_KINEMATIC_SCHEME
 70
0
 62
7
  6
CONTINUOUS
370
-3
390
F
  0
ENDTAB
  0
TABLE
  2
STYLE
  5
3
100
AcDbSymbolTable
 70
1
  0
STYLE
  5
11
100
AcDbSymbolTableRecord
100
AcDbTextStyleTableRecord
  2
STANDARD
 70
0
 40
0.0
 41
0.8
 50
0.0
 71
0
 42
0.2
  3
txt
  4

  0
STYLE
  5
20E
100
AcDbSymbolTableRecord
100
AcDbTextStyleTableRecord
  2
TEXTSTYLE_1
 70
0
 40
0.0
 41
0.8
 50
0.0
 71
0
 42
0.2
  3
gdt
  4

  0
ENDTAB
  0
TABLE
  2
VIEW
  5
6
100
AcDbSymbolTable
 70
0
  0
ENDTAB
  0
TABLE
  2
UCS
  5
7
100
AcDbSymbolTable
 70
0
  0
ENDTAB
  0
TABLE
  2
APPID
  5
9
100
AcDbSymbolTable
 70
1
  0
APPID
  5
20F
100
AcDbSymbolTableRecord
100
AcDbRegAppTableRecord
  2
ACAD
 70
0
  0
ENDTAB
  0
TABLE
  2
BLOCK_RECORD
  5
1
100
AcDbSymbolTable
 70
0
  0
BLOCK_RECORD
  5
210
100
AcDbSymbolTableRecord
100
AcDbBlockTableRecord
  2
*Model_Space
  0
BLOCK_RECORD
  5
211
100
AcDbSymbolTableRecord
100
AcDbBlockTableRecord
  2
*Paper_Space
  0
BLOCK_RECORD
  5
212
100
AcDbSymbolTableRecord
100
AcDbBlockTableRecord
  2
_FILLED
  0
ENDTAB
  0
TABLE
  2
DIMSTYLE
  5
A
100
AcDbSymbolTable
 70
1
100
AcDbDimStyleTable
 71
0
  0
DIMSTYLE
105
213
100
AcDbSymbolTableRecord
100
AcDbDimStyleTableRecord
  2
STANDARD
 70
0
  3

  4

 40
1.0
 41
15.7292542552
 42
1.0
 43
0.38
 44
1.0
 45
0.0
 46
0.0
 47
0.01
 48
0.01
140
22.0209559572
141
0.09
142
0.0
143
25.4
144
1.0
145
0.0
146
1.0
147
0.625
 71
1
 72
0
 73
0
 74
0
 75
0
 76
0
 77
1
 78
8
 79
2
170
0
171
1
172
0
173
0
174
0
175
0
176
0
177
0
178
0
270
2
179
2
271
2
272
2
273
2
274
2
275
0
280
0
281
0
282
0
283
1
284
8
285
0
286
0
287
3
288
0
340
11
278
46
341
212
342
212
343
212
344
212
  0
ENDTAB
  0
ENDSEC
  0
SECTION
  2
BLOCKS
  0
BLOCK
  5
20
100
AcDbEntity
  8
0
100
AcDbBlockBegin
  2
*Model_Space
 70
0
 10
0.0
 20
0.0
 30
0.0
  3
*Model_Space
  1

  0
ENDBLK
  5
21
100
AcDbEntity
  8
0
100
AcDbBlockEnd
  0
BLOCK
  5
1C
100
AcDbEntity
  8
0
100
AcDbBlockBegin
  2
*Paper_Space
 70
0
 10
0.0
 20
0.0
 30
0.0
  3
*Paper_Space
  1

  0
ENDBLK
  5
1D
100
AcDbEntity
  8
0
100
AcDbBlockEnd
  0
BLOCK
  5
214
100
AcDbEntity
  8
0
100
AcDbBlockBegin
  2
_FILLED
 70
64
 10
0.0
 20
0.0
  3
_FILLED
  1

  0
SOLID
  5
215
100
AcDbEntity
  8
0
  6
BYBLOCK
 62
0
100
AcDbTrace
 10
0.0
 20
0.0
 11
-1.0
 21
0.25
 12
-1.0
 22
-0.25
 13
-1.0
 23
-0.25
  0
ENDBLK
  5
216
100
AcDbEntity
  8
0
  6
BYBLOCK
 62
0
100
AcDbBlockEnd
  0
ENDSEC
  0
SECTION
  2
ENTITIES
  0
LINE
  5
217
100
AcDbEntity
  8
0
100
AcDbLine
 62
7
  6
CONTINUOUS
 10
190.0560970019
 20
1572.2451888012
 11
174.6841236124
 21
1562.0833959944
  0
LINE
  5
218
100
AcDbEntity
  8
0
100
AcDbLine
 62
7
  6
CONTINUOUS
 10
440.4161011893
 20
1722.0965750924
 11
194.2449713017
 21
1579.9704553636
  0
LINE
  5
219
100
AcDbEntity
  8
0
100
AcDbLine
 62
7
  6
CONTINUOUS
 10
463.2186229449
 20
1728.6678724793
 11
446.7347899106
 21
1720.4378166565
  0
LINE
  5
21A
100
AcDbEntity
  8
0
100
AcDbLine
 62
7
  6
CONTINUOUS
 10
901.3589482092
 20
151.1041236208
 11
899.948186828
 21
151.2463395847
  0
LINE
  5
21B
100
AcDbEntity
  8
0
100
AcDbLine
 62
7
  6
CONTINUOUS
 10
194.2442550544
 20
1579.9708688798
 11
193.6576424359
 21
1578.6697529316
  0
LINE
  5
21C
100
AcDbEntity
  8
0
100
AcDbLine
 62
7
  6
CONTINUOUS
 10
877.0147668724
 20
144.2607847923
 11
876.558300016
 21
144.4436522935
  0
LINE
  5
21D
100
AcDbEntity
  8
0
100
AcDbLine
 62
7
  6
CONTINUOUS
 10
523.4599042989
 20
348.3811620525
 11
523.0034374425
 21
348.5640295537
  0
LINE
  5
21E
100
AcDbEntity
  8
0
100
AcDbLine
 62
7
  6
CONTINUOUS
 10
172.8789179261
 20
550.7039419754
 11
523.0093020582
 21
348.5606435378
  0
LINE
  5
21F
100
AcDbEntity
  8
0
100
AcDbLine
 62
7
  6
CONTINUOUS
 10
526.4337804996
 20
346.5835647153
 11
876.5641646317
 21
144.4402662776
  0
LINE
  5
220
100
AcDbEntity
  8
0
100
AcDbLine
 62
7
  6
CONTINUOUS
 10
875.4535274485
 20
146.2677466267
 11
525.8952838653
 21
348.0807270372
  0
LINE
  5
221
100
AcDbEntity
  8
0
100
AcDbLine
 62
7
  6
CONTINUOUS
 10
521.898664875
 20
350.3881238868
 11
172.3404212918
 21
552.2011042974
  0
LINE
  5
222
100
AcDbEntity
  8
0
100
AcDbLine
 62
7
  6
CONTINUOUS
 10
895.0444929735
 20
154.0774245039
 11
899.9481788148
 21
151.246344211
  0
LINE
  5
223
100
AcDbEntity
  8
0
100
AcDbLine
 62
7
  6
CONTINUOUS
 10
898.579302518
 20
152.6599681747
 11
895.0444929735
 21
154.7007452482
  0
LINE
  5
224
100
AcDbEntity
  8
0
100
AcDbLine
 62
7
  6
CONTINUOUS
 10
835.5089034544
 20
199.805323701
 11
562.9181044102
 21
357.1821345685
  0
LINE
  5
225
100
AcDbEntity
  8
0
100
AcDbLine
 62
7
  6
CONTINUOUS
 10
481.9540408809
 20
403.9257009611
 11
209.3632418367
 21
561.3025118287
  0
LINE
  5
226
100
AcDbEntity
  8
0
100
AcDbLine
 62
7
  6
CONTINUOUS
 10
871.458787109
 20
179.8477856163
 11
835.470666436
 21
200.6250667296
  0
LINE
  5
227
100
AcDbEntity
  8
0
100
AcDbLine
 62
7
  6
CONTINUOUS
 10
562.8798673918
 20
358.0018775972
 11
526.8917467172
 21
378.7791587114
  0
LINE
  5
228
100
AcDbEntity
  8
0
100
AcDbLine
 62
7
  6
CONTINUOUS
 10
517.9039245355
 20
383.9681628764
 11
481.9158038625
 21
404.7454439897
  0
LINE
  5
229
100
AcDbEntity
  8
0
100
AcDbLine
 62
7
  6
CONTINUOUS
 10
209.3250048183
 20
562.1222548573
 11
173.3368841437
 21
582.8995359715
  0
LINE
  5
22A
100
AcDbEntity
  8
0
100
AcDbLine
 62
7
  6
CONTINUOUS
 10
172.1660188289
 20
1541.7461130507
 11
172.1660188289
 21
566.3029764332
  0
LINE
  5
22B
100
AcDbEntity
  8
0
100
AcDbLine
 62
7
  6
CONTINUOUS
 10
173.3337391648
 20
582.9013516849
 11
173.3337391648
 21
1521.8872964081
  0
LINE
  5
22C
100
AcDbEntity
  8
0
100
AcDbLine
 62
7
  6
CONTINUOUS
 10
895.0444929735
 20
224.0561695833
 11
898.524648711
 21
222.1819228436
  0
LINE
  5
22D
100
AcDbEntity
  8
0
100
AcDbLine
 62
7
  6
CONTINUOUS
 10
898.524650292
 20
243.3293345958
 11
895.0444929735
 21
245.2035821869
  0
LINE
  5
22E
100
AcDbEntity
  8
0
100
AcDbLine
 62
7
  6
CONTINUOUS
 10
895.0444929735
 20
225.4751419394
 11
901.0214910819
 21
222.0243985388
  0
LINE
  5
22F
100
AcDbEntity
  8
0
100
AcDbLine
 62
7
  6
CONTINUOUS
 10
193.6577509553
 20
1578.6697718599
 11
193.6577509553
 21
1570.1658199633
  0
LINE
  5
230
100
AcDbEntity
  8
0
100
AcDbLine
 62
7
  6
CONTINUOUS
 10
194.1954853968
 20
1569.8553658622
 11
194.1954853968
 21
1576.7820477104
  0
LINE
  5
231
100
AcDbEntity
  8
0
100
AcDbLine
 62
7
  6
CONTINUOUS
 10
209.3250048183
 20
1501.9584872702
 11
209.3250048183
 21
1501.1081995805
  0
LINE
  5
232
100
AcDbEntity
  8
0
100
AcDbLine
 62
7
  6
CONTINUOUS
 10
209.3250048183
 20
562.1222548573
 11
209.3250048183
 21
561.279309685
  0
LINE
  5
233
100
AcDbEntity
  8
0
100
AcDbLine
 62
7
  6
CONTINUOUS
 10
543.6109595754
 20
1368.124811541
 11
528.2389861858
 21
1357.9630187342
  0
LINE
  5
234
100
AcDbEntity
  8
0
100
AcDbLine
 62
7
  6
CONTINUOUS
 10
525.0057973657
 20
1359.8296589409
 11
541.4896304
 21
1369.3495338046
  0
LINE
  5
235
100
AcDbEntity
  8
0
100
AcDbLine
 62
7
  6
CONTINUOUS
 10
798.1683233086
 20
1517.5421616599
 11
813.5402966982
 21
1526.4141354258
  0
LINE
  5
236
100
AcDbEntity
  8
0
100
AcDbLine
 62
7
  6
CONTINUOUS
 10
539.0165964057
 20
1370.7773083463
 11
545.0251470543
 21
1374.2399292276
  0
LINE
  5
237
100
AcDbEntity
  8
0
100
AcDbLine
 62
7
  6
CONTINUOUS
 10
793.9759226331
 20
1517.978233781
 11
794.5624433518
 21
1518.3118826199
  0
LINE
  5
238
100
AcDbEntity
  8
0
100
AcDbLine
 62
7
  6
CONTINUOUS
 10
816.7734855184
 20
1524.5474952192
 11
800.2896524841
 21
1516.3174393964
  0
LINE
  5
239
100
AcDbEntity
  8
0
100
AcDbLine
 62
7
  6
CONTINUOUS
 10
899.948186828
 20
151.2463395847
 11
898.5793044442
 21
152.6599670626
  0
LINE
  5
23A
100
AcDbEntity
  8
0
100
AcDbLine
 62
7
  6
CONTINUOUS
 10
1148.116582196
 20
303.0410136619
 11
1151.7231858821
 21
300.9587871591
  0
LINE
  5
23B
100
AcDbEntity
  8
0
100
AcDbLine
 62
7
  6
CONTINUOUS
 10
1148.116582196
 20
305.8913465647
 11
1148.8910071701
 21
305.4442422122
  0
LINE
  5
23C
100
AcDbEntity
  8
0
100
AcDbLine
 62
7
  6
CONTINUOUS
 10
547.7984105182
 20
1375.8508998604
 11
547.2117978997
 21
1374.5497839122
  0
LINE
  5
23D
100
AcDbEntity
  8
0
100
AcDbLine
 62
7
  6
CONTINUOUS
 10
895.0444929735
 20
530.2445760069
 11
898.524648711
 21
528.3703292672
  0
LINE
  5
23E
100
AcDbEntity
  8
0
100
AcDbLine
 62
7
  6
CONTINUOUS
 10
1148.116582196
 20
323.9717904631
 11
1148.8910071701
 21
323.5246861107
  0
LINE
  5
23F
100
AcDbEntity
  8
0
100
AcDbLine
 62
7
  6
CONTINUOUS
 10
1148.8910071701
 20
325.0841854465
 11
1148.116582196
 21
325.531289799
  0
LINE
  5
240
100
AcDbEntity
  8
0
100
AcDbLine
 62
7
  6
CONTINUOUS
 10
1148.116582196
 20
358.1150648579
 11
1148.8910071701
 21
357.6679605055
  0
LINE
  5
241
100
AcDbEntity
  8
0
100
AcDbLine
 62
7
  6
CONTINUOUS
 10
491.5580005694
 20
759.0690944492
 11
514.1855117741
 21
746.0053903046
  0
LINE
  5
242
100
AcDbEntity
  8
0
100
AcDbLine
 62
7
  6
CONTINUOUS
 10
521.9637187508
 20
741.5147420049
 11
544.5912299555
 21
728.4510378602
  0
LINE
  5
243
100
AcDbEntity
  8
0
100
AcDbLine
 62
7
  6
CONTINUOUS
 10
543.6472338367
 20
729.8695815355
 11
521.019722632
 21
742.9332856802
  0
LINE
  5
244
100
AcDbEntity
  8
0
100
AcDbLine
 62
7
  6
CONTINUOUS
 10
513.2415156554
 20
747.4239339799
 11
490.6140044507
 21
760.4876381246
  0
LINE
  5
245
100
AcDbEntity
  8
0
100
AcDbLine
 62
7
  6
CONTINUOUS
 10
193.6576424359
 20
1578.6697529316
 11
194.1954834706
 21
1576.7820488224
  0
LINE
  5
246
100
AcDbEntity
  8
0
100
AcDbLine
 62
7
  6
CONTINUOUS
 10
481.9158038625
 20
404.7454439897
 11
481.9540408809
 21
403.9257009611
  0
LINE
  5
247
100
AcDbEntity
  8
0
100
AcDbLine
 62
7
  6
CONTINUOUS
 10
446.7347899106
 20
1720.4378166565
 11
446.7347899106
 21
1719.1208300606
  0
LINE
  5
248
100
AcDbEntity
  8
0
100
AcDbLine
 62
7
  6
CONTINUOUS
 10
481.954373938
 20
1344.602808597
 11
481.9158038625
 21
1343.7313887129
  0
LINE
  5
249
100
AcDbEntity
  8
0
100
AcDbLine
 62
7
  6
CONTINUOUS
 10
898.524650292
 20
549.5177410194
 11
895.0444929735
 21
551.3919886105
  0
LINE
  5
24A
100
AcDbEntity
  8
0
100
AcDbLine
 62
7
  6
CONTINUOUS
 10
895.0444929735
 20
531.663548363
 11
901.0214910819
 21
528.2128049624
  0
LINE
  5
24B
100
AcDbEntity
  8
0
100
AcDbLine
 62
7
  6
CONTINUOUS
 10
898.579302518
 20
152.6599681747
 11
895.0444929735
 21
158.5042916311
  0
LINE
  5
24C
100
AcDbEntity
  8
0
100
AcDbLine
 62
7
  6
CONTINUOUS
 10
517.907069519
 20
1322.9522918836
 11
517.907069519
 21
959.5756449109
  0
LINE
  5
24D
100
AcDbEntity
  8
0
100
AcDbLine
 62
7
  6
CONTINUOUS
 10
517.907069519
 20
746.7191157571
 11
517.907069519
 21
383.9663471605
  0
LINE
  5
24E
100
AcDbEntity
  8
0
100
AcDbLine
 62
7
  6
CONTINUOUS
 10
518.5742039219
 20
959.2660826197
 11
518.5742039219
 21
933.8367380548
  0
LINE
  5
24F
100
AcDbEntity
  8
0
100
AcDbLine
 62
7
  6
CONTINUOUS
 10
518.5742039219
 20
754.5155411776
 11
518.5742039219
 21
747.0407743594
  0
LINE
  5
250
100
AcDbEntity
  8
0
100
AcDbLine
 62
7
  6
CONTINUOUS
 10
523.4584774874
 20
348.381480499
 11
523.4584774874
 21
740.6517621691
  0
LINE
  5
251
100
AcDbEntity
  8
0
100
AcDbLine
 62
7
  6
CONTINUOUS
 10
523.4584774874
 20
952.5534635879
 11
523.4584774874
 21
1358.4303289082
  0
LINE
  5
252
100
AcDbEntity
  8
0
100
AcDbLine
 62
7
  6
CONTINUOUS
 10
525.7208814024
 20
1337.6257357905
 11
525.7208814024
 21
954.3531079621
  0
LINE
  5
253
100
AcDbEntity
  8
0
100
AcDbLine
 62
7
  6
CONTINUOUS
 10
525.7208814024
 20
739.3455922093
 11
525.7208814024
 21
362.182599173
  0
LINE
  5
254
100
AcDbEntity
  8
0
100
AcDbLine
 62
7
  6
CONTINUOUS
 10
526.8893088421
 20
378.7813826689
 11
526.8893088421
 21
738.6710155734
  0
LINE
  5
255
100
AcDbEntity
  8
0
100
AcDbLine
 62
7
  6
CONTINUOUS
 10
526.8893088421
 20
954.3906804194
 11
526.8893088421
 21
1317.7673273921
  0
LINE
  5
256
100
AcDbEntity
  8
0
100
AcDbLine
 62
7
  6
CONTINUOUS
 10
541.4896304
 20
1369.3495338046
 11
541.4896304
 21
1366.7224862176
  0
LINE
  5
257
100
AcDbEntity
  8
0
100
AcDbLine
 62
7
  6
CONTINUOUS
 10
545.0251470543
 20
1374.2399292276
 11
545.0251470543
 21
1367.3083484903
  0
LINE
  5
258
100
AcDbEntity
  8
0
100
AcDbLine
 62
7
  6
CONTINUOUS
 10
547.2119064191
 20
1374.5498028405
 11
547.2119064191
 21
1366.0458509439
  0
LINE
  5
259
100
AcDbEntity
  8
0
100
AcDbLine
 62
7
  6
CONTINUOUS
 10
547.7496408606
 20
1365.7353968428
 11
547.7496408606
 21
1372.662078691
  0
LINE
  5
25A
100
AcDbEntity
  8
0
100
AcDbLine
 62
7
  6
CONTINUOUS
 10
548.9144503201
 20
729.4486219891
 11
548.9144503201
 21
941.6739302494
  0
LINE
  5
25B
100
AcDbEntity
  8
0
100
AcDbLine
 62
7
  6
CONTINUOUS
 10
493.5626274519
 20
970.6104232427
 11
495.6697968868
 21
972.1699218364
  0
LINE
  5
25C
100
AcDbEntity
  8
0
100
AcDbLine
 62
7
  6
CONTINUOUS
 10
495.8812209341
 20
972.2919868384
 11
495.6697968868
 21
972.1699218364
  0
LINE
  5
25D
100
AcDbEntity
  8
0
100
AcDbLine
 62
7
  6
CONTINUOUS
 10
562.8805744956
 20
1297.8385182542
 11
562.8805744956
 21
1296.9882305645
  0
LINE
  5
25E
100
AcDbEntity
  8
0
100
AcDbLine
 62
7
  6
CONTINUOUS
 10
562.8805744956
 20
358.0022858413
 11
562.8805744956
 21
357.159340669
  0
LINE
  5
25F
100
AcDbEntity
  8
0
100
AcDbLine
 62
7
  6
CONTINUOUS
 10
518.2973080915
 20
959.1062176918
 11
516.1901386566
 21
957.5467190981
  0
LINE
  5
260
100
AcDbEntity
  8
0
100
AcDbLine
 62
7
  6
CONTINUOUS
 10
523.9683456332
 20
953.0560707983
 11
526.0755150681
 21
954.6155693921
  0
LINE
  5
261
100
AcDbEntity
  8
0
100
AcDbLine
 62
7
  6
CONTINUOUS
 10
548.7030262728
 20
941.5518652474
 11
546.5958568379
 21
939.9923666537
  0
LINE
  5
262
100
AcDbEntity
  8
0
100
AcDbLine
 62
7
  6
CONTINUOUS
 10
878.5606599392
 20
1155.7092816807
 11
895.0444929735
 21
1165.2291565444
  0
LINE
  5
263
100
AcDbEntity
  8
0
100
AcDbLine
 62
7
  6
CONTINUOUS
 10
518.5742039219
 20
959.2660826197
 11
518.2973080915
 21
959.1062176918
  0
LINE
  5
264
100
AcDbEntity
  8
0
100
AcDbLine
 62
7
  6
CONTINUOUS
 10
901.358231962
 20
1171.732558549
 11
1147.5293618496
 21
1313.8586782778
  0
LINE
  5
265
100
AcDbEntity
  8
0
100
AcDbLine
 62
7
  6
CONTINUOUS
 10
526.3532378168
 20
954.7759117387
 11
526.0755150681
 21
954.6155693921
  0
LINE
  5
266
100
AcDbEntity
  8
0
100
AcDbLine
 62
7
  6
CONTINUOUS
 10
548.9144503201
 20
941.6739302494
 11
548.7030262728
 21
941.5518652474
  0
LINE
  5
267
100
AcDbEntity
  8
0
100
AcDbLine
 62
7
  6
CONTINUOUS
 10
1151.7231858821
 20
1313.4217843998
 11
1167.0951592717
 21
1322.2937581656
  0
LINE
  5
268
100
AcDbEntity
  8
0
100
AcDbLine
 62
7
  6
CONTINUOUS
 10
892.5707518695
 20
1166.6573393269
 11
898.579302518
 21
1170.1199602082
  0
LINE
  5
269
100
AcDbEntity
  8
0
100
AcDbLine
 62
7
  6
CONTINUOUS
 10
1147.5300780969
 20
1313.8582647616
 11
1148.1165988156
 21
1314.1919136005
  0
LINE
  5
26A
100
AcDbEntity
  8
0
100
AcDbLine
 62
7
  6
CONTINUOUS
 10
543.6472338367
 20
935.1791143228
 11
521.019722632
 21
948.2428184674
  0
LINE
  5
26B
100
AcDbEntity
  8
0
100
AcDbLine
 62
7
  6
CONTINUOUS
 10
513.2415156554
 20
952.7334667671
 11
490.6140044507
 21
965.7971709118
  0
LINE
  5
26C
100
AcDbEntity
  8
0
100
AcDbLine
 62
7
  6
CONTINUOUS
 10
546.5958568379
 20
939.9923666537
 11
523.9683456332
 21
953.0560707983
  0
LINE
  5
26D
100
AcDbEntity
  8
0
100
AcDbLine
 62
7
  6
CONTINUOUS
 10
516.1901386566
 20
957.5467190981
 11
493.5626274519
 21
970.6104232427
  0
LINE
  5
26E
100
AcDbEntity
  8
0
100
AcDbLine
 62
7
  6
CONTINUOUS
 10
548.7030262728
 20
941.5518652474
 11
526.0755150681
 21
954.6155693921
  0
LINE
  5
26F
100
AcDbEntity
  8
0
100
AcDbLine
 62
7
  6
CONTINUOUS
 10
518.2973080915
 20
959.1062176918
 11
495.6697968868
 21
972.1699218364
  0
LINE
  5
270
100
AcDbEntity
  8
0
100
AcDbLine
 62
7
  6
CONTINUOUS
 10
548.9144503201
 20
941.6739302494
 11
526.8886017383
 21
954.3902721752
  0
LINE
  5
271
100
AcDbEntity
  8
0
100
AcDbLine
 62
7
  6
CONTINUOUS
 10
517.907069519
 20
959.5756449109
 11
495.8812209341
 21
972.2919868384
  0
LINE
  5
272
100
AcDbEntity
  8
0
100
AcDbLine
 62
7
  6
CONTINUOUS
 10
194.1954853968
 20
1576.7820477104
 11
199.796550433
 21
1566.6216626119
  0
LINE
  5
273
100
AcDbEntity
  8
0
100
AcDbLine
 62
7
  6
CONTINUOUS
 10
1147.8334164996
 20
1238.916000888
 11
1147.5293618496
 21
1238.7404559019
  0
LINE
  5
274
100
AcDbEntity
  8
0
100
AcDbLine
 62
7
  6
CONTINUOUS
 10
901.358231962
 20
1096.614336173
 11
901.054177312
 21
1096.4387911869
  0
LINE
  5
275
100
AcDbEntity
  8
0
100
AcDbLine
 62
7
  6
CONTINUOUS
 10
901.054177312
 20
1083.3747525128
 11
901.358231962
 21
1083.550297499
  0
LINE
  5
276
100
AcDbEntity
  8
0
100
AcDbLine
 62
7
  6
CONTINUOUS
 10
1147.5293618496
 20
1225.6764172278
 11
1147.8334164996
 21
1225.851962214
  0
LINE
  5
277
100
AcDbEntity
  8
0
100
AcDbLine
 62
7
  6
CONTINUOUS
 10
895.0444929735
 20
775.1953011457
 11
898.524648711
 21
773.3210544061
  0
LINE
  5
278
100
AcDbEntity
  8
0
100
AcDbLine
 62
7
  6
CONTINUOUS
 10
898.524650292
 20
794.4684661583
 11
895.0444929735
 21
796.3427137494
  0
LINE
  5
279
100
AcDbEntity
  8
0
100
AcDbLine
 62
7
  6
CONTINUOUS
 10
895.0444929735
 20
776.6142735018
 11
901.0214910819
 21
773.1635301013
  0
LINE
  5
27A
100
AcDbEntity
  8
0
100
AcDbLine
 62
7
  6
CONTINUOUS
 10
547.2117978997
 20
1374.5497839122
 11
547.7496389344
 21
1372.662079803
  0
LINE
  5
27B
100
AcDbEntity
  8
0
100
AcDbLine
 62
7
  6
CONTINUOUS
 10
835.470666436
 20
200.6250667296
 11
835.5089034544
 21
199.805323701
  0
LINE
  5
27C
100
AcDbEntity
  8
0
100
AcDbLine
 62
7
  6
CONTINUOUS
 10
798.1683233086
 20
1516.225175064
 11
798.1683233086
 21
1517.5421616599
  0
LINE
  5
27D
100
AcDbEntity
  8
0
100
AcDbLine
 62
7
  6
CONTINUOUS
 10
800.2896524841
 20
1516.3174393964
 11
800.2896524841
 21
1515.0004528005
  0
LINE
  5
27E
100
AcDbEntity
  8
0
100
AcDbLine
 62
7
  6
CONTINUOUS
 10
518.2973080915
 20
746.8809094315
 11
518.5742039219
 21
747.0407743594
  0
LINE
  5
27F
100
AcDbEntity
  8
0
100
AcDbLine
 62
7
  6
CONTINUOUS
 10
548.7030262728
 20
729.3265569871
 11
548.9144503201
 21
729.4486219891
  0
LINE
  5
280
100
AcDbEntity
  8
0
100
AcDbLine
 62
7
  6
CONTINUOUS
 10
516.1901386566
 20
746.0072728681
 11
518.2973080915
 21
746.8809094315
  0
LINE
  5
281
100
AcDbEntity
  8
0
100
AcDbLine
 62
7
  6
CONTINUOUS
 10
547.7496408606
 20
1372.662078691
 11
553.3507058968
 21
1362.5016935925
  0
LINE
  5
282
100
AcDbEntity
  8
0
100
AcDbLine
 62
7
  6
CONTINUOUS
 10
815.8839989776
 20
1525.1150857582
 11
815.9056459722
 21
1524.1115272849
  0
LINE
  5
283
100
AcDbEntity
  8
0
100
AcDbLine
 62
7
  6
CONTINUOUS
 10
814.9832474939
 20
1526.7412286663
 11
814.9832474939
 21
1523.6536643458
  0
LINE
  5
284
100
AcDbEntity
  8
0
100
AcDbLine
 62
7
  6
CONTINUOUS
 10
835.5092365115
 20
1140.4824313368
 11
835.470666436
 21
1139.6110114528
  0
LINE
  5
285
100
AcDbEntity
  8
0
100
AcDbLine
 62
7
  6
CONTINUOUS
 10
546.5958568379
 20
728.4529204238
 11
548.7030262728
 21
729.3265569871
  0
LINE
  5
286
100
AcDbEntity
  8
0
100
AcDbLine
 62
7
  6
CONTINUOUS
 10
901.0214910819
 20
243.1718111424
 11
901.0378341969
 21
239.1206886892
  0
LINE
  5
287
100
AcDbEntity
  8
0
100
AcDbLine
 62
7
  6
CONTINUOUS
 10
901.0214910819
 20
549.360217566
 11
901.0378341969
 21
545.3090951128
  0
LINE
  5
288
100
AcDbEntity
  8
0
100
AcDbLine
 62
7
  6
CONTINUOUS
 10
901.0214910819
 20
794.3109427049
 11
901.0378341969
 21
790.2598202517
  0
LINE
  5
289
100
AcDbEntity
  8
0
100
AcDbLine
 62
7
  6
CONTINUOUS
 10
901.0214910819
 20
1100.4993491285
 11
901.0378341969
 21
1096.4482266753
  0
LINE
  5
28A
100
AcDbEntity
  8
0
100
AcDbLine
 62
7
  6
CONTINUOUS
 10
871.4626391963
 20
1118.8323228676
 11
871.4626391963
 21
179.8463781445
  0
LINE
  5
28B
100
AcDbEntity
  8
0
100
AcDbLine
 62
7
  6
CONTINUOUS
 10
877.0133400609
 20
144.2611032388
 11
877.0133400609
 21
1154.309951648
  0
LINE
  5
28C
100
AcDbEntity
  8
0
100
AcDbLine
 62
7
  6
CONTINUOUS
 10
895.0444929735
 20
1165.2291565444
 11
895.0444929735
 21
152.7661593038
  0
LINE
  5
28D
100
AcDbEntity
  8
0
100
AcDbLine
 62
7
  6
CONTINUOUS
 10
898.579302518
 20
1170.1199602082
 11
898.579302518
 21
1100.6274394863
  0
LINE
  5
28E
100
AcDbEntity
  8
0
100
AcDbLine
 62
7
  6
CONTINUOUS
 10
898.579302518
 20
1079.4800268827
 11
898.579302518
 21
794.4390330627
  0
LINE
  5
28F
100
AcDbEntity
  8
0
100
AcDbLine
 62
7
  6
CONTINUOUS
 10
898.579302518
 20
773.2916204591
 11
898.579302518
 21
549.4883079238
  0
LINE
  5
290
100
AcDbEntity
  8
0
100
AcDbLine
 62
7
  6
CONTINUOUS
 10
898.579302518
 20
528.3408953202
 11
898.579302518
 21
243.2999015003
  0
LINE
  5
291
100
AcDbEntity
  8
0
100
AcDbLine
 62
7
  6
CONTINUOUS
 10
898.579302518
 20
222.1524888966
 11
898.579302518
 21
152.6599681747
  0
LINE
  5
292
100
AcDbEntity
  8
0
100
AcDbLine
 62
7
  6
CONTINUOUS
 10
901.0378341969
 20
226.0566500152
 11
901.0378341969
 21
239.1206886892
  0
LINE
  5
293
100
AcDbEntity
  8
0
100
AcDbLine
 62
7
  6
CONTINUOUS
 10
901.0378341969
 20
532.2450564388
 11
901.0378341969
 21
545.3090951128
  0
LINE
  5
294
100
AcDbEntity
  8
0
100
AcDbLine
 62
7
  6
CONTINUOUS
 10
901.0378341969
 20
777.1957815776
 11
901.0378341969
 21
790.2598202517
  0
LINE
  5
295
100
AcDbEntity
  8
0
100
AcDbLine
 62
7
  6
CONTINUOUS
 10
901.0378341969
 20
1083.3841880012
 11
901.0378341969
 21
1096.4482266753
  0
LINE
  5
296
100
AcDbEntity
  8
0
100
AcDbLine
 62
7
  6
CONTINUOUS
 10
901.358231962
 20
239.286798187
 11
901.358231962
 21
532.4111659365
  0
LINE
  5
297
100
AcDbEntity
  8
0
100
AcDbLine
 62
7
  6
CONTINUOUS
 10
901.358231962
 20
545.4752046106
 11
901.358231962
 21
777.3618910754
  0
LINE
  5
298
100
AcDbEntity
  8
0
100
AcDbLine
 62
7
  6
CONTINUOUS
 10
901.358231962
 20
790.4259297494
 11
901.358231962
 21
1083.550297499
  0
LINE
  5
299
100
AcDbEntity
  8
0
100
AcDbLine
 62
7
  6
CONTINUOUS
 10
901.358231962
 20
1096.614336173
 11
901.3544957627
 21
1171.7304014662
  0
LINE
  5
29A
100
AcDbEntity
  8
0
100
AcDbLine
 62
7
  6
CONTINUOUS
 10
901.3544957641
 20
151.102380055
 11
901.358231962
 21
226.2227595129
  0
LINE
  5
29B
100
AcDbEntity
  8
0
100
AcDbLine
 62
7
  6
CONTINUOUS
 10
901.0378341969
 20
1083.3841880012
 11
901.0214910819
 21
1079.3519365248
  0
LINE
  5
29C
100
AcDbEntity
  8
0
100
AcDbLine
 62
7
  6
CONTINUOUS
 10
901.0378341969
 20
777.1957815776
 11
901.0214910819
 21
773.1635301013
  0
LINE
  5
29D
100
AcDbEntity
  8
0
100
AcDbLine
 62
7
  6
CONTINUOUS
 10
901.0378341969
 20
532.2450564388
 11
901.0214910819
 21
528.2128049624
  0
LINE
  5
29E
100
AcDbEntity
  8
0
100
AcDbLine
 62
7
  6
CONTINUOUS
 10
901.0378341969
 20
226.0566500152
 11
901.0214910819
 21
222.0243985388
  0
LINE
  5
29F
100
AcDbEntity
  8
0
100
AcDbLine
 62
7
  6
CONTINUOUS
 10
1147.8334164996
 20
932.7275944644
 11
1147.5293618496
 21
932.5520494783
  0
LINE
  5
2A0
100
AcDbEntity
  8
0
100
AcDbLine
 62
7
  6
CONTINUOUS
 10
901.358231962
 20
790.4259297494
 11
901.054177312
 21
790.2503847633
  0
LINE
  5
2A1
100
AcDbEntity
  8
0
100
AcDbLine
 62
7
  6
CONTINUOUS
 10
901.054177312
 20
777.1863460892
 11
901.358231962
 21
777.3618910754
  0
LINE
  5
2A2
100
AcDbEntity
  8
0
100
AcDbLine
 62
7
  6
CONTINUOUS
 10
1147.5293618496
 20
919.4880108042
 11
1147.8334164996
 21
919.6635557904
  0
LINE
  5
2A3
100
AcDbEntity
  8
0
100
AcDbLine
 62
7
  6
CONTINUOUS
 10
895.0444929735
 20
1081.3837075693
 11
898.524648711
 21
1079.5094608297
  0
LINE
  5
2A4
100
AcDbEntity
  8
0
100
AcDbLine
 62
7
  6
CONTINUOUS
 10
898.524650292
 20
1100.6568725819
 11
895.0444929735
 21
1102.531120173
  0
LINE
  5
2A5
100
AcDbEntity
  8
0
100
AcDbLine
 62
7
  6
CONTINUOUS
 10
895.0444929735
 20
1082.8026799254
 11
901.0214910819
 21
1079.3519365248
  0
LINE
  5
2A6
100
AcDbEntity
  8
0
100
AcDbLine
 62
7
  6
CONTINUOUS
 10
517.907069519
 20
1322.9522918836
 11
481.9158038625
 21
1343.7313887129
  0
LINE
  5
2A7
100
AcDbEntity
  8
0
100
AcDbLine
 62
7
  6
CONTINUOUS
 10
209.3250048183
 20
1501.1081995805
 11
173.3337391648
 21
1521.8872964081
  0
LINE
  5
2A8
100
AcDbEntity
  8
0
100
AcDbLine
 62
7
  6
CONTINUOUS
 10
871.4626391963
 20
1118.8323228676
 11
835.4713735398
 21
1139.6114196969
  0
LINE
  5
2A9
100
AcDbEntity
  8
0
100
AcDbLine
 62
7
  6
CONTINUOUS
 10
562.8805744956
 20
1296.9882305645
 11
526.8893088421
 21
1317.7673273921
  0
LINE
  5
2AA
100
AcDbEntity
  8
0
100
AcDbLine
 62
7
  6
CONTINUOUS
 10
481.9158038625
 20
1344.5816764027
 11
209.3250048183
 21
1501.9584872702
  0
LINE
  5
2AB
100
AcDbEntity
  8
0
100
AcDbLine
 62
7
  6
CONTINUOUS
 10
835.4713735398
 20
1140.4617073867
 11
562.8805744956
 21
1297.8385182542
  0
LINE
  5
2AC
100
AcDbEntity
  8
0
100
AcDbLine
 62
7
  6
CONTINUOUS
 10
172.3404213329
 20
1557.1965676791
 11
521.8986650098
 21
1355.3835872145
  0
LINE
  5
2AD
100
AcDbEntity
  8
0
100
AcDbLine
 62
7
  6
CONTINUOUS
 10
525.8952839064
 20
1353.076190419
 11
875.4535275833
 21
1151.2632099544
  0
LINE
  5
2AE
100
AcDbEntity
  8
0
100
AcDbLine
 62
7
  6
CONTINUOUS
 10
878.5606599392
 20
1155.7092816807
 11
528.2389861858
 21
1357.9630187342
  0
LINE
  5
2AF
100
AcDbEntity
  8
0
100
AcDbLine
 62
7
  6
CONTINUOUS
 10
525.0057973657
 20
1359.8296589409
 11
174.6841236124
 21
1562.0833959944
  0
LINE
  5
2B0
100
AcDbEntity
  8
0
100
AcDbLine
 62
7
  6
CONTINUOUS
 10
895.0444929735
 20
1165.2291565444
 11
543.6109595754
 21
1368.124811541
  0
LINE
  5
2B1
100
AcDbEntity
  8
0
100
AcDbLine
 62
7
  6
CONTINUOUS
 10
541.4896304
 20
1369.3495338046
 11
190.0560970019
 21
1572.2451888012
  0
LINE
  5
2B2
100
AcDbEntity
  8
0
100
AcDbLine
 62
7
  6
CONTINUOUS
 10
194.1954853968
 20
1576.7820477104
 11
222.6707940285
 21
1560.3421925259
  0
LINE
  5
2B3
100
AcDbEntity
  8
0
100
AcDbLine
 62
7
  6
CONTINUOUS
 10
547.7496408606
 20
1372.662078691
 11
576.2249494922
 21
1356.2222235065
  0
LINE
  5
2B4
100
AcDbEntity
  8
0
100
AcDbLine
 62
7
  6
CONTINUOUS
 10
222.6750366515
 20
1560.3446419908
 11
545.0251470543
 21
1374.2399292276
  0
LINE
  5
2B5
100
AcDbEntity
  8
0
100
AcDbLine
 62
7
  6
CONTINUOUS
 10
576.2291921153
 20
1356.2246729714
 11
898.579302518
 21
1170.1199602082
  0
LINE
  5
2B6
100
AcDbEntity
  8
0
100
AcDbLine
 62
7
  6
CONTINUOUS
 10
901.358231962
 20
1171.732558549
 11
224.0871230144
 21
1562.7439202553
  0
LINE
  5
2B7
100
AcDbEntity
  8
0
100
AcDbLine
 62
7
  6
CONTINUOUS
 10
224.0871230144
 20
1562.7439202553
 11
194.2449713017
 21
1579.9704553636
  0
LINE
  5
2B8
100
AcDbEntity
  8
0
100
AcDbLine
 62
7
  6
CONTINUOUS
 10
1147.8170733846
 20
381.5978983904
 11
1147.8007302695
 21
385.6490208436
  0
LINE
  5
2B9
100
AcDbEntity
  8
0
100
AcDbLine
 62
7
  6
CONTINUOUS
 10
1147.8170733846
 20
687.786304814
 11
1147.8007302695
 21
691.8374272672
  0
LINE
  5
2BA
100
AcDbEntity
  8
0
100
AcDbLine
 62
7
  6
CONTINUOUS
 10
1147.8170733846
 20
932.7370299529
 11
1147.8007302695
 21
936.7881524061
  0
LINE
  5
2BB
100
AcDbEntity
  8
0
100
AcDbLine
 62
7
  6
CONTINUOUS
 10
1147.8170733846
 20
1238.9254363764
 11
1147.8007302695
 21
1242.9765588296
  0
LINE
  5
2BC
100
AcDbEntity
  8
0
100
AcDbLine
 62
7
  6
CONTINUOUS
 10
1147.5330980489
 20
293.2328139486
 11
1147.5293618496
 21
368.3488792417
  0
LINE
  5
2BD
100
AcDbEntity
  8
0
100
AcDbLine
 62
7
  6
CONTINUOUS
 10
1147.5293618496
 20
381.4129179158
 11
1147.5293618496
 21
674.5372856653
  0
LINE
  5
2BE
100
AcDbEntity
  8
0
100
AcDbLine
 62
7
  6
CONTINUOUS
 10
1147.5293618496
 20
687.6013243394
 11
1147.5293618496
 21
919.4880108042
  0
LINE
  5
2BF
100
AcDbEntity
  8
0
100
AcDbLine
 62
7
  6
CONTINUOUS
 10
1147.5293618496
 20
932.5520494783
 11
1147.5293618496
 21
1225.6764172278
  0
LINE
  5
2C0
100
AcDbEntity
  8
0
100
AcDbLine
 62
7
  6
CONTINUOUS
 10
1147.8170733846
 20
1238.9254363764
 11
1147.8170733846
 21
1225.8613977024
  0
LINE
  5
2C1
100
AcDbEntity
  8
0
100
AcDbLine
 62
7
  6
CONTINUOUS
 10
1147.8170733846
 20
932.7370299529
 11
1147.8170733846
 21
919.6729912788
  0
LINE
  5
2C2
100
AcDbEntity
  8
0
100
AcDbLine
 62
7
  6
CONTINUOUS
 10
1147.8170733846
 20
687.786304814
 11
1147.8170733846
 21
674.7222661399
  0
LINE
  5
2C3
100
AcDbEntity
  8
0
100
AcDbLine
 62
7
  6
CONTINUOUS
 10
1147.8170733846
 20
381.5978983904
 11
1147.8170733846
 21
368.5338597163
  0
LINE
  5
2C4
100
AcDbEntity
  8
0
100
AcDbLine
 62
7
  6
CONTINUOUS
 10
1148.116582196
 20
1314.1919160408
 11
1148.116582196
 21
1243.5991035
  0
LINE
  5
2C5
100
AcDbEntity
  8
0
100
AcDbLine
 62
7
  6
CONTINUOUS
 10
1148.116582196
 20
1221.829146226
 11
1148.116582196
 21
937.4106970764
  0
LINE
  5
2C6
100
AcDbEntity
  8
0
100
AcDbLine
 62
7
  6
CONTINUOUS
 10
1148.116582196
 20
915.6407398024
 11
1148.116582196
 21
692.4599719376
  0
LINE
  5
2C7
100
AcDbEntity
  8
0
100
AcDbLine
 62
7
  6
CONTINUOUS
 10
1148.116582196
 20
670.6900146635
 11
1148.116582196
 21
386.271565514
  0
LINE
  5
2C8
100
AcDbEntity
  8
0
100
AcDbLine
 62
7
  6
CONTINUOUS
 10
1148.116582196
 20
364.5016082399
 11
1148.116582196
 21
294.5313403695
  0
LINE
  5
2C9
100
AcDbEntity
  8
0
100
AcDbLine
 62
7
  6
CONTINUOUS
 10
1148.8910071701
 20
305.4442422122
 11
1148.8910071701
 21
1311.3628836847
  0
LINE
  5
2CA
100
AcDbEntity
  8
0
100
AcDbLine
 62
7
  6
CONTINUOUS
 10
1151.7231858821
 20
300.9587871591
 11
1151.7231858821
 21
1313.4217843998
  0
LINE
  5
2CB
100
AcDbEntity
  8
0
100
AcDbLine
 62
7
  6
CONTINUOUS
 10
1168.5381100674
 20
1322.6208514061
 11
1168.5381100674
 21
312.572002997
  0
LINE
  5
2CC
100
AcDbEntity
  8
0
100
AcDbLine
 62
7
  6
CONTINUOUS
 10
1169.6132640552
 20
1306.892834503
 11
1169.6132640552
 21
331.4496978855
  0
LINE
  5
2CD
100
AcDbEntity
  8
0
100
AcDbLine
 62
7
  6
CONTINUOUS
 10
1147.5330980475
 20
1313.8608353598
 11
1147.5293618496
 21
1238.7404559019
  0
LINE
  5
2CE
100
AcDbEntity
  8
0
100
AcDbLine
 62
7
  6
CONTINUOUS
 10
1147.8007302695
 20
1221.829146226
 11
1147.8170733846
 21
1225.8613977024
  0
LINE
  5
2CF
100
AcDbEntity
  8
0
100
AcDbLine
 62
7
  6
CONTINUOUS
 10
1147.8007302695
 20
915.6407398024
 11
1147.8170733846
 21
919.6729912788
  0
LINE
  5
2D0
100
AcDbEntity
  8
0
100
AcDbLine
 62
7
  6
CONTINUOUS
 10
1147.8007302695
 20
670.6900146635
 11
1147.8170733846
 21
674.7222661399
  0
LINE
  5
2D1
100
AcDbEntity
  8
0
100
AcDbLine
 62
7
  6
CONTINUOUS
 10
1147.8007302695
 20
364.5016082399
 11
1147.8170733846
 21
368.5338597163
  0
LINE
  5
2D2
100
AcDbEntity
  8
0
100
AcDbLine
 62
7
  6
CONTINUOUS
 10
1147.8334164996
 20
687.7768693256
 11
1147.5293618496
 21
687.6013243394
  0
LINE
  5
2D3
100
AcDbEntity
  8
0
100
AcDbLine
 62
7
  6
CONTINUOUS
 10
901.358231962
 20
545.4752046106
 11
901.054177312
 21
545.2996596244
  0
LINE
  5
2D4
100
AcDbEntity
  8
0
100
AcDbLine
 62
7
  6
CONTINUOUS
 10
901.054177312
 20
532.2356209503
 11
901.358231962
 21
532.4111659365
  0
LINE
  5
2D5
100
AcDbEntity
  8
0
100
AcDbLine
 62
7
  6
CONTINUOUS
 10
1147.5293618496
 20
674.5372856653
 11
1147.8334164996
 21
674.7128306515
  0
LINE
  5
2D6
100
AcDbEntity
  8
0
100
AcDbLine
 62
7
  6
CONTINUOUS
 10
525.8760397312
 20
349.0832433191
 11
525.007094129
 21
348.6489654203
  0
LINE
  5
2D7
100
AcDbEntity
  8
0
100
AcDbLine
 62
7
  6
CONTINUOUS
 10
1168.5367848833
 20
1322.6211111872
 11
1168.8934634517
 21
1322.4958551375
  0
LINE
  5
2D8
100
AcDbEntity
  8
0
100
AcDbLine
 62
7
  6
CONTINUOUS
 10
1148.8910071701
 20
1298.901814883
 11
1148.116582196
 21
1299.3489192354
  0
LINE
  5
2D9
100
AcDbEntity
  8
0
100
AcDbLine
 62
7
  6
CONTINUOUS
 10
1148.8910071701
 20
1311.3628836847
 11
1148.116582196
 21
1311.8099880371
  0
LINE
  5
2DA
100
AcDbEntity
  8
0
100
AcDbLine
 62
7
  6
CONTINUOUS
 10
470.258252902
 20
1704.8700399841
 11
1147.5293618496
 21
1313.8586782778
  0
LINE
  5
2DB
100
AcDbEntity
  8
0
100
AcDbLine
 62
7
  6
CONTINUOUS
 10
440.4161011893
 20
1722.0965750924
 11
470.258252902
 21
1704.8700399841
  0
LINE
  5
2DC
100
AcDbEntity
  8
0
100
AcDbLine
 62
7
  6
CONTINUOUS
 10
441.8261543366
 20
1721.9547680184
 11
471.2547652356
 21
1704.9645359644
  0
LINE
  5
2DD
100
AcDbEntity
  8
0
100
AcDbLine
 62
7
  6
CONTINUOUS
 10
795.3803098003
 20
1517.834798999
 11
824.8089206994
 21
1500.844566945
  0
LINE
  5
2DE
100
AcDbEntity
  8
0
100
AcDbLine
 62
7
  6
CONTINUOUS
 10
1148.1165759925
 20
1314.1919267772
 11
824.8131633224
 21
1500.8470164099
  0
LINE
  5
2DF
100
AcDbEntity
  8
0
100
AcDbLine
 62
7
  6
CONTINUOUS
 10
794.5624205288
 20
1518.3118957966
 11
471.2590078586
 21
1704.9669854293
  0
LINE
  5
2E0
100
AcDbEntity
  8
0
100
AcDbLine
 62
7
  6
CONTINUOUS
 10
446.7347899106
 20
1720.4378166565
 11
798.1683233086
 21
1517.5421616599
  0
LINE
  5
2E1
100
AcDbEntity
  8
0
100
AcDbLine
 62
7
  6
CONTINUOUS
 10
800.2896524841
 20
1516.3174393964
 11
1151.7231858821
 21
1313.4217843998
  0
LINE
  5
2E2
100
AcDbEntity
  8
0
100
AcDbLine
 62
7
  6
CONTINUOUS
 10
814.9819223098
 20
1526.7414884473
 11
815.3386008782
 21
1526.6162323976
  0
LINE
  5
2E3
100
AcDbEntity
  8
0
100
AcDbLine
 62
7
  6
CONTINUOUS
 10
818.7758453665
 20
1524.6317832613
 11
818.3193786102
 21
1524.8146507453
  0
LINE
  5
2E4
100
AcDbEntity
  8
0
100
AcDbLine
 62
7
  6
CONTINUOUS
 10
463.2186229449
 20
1728.6678724793
 11
813.5402966982
 21
1526.4141354258
  0
LINE
  5
2E5
100
AcDbEntity
  8
0
100
AcDbLine
 62
7
  6
CONTINUOUS
 10
816.7734855184
 20
1524.5474952192
 11
1167.0951592717
 21
1322.2937581656
  0
LINE
  5
2E6
100
AcDbEntity
  8
0
100
AcDbLine
 62
7
  6
CONTINUOUS
 10
1168.9003648859
 20
1322.4918708379
 11
818.769980722
 21
1524.6351692939
  0
LINE
  5
2E7
100
AcDbEntity
  8
0
100
AcDbLine
 62
7
  6
CONTINUOUS
 10
815.3455023124
 20
1526.612248098
 11
465.2151181485
 21
1728.7555465541
  0
LINE
  5
2E8
100
AcDbEntity
  8
0
100
AcDbLine
 62
7
  6
CONTINUOUS
 10
465.220982793
 20
1728.7521605215
 11
464.7645160367
 21
1728.9350280054
  0
LINE
  5
2E9
100
AcDbEntity
  8
0
100
AcDbLine
 62
7
  6
CONTINUOUS
 10
1148.116737783
 20
294.5313675876
 11
1147.5300769941
 21
293.2302439863
  0
LINE
  5
2EA
100
AcDbEntity
  8
0
100
AcDbLine
 62
7
  6
CONTINUOUS
 10
1147.8334164996
 20
381.588462902
 11
1147.5293618496
 21
381.4129179158
  0
LINE
  5
2EB
100
AcDbEntity
  8
0
100
AcDbLine
 62
7
  6
CONTINUOUS
 10
901.358231962
 20
239.286798187
 11
901.054177312
 21
239.1112532008
  0
LINE
  5
2EC
100
AcDbEntity
  8
0
100
AcDbLine
 62
7
  6
CONTINUOUS
 10
901.054177312
 20
226.0472145267
 11
901.358231962
 21
226.2227595129
  0
LINE
  5
2ED
100
AcDbEntity
  8
0
100
AcDbLine
 62
7
  6
CONTINUOUS
 10
1147.5293618496
 20
368.3488792417
 11
1147.8334164996
 21
368.5244242279
  0
LINE
  5
2EE
100
AcDbEntity
  8
0
100
AcDbLine
 62
7
  6
CONTINUOUS
 10
1167.093949977
 20
311.1116177805
 11
1151.7231858821
 21
300.9587871591
  0
LINE
  5
2EF
100
AcDbEntity
  8
0
100
AcDbLine
 62
7
  6
CONTINUOUS
 10
1147.5293618496
 20
293.2306568658
 11
901.358231962
 21
151.104537137
  0
LINE
  5
2F0
100
AcDbEntity
  8
0
100
AcDbLine
 62
7
  6
CONTINUOUS
 10
895.0444929735
 20
152.7661593038
 11
878.5619567025
 21
144.5285881601
  0
LINE
  5
2F1
100
AcDbEntity
  8
0
100
AcDbLine
 62
7
  6
CONTINUOUS
 10
441.8261289335
 20
1721.9547826839
 11
440.4153860448
 21
1722.0969879719
  0
ARC
  5
2F2
100
AcDbEntity
  8
0
100
AcDbCircle
 62
7
  6
CONTINUOUS
 10
928.3929793963
 20
1540.9361438412
 40
756.2273943316
100
AcDbArc
 50
178.7679295003
 51
179.9386324406
  0
ARC
  5
2F3
100
AcDbEntity
  8
0
100
AcDbCircle
 62
7
  6
CONTINUOUS
 10
1281.9478419627
 20
1336.8157665811
 40
756.2273943244
100
AcDbArc
 50
178.7679295003
 51
179.9386324406
  0
ARC
  5
2F4
100
AcDbEntity
  8
0
100
AcDbCircle
 62
7
  6
CONTINUOUS
 10
413.411377057
 20
332.2593886589
 40
756.2023205702
100
AcDbArc
 50
358.7679098957
 51
359.9386514987
  0
ARC
  5
2F5
100
AcDbEntity
  8
0
100
AcDbCircle
 62
7
  6
CONTINUOUS
 10
1120.078797456
 20
839.2533690275
 40
642.0586105867
100
AcDbArc
 50
168.6331156824
 51
169.3796375197
  0
ARC
  5
2F6
100
AcDbEntity
  8
0
100
AcDbCircle
 62
7
  6
CONTINUOUS
 10
532.682342967
 20
1306.0677162742
 40
636.9314555399
100
AcDbArc
 50
0.0742243268
 51
1.3428948383
  0
ARC
  5
2F7
100
AcDbEntity
  8
0
100
AcDbCircle
 62
7
  6
CONTINUOUS
 10
1162.6301449234
 20
363.0074538749
 40
636.9097977428
100
AcDbArc
 50
180.0742031388
 51
181.3429166307
  0
ARC
  5
2F8
100
AcDbEntity
  8
0
100
AcDbCircle
 62
7
  6
CONTINUOUS
 10
809.0752823468
 20
567.127831135
 40
636.9097977397
100
AcDbArc
 50
180.0742031388
 51
181.3429166307
  0
ARC
  5
2F9
100
AcDbEntity
  8
0
100
AcDbCircle
 62
7
  6
CONTINUOUS
 10
943.0495336469
 20
856.5138243129
 40
463.9130450284
100
AcDbArc
 50
179.9997439847
 51
180.3275572264
  0
ARC
  5
2FA
100
AcDbEntity
  8
0
100
AcDbCircle
 62
7
  6
CONTINUOUS
 10
938.7937603688
 20
856.4896600884
 40
459.6572031521
100
AcDbArc
 50
180.3275779293
 51
180.6410161448
  0
SPLINE
  5
2FB
100
AcDbEntity
  8
0
100
AcDbSpline
 62
7
  6
CONTINUOUS
 70
0
 71
3
 72
8
 73
4
 74
0
 42
0.0000001
 43
0.0000001
 44
0.0000000001
 40
0.0
 40
0.0
 40
0.0
 40
0.0
 40
1.0
 40
1.0
 40
1.0
 40
1.0
 10
464.7659428232
 20
1728.9347095651
 30
0.0
 10
464.6090384328
 20
1728.9695447783
 30
0.0
 10
464.4457440957
 20
1728.9806288988
 30
0.0
 10
464.285235418
 20
1728.9722955828
 30
0.0
  0
SPLINE
  5
2FC
100
AcDbEntity
  8
0
100
AcDbSpline
 62
7
  6
CONTINUOUS
 70
0
 71
3
 72
8
 73
4
 74
0
 42
0.0000001
 43
0.0000001
 44
0.0000000001
 40
0.0
 40
0.0
 40
0.0
 40
0.0
 40
1.0
 40
1.0
 40
1.0
 40
1.0
 10
464.285235418
 20
1728.9722955828
 30
0.0
 10
463.9159977432
 20
1728.9531254402
 30
0.0
 10
463.5494191167
 20
1728.8330325458
 30
0.0
 10
463.2186229449
 20
1728.6678724793
 30
0.0
  0
SPLINE
  5
2FD
100
AcDbEntity
  8
0
100
AcDbSpline
 62
7
  6
CONTINUOUS
 70
0
 71
3
 72
9
 73
5
 74
0
 42
0.0000001
 43
0.0000001
 44
0.0000000001
 40
0.0
 40
0.0
 40
0.0
 40
0.0
 40
0.2035193186
 40
1.0
 40
1.0
 40
1.0
 40
1.0
 10
815.345264496
 20
1526.6119567832
 30
0.0
 10
815.4417558873
 20
1526.5562854707
 30
0.0
 10
815.8617401881
 20
1526.1743311347
 30
0.0
 10
815.8743857963
 20
1525.5509227931
 30
0.0
 10
815.884038697
 20
1525.1150628268
 30
0.0
  0
SPLINE
  5
2FE
100
AcDbEntity
  8
0
100
AcDbSpline
 62
7
  6
CONTINUOUS
 70
0
 71
3
 72
9
 73
5
 74
0
 42
0.0000001
 43
0.0000001
 44
0.0000000001
 40
0.0
 40
0.0
 40
0.0
 40
0.0
 40
0.2847860452
 40
1.0
 40
1.0
 40
1.0
 40
1.0
 10
813.5402966982
 20
1526.4141354258
 30
0.0
 10
813.6632795031
 20
1526.4851152662
 30
0.0
 10
814.1064275424
 20
1526.7081084249
 30
0.0
 10
814.6333165629
 20
1526.8099253617
 30
0.0
 10
814.9832474939
 20
1526.7412286663
 30
0.0
  0
SPLINE
  5
2FF
100
AcDbEntity
  8
0
100
AcDbSpline
 62
7
  6
CONTINUOUS
 70
0
 71
3
 72
9
 73
5
 74
0
 42
0.0000001
 43
0.0000001
 44
0.0000000001
 40
0.0
 40
0.0
 40
0.0
 40
0.0
 40
0.2282618596
 40
1.0
 40
1.0
 40
1.0
 40
1.0
 10
514.1854166176
 20
746.0052296013
 30
0.0
 10
514.320420684
 20
745.9272770218
 30
0.0
 10
514.9632315687
 20
745.6685216657
 30
0.0
 10
515.7031442866
 20
745.8056949878
 30
0.0
 10
516.1901386566
 20
746.0072728681
 30
0.0
  0
SPLINE
  5
300
100
AcDbEntity
  8
0
100
AcDbSpline
 62
7
  6
CONTINUOUS
 70
0
 71
3
 72
9
 73
5
 74
0
 42
0.0000001
 43
0.0000001
 44
0.0000000001
 40
0.0
 40
0.0
 40
0.0
 40
0.0
 40
0.7589811699
 40
1.0
 40
1.0
 40
1.0
 40
1.0
 10
490.6140044507
 20
965.7971709118
 30
0.0
 10
490.8713318863
 20
967.2195046003
 30
0.0
 10
491.8034664015
 20
969.0276816999
 30
0.0
 10
493.1934694598
 20
970.3376488877
 30
0.0
 10
493.5626274519
 20
970.6104232427
 30
0.0
  0
SPLINE
  5
301
100
AcDbEntity
  8
0
100
AcDbSpline
 62
7
  6
CONTINUOUS
 70
0
 71
3
 72
9
 73
5
 74
0
 42
0.0000001
 43
0.0000001
 44
0.0000000001
 40
0.0
 40
0.0
 40
0.0
 40
0.0
 40
0.2402564687
 40
1.0
 40
1.0
 40
1.0
 40
1.0
 10
479.1364886231
 20
856.5158972204
 30
0.0
 10
479.1364886231
 20
864.655358352
 30
0.0
 10
480.0234053505
 20
898.5316751179
 30
0.0
 10
484.2755490231
 20
932.2872528656
 30
0.0
 10
489.0187072552
 20
957.5851989983
 30
0.0
  0
SPLINE
  5
302
100
AcDbEntity
  8
0
100
AcDbSpline
 62
7
  6
CONTINUOUS
 70
0
 71
3
 72
9
 73
5
 74
0
 42
0.0000001
 43
0.0000001
 44
0.0000000001
 40
0.0
 40
0.0
 40
0.0
 40
0.0
 40
0.2399518659
 40
1.0
 40
1.0
 40
1.0
 40
1.0
 10
490.6140044507
 20
760.4876381246
 30
0.0
 10
489.1591031043
 20
766.0455178722
 30
0.0
 10
483.7493902175
 20
789.3777259743
 30
0.0
 10
480.8593784022
 20
813.2645783496
 30
0.0
 10
479.8330614859
 20
831.4333958027
 30
0.0
  0
SPLINE
  5
303
100
AcDbEntity
  8
0
100
AcDbSpline
 62
7
  6
CONTINUOUS
 70
0
 71
3
 72
9
 73
5
 74
0
 42
0.0000001
 43
0.0000001
 44
0.0000000001
 40
0.0
 40
0.0
 40
0.0
 40
0.0
 40
0.2475846239
 40
1.0
 40
1.0
 40
1.0
 40
1.0
 10
479.8330614859
 20
831.4333958027
 30
0.0
 10
479.7403177585
 20
833.0752315992
 30
0.0
 10
479.404345694
 20
839.7087815372
 30
0.0
 10
479.2212551162
 20
846.3499770394
 30
0.0
 10
479.1653240606
 20
851.3471950746
 30
0.0
  0
SPLINE
  5
304
100
AcDbEntity
  8
0
100
AcDbSpline
 62
7
  6
CONTINUOUS
 70
0
 71
3
 72
9
 73
5
 74
0
 42
0.0000001
 43
0.0000001
 44
0.0000000001
 40
0.0
 40
0.0
 40
0.0
 40
0.0
 40
0.7223922695
 40
1.0
 40
1.0
 40
1.0
 40
1.0
 10
491.5579053878
 20
759.0689337393
 30
0.0
 10
491.1971171322
 20
759.2772561625
 30
0.0
 10
490.8155408372
 20
759.7811430867
 30
0.0
 10
490.6495183563
 20
760.3315267297
 30
0.0
 10
490.6140044507
 20
760.4876381246
 30
0.0
  0
SPLINE
  5
305
100
AcDbEntity
  8
0
100
AcDbSpline
 62
7
  6
CONTINUOUS
 70
0
 71
3
 72
9
 73
5
 74
0
 42
0.0000001
 43
0.0000001
 44
0.0000000001
 40
0.0
 40
0.0
 40
0.0
 40
0.0
 40
0.2570114614
 40
1.0
 40
1.0
 40
1.0
 40
1.0
 10
173.2424980005
 20
1560.6257170895
 30
0.0
 10
173.0670958728
 20
1560.3742479532
 30
0.0
 10
172.5175198456
 20
1559.3029380877
 30
0.0
 10
172.3584910555
 20
1558.0827441244
 30
0.0
 10
172.3403816136
 20
1557.1965906106
 30
0.0
  0
SPLINE
  5
306
100
AcDbEntity
  8
0
100
AcDbSpline
 62
7
  6
CONTINUOUS
 70
0
 71
3
 72
9
 73
5
 74
0
 42
0.0000001
 43
0.0000001
 44
0.0000000001
 40
0.0
 40
0.0
 40
0.0
 40
0.0
 40
0.2315110653
 40
1.0
 40
1.0
 40
1.0
 40
1.0
 10
174.6841236124
 20
1562.0833959944
 30
0.0
 10
174.5515468859
 20
1561.9957548574
 30
0.0
 10
174.0020126145
 20
1561.5824139904
 30
0.0
 10
173.5428567122
 20
1561.0565835961
 30
0.0
 10
173.2411728166
 20
1560.623809807
 30
0.0
  0
SPLINE
  5
307
100
AcDbEntity
  8
0
100
AcDbSpline
 62
7
  6
CONTINUOUS
 70
0
 71
3
 72
9
 73
5
 74
0
 42
0.0000001
 43
0.0000001
 44
0.0000000001
 40
0.0
 40
0.0
 40
0.0
 40
0.0
 40
0.3272040126
 40
1.0
 40
1.0
 40
1.0
 40
1.0
 10
172.3403815724
 20
552.2011272289
 30
0.0
 10
172.3442954959
 20
552.0244007945
 30
0.0
 10
172.3647536025
 20
551.5010247616
 30
0.0
 10
172.5643247499
 20
550.8858770073
 30
0.0
 10
172.8791557434
 20
550.7042332917
 30
0.0
  0
SPLINE
  5
308
100
AcDbEntity
  8
0
100
AcDbSpline
 62
7
  6
CONTINUOUS
 70
0
 71
3
 72
8
 73
4
 74
0
 42
0.0000001
 43
0.0000001
 44
0.0000000001
 40
0.0
 40
0.0
 40
0.0
 40
0.0
 40
1.0
 40
1.0
 40
1.0
 40
1.0
 10
525.007094129
 20
348.6489654203
 30
0.0
 10
524.8323754876
 20
348.5616452886
 30
0.0
 10
524.6497236911
 20
348.4878268127
 30
0.0
 10
524.4619254677
 20
348.4341310367
 30
0.0
  0
SPLINE
  5
309
100
AcDbEntity
  8
0
100
AcDbSpline
 62
7
  6
CONTINUOUS
 70
0
 71
3
 72
8
 73
4
 74
0
 42
0.0000001
 43
0.0000001
 44
0.0000000001
 40
0.0
 40
0.0
 40
0.0
 40
0.0
 40
1.0
 40
1.0
 40
1.0
 40
1.0
 10
524.4619254677
 20
348.4341310367
 30
0.0
 10
524.1398877094
 20
348.3420531299
 30
0.0
 10
523.7854585949
 20
348.3088856366
 30
0.0
 10
523.4584774874
 20
348.381480499
 30
0.0
  0
SPLINE
  5
30A
100
AcDbEntity
  8
0
100
AcDbSpline
 62
7
  6
CONTINUOUS
 70
0
 71
3
 72
8
 73
4
 74
0
 42
0.0000001
 43
0.0000001
 44
0.0000000001
 40
0.0
 40
0.0
 40
0.0
 40
0.0
 40
1.0
 40
1.0
 40
1.0
 40
1.0
 10
518.5750308402
 20
959.2665600384
 30
0.0
 10
518.3449291021
 20
959.3516642204
 30
0.0
 10
518.1196585893
 20
959.4531891277
 30
0.0
 10
517.907069519
 20
959.5756449109
 30
0.0
  0
SPLINE
  5
30B
100
AcDbEntity
  8
0
100
AcDbSpline
 62
7
  6
CONTINUOUS
 70
0
 71
3
 72
17
 73
13
 74
0
 42
0.0000001
 43
0.0000001
 44
0.0000000001
 40
0.0
 40
0.0
 40
0.0
 40
0.0
 40
0.2565941244
 40
0.3843026225
 40
0.5114935895
 40
0.6379927712
 40
0.7634584206
 40
0.8255792377
 40
0.8870045231
 40
0.9470871032
 40
0.975928131
 40
1.0
 40
1.0
 40
1.0
 40
1.0
 10
521.8986650098
 20
1355.3835872145
 30
0.0
 10
521.706049868
 20
1352.5816304241
 30
0.0
 10
521.3991595226
 20
1348.3863958359
 30
0.0
 10
520.9395300656
 20
1342.8064787421
 30
0.0
 10
520.565256178
 20
1338.6491784512
 30
0.0
 10
520.1503669384
 20
1334.5176783986
 30
0.0
 10
519.7592968084
 20
1331.1085155205
 30
0.0
 10
519.3905383704
 20
1328.3944399222
 30
0.0
 10
519.0922651969
 20
1326.4469068419
 30
0.0
 10
518.7450202808
 20
1324.713374056
 30
0.0
 10
518.4906013092
 20
1323.7377291524
 30
0.0
 10
518.1346998575
 20
1322.8269672819
 30
0.0
 10
517.9039245372
 20
1322.9541075986
 30
0.0
  0
SPLINE
  5
30C
100
AcDbEntity
  8
0
100
AcDbSpline
 62
7
  6
CONTINUOUS
 70
0
 71
3
 72
9
 73
5
 74
0
 42
0.0000001
 43
0.0000001
 44
0.0000000001
 40
0.0
 40
0.0
 40
0.0
 40
0.0
 40
0.7658464137
 40
1.0
 40
1.0
 40
1.0
 40
1.0
 10
523.4584774874
 20
1358.4303289082
 30
0.0
 10
523.7845604974
 20
1358.8538533446
 30
0.0
 10
524.2812473522
 20
1359.3621895602
 30
0.0
 10
524.8642786759
 20
1359.7479279372
 30
0.0
 10
525.0057973657
 20
1359.8296589409
 30
0.0
  0
SPLINE
  5
30D
100
AcDbEntity
  8
0
100
AcDbSpline
 62
7
  6
CONTINUOUS
 70
0
 71
3
 72
9
 73
5
 74
0
 42
0.0000001
 43
0.0000001
 44
0.0000000001
 40
0.0
 40
0.0
 40
0.0
 40
0.0
 40
0.2286133849
 40
1.0
 40
1.0
 40
1.0
 40
1.0
 10
521.8987047292
 20
1355.383564283
 30
0.0
 10
521.9167895776
 20
1355.6466431015
 30
0.0
 10
522.1840039537
 20
1356.786353402
 30
0.0
 10
522.9172858624
 20
1357.7270078208
 30
0.0
 10
523.4599042736
 20
1358.4321775294
 30
0.0
  0
SPLINE
  5
30E
100
AcDbEntity
  8
0
100
AcDbSpline
 62
7
  6
CONTINUOUS
 70
0
 71
3
 72
8
 73
4
 74
0
 42
0.0000001
 43
0.0000001
 44
0.0000000001
 40
0.0
 40
0.0
 40
0.0
 40
0.0
 40
1.0
 40
1.0
 40
1.0
 40
1.0
 10
523.0093382556
 20
348.5610512551
 30
0.0
 10
522.6585036904
 20
348.7635083159
 30
0.0
 10
522.3637325183
 20
349.0851601373
 30
0.0
 10
522.1726681559
 20
349.4423269933
 30
0.0
  0
SPLINE
  5
30F
100
AcDbEntity
  8
0
100
AcDbSpline
 62
7
  6
CONTINUOUS
 70
0
 71
3
 72
8
 73
4
 74
0
 42
0.0000001
 43
0.0000001
 44
0.0000000001
 40
0.0
 40
0.0
 40
0.0
 40
0.0
 40
1.0
 40
1.0
 40
1.0
 40
1.0
 10
522.1726681559
 20
349.4423269933
 30
0.0
 10
522.0178496994
 20
349.7317374342
 30
0.0
 10
521.9217708518
 20
350.0606943189
 30
0.0
 10
521.8987045944
 20
350.3881009553
 30
0.0
  0
SPLINE
  5
310
100
AcDbEntity
  8
0
100
AcDbSpline
 62
7
  6
CONTINUOUS
 70
0
 71
3
 72
14
 73
10
 74
0
 42
0.0000001
 43
0.0000001
 44
0.0000000001
 40
0.0
 40
0.0
 40
0.0
 40
0.0
 40
0.2603854344
 40
0.5182548796
 40
0.6457107091
 40
0.7714981653
 40
0.8940903448
 40
0.9525449826
 40
1.0
 40
1.0
 40
1.0
 40
1.0
 10
172.1660187373
 20
566.3029764367
 30
0.0
 10
172.1660198338
 20
567.7586717852
 30
0.0
 10
172.1809485145
 20
570.6580858021
 30
0.0
 10
172.2480558434
 20
574.2598511606
 30
0.0
 10
172.3612144189
 20
577.1304554417
 30
0.0
 10
172.4716408721
 20
579.1831302434
 30
0.0
 10
172.6657006193
 20
581.0279852507
 30
0.0
 10
172.806867177
 20
582.0365454117
 30
0.0
 10
173.1047691215
 20
583.0280127525
 30
0.0
 10
173.3368841437
 20
582.8995359715
 30
0.0
  0
SPLINE
  5
311
100
AcDbEntity
  8
0
100
AcDbSpline
 62
7
  6
CONTINUOUS
 70
0
 71
3
 72
16
 73
12
 74
0
 42
0.0000001
 43
0.0000001
 44
0.0000000001
 40
0.0
 40
0.0
 40
0.0
 40
0.0
 40
0.2443339839
 40
0.4903499468
 40
0.6143325658
 40
0.7393864056
 40
0.8025488461
 40
0.8664188078
 40
0.931577393
 40
0.965085026
 40
1.0
 40
1.0
 40
1.0
 40
1.0
 10
172.16601883
 20
1541.7461131104
 30
0.0
 10
172.1660188303
 20
1540.1191886407
 30
0.0
 10
172.1807284405
 20
1536.8540818079
 30
0.0
 10
172.2504788339
 20
1532.7640200915
 30
0.0
 10
172.3597892819
 20
1529.4690589292
 30
0.0
 10
172.4624952488
 20
1527.3934899905
 30
0.0
 10
172.5796975497
 20
1525.7171292315
 30
0.0
 10
172.7001710041
 20
1524.448604457
 30
0.0
 10
172.8312757869
 20
1523.3559636957
 30
0.0
 10
173.0249323451
 20
1522.5228142752
 30
0.0
 10
173.1378648869
 20
1522.0056500945
 30
0.0
 10
173.3368841454
 20
1521.8854806937
 30
0.0
  0
SPLINE
  5
312
100
AcDbEntity
  8
0
100
AcDbSpline
 62
7
  6
CONTINUOUS
 70
0
 71
3
 72
9
 73
5
 74
0
 42
0.0000001
 43
0.0000001
 44
0.0000000001
 40
0.0
 40
0.0
 40
0.0
 40
0.0
 40
0.2410182015
 40
1.0
 40
1.0
 40
1.0
 40
1.0
 10
516.1901386566
 20
957.5467190981
 30
0.0
 10
515.8209816196
 20
957.2739454488
 30
0.0
 10
514.4309769968
 20
955.9639799275
 30
0.0
 10
513.4988433095
 20
954.1558016633
 30
0.0
 10
513.2415156554
 20
952.7334667671
 30
0.0
  0
SPLINE
  5
313
100
AcDbEntity
  8
0
100
AcDbSpline
 62
7
  6
CONTINUOUS
 70
0
 71
3
 72
9
 73
5
 74
0
 42
0.0000001
 43
0.0000001
 44
0.0000000001
 40
0.0
 40
0.0
 40
0.0
 40
0.0
 40
0.2602438651
 40
1.0
 40
1.0
 40
1.0
 40
1.0
 10
513.2415156554
 20
952.7334667671
 30
0.0
 10
511.3613480153
 20
943.3800063754
 30
0.0
 10
504.9321408903
 20
907.2896320365
 30
0.0
 10
501.7639998278
 20
870.5717045808
 30
0.0
 10
501.7639998278
 20
843.4521930758
 30
0.0
  0
SPLINE
  5
314
100
AcDbEntity
  8
0
100
AcDbSpline
 62
7
  6
CONTINUOUS
 70
0
 71
3
 72
9
 73
5
 74
0
 42
0.0000001
 43
0.0000001
 44
0.0000000001
 40
0.0
 40
0.0
 40
0.0
 40
0.0
 40
0.2635217452
 40
1.0
 40
1.0
 40
1.0
 40
1.0
 10
501.7639998278
 20
843.4521930758
 30
0.0
 10
501.7639998278
 20
834.9444706674
 30
0.0
 10
502.6456252671
 20
802.6769212423
 30
0.0
 10
507.2202353461
 20
770.4258728863
 30
0.0
 10
513.2415156554
 20
747.4239339799
 30
0.0
  0
SPLINE
  5
315
100
AcDbEntity
  8
0
100
AcDbSpline
 62
7
  6
CONTINUOUS
 70
0
 71
3
 72
9
 73
5
 74
0
 42
0.0000001
 43
0.0000001
 44
0.0000000001
 40
0.0
 40
0.0
 40
0.0
 40
0.0
 40
0.2776082325
 40
1.0
 40
1.0
 40
1.0
 40
1.0
 10
513.2415156554
 20
747.4239339799
 30
0.0
 10
513.2770296298
 20
747.267822283
 30
0.0
 10
513.4430511704
 20
746.7174382176
 30
0.0
 10
513.82462857
 20
746.2135519111
 30
0.0
 10
514.1854166176
 20
746.0052296013
 30
0.0
  0
SPLINE
  5
316
100
AcDbEntity
  8
0
100
AcDbSpline
 62
7
  6
CONTINUOUS
 70
0
 71
3
 72
19
 73
15
 74
0
 42
0.0000001
 43
0.0000001
 44
0.0000000001
 40
0.0
 40
0.0
 40
0.0
 40
0.0
 40
0.2438372532
 40
0.3663983705
 40
0.4895180779
 40
0.6133765957
 40
0.7383213841
 40
0.8014277062
 40
0.8652354856
 40
0.8975573771
 40
0.9303472527
 40
0.9640038055
 40
0.9814073064
 40
1.0
 40
1.0
 40
1.0
 40
1.0
 10
521.898664875
 20
350.3881238868
 30
0.0
 10
521.7049718046
 20
353.1374384136
 30
0.0
 10
521.3966048755
 20
357.2674865935
 30
0.0
 10
520.9380410668
 20
362.7815787615
 30
0.0
 10
520.5629066616
 20
366.9416982458
 30
0.0
 10
520.1472943975
 20
371.1250939338
 30
0.0
 10
519.7539607995
 20
374.628743805
 30
0.0
 10
519.3898170874
 20
377.4524422211
 30
0.0
 10
519.1301379297
 20
379.23306888
 30
0.0
 10
518.8895012635
 20
380.6715350899
 30
0.0
 10
518.6790065766
 20
381.7642929581
 30
0.0
 10
518.4711141882
 20
382.7013294425
 30
0.0
 10
518.2315602056
 20
383.4277844186
 30
0.0
 10
518.0840431363
 20
383.8598908297
 30
0.0
 10
517.9039245355
 20
383.9681628764
 30
0.0
  0
SPLINE
  5
317
100
AcDbEntity
  8
0
100
AcDbSpline
 62
7
  6
CONTINUOUS
 70
0
 71
3
 72
8
 73
4
 74
0
 42
0.0000001
 43
0.0000001
 44
0.0000000001
 40
0.0
 40
0.0
 40
0.0
 40
0.0
 40
1.0
 40
1.0
 40
1.0
 40
1.0
 10
818.3208053966
 20
1524.814332305
 30
0.0
 10
818.1639010063
 20
1524.8491675181
 30
0.0
 10
818.0006066692
 20
1524.8602516387
 30
0.0
 10
817.8400979915
 20
1524.8519183226
 30
0.0
  0
SPLINE
  5
318
100
AcDbEntity
  8
0
100
AcDbSpline
 62
7
  6
CONTINUOUS
 70
0
 71
3
 72
8
 73
4
 74
0
 42
0.0000001
 43
0.0000001
 44
0.0000000001
 40
0.0
 40
0.0
 40
0.0
 40
0.0
 40
1.0
 40
1.0
 40
1.0
 40
1.0
 10
817.8400979915
 20
1524.8519183226
 30
0.0
 10
817.4708603167
 20
1524.83274818
 30
0.0
 10
817.1042816902
 20
1524.7126552856
 30
0.0
 10
816.7734855184
 20
1524.5474952192
 30
0.0
  0
SPLINE
  5
319
100
AcDbEntity
  8
0
100
AcDbSpline
 62
7
  6
CONTINUOUS
 70
0
 71
3
 72
9
 73
5
 74
0
 42
0.0000001
 43
0.0000001
 44
0.0000000001
 40
0.0
 40
0.0
 40
0.0
 40
0.0
 40
0.2353753646
 40
1.0
 40
1.0
 40
1.0
 40
1.0
 10
1169.4389013117
 20
315.9992223405
 30
0.0
 10
1169.433184681
 20
315.7194891014
 30
0.0
 10
1169.3569222268
 20
314.5395367545
 30
0.0
 10
1169.0567651635
 20
313.3155768866
 30
0.0
 10
1168.5367848661
 20
312.5700956855
 30
0.0
  0
SPLINE
  5
31A
100
AcDbEntity
  8
0
100
AcDbSpline
 62
7
  6
CONTINUOUS
 70
0
 71
3
 72
9
 73
5
 74
0
 42
0.0000001
 43
0.0000001
 44
0.0000000001
 40
0.0
 40
0.0
 40
0.0
 40
0.0
 40
0.2667137597
 40
1.0
 40
1.0
 40
1.0
 40
1.0
 10
1168.5381100674
 20
312.572002997
 30
0.0
 10
1168.4333663872
 20
312.4217453349
 30
0.0
 10
1168.0188895066
 20
311.8747937878
 30
0.0
 10
1167.5141373896
 20
311.3891636202
 30
0.0
 10
1167.0939499771
 20
311.1116177805
 30
0.0
  0
SPLINE
  5
31B
100
AcDbEntity
  8
0
100
AcDbSpline
 62
7
  6
CONTINUOUS
 70
0
 71
3
 72
9
 73
5
 74
0
 42
0.0000001
 43
0.0000001
 44
0.0000000001
 40
0.0
 40
0.0
 40
0.0
 40
0.0
 40
0.2035193186
 40
1.0
 40
1.0
 40
1.0
 40
1.0
 10
1168.9001270695
 20
1322.4915795231
 30
0.0
 10
1168.9966184608
 20
1322.4359082106
 30
0.0
 10
1169.4166027616
 20
1322.0539538745
 30
0.0
 10
1169.4292483698
 20
1321.4305455329
 30
0.0
 10
1169.4389012705
 20
1320.9946855666
 30
0.0
  0
SPLINE
  5
31C
100
AcDbEntity
  8
0
100
AcDbSpline
 62
7
  6
CONTINUOUS
 70
0
 71
3
 72
9
 73
5
 74
0
 42
0.0000001
 43
0.0000001
 44
0.0000000001
 40
0.0
 40
0.0
 40
0.0
 40
0.0
 40
0.2847860452
 40
1.0
 40
1.0
 40
1.0
 40
1.0
 10
1167.0951592717
 20
1322.2937581656
 30
0.0
 10
1167.2181420765
 20
1322.3647380061
 30
0.0
 10
1167.6612901159
 20
1322.5877311647
 30
0.0
 10
1168.1881791364
 20
1322.6895481015
 30
0.0
 10
1168.5381100674
 20
1322.6208514061
 30
0.0
  0
SPLINE
  5
31D
100
AcDbEntity
  8
0
100
AcDbSpline
 62
7
  6
CONTINUOUS
 70
0
 71
3
 72
9
 73
5
 74
0
 42
0.0000001
 43
0.0000001
 44
0.0000000001
 40
0.0
 40
0.0
 40
0.0
 40
0.0
 40
0.7589811699
 40
1.0
 40
1.0
 40
1.0
 40
1.0
 10
521.019722632
 20
948.2428184674
 30
0.0
 10
521.2770500677
 20
949.6651521559
 30
0.0
 10
522.2091845828
 20
951.4733292555
 30
0.0
 10
523.5991876411
 20
952.7832964433
 30
0.0
 10
523.9683456332
 20
953.0560707983
 30
0.0
  0
SPLINE
  5
31E
100
AcDbEntity
  8
0
100
AcDbSpline
 62
7
  6
CONTINUOUS
 70
0
 71
3
 72
9
 73
5
 74
0
 42
0.0000001
 43
0.0000001
 44
0.0000000001
 40
0.0
 40
0.0
 40
0.0
 40
0.0
 40
0.2396265238
 40
1.0
 40
1.0
 40
1.0
 40
1.0
 10
509.5422068044
 20
838.961544776
 30
0.0
 10
509.5422068044
 20
847.7467134057
 30
0.0
 10
510.578161497
 20
884.4064231531
 30
0.0
 10
515.5260223765
 20
920.9127513774
 30
0.0
 10
521.019722632
 20
948.2428184674
 30
0.0
  0
SPLINE
  5
31F
100
AcDbEntity
  8
0
100
AcDbSpline
 62
7
  6
CONTINUOUS
 70
0
 71
3
 72
9
 73
5
 74
0
 42
0.0000001
 43
0.0000001
 44
0.0000000001
 40
0.0
 40
0.0
 40
0.0
 40
0.0
 40
0.2369601761
 40
1.0
 40
1.0
 40
1.0
 40
1.0
 10
521.019722632
 20
742.9332856802
 30
0.0
 10
519.0821796746
 20
750.334908333
 30
0.0
 10
512.0792071461
 20
781.876166665
 30
0.0
 10
509.5422068044
 20
814.3243579348
 30
0.0
 10
509.5422068044
 20
838.961544776
 30
0.0
  0
SPLINE
  5
320
100
AcDbEntity
  8
0
100
AcDbSpline
 62
7
  6
CONTINUOUS
 70
0
 71
3
 72
9
 73
5
 74
0
 42
0.0000001
 43
0.0000001
 44
0.0000000001
 40
0.0
 40
0.0
 40
0.0
 40
0.0
 40
0.2282618596
 40
1.0
 40
1.0
 40
1.0
 40
1.0
 10
544.5911347989
 20
728.4508771569
 30
0.0
 10
544.7261388653
 20
728.3729245774
 30
0.0
 10
545.36894975
 20
728.1141692213
 30
0.0
 10
546.1088624679
 20
728.2513425434
 30
0.0
 10
546.5958568379
 20
728.4529204238
 30
0.0
  0
SPLINE
  5
321
100
AcDbEntity
  8
0
100
AcDbSpline
 62
7
  6
CONTINUOUS
 70
0
 71
3
 72
9
 73
5
 74
0
 42
0.0000001
 43
0.0000001
 44
0.0000000001
 40
0.0
 40
0.0
 40
0.0
 40
0.0
 40
0.7223922695
 40
1.0
 40
1.0
 40
1.0
 40
1.0
 10
521.9636235691
 20
741.514581295
 30
0.0
 10
521.6028353135
 20
741.7229037182
 30
0.0
 10
521.2212590186
 20
742.2267906423
 30
0.0
 10
521.0552365377
 20
742.7771742853
 30
0.0
 10
521.019722632
 20
742.9332856802
 30
0.0
  0
SPLINE
  5
322
100
AcDbEntity
  8
0
100
AcDbSpline
 62
7
  6
CONTINUOUS
 70
0
 71
3
 72
9
 73
5
 74
0
 42
0.0000001
 43
0.0000001
 44
0.0000000001
 40
0.0
 40
0.0
 40
0.0
 40
0.0
 40
0.2570114614
 40
1.0
 40
1.0
 40
1.0
 40
1.0
 10
526.797360574
 20
1356.5053398293
 30
0.0
 10
526.6219584463
 20
1356.2538706931
 30
0.0
 10
526.0723824191
 20
1355.1825608275
 30
0.0
 10
525.9133536289
 20
1353.9623668643
 30
0.0
 10
525.895244187
 20
1353.0762133505
 30
0.0
  0
SPLINE
  5
323
100
AcDbEntity
  8
0
100
AcDbSpline
 62
7
  6
CONTINUOUS
 70
0
 71
3
 72
9
 73
5
 74
0
 42
0.0000001
 43
0.0000001
 44
0.0000000001
 40
0.0
 40
0.0
 40
0.0
 40
0.0
 40
0.2315110653
 40
1.0
 40
1.0
 40
1.0
 40
1.0
 10
528.2389861858
 20
1357.9630187342
 30
0.0
 10
528.1064094594
 20
1357.8753775973
 30
0.0
 10
527.556875188
 20
1357.4620367302
 30
0.0
 10
527.0977192857
 20
1356.9362063359
 30
0.0
 10
526.7960353901
 20
1356.5034325468
 30
0.0
  0
SPLINE
  5
324
100
AcDbEntity
  8
0
100
AcDbSpline
 62
7
  6
CONTINUOUS
 70
0
 71
3
 72
9
 73
5
 74
0
 42
0.0000001
 43
0.0000001
 44
0.0000000001
 40
0.0
 40
0.0
 40
0.0
 40
0.0
 40
0.3272040126
 40
1.0
 40
1.0
 40
1.0
 40
1.0
 10
525.8952441459
 20
348.0807499687
 30
0.0
 10
525.8991580694
 20
347.9040235343
 30
0.0
 10
525.919616176
 20
347.3806475014
 30
0.0
 10
526.1191873234
 20
346.7654997472
 30
0.0
 10
526.4340183169
 20
346.5838560315
 30
0.0
  0
SPLINE
  5
325
100
AcDbEntity
  8
0
100
AcDbSpline
 62
7
  6
CONTINUOUS
 70
0
 71
3
 72
9
 73
5
 74
0
 42
0.0000001
 43
0.0000001
 44
0.0000000001
 40
0.0
 40
0.0
 40
0.0
 40
0.0
 40
0.2803165811
 40
1.0
 40
1.0
 40
1.0
 40
1.0
 10
878.5619567025
 20
144.5285881601
 30
0.0
 10
878.4292808962
 20
144.4622800159
 30
0.0
 10
877.9449047627
 20
144.254279826
 30
0.0
 10
877.3850914035
 20
144.1785686919
 30
0.0
 10
877.0133400609
 20
144.2611032388
 30
0.0
  0
SPLINE
  5
326
100
AcDbEntity
  8
0
100
AcDbSpline
 62
7
  6
CONTINUOUS
 70
0
 71
3
 72
19
 73
15
 74
0
 42
0.0000001
 43
0.0000001
 44
0.0000000001
 40
0.0
 40
0.0
 40
0.0
 40
0.0
 40
0.2438372532
 40
0.3663983705
 40
0.4895180779
 40
0.6133765957
 40
0.7383213841
 40
0.8014277062
 40
0.8652354856
 40
0.8975573771
 40
0.9303472527
 40
0.9640038055
 40
0.9814073064
 40
1.0
 40
1.0
 40
1.0
 40
1.0
 10
875.4535274485
 20
146.2677466267
 30
0.0
 10
875.2598343781
 20
149.0170611535
 30
0.0
 10
874.951467449
 20
153.1471093333
 30
0.0
 10
874.4929036403
 20
158.6612015013
 30
0.0
 10
874.1177692351
 20
162.8213209856
 30
0.0
 10
873.702156971
 20
167.0047166736
 30
0.0
 10
873.308823373
 20
170.5083665448
 30
0.0
 10
872.9446796609
 20
173.332064961
 30
0.0
 10
872.6850005032
 20
175.1126916198
 30
0.0
 10
872.444363837
 20
176.5511578298
 30
0.0
 10
872.2338691501
 20
177.6439156979
 30
0.0
 10
872.0259767617
 20
178.5809521824
 30
0.0
 10
871.7864227791
 20
179.3074071584
 30
0.0
 10
871.6389057098
 20
179.7395135695
 30
0.0
 10
871.458787109
 20
179.8477856163
 30
0.0
  0
SPLINE
  5
327
100
AcDbEntity
  8
0
100
AcDbSpline
 62
7
  6
CONTINUOUS
 70
0
 71
3
 72
17
 73
13
 74
0
 42
0.0000001
 43
0.0000001
 44
0.0000000001
 40
0.0
 40
0.0
 40
0.0
 40
0.0
 40
0.2565941244
 40
0.3843026225
 40
0.5114935895
 40
0.6379927712
 40
0.7634584206
 40
0.8255792377
 40
0.8870045231
 40
0.9470871032
 40
0.975928131
 40
1.0
 40
1.0
 40
1.0
 40
1.0
 10
875.4535275833
 20
1151.2632099544
 30
0.0
 10
875.2609124415
 20
1148.4612531639
 30
0.0
 10
874.9540220961
 20
1144.2660185758
 30
0.0
 10
874.4943926391
 20
1138.686101482
 30
0.0
 10
874.1201187515
 20
1134.528801191
 30
0.0
 10
873.7052295119
 20
1130.3973011385
 30
0.0
 10
873.3141593819
 20
1126.9881382603
 30
0.0
 10
872.9454009439
 20
1124.2740626621
 30
0.0
 10
872.6471277704
 20
1122.3265295818
 30
0.0
 10
872.2998828543
 20
1120.5929967959
 30
0.0
 10
872.0454638827
 20
1119.6173518922
 30
0.0
 10
871.689562431
 20
1118.7065900218
 30
0.0
 10
871.4587871107
 20
1118.8337303385
 30
0.0
  0
SPLINE
  5
328
100
AcDbEntity
  8
0
100
AcDbSpline
 62
7
  6
CONTINUOUS
 70
0
 71
3
 72
8
 73
4
 74
0
 42
0.0000001
 43
0.0000001
 44
0.0000000001
 40
0.0
 40
0.0
 40
0.0
 40
0.0
 40
1.0
 40
1.0
 40
1.0
 40
1.0
 10
526.8886017383
 20
954.3902721752
 30
0.0
 10
526.6982424298
 20
954.5004247988
 30
0.0
 10
526.5166137303
 20
954.62867527
 30
0.0
 10
526.3532378168
 20
954.7759117387
 30
0.0
  0
SPLINE
  5
329
100
AcDbEntity
  8
0
100
AcDbSpline
 62
7
  6
CONTINUOUS
 70
0
 71
3
 72
9
 73
5
 74
0
 42
0.0000001
 43
0.0000001
 44
0.0000000001
 40
0.0
 40
0.0
 40
0.0
 40
0.0
 40
0.7658464137
 40
1.0
 40
1.0
 40
1.0
 40
1.0
 10
877.0133400609
 20
1154.309951648
 30
0.0
 10
877.3394230709
 20
1154.7334760844
 30
0.0
 10
877.8361099257
 20
1155.2418123
 30
0.0
 10
878.4191412494
 20
1155.6275506771
 30
0.0
 10
878.5606599392
 20
1155.7092816807
 30
0.0
  0
SPLINE
  5
32A
100
AcDbEntity
  8
0
100
AcDbSpline
 62
7
  6
CONTINUOUS
 70
0
 71
3
 72
9
 73
5
 74
0
 42
0.0000001
 43
0.0000001
 44
0.0000000001
 40
0.0
 40
0.0
 40
0.0
 40
0.0
 40
0.2286133849
 40
1.0
 40
1.0
 40
1.0
 40
1.0
 10
875.4535673027
 20
1151.2631870229
 30
0.0
 10
875.4716521511
 20
1151.5262658414
 30
0.0
 10
875.7388665272
 20
1152.6659761419
 30
0.0
 10
876.4721484359
 20
1153.6066305607
 30
0.0
 10
877.0147668471
 20
1154.3118002692
 30
0.0
  0
SPLINE
  5
32B
100
AcDbEntity
  8
0
100
AcDbSpline
 62
7
  6
CONTINUOUS
 70
0
 71
3
 72
8
 73
4
 74
0
 42
0.0000001
 43
0.0000001
 44
0.0000000001
 40
0.0
 40
0.0
 40
0.0
 40
0.0
 40
1.0
 40
1.0
 40
1.0
 40
1.0
 10
876.5642008291
 20
144.440673995
 30
0.0
 10
876.2133662639
 20
144.6431310558
 30
0.0
 10
875.9185950918
 20
144.9647828771
 30
0.0
 10
875.7275307294
 20
145.3219497331
 30
0.0
  0
SPLINE
  5
32C
100
AcDbEntity
  8
0
100
AcDbSpline
 62
7
  6
CONTINUOUS
 70
0
 71
3
 72
8
 73
4
 74
0
 42
0.0000001
 43
0.0000001
 44
0.0000000001
 40
0.0
 40
0.0
 40
0.0
 40
0.0
 40
1.0
 40
1.0
 40
1.0
 40
1.0
 10
875.7275307294
 20
145.3219497331
 30
0.0
 10
875.5727122729
 20
145.6113601741
 30
0.0
 10
875.4766334253
 20
145.9403170587
 30
0.0
 10
875.4535671679
 20
146.2677236952
 30
0.0
  0
SPLINE
  5
32D
100
AcDbEntity
  8
0
100
AcDbSpline
 62
7
  6
CONTINUOUS
 70
0
 71
3
 72
14
 73
10
 74
0
 42
0.0000001
 43
0.0000001
 44
0.0000000001
 40
0.0
 40
0.0
 40
0.0
 40
0.0
 40
0.2603854344
 40
0.5182548796
 40
0.6457107091
 40
0.7714981653
 40
0.8940903448
 40
0.9525449826
 40
1.0
 40
1.0
 40
1.0
 40
1.0
 10
525.7208813108
 20
362.1825991765
 30
0.0
 10
525.7208824072
 20
363.638294525
 30
0.0
 10
525.735811088
 20
366.5377085419
 30
0.0
 10
525.8029184169
 20
370.1394739005
 30
0.0
 10
525.9160769923
 20
373.0100781815
 30
0.0
 10
526.0265034456
 20
375.0627529833
 30
0.0
 10
526.2205631928
 20
376.9076079906
 30
0.0
 10
526.3617297505
 20
377.9161681516
 30
0.0
 10
526.659631695
 20
378.9076354923
 30
0.0
 10
526.8917467172
 20
378.7791587114
 30
0.0
  0
SPLINE
  5
32E
100
AcDbEntity
  8
0
100
AcDbSpline
 62
7
  6
CONTINUOUS
 70
0
 71
3
 72
16
 73
12
 74
0
 42
0.0000001
 43
0.0000001
 44
0.0000000001
 40
0.0
 40
0.0
 40
0.0
 40
0.0
 40
0.2443339839
 40
0.4903499468
 40
0.6143325658
 40
0.7393864056
 40
0.8025488461
 40
0.8664188078
 40
0.931577393
 40
0.965085026
 40
1.0
 40
1.0
 40
1.0
 40
1.0
 10
525.7208814035
 20
1337.6257358502
 30
0.0
 10
525.7208814037
 20
1335.9988113805
 30
0.0
 10
525.7355910139
 20
1332.7337045477
 30
0.0
 10
525.8053414074
 20
1328.6436428313
 30
0.0
 10
525.9146518554
 20
1325.348681669
 30
0.0
 10
526.0173578223
 20
1323.2731127304
 30
0.0
 10
526.1345601232
 20
1321.5967519714
 30
0.0
 10
526.2550335776
 20
1320.3282271969
 30
0.0
 10
526.3861383604
 20
1319.2355864356
 30
0.0
 10
526.5797949186
 20
1318.4024370151
 30
0.0
 10
526.6927274604
 20
1317.8852728343
 30
0.0
 10
526.8917467189
 20
1317.7651034336
 30
0.0
  0
SPLINE
  5
32F
100
AcDbEntity
  8
0
100
AcDbSpline
 62
7
  6
CONTINUOUS
 70
0
 71
3
 72
9
 73
5
 74
0
 42
0.0000001
 43
0.0000001
 44
0.0000000001
 40
0.0
 40
0.0
 40
0.0
 40
0.0
 40
0.2410182015
 40
1.0
 40
1.0
 40
1.0
 40
1.0
 10
546.5958568379
 20
939.9923666537
 30
0.0
 10
546.2266998009
 20
939.7195930044
 30
0.0
 10
544.8366951781
 20
938.4096274832
 30
0.0
 10
543.9045614908
 20
936.6014492189
 30
0.0
 10
543.6472338367
 20
935.1791143228
 30
0.0
  0
SPLINE
  5
330
100
AcDbEntity
  8
0
100
AcDbSpline
 62
7
  6
CONTINUOUS
 70
0
 71
3
 72
9
 73
5
 74
0
 42
0.0000001
 43
0.0000001
 44
0.0000000001
 40
0.0
 40
0.0
 40
0.0
 40
0.0
 40
0.2602438651
 40
1.0
 40
1.0
 40
1.0
 40
1.0
 10
543.6472338367
 20
935.1791143228
 30
0.0
 10
541.7670661966
 20
925.825653931
 30
0.0
 10
535.3378590717
 20
889.7352795921
 30
0.0
 10
532.1697180091
 20
853.0173521364
 30
0.0
 10
532.1697180091
 20
825.8978406314
 30
0.0
  0
SPLINE
  5
331
100
AcDbEntity
  8
0
100
AcDbSpline
 62
7
  6
CONTINUOUS
 70
0
 71
3
 72
9
 73
5
 74
0
 42
0.0000001
 43
0.0000001
 44
0.0000000001
 40
0.0
 40
0.0
 40
0.0
 40
0.0
 40
0.2635217452
 40
1.0
 40
1.0
 40
1.0
 40
1.0
 10
532.1697180091
 20
825.8978406314
 30
0.0
 10
532.1697180091
 20
817.390118223
 30
0.0
 10
533.0513434484
 20
785.1225687979
 30
0.0
 10
537.6259535275
 20
752.871520442
 30
0.0
 10
543.6472338367
 20
729.8695815355
 30
0.0
  0
SPLINE
  5
332
100
AcDbEntity
  8
0
100
AcDbSpline
 62
7
  6
CONTINUOUS
 70
0
 71
3
 72
9
 73
5
 74
0
 42
0.0000001
 43
0.0000001
 44
0.0000000001
 40
0.0
 40
0.0
 40
0.0
 40
0.0
 40
0.2776082325
 40
1.0
 40
1.0
 40
1.0
 40
1.0
 10
543.6472338367
 20
729.8695815355
 30
0.0
 10
543.6827478111
 20
729.7134698386
 30
0.0
 10
543.8487693517
 20
729.1630857732
 30
0.0
 10
544.2303467513
 20
728.6591994668
 30
0.0
 10
544.5911347989
 20
728.4508771569
 30
0.0
  0
SPLINE
  5
333
100
AcDbEntity
  8
0
100
AcDbSpline
 62
7
  6
CONTINUOUS
 70
0
 71
3
 72
8
 73
4
 74
0
 42
0.0000001
 43
0.0000001
 44
0.0000000001
 40
0.0
 40
0.0
 40
0.0
 40
0.0
 40
1.0
 40
1.0
 40
1.0
 40
1.0
 10
795.3803194141
 20
1517.8347991843
 30
0.0
 10
795.1133027329
 20
1517.9890876209
 30
0.0
 10
794.8043766611
 20
1518.1051760857
 30
0.0
 10
794.4959926181
 20
1518.1066292509
 30
0.0
  0
SPLINE
  5
334
100
AcDbEntity
  8
0
100
AcDbSpline
 62
7
  6
CONTINUOUS
 70
0
 71
3
 72
8
 73
4
 74
0
 42
0.0000001
 43
0.0000001
 44
0.0000000001
 40
0.0
 40
0.0
 40
0.0
 40
0.0
 40
1.0
 40
1.0
 40
1.0
 40
1.0
 10
794.4959926181
 20
1518.1066292509
 30
0.0
 10
794.3134900487
 20
1518.1074892382
 30
0.0
 10
794.1234006057
 20
1518.0680534926
 30
0.0
 10
793.9631563201
 20
1517.9807053594
 30
0.0
  0
SPLINE
  5
335
100
AcDbEntity
  8
0
100
AcDbSpline
 62
7
  6
CONTINUOUS
 70
0
 71
3
 72
8
 73
4
 74
0
 42
0.0000001
 43
0.0000001
 44
0.0000000001
 40
0.0
 40
0.0
 40
0.0
 40
0.0
 40
1.0
 40
1.0
 40
1.0
 40
1.0
 10
1148.1171506091
 20
365.1241494702
 30
0.0
 10
1148.1177381441
 20
365.2548539698
 30
0.0
 10
1148.0757187878
 20
365.3892275351
 30
0.0
 10
1148.0072059794
 20
365.500537941
 30
0.0
  0
SPLINE
  5
336
100
AcDbEntity
  8
0
100
AcDbSpline
 62
7
  6
CONTINUOUS
 70
0
 71
3
 72
9
 73
5
 74
0
 42
0.0000001
 43
0.0000001
 44
0.0000000001
 40
0.0
 40
0.0
 40
0.0
 40
0.0
 40
0.4861712846
 40
1.0
 40
1.0
 40
1.0
 40
1.0
 10
1148.0072059794
 20
365.500537941
 30
0.0
 10
1147.9853047013
 20
365.5361201951
 30
0.0
 10
1147.934721256
 20
365.6059697858
 30
0.0
 10
1147.8761992226
 20
365.6691495447
 30
0.0
 10
1147.8446620704
 20
365.700059856
 30
0.0
  0
SPLINE
  5
337
100
AcDbEntity
  8
0
100
AcDbSpline
 62
7
  6
CONTINUOUS
 70
0
 71
3
 72
8
 73
4
 74
0
 42
0.0000001
 43
0.0000001
 44
0.0000000001
 40
0.0
 40
0.0
 40
0.0
 40
0.0
 40
1.0
 40
1.0
 40
1.0
 40
1.0
 10
1147.8446620704
 20
365.700059856
 30
0.0
 10
1147.7496044861
 20
365.7932280503
 30
0.0
 10
1147.6410738216
 20
365.8731351224
 30
0.0
 10
1147.5278667966
 20
365.9431381671
 30
0.0
  0
SPLINE
  5
338
100
AcDbEntity
  8
0
100
AcDbSpline
 62
7
  6
CONTINUOUS
 70
0
 71
3
 72
8
 73
4
 74
0
 42
0.0000001
 43
0.0000001
 44
0.0000000001
 40
0.0
 40
0.0
 40
0.0
 40
0.0
 40
1.0
 40
1.0
 40
1.0
 40
1.0
 10
1148.1171501169
 20
386.2715620946
 30
0.0
 10
1148.11610335
 20
386.0387843591
 30
0.0
 10
1147.9736731566
 20
385.8048326779
 30
0.0
 10
1147.8007302695
 20
385.6490208436
 30
0.0
  0
SPLINE
  5
339
100
AcDbEntity
  8
0
100
AcDbSpline
 62
7
  6
CONTINUOUS
 70
0
 71
3
 72
8
 73
4
 74
0
 42
0.0000001
 43
0.0000001
 44
0.0000000001
 40
0.0
 40
0.0
 40
0.0
 40
0.0
 40
1.0
 40
1.0
 40
1.0
 40
1.0
 10
1148.1171506091
 20
671.3125558938
 30
0.0
 10
1148.1177381441
 20
671.4432603934
 30
0.0
 10
1148.0757187878
 20
671.5776339587
 30
0.0
 10
1148.0072059794
 20
671.6889443646
 30
0.0
  0
SPLINE
  5
33A
100
AcDbEntity
  8
0
100
AcDbSpline
 62
7
  6
CONTINUOUS
 70
0
 71
3
 72
9
 73
5
 74
0
 42
0.0000001
 43
0.0000001
 44
0.0000000001
 40
0.0
 40
0.0
 40
0.0
 40
0.0
 40
0.4861712846
 40
1.0
 40
1.0
 40
1.0
 40
1.0
 10
1148.0072059794
 20
671.6889443646
 30
0.0
 10
1147.9853047013
 20
671.7245266186
 30
0.0
 10
1147.934721256
 20
671.7943762093
 30
0.0
 10
1147.8761992226
 20
671.8575559683
 30
0.0
 10
1147.8446620704
 20
671.8884662796
 30
0.0
  0
SPLINE
  5
33B
100
AcDbEntity
  8
0
100
AcDbSpline
 62
7
  6
CONTINUOUS
 70
0
 71
3
 72
8
 73
4
 74
0
 42
0.0000001
 43
0.0000001
 44
0.0000000001
 40
0.0
 40
0.0
 40
0.0
 40
0.0
 40
1.0
 40
1.0
 40
1.0
 40
1.0
 10
1147.8446620704
 20
671.8884662796
 30
0.0
 10
1147.7496044861
 20
671.9816344739
 30
0.0
 10
1147.6410738216
 20
672.061541546
 30
0.0
 10
1147.5278667966
 20
672.1315445907
 30
0.0
  0
SPLINE
  5
33C
100
AcDbEntity
  8
0
100
AcDbSpline
 62
7
  6
CONTINUOUS
 70
0
 71
3
 72
8
 73
4
 74
0
 42
0.0000001
 43
0.0000001
 44
0.0000000001
 40
0.0
 40
0.0
 40
0.0
 40
0.0
 40
1.0
 40
1.0
 40
1.0
 40
1.0
 10
1148.1171501169
 20
692.4599685182
 30
0.0
 10
1148.11610335
 20
692.2271907827
 30
0.0
 10
1147.9736731566
 20
691.9932391015
 30
0.0
 10
1147.8007302695
 20
691.8374272672
 30
0.0
  0
SPLINE
  5
33D
100
AcDbEntity
  8
0
100
AcDbSpline
 62
7
  6
CONTINUOUS
 70
0
 71
3
 72
8
 73
4
 74
0
 42
0.0000001
 43
0.0000001
 44
0.0000000001
 40
0.0
 40
0.0
 40
0.0
 40
0.0
 40
1.0
 40
1.0
 40
1.0
 40
1.0
 10
1148.1171506091
 20
916.2632810327
 30
0.0
 10
1148.1177381441
 20
916.3939855322
 30
0.0
 10
1148.0757187878
 20
916.5283590975
 30
0.0
 10
1148.0072059794
 20
916.6396695035
 30
0.0
  0
SPLINE
  5
33E
100
AcDbEntity
  8
0
100
AcDbSpline
 62
7
  6
CONTINUOUS
 70
0
 71
3
 72
9
 73
5
 74
0
 42
0.0000001
 43
0.0000001
 44
0.0000000001
 40
0.0
 40
0.0
 40
0.0
 40
0.0
 40
0.4861712846
 40
1.0
 40
1.0
 40
1.0
 40
1.0
 10
1148.0072059794
 20
916.6396695035
 30
0.0
 10
1147.9853047013
 20
916.6752517575
 30
0.0
 10
1147.934721256
 20
916.7451013482
 30
0.0
 10
1147.8761992226
 20
916.8082811072
 30
0.0
 10
1147.8446620704
 20
916.8391914185
 30
0.0
  0
SPLINE
  5
33F
100
AcDbEntity
  8
0
100
AcDbSpline
 62
7
  6
CONTINUOUS
 70
0
 71
3
 72
8
 73
4
 74
0
 42
0.0000001
 43
0.0000001
 44
0.0000000001
 40
0.0
 40
0.0
 40
0.0
 40
0.0
 40
1.0
 40
1.0
 40
1.0
 40
1.0
 10
1147.8446620704
 20
916.8391914185
 30
0.0
 10
1147.7496044861
 20
916.9323596127
 30
0.0
 10
1147.6410738216
 20
917.0122666849
 30
0.0
 10
1147.5278667966
 20
917.0822697296
 30
0.0
  0
SPLINE
  5
340
100
AcDbEntity
  8
0
100
AcDbSpline
 62
7
  6
CONTINUOUS
 70
0
 71
3
 72
8
 73
4
 74
0
 42
0.0000001
 43
0.0000001
 44
0.0000000001
 40
0.0
 40
0.0
 40
0.0
 40
0.0
 40
1.0
 40
1.0
 40
1.0
 40
1.0
 10
1148.1171501169
 20
937.4106936571
 30
0.0
 10
1148.11610335
 20
937.1779159215
 30
0.0
 10
1147.9736731566
 20
936.9439642404
 30
0.0
 10
1147.8007302695
 20
936.7881524061
 30
0.0
  0
SPLINE
  5
341
100
AcDbEntity
  8
0
100
AcDbSpline
 62
7
  6
CONTINUOUS
 70
0
 71
3
 72
8
 73
4
 74
0
 42
0.0000001
 43
0.0000001
 44
0.0000000001
 40
0.0
 40
0.0
 40
0.0
 40
0.0
 40
1.0
 40
1.0
 40
1.0
 40
1.0
 10
1148.1171506091
 20
1222.4516874563
 30
0.0
 10
1148.1177381441
 20
1222.5823919558
 30
0.0
 10
1148.0757187878
 20
1222.7167655211
 30
0.0
 10
1148.0072059794
 20
1222.8280759271
 30
0.0
  0
SPLINE
  5
342
100
AcDbEntity
  8
0
100
AcDbSpline
 62
7
  6
CONTINUOUS
 70
0
 71
3
 72
9
 73
5
 74
0
 42
0.0000001
 43
0.0000001
 44
0.0000000001
 40
0.0
 40
0.0
 40
0.0
 40
0.0
 40
0.4861712846
 40
1.0
 40
1.0
 40
1.0
 40
1.0
 10
1148.0072059794
 20
1222.8280759271
 30
0.0
 10
1147.9853047013
 20
1222.8636581811
 30
0.0
 10
1147.934721256
 20
1222.9335077718
 30
0.0
 10
1147.8761992226
 20
1222.9966875308
 30
0.0
 10
1147.8446620704
 20
1223.0275978421
 30
0.0
  0
SPLINE
  5
343
100
AcDbEntity
  8
0
100
AcDbSpline
 62
7
  6
CONTINUOUS
 70
0
 71
3
 72
8
 73
4
 74
0
 42
0.0000001
 43
0.0000001
 44
0.0000000001
 40
0.0
 40
0.0
 40
0.0
 40
0.0
 40
1.0
 40
1.0
 40
1.0
 40
1.0
 10
1147.8446620704
 20
1223.0275978421
 30
0.0
 10
1147.7496044861
 20
1223.1207660363
 30
0.0
 10
1147.6410738216
 20
1223.2006731085
 30
0.0
 10
1147.5278667966
 20
1223.2706761532
 30
0.0
  0
SPLINE
  5
344
100
AcDbEntity
  8
0
100
AcDbSpline
 62
7
  6
CONTINUOUS
 70
0
 71
3
 72
8
 73
4
 74
0
 42
0.0000001
 43
0.0000001
 44
0.0000000001
 40
0.0
 40
0.0
 40
0.0
 40
0.0
 40
1.0
 40
1.0
 40
1.0
 40
1.0
 10
1148.1171501169
 20
1243.5991000807
 30
0.0
 10
1148.11610335
 20
1243.3663223451
 30
0.0
 10
1147.9736731566
 20
1243.1323706639
 30
0.0
 10
1147.8007302695
 20
1242.9765588296
 30
0.0
  0
SPLINE
  5
345
100
AcDbEntity
  8
0
100
AcDbSpline
 62
7
  6
CONTINUOUS
 70
0
 71
3
 72
9
 73
5
 74
0
 42
0.0000001
 43
0.0000001
 44
0.0000000001
 40
0.0
 40
0.0
 40
0.0
 40
0.0
 40
0.7653665759
 40
1.0
 40
1.0
 40
1.0
 40
1.0
 10
901.0214910819
 20
794.3109427049
 30
0.0
 10
900.4133344652
 20
794.0859377981
 30
0.0
 10
899.4884593518
 20
794.0568704299
 30
0.0
 10
898.6996371213
 20
794.3741424453
 30
0.0
 10
898.524650292
 20
794.4684661583
 30
0.0
  0
SPLINE
  5
346
100
AcDbEntity
  8
0
100
AcDbSpline
 62
7
  6
CONTINUOUS
 70
0
 71
3
 72
9
 73
5
 74
0
 42
0.0000001
 43
0.0000001
 44
0.0000000001
 40
0.0
 40
0.0
 40
0.0
 40
0.0
 40
0.7653665759
 40
1.0
 40
1.0
 40
1.0
 40
1.0
 10
901.0214910819
 20
1100.4993491285
 30
0.0
 10
900.4133344652
 20
1100.2743442217
 30
0.0
 10
899.4884593518
 20
1100.2452768535
 30
0.0
 10
898.6996371213
 20
1100.5625488689
 30
0.0
 10
898.524650292
 20
1100.6568725819
 30
0.0
  0
SPLINE
  5
347
100
AcDbEntity
  8
0
100
AcDbSpline
 62
7
  6
CONTINUOUS
 70
0
 71
3
 72
9
 73
5
 74
0
 42
0.0000001
 43
0.0000001
 44
0.0000000001
 40
0.0
 40
0.0
 40
0.0
 40
0.0
 40
0.7653665759
 40
1.0
 40
1.0
 40
1.0
 40
1.0
 10
901.0214910819
 20
549.360217566
 30
0.0
 10
900.4133344652
 20
549.1352126592
 30
0.0
 10
899.4884593518
 20
549.106145291
 30
0.0
 10
898.6996371213
 20
549.4234173065
 30
0.0
 10
898.524650292
 20
549.5177410194
 30
0.0
  0
SPLINE
  5
348
100
AcDbEntity
  8
0
100
AcDbSpline
 62
7
  6
CONTINUOUS
 70
0
 71
3
 72
9
 73
5
 74
0
 42
0.0000001
 43
0.0000001
 44
0.0000000001
 40
0.0
 40
0.0
 40
0.0
 40
0.0
 40
0.7653665759
 40
1.0
 40
1.0
 40
1.0
 40
1.0
 10
901.0214910819
 20
243.1718111424
 30
0.0
 10
900.4133344652
 20
242.9468062356
 30
0.0
 10
899.4884593518
 20
242.9177388675
 30
0.0
 10
898.6996371213
 20
243.2350108829
 30
0.0
 10
898.524650292
 20
243.3293345958
 30
0.0
  0
SPLINE
  5
349
100
AcDbEntity
  8
0
100
AcDbSpline
 62
7
  6
CONTINUOUS
 70
0
 71
3
 72
9
 73
5
 74
0
 42
0.0000001
 43
0.0000001
 44
0.0000000001
 40
0.0
 40
0.0
 40
0.0
 40
0.0
 40
0.2346317515
 40
1.0
 40
1.0
 40
1.0
 40
1.0
 10
898.524648711
 20
528.3703292672
 30
0.0
 10
898.6996344612
 20
528.276006136
 30
0.0
 10
899.4884546219
 20
527.9587267979
 30
0.0
 10
900.4133325512
 20
527.9877993474
 30
0.0
 10
901.0214910819
 20
528.2128049624
 30
0.0
  0
SPLINE
  5
34A
100
AcDbEntity
  8
0
100
AcDbSpline
 62
7
  6
CONTINUOUS
 70
0
 71
3
 72
9
 73
5
 74
0
 42
0.0000001
 43
0.0000001
 44
0.0000000001
 40
0.0
 40
0.0
 40
0.0
 40
0.0
 40
0.2346317515
 40
1.0
 40
1.0
 40
1.0
 40
1.0
 10
898.524648711
 20
222.1819228436
 30
0.0
 10
898.6996344612
 20
222.0875997124
 30
0.0
 10
899.4884546219
 20
221.7703203743
 30
0.0
 10
900.4133325512
 20
221.7993929238
 30
0.0
 10
901.0214910819
 20
222.0243985388
 30
0.0
  0
SPLINE
  5
34B
100
AcDbEntity
  8
0
100
AcDbSpline
 62
7
  6
CONTINUOUS
 70
0
 71
3
 72
8
 73
4
 74
0
 42
0.0000001
 43
0.0000001
 44
0.0000000001
 40
0.0
 40
0.0
 40
0.0
 40
0.0
 40
1.0
 40
1.0
 40
1.0
 40
1.0
 10
1147.8007302695
 20
915.6407398024
 30
0.0
 10
1147.9736732072
 20
915.7965516823
 30
0.0
 10
1148.1161042404
 20
916.0305032272
 30
0.0
 10
1148.1171506091
 20
916.2632810327
 30
0.0
  0
SPLINE
  5
34C
100
AcDbEntity
  8
0
100
AcDbSpline
 62
7
  6
CONTINUOUS
 70
0
 71
3
 72
8
 73
4
 74
0
 42
0.0000001
 43
0.0000001
 44
0.0000000001
 40
0.0
 40
0.0
 40
0.0
 40
0.0
 40
1.0
 40
1.0
 40
1.0
 40
1.0
 10
1147.8007302695
 20
670.6900146635
 30
0.0
 10
1147.9736732072
 20
670.8458265435
 30
0.0
 10
1148.1161042404
 20
671.0797780883
 30
0.0
 10
1148.1171506091
 20
671.3125558938
 30
0.0
  0
SPLINE
  5
34D
100
AcDbEntity
  8
0
100
AcDbSpline
 62
7
  6
CONTINUOUS
 70
0
 71
3
 72
9
 73
5
 74
0
 42
0.0000001
 43
0.0000001
 44
0.0000000001
 40
0.0
 40
0.0
 40
0.0
 40
0.0
 40
0.2011283322
 40
1.0
 40
1.0
 40
1.0
 40
1.0
 10
545.025148981
 20
1374.2399281152
 30
0.0
 10
545.1442752692
 20
1374.3053356456
 30
0.0
 10
545.7279710122
 20
1374.6459024621
 30
0.0
 10
546.3122749837
 20
1374.9851264306
 30
0.0
 10
546.778983604
 20
1375.2563469607
 30
0.0
  0
SPLINE
  5
34E
100
AcDbEntity
  8
0
100
AcDbSpline
 62
7
  6
CONTINUOUS
 70
0
 71
3
 72
8
 73
4
 74
0
 42
0.0000001
 43
0.0000001
 44
0.0000000001
 40
0.0
 40
0.0
 40
0.0
 40
0.0
 40
1.0
 40
1.0
 40
1.0
 40
1.0
 10
546.778983604
 20
1375.2563469607
 30
0.0
 10
547.1219294881
 20
1375.4556446818
 30
0.0
 10
547.464474138
 20
1375.6557401828
 30
0.0
 10
547.8111768312
 20
1375.8484282819
 30
0.0
  0
SPLINE
  5
34F
100
AcDbEntity
  8
0
100
AcDbSpline
 62
7
  6
CONTINUOUS
 70
0
 71
3
 72
9
 73
5
 74
0
 42
0.0000001
 43
0.0000001
 44
0.0000000001
 40
0.0
 40
0.0
 40
0.0
 40
0.0
 40
0.1983031725
 40
1.0
 40
1.0
 40
1.0
 40
1.0
 10
898.579304444
 20
1170.1199590963
 30
0.0
 10
898.7654912357
 20
1170.2221868951
 30
0.0
 10
899.6870208229
 20
1170.7685764082
 30
0.0
 10
900.6165506094
 20
1171.3006035846
 30
0.0
 10
901.3589471065
 20
1171.7321456694
 30
0.0
  0
SPLINE
  5
350
100
AcDbEntity
  8
0
100
AcDbSpline
 62
7
  6
CONTINUOUS
 70
0
 71
3
 72
9
 73
5
 74
0
 42
0.0000001
 43
0.0000001
 44
0.0000000001
 40
0.0
 40
0.0
 40
0.0
 40
0.0
 40
0.2346317515
 40
1.0
 40
1.0
 40
1.0
 40
1.0
 10
898.524648711
 20
773.3210544061
 30
0.0
 10
898.6996344612
 20
773.2267312748
 30
0.0
 10
899.4884546219
 20
772.9094519368
 30
0.0
 10
900.4133325512
 20
772.9385244863
 30
0.0
 10
901.0214910819
 20
773.1635301013
 30
0.0
  0
SPLINE
  5
351
100
AcDbEntity
  8
0
100
AcDbSpline
 62
7
  6
CONTINUOUS
 70
0
 71
3
 72
8
 73
4
 74
0
 42
0.0000001
 43
0.0000001
 44
0.0000000001
 40
0.0
 40
0.0
 40
0.0
 40
0.0
 40
1.0
 40
1.0
 40
1.0
 40
1.0
 10
1147.8007302695
 20
364.5016082399
 30
0.0
 10
1147.9736732072
 20
364.6574201199
 30
0.0
 10
1148.1161042404
 20
364.8913716647
 30
0.0
 10
1148.1171506091
 20
365.1241494702
 30
0.0
  0
SPLINE
  5
352
100
AcDbEntity
  8
0
100
AcDbSpline
 62
7
  6
CONTINUOUS
 70
0
 71
3
 72
8
 73
4
 74
0
 42
0.0000001
 43
0.0000001
 44
0.0000000001
 40
0.0
 40
0.0
 40
0.0
 40
0.0
 40
1.0
 40
1.0
 40
1.0
 40
1.0
 10
1147.8007302695
 20
1221.829146226
 30
0.0
 10
1147.9736732072
 20
1221.9849581059
 30
0.0
 10
1148.1161042404
 20
1222.2189096508
 30
0.0
 10
1148.1171506091
 20
1222.4516874563
 30
0.0
  0
SPLINE
  5
353
100
AcDbEntity
  8
0
100
AcDbSpline
 62
7
  6
CONTINUOUS
 70
0
 71
3
 72
9
 73
5
 74
0
 42
0.0000001
 43
0.0000001
 44
0.0000000001
 40
0.0
 40
0.0
 40
0.0
 40
0.0
 40
0.2346317515
 40
1.0
 40
1.0
 40
1.0
 40
1.0
 10
898.524648711
 20
1079.5094608297
 30
0.0
 10
898.6996344612
 20
1079.4151376984
 30
0.0
 10
899.4884546219
 20
1079.0978583603
 30
0.0
 10
900.4133325512
 20
1079.1269309099
 30
0.0
 10
901.0214910819
 20
1079.3519365248
 30
0.0
  0
ENDSEC
  0
SECTION
  2
OBJECTS
  0
DICTIONARY
  5
C
100
AcDbDictionary
280
0
281
1
  3
ACAD_GROUP
350
D
  3
ACAD_MLINESTYLE
350
17
  3
ACAD_LAYOUT
350
1A
  3
ACAD_PLOTSETTINGS
350
19
  3
ACAD_PLOTSTYLENAME
350
E
  0
DICTIONARY
  5
D
102
{ACAD_REACTORS
330
C
102
}
100
AcDbDictionary
280
0
281
1
  0
ACDBDICTIONARYWDFLT
  5
E
102
{ACAD_REACTORS
330
C
102
}
100
AcDbDictionary
281
1
  3
Normal
350
F
100
AcDbDictionaryWithDefault
340
F
  0
DICTIONARY
  5
17
102
{ACAD_REACTORS
330
C
102
}
100
AcDbDictionary
280
0
281
1
  3
Standard
350
18
  0
DICTIONARY
  5
19
102
{ACAD_REACTORS
330
C
102
}
100
AcDbDictionary
281
1
  0
DICTIONARY
  5
1A
102
{ACAD_REACTORS
330
C
102
}
100
AcDbDictionary
281
1
  3
Model
350
354
  3
Layout1
350
355
  0
ACDBPLACEHOLDER
  5
F
102
{ACAD_REACTORS
330
E
102
}
  0
MLINESTYLE
  5
18
102
{ACAD_REACTORS
330
17
102
}
100
AcDbMlineStyle
  2
STANDARD
 70
0
  3

 62
256
 51
90.0
 52
90.0
 71
2
 49
0.5
 62
256
  6
BYLAYER
 49
-0.5
 62
256
  6
BYLAYER
  0
LAYOUT
  5
354
102
{ACAD_REACTORS
330
1A
102
}
100
AcDbPlotSettings
  1

  2
none_device
  4

  6

 40
0.0
 41
0.0
 42
0.0
 43
0.0
 44
210.0
 45
297.0
 46
0.0
 47
0.0
 48
0.0
 49
0.0
140
0.0
141
0.0
142
1.0
143
1.0
 70
1024
 72
1
 73
0
 74
0
  7

 75
0
147
1.0
148
0.0
149
0.0
100
AcDbLayout
  1
Model
 70
0
 71
0
 10
0.0
 20
0.0
 11
210.0
 21
297.0
 12
0.0
 22
0.0
 32
0.0
 14
0.0
 24
0.0
 34
0.0
 15
0.0
 25
0.0
 35
0.0
146
0.0
 13
0.0
 23
0.0
 33
0.0
 16
1.0
 26
0.0
 36
0.0
 17
0.0
 27
1.0
 37
0.0
 76
0
330
210
345
0
346
0
  0
LAYOUT
  5
355
102
{ACAD_REACTORS
330
1A
102
}
100
AcDbPlotSettings
  1

  2
none_device
  4

  6

 40
0.0
 41
0.0
 42
0.0
 43
0.0
 44
210.0
 45
297.0
 46
0.0
 47
0.0
 48
0.0
 49
0.0
140
0.0
141
0.0
142
1.0
143
1.0
 70
0
 72
1
 73
0
 74
0
  7

 75
0
147
1.0
148
0.0
149
0.0
100
AcDbLayout
  1
Layout1
 70
0
 71
1
 10
0.0
 20
0.0
 11
210.0
 21
297.0
 12
0.0
 22
0.0
 32
0.0
 14
0.0
 24
0.0
 34
0.0
 15
0.0
 25
0.0
 35
0.0
146
0.0
 13
0.0
 23
0.0
 33
0.0
 16
1.0
 26
0.0
 36
0.0
 17
0.0
 27
1.0
 37
0.0
 76
0
330
211
345
0
346
0
  0
ENDSEC
  0
EOF
