999
DXF file: C:\Users\sesa63760\Dev\_Creo\CAD\MCADUE0002613_3D-CAD\drw0001_4.dxf
999
Pro/ENGINEER 2019471 by Parametric Technology Corporation
  0
SECTION
  2
HEADER
  9
$ACADVER
  1
AC1024
  9
$DWGCODEPAGE
  3
ANSI_1252
  9
$EXTMAX
 10
405.6205217644
 20
573.6633093525
 30
0.0
  9
$EXTMIN
 10
0.0
 20
0.0
 30
0.0
  9
$LIMMIN
 10
0.0
 20
0.0
  9
$LIMMAX
 10
405.6205217644
 20
573.6633093525
  9
$VIEWCTR
 10
202.8102608822
 20
286.8316546763
  9
$VIEWSIZE
 40
573.6633093525
  9
$CLAYER
  8
0
  9
$LTSCALE
 40
37.3943490541
  9
$CELTYPE
  6
BYLAYER
  9
$DIMSCALE
 40
1.0
  9
$DIMASZ
 40
4.8288157353
  9
$DIMEXO
 40
1.0
  9
$DIMDLI
 40
25.8360957101
  9
$DIMEXE
 40
1.0
  9
$DIMCEN
 40
6.1190752998
  9
$DIMLFAC
 40
1.0
  9
$DIMBLK
  1
_FILLED
  9
$DIMALT
 70
0
  9
$DIMALTF
 40
0.0393700787
  9
$DIMTXT
 40
6.7603420294
  9
$DIMTOL
 70
1
  9
$DIMLIM
 70
0
  9
$DIMTFAC
 40
1.0
  9
$DIMTP
 40
0.01
  9
$DIMTM
 40
0.01
  9
$DIMGAP
 40
0.625
  9
$DIMDSEP
 70
46
  9
$AUNITS
 70
0
  9
$PDMODE
 70
3
  9
$PDSIZE
 40
0.3125
  9
$HANDSEED
  5
2C6
  9
$TILEMODE
 70
1
  9
$MEASUREMENT
 70
1
  9
$INSUNITS
 70
4
  0
ENDSEC
  0
SECTION
  2
CLASSES
  0
CLASS
  1
ACDBDICTIONARYWDFLT
  2
AcDbDictionaryWithDefault
  3
AutoCAD 2000
 90
0
 91
1
280
0
281
0
  0
CLASS
  1
ACDBPLACEHOLDER
  2
AcDbPlaceHolder
  3
AutoCAD 2000
 90
0
 91
1
280
0
281
0
  0
CLASS
  1
LAYOUT
  2
AcDbLayout
  3
AutoCAD 2000
 90
0
 91
0
280
0
281
0
  0
ENDSEC
  0
SECTION
  2
TABLES
  0
TABLE
  2
VPORT
  5
8
100
AcDbSymbolTable
 70
2
  0
VPORT
  5
1F4
100
AcDbSymbolTableRecord
100
AcDbViewportTableRecord
  2
*ACTIVE
 70
0
 10
0.0
 20
0.0
 11
1.0
 21
1.0
 12
202.8102608822
 22
286.8316546763
 13
0.0
 23
0.0
 14
1.0
 24
1.0
 15
0.0
 25
0.0
 16
0.0
 26
0.0
 36
1.0
 17
0.0
 27
0.0
 37
0.0
 40
573.6633093525
 41
0.7070707071
 42
50.0
 43
0.0
 44
0.0
 50
0.0
 51
0.0
 71
0
 72
100
 73
1
 74
1
 75
0
 76
0
 77
0
 78
0
  0
ENDTAB
  0
TABLE
  2
LTYPE
  5
5
100
AcDbSymbolTable
 70
6
  0
LTYPE
  5
14
100
AcDbSymbolTableRecord
100
AcDbLinetypeTableRecord
  2
BYBLOCK
 70
0
  3

 72
65
 73
0
 40
0.0
  0
LTYPE
  5
15
100
AcDbSymbolTableRecord
100
AcDbLinetypeTableRecord
  2
BYLAYER
 70
0
  3

 72
65
 73
0
 40
0.0
  0
LTYPE
  5
16
100
AcDbSymbolTableRecord
100
AcDbLinetypeTableRecord
  2
CONTINUOUS
 70
64
  3
Solid line
 72
65
 73
0
 40
0.0
  0
LTYPE
  5
1F5
100
AcDbSymbolTableRecord
100
AcDbLinetypeTableRecord
  2
CENTER
 70
64
  3
____ _ ____ _ ____ _ ____ _ ____ _ ____ _ ____
 72
65
 73
4
 40
0.6
 49
0.375
 74
0
 49
-0.075
 74
0
 49
0.075
 74
0
 49
-0.075
 74
0
  0
LTYPE
  5
1F6
100
AcDbSymbolTableRecord
100
AcDbLinetypeTableRecord
  2
HIDDEN
 70
64
  3
- - - - - - - - - - - - - - - - - - - -
 72
65
 73
2
 40
0.2
 49
0.1
 74
0
 49
-0.1
 74
0
  0
LTYPE
  5
1F7
100
AcDbSymbolTableRecord
100
AcDbLinetypeTableRecord
  2
PHANTOM
 70
64
  3
_____ _ _ _____ _ _ _____ _ _ _____
 72
65
 73
6
 40
0.8
 49
0.45
 74
0
 49
-0.05
 74
0
 49
0.1
 74
0
 49
-0.05
 74
0
 49
0.1
 74
0
 49
-0.05
 74
0
  0
LTYPE
  5
1F8
100
AcDbSymbolTableRecord
100
AcDbLinetypeTableRecord
  2
DOT
 70
64
  3
. . . . . . . . . . . . . . . . . . . .
 72
65
 73
2
 40
0.2
 49
0.1
 74
0
 49
-0.1
 74
0
  0
LTYPE
  5
1F9
100
AcDbSymbolTableRecord
100
AcDbLinetypeTableRecord
  2
DASHED
 70
64
  3
- - - - - - - - - - - - - - - - - - - -
 72
65
 73
2
 40
0.2
 49
0.1
 74
0
 49
-0.1
 74
0
  0
ENDTAB
  0
TABLE
  2
LAYER
  5
2
100
AcDbSymbolTable
 70
36
  0
LAYER
  5
10
100
AcDbSymbolTableRecord
100
AcDbLayerTableRecord
  2
0
 70
0
 62
7
  6
CONTINUOUS
370
-3
390
F
  0
LAYER
  5
1FA
100
AcDbSymbolTableRecord
100
AcDbLayerTableRecord
  2
DEFAULT_1
 70
0
 62
7
  6
CENTER
370
-3
390
F
  0
LAYER
  5
1FB
100
AcDbSymbolTableRecord
100
AcDbLayerTableRecord
  2
DEFAULT_2
 70
0
 62
8
  6
HIDDEN
370
-3
390
F
  0
LAYER
  5
1FC
100
AcDbSymbolTableRecord
100
AcDbLayerTableRecord
  2
DEFAULT_3
 70
0
 62
7
  6
PHANTOM
370
-3
390
F
  0
LAYER
  5
1FD
100
AcDbSymbolTableRecord
100
AcDbLayerTableRecord
  2
00_COMPONENTS
 70
0
 62
7
  6
CONTINUOUS
370
-3
390
F
  0
LAYER
  5
1FE
100
AcDbSymbolTableRecord
100
AcDbLayerTableRecord
  2
01_1_DEFAULT_DATUMS
 70
0
 62
7
  6
CONTINUOUS
370
-3
390
F
  0
LAYER
  5
1FF
100
AcDbSymbolTableRecord
100
AcDbLayerTableRecord
  2
01_PLANES
 70
0
 62
7
  6
CONTINUOUS
370
-3
390
F
  0
LAYER
  5
200
100
AcDbSymbolTableRecord
100
AcDbLayerTableRecord
  2
02_COORD_SYS
 70
0
 62
7
  6
CONTINUOUS
370
-3
390
F
  0
LAYER
  5
201
100
AcDbSymbolTableRecord
100
AcDbLayerTableRecord
  2
03_AXES
 70
0
 62
7
  6
CONTINUOUS
370
-3
390
F
  0
LAYER
  5
202
100
AcDbSymbolTableRecord
100
AcDbLayerTableRecord
  2
04_POINTS
 70
0
 62
7
  6
CONTINUOUS
370
-3
390
F
  0
LAYER
  5
203
100
AcDbSymbolTableRecord
100
AcDbLayerTableRecord
  2
05_CURVES
 70
0
 62
7
  6
CONTINUOUS
370
-3
390
F
  0
LAYER
  5
204
100
AcDbSymbolTableRecord
100
AcDbLayerTableRecord
  2
06_SURFS
 70
0
 62
7
  6
CONTINUOUS
370
-3
390
F
  0
LAYER
  5
205
100
AcDbSymbolTableRecord
100
AcDbLayerTableRecord
  2
07_COSMETICS
 70
0
 62
7
  6
CONTINUOUS
370
-3
390
F
  0
LAYER
  5
206
100
AcDbSymbolTableRecord
100
AcDbLayerTableRecord
  2
10_NOTES
 70
0
 62
7
  6
CONTINUOUS
370
-3
390
F
  0
LAYER
  5
207
100
AcDbSymbolTableRecord
100
AcDbLayerTableRecord
  2
11_NOTES_PUB
 70
0
 62
7
  6
CONTINUOUS
370
-3
390
F
  0
LAYER
  5
208
100
AcDbSymbolTableRecord
100
AcDbLayerTableRecord
  2
13_REF_GTOL
 70
0
 62
7
  6
CONTINUOUS
370
-3
390
F
  0
LAYER
  5
209
100
AcDbSymbolTableRecord
100
AcDbLayerTableRecord
  2
16_MISC
 70
0
 62
7
  6
CONTINUOUS
370
-3
390
F
  0
LAYER
  5
20A
100
AcDbSymbolTableRecord
100
AcDbLayerTableRecord
  2
17_NO_PRINT
 70
0
 62
7
  6
CONTINUOUS
370
-3
390
F
  0
LAYER
  5
20B
100
AcDbSymbolTableRecord
100
AcDbLayerTableRecord
  2
18_DATUM_CAMS_JOINTS
 70
0
 62
7
  6
CONTINUOUS
370
-3
390
F
  0
LAYER
  5
20C
100
AcDbSymbolTableRecord
100
AcDbLayerTableRecord
  2
19_DATUM_FUNCTIONAL
 70
0
 62
7
  6
CONTINUOUS
370
-3
390
F
  0
LAYER
  5
20D
100
AcDbSymbolTableRecord
100
AcDbLayerTableRecord
  2
20_DATUM_KINEMATIC_SCHEME
 70
0
 62
7
  6
CONTINUOUS
370
-3
390
F
  0
ENDTAB
  0
TABLE
  2
STYLE
  5
3
100
AcDbSymbolTable
 70
1
  0
STYLE
  5
11
100
AcDbSymbolTableRecord
100
AcDbTextStyleTableRecord
  2
STANDARD
 70
0
 40
0.0
 41
0.8
 50
0.0
 71
0
 42
0.2
  3
txt
  4

  0
STYLE
  5
20E
100
AcDbSymbolTableRecord
100
AcDbTextStyleTableRecord
  2
TEXTSTYLE_1
 70
0
 40
0.0
 41
0.8
 50
0.0
 71
0
 42
0.2
  3
gdt
  4

  0
ENDTAB
  0
TABLE
  2
VIEW
  5
6
100
AcDbSymbolTable
 70
0
  0
ENDTAB
  0
TABLE
  2
UCS
  5
7
100
AcDbSymbolTable
 70
0
  0
ENDTAB
  0
TABLE
  2
APPID
  5
9
100
AcDbSymbolTable
 70
1
  0
APPID
  5
20F
100
AcDbSymbolTableRecord
100
AcDbRegAppTableRecord
  2
ACAD
 70
0
  0
ENDTAB
  0
TABLE
  2
BLOCK_RECORD
  5
1
100
AcDbSymbolTable
 70
0
  0
BLOCK_RECORD
  5
210
100
AcDbSymbolTableRecord
100
AcDbBlockTableRecord
  2
*Model_Space
  0
BLOCK_RECORD
  5
211
100
AcDbSymbolTableRecord
100
AcDbBlockTableRecord
  2
*Paper_Space
  0
BLOCK_RECORD
  5
212
100
AcDbSymbolTableRecord
100
AcDbBlockTableRecord
  2
_FILLED
  0
ENDTAB
  0
TABLE
  2
DIMSTYLE
  5
A
100
AcDbSymbolTable
 70
1
100
AcDbDimStyleTable
 71
0
  0
DIMSTYLE
105
213
100
AcDbSymbolTableRecord
100
AcDbDimStyleTableRecord
  2
STANDARD
 70
0
  3

  4

 40
1.0
 41
4.8288157353
 42
1.0
 43
0.38
 44
1.0
 45
0.0
 46
0.0
 47
0.01
 48
0.01
140
6.7603420294
141
0.09
142
0.0
143
25.4
144
1.0
145
0.0
146
1.0
147
0.625
 71
1
 72
0
 73
0
 74
0
 75
0
 76
0
 77
1
 78
8
 79
2
170
0
171
1
172
0
173
0
174
0
175
0
176
0
177
0
178
0
270
2
179
2
271
2
272
2
273
2
274
2
275
0
280
0
281
0
282
0
283
1
284
8
285
0
286
0
287
3
288
0
340
11
278
46
341
212
342
212
343
212
344
212
  0
ENDTAB
  0
ENDSEC
  0
SECTION
  2
BLOCKS
  0
BLOCK
  5
20
100
AcDbEntity
  8
0
100
AcDbBlockBegin
  2
*Model_Space
 70
0
 10
0.0
 20
0.0
 30
0.0
  3
*Model_Space
  1

  0
ENDBLK
  5
21
100
AcDbEntity
  8
0
100
AcDbBlockEnd
  0
BLOCK
  5
1C
100
AcDbEntity
  8
0
100
AcDbBlockBegin
  2
*Paper_Space
 70
0
 10
0.0
 20
0.0
 30
0.0
  3
*Paper_Space
  1

  0
ENDBLK
  5
1D
100
AcDbEntity
  8
0
100
AcDbBlockEnd
  0
BLOCK
  5
214
100
AcDbEntity
  8
0
100
AcDbBlockBegin
  2
_FILLED
 70
64
 10
0.0
 20
0.0
  3
_FILLED
  1

  0
SOLID
  5
215
100
AcDbEntity
  8
0
  6
BYBLOCK
 62
0
100
AcDbTrace
 10
0.0
 20
0.0
 11
-1.0
 21
0.25
 12
-1.0
 22
-0.25
 13
-1.0
 23
-0.25
  0
ENDBLK
  5
216
100
AcDbEntity
  8
0
  6
BYBLOCK
 62
0
100
AcDbBlockEnd
  0
ENDSEC
  0
SECTION
  2
ENTITIES
  0
LINE
  5
217
100
AcDbEntity
  8
0
100
AcDbLine
 62
7
  6
CONTINUOUS
 10
190.3264479326
 20
41.0762589928
 11
222.3264479326
 21
41.0762589928
  0
LINE
  5
218
100
AcDbEntity
  8
0
100
AcDbLine
 62
7
  6
CONTINUOUS
 10
190.3264479326
 20
43.0762589928
 11
192.3264479326
 21
43.0762589928
  0
LINE
  5
219
100
AcDbEntity
  8
0
100
AcDbLine
 62
7
  6
CONTINUOUS
 10
192.8264479326
 20
65.0762589928
 11
194.8005055122
 21
65.0762589928
  0
LINE
  5
21A
100
AcDbEntity
  8
0
100
AcDbLine
 62
7
  6
CONTINUOUS
 10
190.3264479326
 20
68.2126210596
 11
181.7042746649
 21
68.2126210596
  0
LINE
  5
21B
100
AcDbEntity
  8
0
100
AcDbLine
 62
7
  6
CONTINUOUS
 10
196.826853265
 20
68.4781827815
 11
196.8905584938
 21
68.4781827815
  0
LINE
  5
21C
100
AcDbEntity
  8
0
100
AcDbLine
 62
7
  6
CONTINUOUS
 10
197.0422484444
 20
68.9111954833
 11
196.8905584938
 21
68.9111954833
  0
LINE
  5
21D
100
AcDbEntity
  8
0
100
AcDbLine
 62
7
  6
CONTINUOUS
 10
196.9042734405
 20
68.9781827815
 11
197.0596990836
 21
68.9781827815
  0
LINE
  5
21E
100
AcDbEntity
  8
0
100
AcDbLine
 62
7
  6
CONTINUOUS
 10
181.9836564349
 20
70.895442203
 11
190.3264479326
 21
70.895442203
  0
LINE
  5
21F
100
AcDbEntity
  8
0
100
AcDbLine
 62
7
  6
CONTINUOUS
 10
181.6755186414
 20
71.0762589489
 11
181.9906547387
 21
71.0762593288
  0
LINE
  5
220
100
AcDbEntity
  8
0
100
AcDbLine
 62
7
  6
CONTINUOUS
 10
181.9836560413
 20
71.2570774837
 11
190.3264479326
 21
71.2570774837
  0
LINE
  5
221
100
AcDbEntity
  8
0
100
AcDbLine
 62
7
  6
CONTINUOUS
 10
196.9043148232
 20
73.1743352042
 11
197.0596990836
 21
73.1743352042
  0
LINE
  5
222
100
AcDbEntity
  8
0
100
AcDbLine
 62
7
  6
CONTINUOUS
 10
196.8905584938
 20
73.2413225023
 11
197.0422484444
 21
73.2413225023
  0
LINE
  5
223
100
AcDbEntity
  8
0
100
AcDbLine
 62
7
  6
CONTINUOUS
 10
196.8905584938
 20
73.6743352042
 11
196.8274655471
 21
73.6743352042
  0
LINE
  5
224
100
AcDbEntity
  8
0
100
AcDbLine
 62
7
  6
CONTINUOUS
 10
190.3264479326
 20
73.939896926
 11
181.7042744577
 21
73.939896926
  0
LWPOLYLINE
  5
225
100
AcDbEntity
  8
0
100
AcDbPolyline
 62
7
  6
CONTINUOUS
 90
4
 70
0
 10
181.330563627
 20
68.2887861564
 10
181.425496035
 20
68.2540370365
 10
181.588574048
 20
68.2195670653
 10
181.7044295874
 20
68.2126249056
  0
LINE
  5
226
100
AcDbEntity
  8
0
100
AcDbLine
 62
7
  6
CONTINUOUS
 10
178.3264479326
 20
497.5762589928
 11
181.3306797078
 21
498.8637868965
  0
LWPOLYLINE
  5
227
100
AcDbEntity
  8
0
100
AcDbPolyline
 62
7
  6
CONTINUOUS
 90
4
 70
0
 10
181.7044284831
 20
73.9398931323
 10
181.5885682701
 20
73.9329503576
 10
181.4255037466
 20
73.8984835225
 10
181.3305645637
 20
73.8637324242
  0
LINE
  5
228
100
AcDbEntity
  8
0
100
AcDbLine
 62
7
  6
CONTINUOUS
 10
192.8264479326
 20
77.0762589928
 11
194.8005055122
 21
77.0762589928
  0
LINE
  5
229
100
AcDbEntity
  8
0
100
AcDbLine
 62
7
  6
CONTINUOUS
 10
178.3264479326
 20
69.5762589928
 11
181.3306795844
 21
68.288731142
  0
LINE
  5
22A
100
AcDbEntity
  8
0
100
AcDbLine
 62
7
  6
CONTINUOUS
 10
206.4170496132
 20
150.2003281782
 11
207.326077059
 21
149.9127581023
  0
LINE
  5
22B
100
AcDbEntity
  8
0
100
AcDbLine
 62
7
  6
CONTINUOUS
 10
196.8905584938
 20
73.6743352042
 11
196.8438120369
 21
73.7413225023
  0
LINE
  5
22C
100
AcDbEntity
  8
0
100
AcDbLine
 62
7
  6
CONTINUOUS
 10
196.8438168802
 20
493.4111954833
 11
196.8905584938
 21
493.4781827815
  0
LINE
  5
22D
100
AcDbEntity
  8
0
100
AcDbLine
 62
7
  6
CONTINUOUS
 10
225.8264479326
 20
178.9762589928
 11
237.8264479326
 21
178.9762589928
  0
LINE
  5
22E
100
AcDbEntity
  8
0
100
AcDbLine
 62
7
  6
CONTINUOUS
 10
237.8264479326
 20
180.4762589928
 11
225.8264479326
 21
180.4762589928
  0
LINE
  5
22F
100
AcDbEntity
  8
0
100
AcDbLine
 62
7
  6
CONTINUOUS
 10
206.4169861499
 20
205.2014611199
 11
207.326077059
 21
204.9139813326
  0
LINE
  5
230
100
AcDbEntity
  8
0
100
AcDbLine
 62
7
  6
CONTINUOUS
 10
197.0596990836
 20
73.1743352042
 11
197.0422484445
 21
73.2413225023
  0
LINE
  5
231
100
AcDbEntity
  8
0
100
AcDbLine
 62
7
  6
CONTINUOUS
 10
197.0422484445
 20
493.9111954833
 11
197.0596990836
 21
493.9781827815
  0
LINE
  5
232
100
AcDbEntity
  8
0
100
AcDbLine
 62
7
  6
CONTINUOUS
 10
217.326077059
 20
196.5766298663
 11
204.3264479326
 21
209.5762589928
  0
LINE
  5
233
100
AcDbEntity
  8
0
100
AcDbLine
 62
7
  6
CONTINUOUS
 10
178.3264479326
 20
497.5762008055
 11
178.3264479326
 21
494.5763171801
  0
LINE
  5
234
100
AcDbEntity
  8
0
100
AcDbLine
 62
7
  6
CONTINUOUS
 10
178.3264479326
 20
72.5762008055
 11
178.3264479326
 21
69.5763171801
  0
LINE
  5
235
100
AcDbEntity
  8
0
100
AcDbLine
 62
7
  6
CONTINUOUS
 10
190.3264479326
 20
526.0762589928
 11
190.3264479326
 21
41.0762589928
  0
LINE
  5
236
100
AcDbEntity
  8
0
100
AcDbLine
 62
7
  6
CONTINUOUS
 10
192.3264479326
 20
41.0762589928
 11
192.3264479326
 21
526.0762589928
  0
LINE
  5
237
100
AcDbEntity
  8
0
100
AcDbLine
 62
7
  6
CONTINUOUS
 10
192.8264479326
 20
502.0762589928
 11
192.8264479326
 21
490.0762589928
  0
LINE
  5
238
100
AcDbEntity
  8
0
100
AcDbLine
 62
7
  6
CONTINUOUS
 10
192.8264479326
 20
77.0762589928
 11
192.8264479326
 21
65.0762589928
  0
LINE
  5
239
100
AcDbEntity
  8
0
100
AcDbLine
 62
7
  6
CONTINUOUS
 10
193.3264479326
 20
526.0762589928
 11
193.3264479326
 21
502.0762589928
  0
LINE
  5
23A
100
AcDbEntity
  8
0
100
AcDbLine
 62
7
  6
CONTINUOUS
 10
193.3264479326
 20
490.0762589928
 11
193.3264479326
 21
77.0762589928
  0
LINE
  5
23B
100
AcDbEntity
  8
0
100
AcDbLine
 62
7
  6
CONTINUOUS
 10
193.3264479326
 20
65.0762589928
 11
193.3264479326
 21
41.0762589928
  0
LINE
  5
23C
100
AcDbEntity
  8
0
100
AcDbLine
 62
7
  6
CONTINUOUS
 10
199.0008580352
 20
324.3002626681
 11
197.5449241527
 21
319.5381175164
  0
LINE
  5
23D
100
AcDbEntity
  8
0
100
AcDbLine
 62
7
  6
CONTINUOUS
 10
224.3264479326
 20
345.2366883672
 11
222.6943536789
 21
343.2708182387
  0
LINE
  5
23E
100
AcDbEntity
  8
0
100
AcDbLine
 62
7
  6
CONTINUOUS
 10
206.417018886
 20
260.2009953338
 11
207.326077059
 21
259.9134689679
  0
LINE
  5
23F
100
AcDbEntity
  8
0
100
AcDbLine
 62
7
  6
CONTINUOUS
 10
194.8005055398
 20
65.0762589928
 11
194.8005055398
 21
77.0762589928
  0
LINE
  5
240
100
AcDbEntity
  8
0
100
AcDbLine
 62
7
  6
CONTINUOUS
 10
194.8005055398
 20
490.0762589928
 11
194.8005055398
 21
502.0762589928
  0
LINE
  5
241
100
AcDbEntity
  8
0
100
AcDbLine
 62
7
  6
CONTINUOUS
 10
195.6399279444
 20
76.6197385044
 11
195.6399288294
 21
65.5327808474
  0
LINE
  5
242
100
AcDbEntity
  8
0
100
AcDbLine
 62
7
  6
CONTINUOUS
 10
195.6399288294
 20
490.5327808474
 11
195.6399279444
 21
501.6197385044
  0
LINE
  5
243
100
AcDbEntity
  8
0
100
AcDbLine
 62
7
  6
CONTINUOUS
 10
203.3264479325
 20
148.2369044269
 11
203.3264479325
 21
168.8997494458
  0
LINE
  5
244
100
AcDbEntity
  8
0
100
AcDbLine
 62
7
  6
CONTINUOUS
 10
203.3264479325
 20
203.2374019128
 11
203.3264479325
 21
223.8995996031
  0
LINE
  5
245
100
AcDbEntity
  8
0
100
AcDbLine
 62
7
  6
CONTINUOUS
 10
203.3264479325
 20
258.2373244359
 11
203.3264479325
 21
278.8987083322
  0
LINE
  5
246
100
AcDbEntity
  8
0
100
AcDbLine
 62
7
  6
CONTINUOUS
 10
203.3264479325
 20
313.2373221175
 11
203.3264479325
 21
327.0987104816
  0
LINE
  5
247
100
AcDbEntity
  8
0
100
AcDbLine
 62
7
  6
CONTINUOUS
 10
204.3264479326
 20
338.8238942369
 11
204.3264479326
 21
333.3285126162
  0
LINE
  5
248
100
AcDbEntity
  8
0
100
AcDbLine
 62
7
  6
CONTINUOUS
 10
204.3264479326
 20
326.8395112675
 11
204.3264479326
 21
313.5525843876
  0
LINE
  5
249
100
AcDbEntity
  8
0
100
AcDbLine
 62
7
  6
CONTINUOUS
 10
204.3264479326
 20
281.3737951857
 11
204.3264479326
 21
258.5525898992
  0
LINE
  5
24A
100
AcDbEntity
  8
0
100
AcDbLine
 62
7
  6
CONTINUOUS
 10
204.3264479326
 20
226.3746864566
 11
204.3264479326
 21
209.5762589928
  0
LINE
  5
24B
100
AcDbEntity
  8
0
100
AcDbLine
 62
7
  6
CONTINUOUS
 10
204.3264479326
 20
526.0762589928
 11
204.3264479326
 21
529.0762589928
  0
LINE
  5
24C
100
AcDbEntity
  8
0
100
AcDbLine
 62
7
  6
CONTINUOUS
 10
207.326077059
 20
56.0762589928
 11
207.326077059
 21
149.9127581023
  0
LINE
  5
24D
100
AcDbEntity
  8
0
100
AcDbLine
 62
7
  6
CONTINUOUS
 10
207.326077059
 20
178.7991789153
 11
207.326077059
 21
204.9139813326
  0
LINE
  5
24E
100
AcDbEntity
  8
0
100
AcDbLine
 62
7
  6
CONTINUOUS
 10
207.326077059
 20
233.7990290727
 11
207.326077059
 21
259.9134689679
  0
LINE
  5
24F
100
AcDbEntity
  8
0
100
AcDbLine
 62
7
  6
CONTINUOUS
 10
207.326077059
 20
288.7981378017
 11
207.326077059
 21
314.9134536361
  0
LINE
  5
250
100
AcDbEntity
  8
0
100
AcDbLine
 62
7
  6
CONTINUOUS
 10
207.326077059
 20
288.7981378017
 11
197.690517883
 21
264.9492919599
  0
LINE
  5
251
100
AcDbEntity
  8
0
100
AcDbLine
 62
7
  6
CONTINUOUS
 10
217.326077059
 20
318.2139919611
 11
217.326077059
 21
56.0762589928
  0
LINE
  5
252
100
AcDbEntity
  8
0
100
AcDbLine
 62
7
  6
CONTINUOUS
 10
222.8264479326
 20
328.7225911985
 11
222.8264479326
 21
343.4299267871
  0
LINE
  5
253
100
AcDbEntity
  8
0
100
AcDbLine
 62
7
  6
CONTINUOUS
 10
222.8264479326
 20
525.5762589928
 11
222.8264479326
 21
527.5762589928
  0
LINE
  5
254
100
AcDbEntity
  8
0
100
AcDbLine
 62
7
  6
CONTINUOUS
 10
224.3264479326
 20
527.5762589928
 11
224.3264479326
 21
43.0762589928
  0
LINE
  5
255
100
AcDbEntity
  8
0
100
AcDbLine
 62
7
  6
CONTINUOUS
 10
225.8264479326
 20
180.4762589928
 11
225.8264479326
 21
178.9762589928
  0
LINE
  5
256
100
AcDbEntity
  8
0
100
AcDbLine
 62
7
  6
CONTINUOUS
 10
207.326077059
 20
233.7990290727
 11
197.6901577862
 21
209.9492919599
  0
LINE
  5
257
100
AcDbEntity
  8
0
100
AcDbLine
 62
7
  6
CONTINUOUS
 10
237.8264479326
 20
180.4762589928
 11
237.8264479326
 21
178.9762589928
  0
LINE
  5
258
100
AcDbEntity
  8
0
100
AcDbLine
 62
7
  6
CONTINUOUS
 10
206.4170198657
 20
315.2009813958
 11
207.326077059
 21
314.9134536361
  0
LINE
  5
259
100
AcDbEntity
  8
0
100
AcDbLine
 62
7
  6
CONTINUOUS
 10
197.0422484445
 20
68.9111954833
 11
197.0596990836
 21
68.9781827815
  0
LINE
  5
25A
100
AcDbEntity
  8
0
100
AcDbLine
 62
7
  6
CONTINUOUS
 10
207.326077059
 20
178.7991789153
 11
197.6901577862
 21
154.9494418025
  0
LINE
  5
25B
100
AcDbEntity
  8
0
100
AcDbLine
 62
7
  6
CONTINUOUS
 10
206.835450578
 20
331.8496382167
 11
222.6943536789
 21
328.8816997469
  0
LINE
  5
25C
100
AcDbEntity
  8
0
100
AcDbLine
 62
7
  6
CONTINUOUS
 10
214.1991100261
 20
322.8499112339
 11
204.3245034327
 21
326.8395112675
  0
LINE
  5
25D
100
AcDbEntity
  8
0
100
AcDbLine
 62
7
  6
CONTINUOUS
 10
222.6943536789
 20
328.8816997469
 11
224.3264479326
 21
326.9158296185
  0
LINE
  5
25E
100
AcDbEntity
  8
0
100
AcDbLine
 62
7
  6
CONTINUOUS
 10
197.0596990836
 20
498.1743352042
 11
197.0422484445
 21
498.2413225023
  0
LINE
  5
25F
100
AcDbEntity
  8
0
100
AcDbLine
 62
7
  6
CONTINUOUS
 10
222.6943536789
 20
343.2708182387
 11
206.835450578
 21
340.3028797689
  0
LINE
  5
260
100
AcDbEntity
  8
0
100
AcDbLine
 62
7
  6
CONTINUOUS
 10
196.8438168802
 20
68.4111954833
 11
196.8905584938
 21
68.4781827815
  0
LINE
  5
261
100
AcDbEntity
  8
0
100
AcDbLine
 62
7
  6
CONTINUOUS
 10
196.8905584938
 20
498.6743352042
 11
196.8438120369
 21
498.7413225023
  0
LINE
  5
262
100
AcDbEntity
  8
0
100
AcDbLine
 62
7
  6
CONTINUOUS
 10
178.3264479326
 20
494.5762589928
 11
181.3306795844
 21
493.288731142
  0
LINE
  5
263
100
AcDbEntity
  8
0
100
AcDbLine
 62
7
  6
CONTINUOUS
 10
222.3264479326
 20
526.0762589928
 11
224.3264479326
 21
524.0762589928
  0
LINE
  5
264
100
AcDbEntity
  8
0
100
AcDbLine
 62
7
  6
CONTINUOUS
 10
224.3264479326
 20
43.0762589928
 11
222.3264479326
 21
41.0762589928
  0
LINE
  5
265
100
AcDbEntity
  8
0
100
AcDbLine
 62
7
  6
CONTINUOUS
 10
178.3264479326
 20
72.5762589928
 11
181.3306797078
 21
73.8637868965
  0
LWPOLYLINE
  5
266
100
AcDbEntity
  8
0
100
AcDbPolyline
 62
7
  6
CONTINUOUS
 90
4
 70
0
 10
181.330563627
 20
493.2887861564
 10
181.425496035
 20
493.2540370365
 10
181.588574048
 20
493.2195670653
 10
181.7044295874
 20
493.2126249056
  0
LWPOLYLINE
  5
267
100
AcDbEntity
  8
0
100
AcDbPolyline
 62
7
  6
CONTINUOUS
 90
4
 70
0
 10
181.7044284831
 20
498.9398931323
 10
181.5885682701
 20
498.9329503576
 10
181.4255037466
 20
498.8984835225
 10
181.3305645637
 20
498.8637324242
  0
LINE
  5
268
100
AcDbEntity
  8
0
100
AcDbLine
 62
7
  6
CONTINUOUS
 10
192.8264479326
 20
490.0762589928
 11
194.8005055122
 21
490.0762589928
  0
LINE
  5
269
100
AcDbEntity
  8
0
100
AcDbLine
 62
7
  6
CONTINUOUS
 10
190.3264479326
 20
493.2126210596
 11
181.7042746649
 21
493.2126210596
  0
LINE
  5
26A
100
AcDbEntity
  8
0
100
AcDbLine
 62
7
  6
CONTINUOUS
 10
196.826853265
 20
493.4781827815
 11
196.8905584938
 21
493.4781827815
  0
LINE
  5
26B
100
AcDbEntity
  8
0
100
AcDbLine
 62
7
  6
CONTINUOUS
 10
197.0422484444
 20
493.9111954833
 11
196.8905584938
 21
493.9111954833
  0
LINE
  5
26C
100
AcDbEntity
  8
0
100
AcDbLine
 62
7
  6
CONTINUOUS
 10
196.9042734405
 20
493.9781827815
 11
197.0596990836
 21
493.9781827815
  0
LINE
  5
26D
100
AcDbEntity
  8
0
100
AcDbLine
 62
7
  6
CONTINUOUS
 10
181.9836564349
 20
495.895442203
 11
190.3264479326
 21
495.895442203
  0
LINE
  5
26E
100
AcDbEntity
  8
0
100
AcDbLine
 62
7
  6
CONTINUOUS
 10
181.6755186414
 20
496.0762589489
 11
181.9906547387
 21
496.0762593288
  0
LINE
  5
26F
100
AcDbEntity
  8
0
100
AcDbLine
 62
7
  6
CONTINUOUS
 10
181.9836560413
 20
496.2570774837
 11
190.3264479326
 21
496.2570774837
  0
LINE
  5
270
100
AcDbEntity
  8
0
100
AcDbLine
 62
7
  6
CONTINUOUS
 10
196.9043148232
 20
498.1743352042
 11
197.0596990836
 21
498.1743352042
  0
LINE
  5
271
100
AcDbEntity
  8
0
100
AcDbLine
 62
7
  6
CONTINUOUS
 10
196.8905584938
 20
498.2413225023
 11
197.0422484444
 21
498.2413225023
  0
LINE
  5
272
100
AcDbEntity
  8
0
100
AcDbLine
 62
7
  6
CONTINUOUS
 10
196.8905584938
 20
498.6743352042
 11
196.8274655471
 21
498.6743352042
  0
LINE
  5
273
100
AcDbEntity
  8
0
100
AcDbLine
 62
7
  6
CONTINUOUS
 10
190.3264479326
 20
498.939896926
 11
181.7042744577
 21
498.939896926
  0
LINE
  5
274
100
AcDbEntity
  8
0
100
AcDbLine
 62
7
  6
CONTINUOUS
 10
192.8264479326
 20
502.0762589928
 11
194.8005055122
 21
502.0762589928
  0
LINE
  5
275
100
AcDbEntity
  8
0
100
AcDbLine
 62
7
  6
CONTINUOUS
 10
190.3264479326
 20
524.0762589928
 11
192.3264479326
 21
524.0762589928
  0
LINE
  5
276
100
AcDbEntity
  8
0
100
AcDbLine
 62
7
  6
CONTINUOUS
 10
190.3264479326
 20
526.0762589928
 11
222.3264479326
 21
526.0762589928
  0
LINE
  5
277
100
AcDbEntity
  8
0
100
AcDbLine
 62
7
  6
CONTINUOUS
 10
224.3264479326
 20
527.5762589928
 11
204.3264479326
 21
527.5762589928
  0
LINE
  5
278
100
AcDbEntity
  8
0
100
AcDbLine
 62
7
  6
CONTINUOUS
 10
204.3264479326
 20
529.0762589928
 11
222.8264479326
 21
529.0762589928
  0
ARC
  5
279
100
AcDbEntity
  8
0
100
AcDbCircle
 62
7
  6
CONTINUOUS
 10
187.0778116816
 20
71.0762589928
 40
10.2
100
AcDbArc
 50
11.870113456
 51
32.9207345249
  0
ARC
  5
27A
100
AcDbEntity
  8
0
100
AcDbCircle
 62
7
  6
CONTINUOUS
 10
187.0778116816
 20
71.0762589928
 40
10.2
100
AcDbArc
 50
327.0792662444
 51
347.7408377549
  0
ARC
  5
27B
100
AcDbEntity
  8
0
100
AcDbCircle
 62
7
  6
CONTINUOUS
 10
187.0778116816
 20
71.0762589928
 40
10.0487561419
100
AcDbArc
 50
347.5577263654
 51
352.572385997
  0
ARC
  5
27C
100
AcDbEntity
  8
0
100
AcDbCircle
 62
7
  6
CONTINUOUS
 10
187.0778116816
 20
71.0762589928
 40
10.0487561419
100
AcDbArc
 50
7.427614003
 51
12.4422736346
  0
ARC
  5
27D
100
AcDbEntity
  8
0
100
AcDbCircle
 62
7
  6
CONTINUOUS
 10
202.3264479326
 20
153.0762589928
 40
5.0004
100
AcDbArc
 50
157.9999999999
 51
324.890552304
  0
ARC
  5
27E
100
AcDbEntity
  8
0
100
AcDbCircle
 62
7
  6
CONTINUOUS
 10
202.326077059
 20
208.0762589928
 40
5.0
100
AcDbArc
 50
158.0000000001
 51
324.9031987724
  0
ARC
  5
27F
100
AcDbEntity
  8
0
100
AcDbCircle
 62
7
  6
CONTINUOUS
 10
202.3264371558
 20
263.0762589928
 40
5.0
100
AcDbArc
 50
158.0000000001
 51
324.8966748808
  0
ARC
  5
280
100
AcDbEntity
  8
0
100
AcDbCircle
 62
7
  6
CONTINUOUS
 10
183.5624503082
 20
67.0626022723
 40
4.4817628199
100
AcDbArc
 50
110.6262689002
 51
114.9979501816
  0
ARC
  5
281
100
AcDbEntity
  8
0
100
AcDbCircle
 62
7
  6
CONTINUOUS
 10
183.5624504426
 20
75.0898625935
 40
4.4817146026
100
AcDbArc
 50
245.001767541
 51
249.373492954
  0
ARC
  5
282
100
AcDbEntity
  8
0
100
AcDbCircle
 62
7
  6
CONTINUOUS
 10
179.653108309
 20
71.0763411325
 40
2.3375453709
100
AcDbArc
 50
359.9979866629
 51
4.4344704192
  0
ARC
  5
283
100
AcDbEntity
  8
0
100
AcDbCircle
 62
7
  6
CONTINUOUS
 10
179.6685009817
 20
71.075576691
 40
2.3221527969
100
AcDbArc
 50
355.5509710625
 51
0.016834813
  0
ARC
  5
284
100
AcDbEntity
  8
0
100
AcDbCircle
 62
7
  6
CONTINUOUS
 10
194.8005055122
 20
66.0762589928
 40
1.0
100
AcDbArc
 50
270.0
 51
327.0792654719
  0
ARC
  5
285
100
AcDbEntity
  8
0
100
AcDbCircle
 62
7
  6
CONTINUOUS
 10
194.8005055122
 20
76.0762589928
 40
1.0
100
AcDbArc
 50
32.9207345281
 51
90.0
  0
ARC
  5
286
100
AcDbEntity
  8
0
100
AcDbCircle
 62
7
  6
CONTINUOUS
 10
192.8264479326
 20
76.5762589928
 40
0.5
100
AcDbArc
 50
90.0
 51
180.0
  0
ARC
  5
287
100
AcDbEntity
  8
0
100
AcDbCircle
 62
7
  6
CONTINUOUS
 10
192.8264479326
 20
65.5762589928
 40
0.5
100
AcDbArc
 50
180.0
 51
270.0
  0
ARC
  5
288
100
AcDbEntity
  8
0
100
AcDbCircle
 62
7
  6
CONTINUOUS
 10
187.0778116816
 20
496.0762589928
 40
10.2
100
AcDbArc
 50
11.870113456
 51
32.9207345249
  0
ARC
  5
289
100
AcDbEntity
  8
0
100
AcDbCircle
 62
7
  6
CONTINUOUS
 10
187.0778116816
 20
496.0762589928
 40
10.2
100
AcDbArc
 50
327.0792662444
 51
347.7408377549
  0
ARC
  5
28A
100
AcDbEntity
  8
0
100
AcDbCircle
 62
7
  6
CONTINUOUS
 10
187.0778116816
 20
496.0762589928
 40
10.0487561419
100
AcDbArc
 50
347.5577263654
 51
352.572385997
  0
ARC
  5
28B
100
AcDbEntity
  8
0
100
AcDbCircle
 62
7
  6
CONTINUOUS
 10
187.0778116816
 20
496.0762589928
 40
10.0487561419
100
AcDbArc
 50
7.427614003
 51
12.4422736346
  0
ARC
  5
28C
100
AcDbEntity
  8
0
100
AcDbCircle
 62
7
  6
CONTINUOUS
 10
202.3264479326
 20
318.0762589928
 40
5.0
100
AcDbArc
 50
163.0000000003
 51
324.8964796548
  0
ARC
  5
28D
100
AcDbEntity
  8
0
100
AcDbCircle
 62
7
  6
CONTINUOUS
 10
183.5624503082
 20
492.0626022723
 40
4.48176282
100
AcDbArc
 50
110.6262689002
 51
114.9979501816
  0
ARC
  5
28E
100
AcDbEntity
  8
0
100
AcDbCircle
 62
7
  6
CONTINUOUS
 10
183.5624504426
 20
500.0898625935
 40
4.4817146025
100
AcDbArc
 50
245.001767541
 51
249.373492954
  0
ARC
  5
28F
100
AcDbEntity
  8
0
100
AcDbCircle
 62
7
  6
CONTINUOUS
 10
179.653108309
 20
496.0763411325
 40
2.3375453709
100
AcDbArc
 50
359.9979866629
 51
4.4344704192
  0
ARC
  5
290
100
AcDbEntity
  8
0
100
AcDbCircle
 62
7
  6
CONTINUOUS
 10
179.6685009818
 20
496.075576691
 40
2.3221527969
100
AcDbArc
 50
355.5509710625
 51
0.016834813
  0
ARC
  5
291
100
AcDbEntity
  8
0
100
AcDbCircle
 62
7
  6
CONTINUOUS
 10
194.8005055122
 20
491.0762589928
 40
1.0
100
AcDbArc
 50
270.0
 51
327.0792654719
  0
ARC
  5
292
100
AcDbEntity
  8
0
100
AcDbCircle
 62
7
  6
CONTINUOUS
 10
194.8005055122
 20
501.0762589928
 40
1.0
100
AcDbArc
 50
32.9207345281
 51
90.0
  0
ARC
  5
293
100
AcDbEntity
  8
0
100
AcDbCircle
 62
7
  6
CONTINUOUS
 10
192.8264479326
 20
501.5762589928
 40
0.5
100
AcDbArc
 50
90.0
 51
180.0
  0
ARC
  5
294
100
AcDbEntity
  8
0
100
AcDbCircle
 62
7
  6
CONTINUOUS
 10
192.8264479326
 20
490.5762589928
 40
0.5
100
AcDbArc
 50
180.0
 51
270.0
  0
ARC
  5
295
100
AcDbEntity
  8
0
100
AcDbCircle
 62
7
  6
CONTINUOUS
 10
212.3264479325
 20
62.0762589928
 40
9.0
100
AcDbArc
 50
239.5874258604
 51
300.4084778311
  0
ARC
  5
296
100
AcDbEntity
  8
0
100
AcDbCircle
 62
7
  6
CONTINUOUS
 10
212.326077059
 20
56.0762589928
 40
5.0
100
AcDbArc
 50
180.0
 51
359.9999999999
  0
CIRCLE
  5
297
100
AcDbEntity
  8
0
100
AcDbCircle
 62
7
  6
CONTINUOUS
 10
212.3264479325
 20
62.0762589928
 40
4.25
  0
CIRCLE
  5
298
100
AcDbEntity
  8
0
100
AcDbCircle
 62
7
  6
CONTINUOUS
 10
212.3264479325
 20
62.0762589928
 40
4.0
  0
ARC
  5
299
100
AcDbEntity
  8
0
100
AcDbCircle
 62
7
  6
CONTINUOUS
 10
225.8264479326
 20
181.9762589928
 40
3.0
100
AcDbArc
 50
238.4192005364
 51
270.0
  0
ARC
  5
29A
100
AcDbEntity
  8
0
100
AcDbCircle
 62
7
  6
CONTINUOUS
 10
225.8264479326
 20
181.9762589928
 40
1.5
100
AcDbArc
 50
180.0
 51
270.0
  0
ARC
  5
29B
100
AcDbEntity
  8
0
100
AcDbCircle
 62
7
  6
CONTINUOUS
 10
212.326077059
 20
318.2139919611
 40
5.0
100
AcDbArc
 50
0.0000000002
 51
67.9999999997
  0
ARC
  5
29C
100
AcDbEntity
  8
0
100
AcDbCircle
 62
7
  6
CONTINUOUS
 10
207.6264479326
 20
336.0762589928
 40
4.3
100
AcDbArc
 50
100.6000887491
 51
259.3999112508
  0
CIRCLE
  5
29D
100
AcDbEntity
  8
0
100
AcDbCircle
 62
7
  6
CONTINUOUS
 10
212.3264479326
 20
336.0762589928
 40
4.25
  0
CIRCLE
  5
29E
100
AcDbEntity
  8
0
100
AcDbCircle
 62
7
  6
CONTINUOUS
 10
212.3264479325
 20
336.0762589928
 40
4.0
  0
CIRCLE
  5
29F
100
AcDbEntity
  8
0
100
AcDbCircle
 62
7
  6
CONTINUOUS
 10
214.3264479326
 20
516.0762589928
 40
4.0
  0
ARC
  5
2A0
100
AcDbEntity
  8
0
100
AcDbCircle
 62
7
  6
CONTINUOUS
 10
202.826077059
 20
323.1307758492
 40
4.0
100
AcDbArc
 50
68.0000000005
 51
162.9999999998
  0
CIRCLE
  5
2A1
100
AcDbEntity
  8
0
100
AcDbCircle
 62
7
  6
CONTINUOUS
 10
214.3264479326
 20
516.0762589928
 40
3.7
  0
CIRCLE
  5
2A2
100
AcDbEntity
  8
0
100
AcDbCircle
 62
7
  6
CONTINUOUS
 10
212.3264479325
 20
336.0762589928
 40
3.7
  0
ARC
  5
2A3
100
AcDbEntity
  8
0
100
AcDbCircle
 62
7
  6
CONTINUOUS
 10
222.8264479326
 20
527.5762589928
 40
1.5
100
AcDbArc
 50
0.0
 51
90.0
  0
SPLINE
  5
2A4
100
AcDbEntity
  8
0
100
AcDbSpline
 62
7
  6
CONTINUOUS
 70
0
 71
3
 72
10
 73
6
 74
0
 42
0.0000001
 43
0.0000001
 44
0.0000000001
 40
0.0
 40
0.0
 40
0.0
 40
0.0
 40
0.5731466058
 40
0.8119138223
 40
1.0
 40
1.0
 40
1.0
 40
1.0
 10
196.8266577672
 20
496.0762589928
 30
0.0
 10
196.8266577672
 20
495.9922260783
 30
0.0
 10
196.8336595838
 20
495.8727593805
 30
0.0
 10
196.860820616
 20
495.7285890098
 30
0.0
 10
196.8794253766
 20
495.6684756803
 30
0.0
 10
196.8905584938
 20
495.6432462909
 30
0.0
  0
SPLINE
  5
2A5
100
AcDbEntity
  8
0
100
AcDbSpline
 62
7
  6
CONTINUOUS
 70
0
 71
3
 72
9
 73
5
 74
0
 42
0.0000001
 43
0.0000001
 44
0.0000000001
 40
0.0
 40
0.0
 40
0.0
 40
0.0
 40
0.2540749072
 40
1.0
 40
1.0
 40
1.0
 40
1.0
 10
196.8905584938
 20
495.6432462909
 30
0.0
 10
196.906255359
 20
495.607674733
 30
0.0
 10
196.9653594941
 20
495.4665105139
 30
0.0
 10
197.0134487953
 20
495.3206892722
 30
0.0
 10
197.0422484444
 20
495.210233589
 30
0.0
  0
SPLINE
  5
2A6
100
AcDbEntity
  8
0
100
AcDbSpline
 62
7
  6
CONTINUOUS
 70
0
 71
3
 72
10
 73
6
 74
0
 42
0.0000001
 43
0.0000001
 44
0.0000000001
 40
0.0
 40
0.0
 40
0.0
 40
0.0
 40
0.1847477053
 40
0.4236042622
 40
1.0
 40
1.0
 40
1.0
 40
1.0
 10
197.0422484445
 20
495.210233589
 30
0.0
 10
197.0490036635
 20
495.1843252064
 30
0.0
 10
197.057563939
 20
495.1232118605
 30
0.0
 10
197.0625470483
 20
494.9783209312
 30
0.0
 10
197.0530471997
 20
494.8600541107
 30
0.0
 10
197.0422484445
 20
494.7772208871
 30
0.0
  0
SPLINE
  5
2A7
100
AcDbEntity
  8
0
100
AcDbSpline
 62
7
  6
CONTINUOUS
 70
0
 71
3
 72
16
 73
12
 74
0
 42
0.0000001
 43
0.0000001
 44
0.0000000001
 40
0.0
 40
0.0
 40
0.0
 40
0.0
 40
0.3776385285
 40
0.5487842949
 40
0.6990328887
 40
0.8222353526
 40
0.9136460343
 40
0.9465942244
 40
0.9710348404
 40
0.9878188411
 40
1.0
 40
1.0
 40
1.0
 40
1.0
 10
196.8905584938
 20
493.9111954833
 30
0.0
 10
196.8766967348
 20
493.8483696441
 30
0.0
 10
196.8584913775
 20
493.7566116901
 30
0.0
 10
196.8401540782
 20
493.638927572
 30
0.0
 10
196.831053157
 20
493.5637074744
 30
0.0
 10
196.8265125657
 20
493.50169241
 30
0.0
 10
196.8263740756
 20
493.4594403563
 30
0.0
 10
196.8293789631
 20
493.4341842096
 30
0.0
 10
196.8325959452
 20
493.4219751085
 30
0.0
 10
196.8368406761
 20
493.4136273076
 30
0.0
 10
196.8417414109
 20
493.4111971511
 30
0.0
 10
196.8438166693
 20
493.4111955069
 30
0.0
  0
SPLINE
  5
2A8
100
AcDbEntity
  8
0
100
AcDbSpline
 62
7
  6
CONTINUOUS
 70
0
 71
3
 72
10
 73
6
 74
0
 42
0.0000001
 43
0.0000001
 44
0.0000000001
 40
0.0
 40
0.0
 40
0.0
 40
0.0
 40
0.5764126836
 40
0.8152608839
 40
1.0
 40
1.0
 40
1.0
 40
1.0
 10
197.0422484445
 20
497.3752970985
 30
0.0
 10
197.0530475171
 20
497.2924614403
 30
0.0
 10
197.0625471384
 20
497.1741933359
 30
0.0
 10
197.0575637081
 20
497.0293023963
 30
0.0
 10
197.0490033493
 20
496.9681915745
 30
0.0
 10
197.0422484445
 20
496.9422843966
 30
0.0
  0
SPLINE
  5
2A9
100
AcDbEntity
  8
0
100
AcDbSpline
 62
7
  6
CONTINUOUS
 70
0
 71
3
 72
9
 73
5
 74
0
 42
0.0000001
 43
0.0000001
 44
0.0000000001
 40
0.0
 40
0.0
 40
0.0
 40
0.0
 40
0.2464081019
 40
1.0
 40
1.0
 40
1.0
 40
1.0
 10
197.0422484444
 20
496.9422843966
 30
0.0
 10
197.03273468
 20
496.9057961272
 30
0.0
 10
196.9910344145
 20
496.7585323033
 30
0.0
 10
196.937116332
 20
496.6147790564
 30
0.0
 10
196.8905584938
 20
496.5092716947
 30
0.0
  0
SPLINE
  5
2AA
100
AcDbEntity
  8
0
100
AcDbSpline
 62
7
  6
CONTINUOUS
 70
0
 71
3
 72
16
 73
12
 74
0
 42
0.0000001
 43
0.0000001
 44
0.0000000001
 40
0.0
 40
0.0
 40
0.0
 40
0.0
 40
0.0121850305
 40
0.0289767195
 40
0.0534156632
 40
0.086372876
 40
0.1777963802
 40
0.3010152467
 40
0.4512686883
 40
0.6224083298
 40
1.0
 40
1.0
 40
1.0
 40
1.0
 10
196.8438158703
 20
498.7413230845
 30
0.0
 10
196.8417399502
 20
498.7413224735
 30
0.0
 10
196.8368368497
 20
498.7388895652
 30
0.0
 10
196.8325957654
 20
498.73053853
 30
0.0
 10
196.8293751272
 20
498.7183279086
 30
0.0
 10
196.8263758395
 20
498.6930671798
 30
0.0
 10
196.8265103047
 20
498.6508093164
 30
0.0
 10
196.831058128
 20
498.5887883644
 30
0.0
 10
196.8401598093
 20
498.5135660369
 30
0.0
 10
196.8584913815
 20
498.3958890968
 30
0.0
 10
196.8766984443
 20
498.3041405934
 30
0.0
 10
196.8905584938
 20
498.2413225023
 30
0.0
  0
SPLINE
  5
2AB
100
AcDbEntity
  8
0
100
AcDbSpline
 62
7
  6
CONTINUOUS
 70
0
 71
3
 72
10
 73
6
 74
0
 42
0.0000001
 43
0.0000001
 44
0.0000000001
 40
0.0
 40
0.0
 40
0.0
 40
0.0
 40
0.5731466156
 40
0.8119139873
 40
1.0
 40
1.0
 40
1.0
 40
1.0
 10
196.8266577672
 20
496.0762589928
 30
0.0
 10
196.8266577672
 20
496.1602919088
 30
0.0
 10
196.8336595858
 20
496.2797586305
 30
0.0
 10
196.8608206208
 20
496.4239290014
 30
0.0
 10
196.8794253864
 20
496.4840423275
 30
0.0
 10
196.8905584938
 20
496.5092716947
 30
0.0
  0
SPLINE
  5
2AC
100
AcDbEntity
  8
0
100
AcDbSpline
 62
7
  6
CONTINUOUS
 70
0
 71
3
 72
19
 73
15
 74
0
 42
0.0000001
 43
0.0000001
 44
0.0000000001
 40
0.0
 40
0.0
 40
0.0
 40
0.0
 40
0.0193478612
 40
0.0399350258
 40
0.0651747447
 40
0.0970388426
 40
0.136419294
 40
0.1835909369
 40
0.2385404805
 40
0.3009628532
 40
0.446368725
 40
0.6151028167
 40
0.8015990985
 40
1.0
 40
1.0
 40
1.0
 40
1.0
 10
181.7042635254
 20
493.2126323473
 30
0.0
 10
181.6861209623
 20
493.2126300405
 30
0.0
 10
181.647845522
 20
493.2210992167
 30
0.0
 10
181.6006330399
 20
493.262898354
 30
0.0
 10
181.5658191697
 20
493.3279036538
 30
0.0
 10
181.5412476887
 20
493.4154261019
 30
0.0
 10
181.5267083916
 20
493.5257604376
 30
0.0
 10
181.5222748209
 20
493.6585207031
 30
0.0
 10
181.5282511645
 20
493.8127972698
 30
0.0
 10
181.551045549
 20
494.0582375581
 30
0.0
 10
181.6066303176
 20
494.4072693025
 30
0.0
 10
181.7048372012
 20
494.8664474995
 30
0.0
 10
181.8325436244
 20
495.3697381808
 30
0.0
 10
181.9309980377
 20
495.7170091386
 30
0.0
 10
181.9836570206
 20
495.8954422917
 30
0.0
  0
SPLINE
  5
2AD
100
AcDbEntity
  8
0
100
AcDbSpline
 62
7
  6
CONTINUOUS
 70
0
 71
3
 72
9
 73
5
 74
0
 42
0.0000001
 43
0.0000001
 44
0.0000000001
 40
0.0
 40
0.0
 40
0.0
 40
0.0
 40
0.2540749072
 40
1.0
 40
1.0
 40
1.0
 40
1.0
 10
196.8905584938
 20
493.4781827815
 30
0.0
 10
196.906255359
 20
493.5137543393
 30
0.0
 10
196.9653594941
 20
493.6549185584
 30
0.0
 10
197.0134487953
 20
493.8007398002
 30
0.0
 10
197.0422484444
 20
493.9111954833
 30
0.0
  0
SPLINE
  5
2AE
100
AcDbEntity
  8
0
100
AcDbSpline
 62
7
  6
CONTINUOUS
 70
0
 71
3
 72
9
 73
5
 74
0
 42
0.0000001
 43
0.0000001
 44
0.0000000001
 40
0.0
 40
0.0
 40
0.0
 40
0.0
 40
0.2464086491
 40
1.0
 40
1.0
 40
1.0
 40
1.0
 10
197.0422484444
 20
498.2413225023
 30
0.0
 10
197.0327346592
 20
498.2778108511
 30
0.0
 10
196.991033748
 20
498.4250744823
 30
0.0
 10
196.9371162962
 20
498.5688279236
 30
0.0
 10
196.8905584938
 20
498.6743352042
 30
0.0
  0
SPLINE
  5
2AF
100
AcDbEntity
  8
0
100
AcDbSpline
 62
7
  6
CONTINUOUS
 70
0
 71
3
 72
19
 73
15
 74
0
 42
0.0000001
 43
0.0000001
 44
0.0000000001
 40
0.0
 40
0.0
 40
0.0
 40
0.0
 40
0.0181113506
 40
0.0404400073
 40
0.0689451845
 40
0.1044880125
 40
0.1473608401
 40
0.1975278058
 40
0.2547582302
 40
0.3186589237
 40
0.4644165626
 40
0.6300936937
 40
0.8104051031
 40
1.0
 40
1.0
 40
1.0
 40
1.0
 10
181.3306026379
 20
493.2887716034
 30
0.0
 10
181.3149296484
 20
493.2955011701
 30
0.0
 10
181.2840584398
 20
493.3203205343
 30
0.0
 10
181.2519308826
 20
493.3777016361
 30
0.0
 10
181.2285351745
 20
493.4560141727
 30
0.0
 10
181.2137337706
 20
493.5558438747
 30
0.0
 10
181.2075607981
 20
493.6769071234
 30
0.0
 10
181.2101690143
 20
493.8184868206
 30
0.0
 10
181.2215857411
 20
493.9794618146
 30
0.0
 10
181.2496705715
 20
494.2292895634
 30
0.0
 10
181.3070858412
 20
494.5782889537
 30
0.0
 10
181.4029571501
 20
495.0314705211
 30
0.0
 10
181.5246967828
 20
495.5210424826
 30
0.0
 10
181.6184138399
 20
495.8566123833
 30
0.0
 10
181.6685208786
 20
496.0279916373
 30
0.0
  0
SPLINE
  5
2B0
100
AcDbEntity
  8
0
100
AcDbSpline
 62
7
  6
CONTINUOUS
 70
0
 71
3
 72
8
 73
4
 74
0
 42
0.0000001
 43
0.0000001
 44
0.0000000001
 40
0.0
 40
0.0
 40
0.0
 40
0.0
 40
1.0
 40
1.0
 40
1.0
 40
1.0
 10
181.6755186414
 20
496.0762589928
 30
0.0
 10
181.6755185413
 20
496.0600016681
 30
0.0
 10
181.6730833589
 20
496.0435956262
 30
0.0
 10
181.6685208392
 20
496.0279916517
 30
0.0
  0
SPLINE
  5
2B1
100
AcDbEntity
  8
0
100
AcDbSpline
 62
7
  6
CONTINUOUS
 70
0
 71
3
 72
8
 73
4
 74
0
 42
0.0000001
 43
0.0000001
 44
0.0000000001
 40
0.0
 40
0.0
 40
0.0
 40
0.0
 40
1.0
 40
1.0
 40
1.0
 40
1.0
 10
181.6685208197
 20
496.1245263267
 30
0.0
 10
181.6730832948
 20
496.1089223417
 30
0.0
 10
181.6755186387
 20
496.0925163151
 30
0.0
 10
181.675518621
 20
496.0762589928
 30
0.0
  0
SPLINE
  5
2B2
100
AcDbEntity
  8
0
100
AcDbSpline
 62
7
  6
CONTINUOUS
 70
0
 71
3
 72
19
 73
15
 74
0
 42
0.0000001
 43
0.0000001
 44
0.0000000001
 40
0.0
 40
0.0
 40
0.0
 40
0.0
 40
0.1984140319
 40
0.3849111429
 40
0.5536396572
 40
0.6990435776
 40
0.761464564
 40
0.8164126741
 40
0.8635831391
 40
0.9029627021
 40
0.9348261684
 40
0.9600654637
 40
0.9806523494
 40
1.0
 40
1.0
 40
1.0
 40
1.0
 10
181.9836564491
 20
496.2570772104
 30
0.0
 10
181.9309940992
 20
496.4355221042
 30
0.0
 10
181.8325365415
 20
496.7828055748
 30
0.0
 10
181.7048288303
 20
497.286103784
 30
0.0
 10
181.6066257522
 20
497.7452760913
 30
0.0
 10
181.5510425032
 20
498.094299423
 30
0.0
 10
181.5282497328
 20
498.3397352492
 30
0.0
 10
181.5222745857
 20
498.4940080287
 30
0.0
 10
181.5267089674
 20
498.6267649091
 30
0.0
 10
181.5412486898
 20
498.7370965714
 30
0.0
 10
181.5658202627
 20
498.8246170415
 30
0.0
 10
181.6006339545
 20
498.8896209543
 30
0.0
 10
181.6478459975
 20
498.9314191897
 30
0.0
 10
181.6861209611
 20
498.9398880976
 30
0.0
 10
181.7042633171
 20
498.9398857631
 30
0.0
  0
SPLINE
  5
2B3
100
AcDbEntity
  8
0
100
AcDbSpline
 62
7
  6
CONTINUOUS
 70
0
 71
3
 72
19
 73
15
 74
0
 42
0.0000001
 43
0.0000001
 44
0.0000000001
 40
0.0
 40
0.0
 40
0.0
 40
0.0
 40
0.1896030421
 40
0.3699143598
 40
0.5355878402
 40
0.681344666
 40
0.7452450779
 40
0.8024766024
 40
0.8526425643
 40
0.8955156933
 40
0.9310568841
 40
0.9595624169
 40
0.9818891978
 40
1.0
 40
1.0
 40
1.0
 40
1.0
 10
181.6685208786
 20
496.1245263483
 30
0.0
 10
181.6184120666
 20
496.2959130556
 30
0.0
 10
181.5246924825
 20
496.6314900849
 30
0.0
 10
181.4029536305
 20
497.1210664942
 30
0.0
 10
181.3070834543
 20
497.5742437509
 30
0.0
 10
181.2496674307
 20
497.9232386263
 30
0.0
 10
181.2215867049
 20
498.1730667213
 30
0.0
 10
181.210167985
 20
498.3340414964
 30
0.0
 10
181.2075625066
 20
498.4756213399
 30
0.0
 10
181.2137306459
 20
498.5966830947
 30
0.0
 10
181.2285402008
 20
498.6965100739
 30
0.0
 10
181.2519306719
 20
498.7748217866
 30
0.0
 10
181.2840622163
 20
498.8321973681
 30
0.0
 10
181.3149287335
 20
498.8570187162
 30
0.0
 10
181.3306013234
 20
498.8637478995
 30
0.0
  0
SPLINE
  5
2B4
100
AcDbEntity
  8
0
100
AcDbSpline
 62
7
  6
CONTINUOUS
 70
0
 71
3
 72
10
 73
6
 74
0
 42
0.0000001
 43
0.0000001
 44
0.0000000001
 40
0.0
 40
0.0
 40
0.0
 40
0.0
 40
0.5731466058
 40
0.8119138223
 40
1.0
 40
1.0
 40
1.0
 40
1.0
 10
196.8266577672
 20
71.0762589928
 30
0.0
 10
196.8266577672
 20
70.9922260783
 30
0.0
 10
196.8336595838
 20
70.8727593805
 30
0.0
 10
196.860820616
 20
70.7285890098
 30
0.0
 10
196.8794253766
 20
70.6684756803
 30
0.0
 10
196.8905584938
 20
70.6432462909
 30
0.0
  0
SPLINE
  5
2B5
100
AcDbEntity
  8
0
100
AcDbSpline
 62
7
  6
CONTINUOUS
 70
0
 71
3
 72
9
 73
5
 74
0
 42
0.0000001
 43
0.0000001
 44
0.0000000001
 40
0.0
 40
0.0
 40
0.0
 40
0.0
 40
0.2540749072
 40
1.0
 40
1.0
 40
1.0
 40
1.0
 10
196.8905584938
 20
70.6432462909
 30
0.0
 10
196.906255359
 20
70.607674733
 30
0.0
 10
196.9653594941
 20
70.4665105139
 30
0.0
 10
197.0134487953
 20
70.3206892722
 30
0.0
 10
197.0422484444
 20
70.210233589
 30
0.0
  0
SPLINE
  5
2B6
100
AcDbEntity
  8
0
100
AcDbSpline
 62
7
  6
CONTINUOUS
 70
0
 71
3
 72
10
 73
6
 74
0
 42
0.0000001
 43
0.0000001
 44
0.0000000001
 40
0.0
 40
0.0
 40
0.0
 40
0.0
 40
0.1847477053
 40
0.4236042622
 40
1.0
 40
1.0
 40
1.0
 40
1.0
 10
197.0422484445
 20
70.210233589
 30
0.0
 10
197.0490036635
 20
70.1843252064
 30
0.0
 10
197.057563939
 20
70.1232118605
 30
0.0
 10
197.0625470483
 20
69.9783209312
 30
0.0
 10
197.0530471997
 20
69.8600541107
 30
0.0
 10
197.0422484445
 20
69.7772208871
 30
0.0
  0
SPLINE
  5
2B7
100
AcDbEntity
  8
0
100
AcDbSpline
 62
7
  6
CONTINUOUS
 70
0
 71
3
 72
16
 73
12
 74
0
 42
0.0000001
 43
0.0000001
 44
0.0000000001
 40
0.0
 40
0.0
 40
0.0
 40
0.0
 40
0.3776385285
 40
0.5487842949
 40
0.6990328887
 40
0.8222353526
 40
0.9136460343
 40
0.9465942244
 40
0.9710348404
 40
0.9878188411
 40
1.0
 40
1.0
 40
1.0
 40
1.0
 10
196.8905584938
 20
68.9111954833
 30
0.0
 10
196.8766967348
 20
68.8483696441
 30
0.0
 10
196.8584913775
 20
68.7566116901
 30
0.0
 10
196.8401540782
 20
68.638927572
 30
0.0
 10
196.831053157
 20
68.5637074744
 30
0.0
 10
196.8265125657
 20
68.50169241
 30
0.0
 10
196.8263740756
 20
68.4594403563
 30
0.0
 10
196.8293789631
 20
68.4341842096
 30
0.0
 10
196.8325959452
 20
68.4219751085
 30
0.0
 10
196.8368406761
 20
68.4136273076
 30
0.0
 10
196.8417414109
 20
68.4111971511
 30
0.0
 10
196.8438166693
 20
68.4111955069
 30
0.0
  0
SPLINE
  5
2B8
100
AcDbEntity
  8
0
100
AcDbSpline
 62
7
  6
CONTINUOUS
 70
0
 71
3
 72
10
 73
6
 74
0
 42
0.0000001
 43
0.0000001
 44
0.0000000001
 40
0.0
 40
0.0
 40
0.0
 40
0.0
 40
0.5764126836
 40
0.8152608839
 40
1.0
 40
1.0
 40
1.0
 40
1.0
 10
197.0422484445
 20
72.3752970985
 30
0.0
 10
197.0530475171
 20
72.2924614403
 30
0.0
 10
197.0625471384
 20
72.1741933359
 30
0.0
 10
197.0575637081
 20
72.0293023963
 30
0.0
 10
197.0490033493
 20
71.9681915745
 30
0.0
 10
197.0422484445
 20
71.9422843966
 30
0.0
  0
SPLINE
  5
2B9
100
AcDbEntity
  8
0
100
AcDbSpline
 62
7
  6
CONTINUOUS
 70
0
 71
3
 72
9
 73
5
 74
0
 42
0.0000001
 43
0.0000001
 44
0.0000000001
 40
0.0
 40
0.0
 40
0.0
 40
0.0
 40
0.2464081019
 40
1.0
 40
1.0
 40
1.0
 40
1.0
 10
197.0422484444
 20
71.9422843966
 30
0.0
 10
197.03273468
 20
71.9057961272
 30
0.0
 10
196.9910344145
 20
71.7585323033
 30
0.0
 10
196.937116332
 20
71.6147790564
 30
0.0
 10
196.8905584938
 20
71.5092716947
 30
0.0
  0
SPLINE
  5
2BA
100
AcDbEntity
  8
0
100
AcDbSpline
 62
7
  6
CONTINUOUS
 70
0
 71
3
 72
16
 73
12
 74
0
 42
0.0000001
 43
0.0000001
 44
0.0000000001
 40
0.0
 40
0.0
 40
0.0
 40
0.0
 40
0.0121850305
 40
0.0289767195
 40
0.0534156632
 40
0.086372876
 40
0.1777963802
 40
0.3010152467
 40
0.4512686883
 40
0.6224083298
 40
1.0
 40
1.0
 40
1.0
 40
1.0
 10
196.8438158703
 20
73.7413230845
 30
0.0
 10
196.8417399502
 20
73.7413224735
 30
0.0
 10
196.8368368497
 20
73.7388895652
 30
0.0
 10
196.8325957654
 20
73.73053853
 30
0.0
 10
196.8293751272
 20
73.7183279086
 30
0.0
 10
196.8263758395
 20
73.6930671798
 30
0.0
 10
196.8265103047
 20
73.6508093164
 30
0.0
 10
196.831058128
 20
73.5887883644
 30
0.0
 10
196.8401598093
 20
73.5135660369
 30
0.0
 10
196.8584913815
 20
73.3958890968
 30
0.0
 10
196.8766984443
 20
73.3041405934
 30
0.0
 10
196.8905584938
 20
73.2413225023
 30
0.0
  0
SPLINE
  5
2BB
100
AcDbEntity
  8
0
100
AcDbSpline
 62
7
  6
CONTINUOUS
 70
0
 71
3
 72
10
 73
6
 74
0
 42
0.0000001
 43
0.0000001
 44
0.0000000001
 40
0.0
 40
0.0
 40
0.0
 40
0.0
 40
0.5731466156
 40
0.8119139873
 40
1.0
 40
1.0
 40
1.0
 40
1.0
 10
196.8266577672
 20
71.0762589928
 30
0.0
 10
196.8266577672
 20
71.1602919088
 30
0.0
 10
196.8336595858
 20
71.2797586305
 30
0.0
 10
196.8608206208
 20
71.4239290014
 30
0.0
 10
196.8794253864
 20
71.4840423275
 30
0.0
 10
196.8905584938
 20
71.5092716947
 30
0.0
  0
SPLINE
  5
2BC
100
AcDbEntity
  8
0
100
AcDbSpline
 62
7
  6
CONTINUOUS
 70
0
 71
3
 72
19
 73
15
 74
0
 42
0.0000001
 43
0.0000001
 44
0.0000000001
 40
0.0
 40
0.0
 40
0.0
 40
0.0
 40
0.0193478612
 40
0.0399350258
 40
0.0651747447
 40
0.0970388426
 40
0.136419294
 40
0.1835909369
 40
0.2385404805
 40
0.3009628532
 40
0.446368725
 40
0.6151028167
 40
0.8015990985
 40
1.0
 40
1.0
 40
1.0
 40
1.0
 10
181.7042635254
 20
68.2126323473
 30
0.0
 10
181.6861209623
 20
68.2126300405
 30
0.0
 10
181.647845522
 20
68.2210992167
 30
0.0
 10
181.6006330399
 20
68.262898354
 30
0.0
 10
181.5658191697
 20
68.3279036538
 30
0.0
 10
181.5412476887
 20
68.4154261019
 30
0.0
 10
181.5267083916
 20
68.5257604376
 30
0.0
 10
181.5222748209
 20
68.6585207031
 30
0.0
 10
181.5282511645
 20
68.8127972698
 30
0.0
 10
181.551045549
 20
69.0582375581
 30
0.0
 10
181.6066303176
 20
69.4072693025
 30
0.0
 10
181.7048372012
 20
69.8664474995
 30
0.0
 10
181.8325436244
 20
70.3697381808
 30
0.0
 10
181.9309980377
 20
70.7170091386
 30
0.0
 10
181.9836570206
 20
70.8954422917
 30
0.0
  0
SPLINE
  5
2BD
100
AcDbEntity
  8
0
100
AcDbSpline
 62
7
  6
CONTINUOUS
 70
0
 71
3
 72
9
 73
5
 74
0
 42
0.0000001
 43
0.0000001
 44
0.0000000001
 40
0.0
 40
0.0
 40
0.0
 40
0.0
 40
0.2540749072
 40
1.0
 40
1.0
 40
1.0
 40
1.0
 10
196.8905584938
 20
68.4781827815
 30
0.0
 10
196.906255359
 20
68.5137543393
 30
0.0
 10
196.9653594941
 20
68.6549185584
 30
0.0
 10
197.0134487953
 20
68.8007398002
 30
0.0
 10
197.0422484444
 20
68.9111954833
 30
0.0
  0
SPLINE
  5
2BE
100
AcDbEntity
  8
0
100
AcDbSpline
 62
7
  6
CONTINUOUS
 70
0
 71
3
 72
9
 73
5
 74
0
 42
0.0000001
 43
0.0000001
 44
0.0000000001
 40
0.0
 40
0.0
 40
0.0
 40
0.0
 40
0.2464086491
 40
1.0
 40
1.0
 40
1.0
 40
1.0
 10
197.0422484444
 20
73.2413225023
 30
0.0
 10
197.0327346592
 20
73.2778108511
 30
0.0
 10
196.991033748
 20
73.4250744823
 30
0.0
 10
196.9371162962
 20
73.5688279236
 30
0.0
 10
196.8905584938
 20
73.6743352042
 30
0.0
  0
SPLINE
  5
2BF
100
AcDbEntity
  8
0
100
AcDbSpline
 62
7
  6
CONTINUOUS
 70
0
 71
3
 72
19
 73
15
 74
0
 42
0.0000001
 43
0.0000001
 44
0.0000000001
 40
0.0
 40
0.0
 40
0.0
 40
0.0
 40
0.0181113506
 40
0.0404400073
 40
0.0689451845
 40
0.1044880125
 40
0.1473608401
 40
0.1975278058
 40
0.2547582302
 40
0.3186589237
 40
0.4644165626
 40
0.6300936937
 40
0.8104051031
 40
1.0
 40
1.0
 40
1.0
 40
1.0
 10
181.3306026379
 20
68.2887716034
 30
0.0
 10
181.3149296484
 20
68.2955011701
 30
0.0
 10
181.2840584398
 20
68.3203205343
 30
0.0
 10
181.2519308826
 20
68.3777016361
 30
0.0
 10
181.2285351745
 20
68.4560141727
 30
0.0
 10
181.2137337706
 20
68.5558438747
 30
0.0
 10
181.2075607981
 20
68.6769071234
 30
0.0
 10
181.2101690143
 20
68.8184868206
 30
0.0
 10
181.2215857411
 20
68.9794618146
 30
0.0
 10
181.2496705715
 20
69.2292895634
 30
0.0
 10
181.3070858412
 20
69.5782889537
 30
0.0
 10
181.4029571501
 20
70.0314705211
 30
0.0
 10
181.5246967828
 20
70.5210424826
 30
0.0
 10
181.6184138399
 20
70.8566123833
 30
0.0
 10
181.6685208786
 20
71.0279916373
 30
0.0
  0
SPLINE
  5
2C0
100
AcDbEntity
  8
0
100
AcDbSpline
 62
7
  6
CONTINUOUS
 70
0
 71
3
 72
8
 73
4
 74
0
 42
0.0000001
 43
0.0000001
 44
0.0000000001
 40
0.0
 40
0.0
 40
0.0
 40
0.0
 40
1.0
 40
1.0
 40
1.0
 40
1.0
 10
181.6755186414
 20
71.0762589928
 30
0.0
 10
181.6755185413
 20
71.0600016681
 30
0.0
 10
181.6730833589
 20
71.0435956262
 30
0.0
 10
181.6685208392
 20
71.0279916517
 30
0.0
  0
SPLINE
  5
2C1
100
AcDbEntity
  8
0
100
AcDbSpline
 62
7
  6
CONTINUOUS
 70
0
 71
3
 72
8
 73
4
 74
0
 42
0.0000001
 43
0.0000001
 44
0.0000000001
 40
0.0
 40
0.0
 40
0.0
 40
0.0
 40
1.0
 40
1.0
 40
1.0
 40
1.0
 10
181.6685208197
 20
71.1245263267
 30
0.0
 10
181.6730832948
 20
71.1089223417
 30
0.0
 10
181.6755186387
 20
71.0925163151
 30
0.0
 10
181.675518621
 20
71.0762589928
 30
0.0
  0
SPLINE
  5
2C2
100
AcDbEntity
  8
0
100
AcDbSpline
 62
7
  6
CONTINUOUS
 70
0
 71
3
 72
19
 73
15
 74
0
 42
0.0000001
 43
0.0000001
 44
0.0000000001
 40
0.0
 40
0.0
 40
0.0
 40
0.0
 40
0.1984140319
 40
0.3849111429
 40
0.5536396572
 40
0.6990435776
 40
0.761464564
 40
0.8164126741
 40
0.8635831391
 40
0.9029627021
 40
0.9348261684
 40
0.9600654637
 40
0.9806523494
 40
1.0
 40
1.0
 40
1.0
 40
1.0
 10
181.9836564491
 20
71.2570772104
 30
0.0
 10
181.9309940992
 20
71.4355221042
 30
0.0
 10
181.8325365415
 20
71.7828055748
 30
0.0
 10
181.7048288303
 20
72.286103784
 30
0.0
 10
181.6066257522
 20
72.7452760913
 30
0.0
 10
181.5510425032
 20
73.094299423
 30
0.0
 10
181.5282497328
 20
73.3397352492
 30
0.0
 10
181.5222745857
 20
73.4940080287
 30
0.0
 10
181.5267089674
 20
73.6267649091
 30
0.0
 10
181.5412486898
 20
73.7370965714
 30
0.0
 10
181.5658202627
 20
73.8246170415
 30
0.0
 10
181.6006339545
 20
73.8896209543
 30
0.0
 10
181.6478459975
 20
73.9314191897
 30
0.0
 10
181.6861209611
 20
73.9398880975
 30
0.0
 10
181.7042633171
 20
73.9398857631
 30
0.0
  0
SPLINE
  5
2C3
100
AcDbEntity
  8
0
100
AcDbSpline
 62
7
  6
CONTINUOUS
 70
0
 71
3
 72
19
 73
15
 74
0
 42
0.0000001
 43
0.0000001
 44
0.0000000001
 40
0.0
 40
0.0
 40
0.0
 40
0.0
 40
0.1896030421
 40
0.3699143598
 40
0.5355878402
 40
0.681344666
 40
0.7452450779
 40
0.8024766024
 40
0.8526425643
 40
0.8955156933
 40
0.9310568841
 40
0.9595624169
 40
0.9818891978
 40
1.0
 40
1.0
 40
1.0
 40
1.0
 10
181.6685208786
 20
71.1245263483
 30
0.0
 10
181.6184120666
 20
71.2959130556
 30
0.0
 10
181.5246924825
 20
71.6314900849
 30
0.0
 10
181.4029536305
 20
72.1210664942
 30
0.0
 10
181.3070834543
 20
72.5742437509
 30
0.0
 10
181.2496674307
 20
72.9232386263
 30
0.0
 10
181.2215867049
 20
73.1730667213
 30
0.0
 10
181.210167985
 20
73.3340414964
 30
0.0
 10
181.2075625066
 20
73.4756213399
 30
0.0
 10
181.2137306459
 20
73.5966830947
 30
0.0
 10
181.2285402008
 20
73.6965100739
 30
0.0
 10
181.2519306719
 20
73.7748217866
 30
0.0
 10
181.2840622163
 20
73.8321973681
 30
0.0
 10
181.3149287335
 20
73.8570187162
 30
0.0
 10
181.3306013234
 20
73.8637478995
 30
0.0
  0
ENDSEC
  0
SECTION
  2
OBJECTS
  0
DICTIONARY
  5
C
100
AcDbDictionary
280
0
281
1
  3
ACAD_GROUP
350
D
  3
ACAD_MLINESTYLE
350
17
  3
ACAD_LAYOUT
350
1A
  3
ACAD_PLOTSETTINGS
350
19
  3
ACAD_PLOTSTYLENAME
350
E
  0
DICTIONARY
  5
D
102
{ACAD_REACTORS
330
C
102
}
100
AcDbDictionary
280
0
281
1
  0
ACDBDICTIONARYWDFLT
  5
E
102
{ACAD_REACTORS
330
C
102
}
100
AcDbDictionary
281
1
  3
Normal
350
F
100
AcDbDictionaryWithDefault
340
F
  0
DICTIONARY
  5
17
102
{ACAD_REACTORS
330
C
102
}
100
AcDbDictionary
280
0
281
1
  3
Standard
350
18
  0
DICTIONARY
  5
19
102
{ACAD_REACTORS
330
C
102
}
100
AcDbDictionary
281
1
  0
DICTIONARY
  5
1A
102
{ACAD_REACTORS
330
C
102
}
100
AcDbDictionary
281
1
  3
Model
350
2C4
  3
Layout1
350
2C5
  0
ACDBPLACEHOLDER
  5
F
102
{ACAD_REACTORS
330
E
102
}
  0
MLINESTYLE
  5
18
102
{ACAD_REACTORS
330
17
102
}
100
AcDbMlineStyle
  2
STANDARD
 70
0
  3

 62
256
 51
90.0
 52
90.0
 71
2
 49
0.5
 62
256
  6
BYLAYER
 49
-0.5
 62
256
  6
BYLAYER
  0
LAYOUT
  5
2C4
102
{ACAD_REACTORS
330
1A
102
}
100
AcDbPlotSettings
  1

  2
none_device
  4

  6

 40
0.0
 41
0.0
 42
0.0
 43
0.0
 44
210.0
 45
297.0
 46
0.0
 47
0.0
 48
0.0
 49
0.0
140
0.0
141
0.0
142
1.0
143
1.0
 70
1024
 72
1
 73
0
 74
0
  7

 75
0
147
1.0
148
0.0
149
0.0
100
AcDbLayout
  1
Model
 70
0
 71
0
 10
0.0
 20
0.0
 11
210.0
 21
297.0
 12
0.0
 22
0.0
 32
0.0
 14
0.0
 24
0.0
 34
0.0
 15
0.0
 25
0.0
 35
0.0
146
0.0
 13
0.0
 23
0.0
 33
0.0
 16
1.0
 26
0.0
 36
0.0
 17
0.0
 27
1.0
 37
0.0
 76
0
330
210
345
0
346
0
  0
LAYOUT
  5
2C5
102
{ACAD_REACTORS
330
1A
102
}
100
AcDbPlotSettings
  1

  2
none_device
  4

  6

 40
0.0
 41
0.0
 42
0.0
 43
0.0
 44
210.0
 45
297.0
 46
0.0
 47
0.0
 48
0.0
 49
0.0
140
0.0
141
0.0
142
1.0
143
1.0
 70
0
 72
1
 73
0
 74
0
  7

 75
0
147
1.0
148
0.0
149
0.0
100
AcDbLayout
  1
Layout1
 70
0
 71
1
 10
0.0
 20
0.0
 11
210.0
 21
297.0
 12
0.0
 22
0.0
 32
0.0
 14
0.0
 24
0.0
 34
0.0
 15
0.0
 25
0.0
 35
0.0
146
0.0
 13
0.0
 23
0.0
 33
0.0
 16
1.0
 26
0.0
 36
0.0
 17
0.0
 27
1.0
 37
0.0
 76
0
330
211
345
0
346
0
  0
ENDSEC
  0
EOF
