999
DXF file: C:\Users\sesa63760\OneDrive - Schneider Electric\Documents\7-Dev\_Creo\CAD\MCADPP0000101_3D-CAD\drw0001_5.dxf
999
Pro/ENGINEER 2019471 by Parametric Technology Corporation
  0
SECTION
  2
HEADER
  9
$ACADVER
  1
AC1024
  9
$DWGCODEPAGE
  3
ANSI_1252
  9
$EXTMAX
 10
743.397320231
 20
1051.376210041
 30
0.0
  9
$EXTMIN
 10
0.0
 20
0.0
 30
0.0
  9
$LIMMIN
 10
0.0
 20
0.0
  9
$LIMMAX
 10
743.397320231
 20
1051.376210041
  9
$VIEWCTR
 10
371.6986601155
 20
525.6881050205
  9
$VIEWSIZE
 40
1051.376210041
  9
$CLAYER
  8
0
  9
$LTSCALE
 40
68.5341529508
  9
$CELTYPE
  6
BYLAYER
  9
$DIMSCALE
 40
1.0
  9
$DIMASZ
 40
8.849968098
  9
$DIMEXO
 40
1.0
  9
$DIMDLI
 40
47.3508693115
  9
$DIMEXE
 40
1.0
  9
$DIMCEN
 40
11.2146795738
  9
$DIMLFAC
 40
1.0
  9
$DIMBLK
  1
_FILLED
  9
$DIMALT
 70
0
  9
$DIMALTF
 40
0.0393700787
  9
$DIMTXT
 40
12.3899553372
  9
$DIMTOL
 70
1
  9
$DIMLIM
 70
0
  9
$DIMTFAC
 40
1.0
  9
$DIMTP
 40
0.01
  9
$DIMTM
 40
0.01
  9
$DIMGAP
 40
0.625
  9
$DIMDSEP
 70
46
  9
$AUNITS
 70
0
  9
$PDMODE
 70
3
  9
$PDSIZE
 40
0.3125
  9
$HANDSEED
  5
282
  9
$TILEMODE
 70
1
  9
$MEASUREMENT
 70
1
  9
$INSUNITS
 70
4
  0
ENDSEC
  0
SECTION
  2
CLASSES
  0
CLASS
  1
ACDBDICTIONARYWDFLT
  2
AcDbDictionaryWithDefault
  3
AutoCAD 2000
 90
0
 91
1
280
0
281
0
  0
CLASS
  1
ACDBPLACEHOLDER
  2
AcDbPlaceHolder
  3
AutoCAD 2000
 90
0
 91
1
280
0
281
0
  0
CLASS
  1
LAYOUT
  2
AcDbLayout
  3
AutoCAD 2000
 90
0
 91
0
280
0
281
0
  0
ENDSEC
  0
SECTION
  2
TABLES
  0
TABLE
  2
VPORT
  5
8
100
AcDbSymbolTable
 70
2
  0
VPORT
  5
1F4
100
AcDbSymbolTableRecord
100
AcDbViewportTableRecord
  2
*ACTIVE
 70
0
 10
0.0
 20
0.0
 11
1.0
 21
1.0
 12
371.6986601155
 22
525.6881050205
 13
0.0
 23
0.0
 14
1.0
 24
1.0
 15
0.0
 25
0.0
 16
0.0
 26
0.0
 36
1.0
 17
0.0
 27
0.0
 37
0.0
 40
1051.376210041
 41
0.7070707071
 42
50.0
 43
0.0
 44
0.0
 50
0.0
 51
0.0
 71
0
 72
100
 73
1
 74
1
 75
0
 76
0
 77
0
 78
0
  0
ENDTAB
  0
TABLE
  2
LTYPE
  5
5
100
AcDbSymbolTable
 70
6
  0
LTYPE
  5
14
100
AcDbSymbolTableRecord
100
AcDbLinetypeTableRecord
  2
BYBLOCK
 70
0
  3

 72
65
 73
0
 40
0.0
  0
LTYPE
  5
15
100
AcDbSymbolTableRecord
100
AcDbLinetypeTableRecord
  2
BYLAYER
 70
0
  3

 72
65
 73
0
 40
0.0
  0
LTYPE
  5
16
100
AcDbSymbolTableRecord
100
AcDbLinetypeTableRecord
  2
CONTINUOUS
 70
64
  3
Solid line
 72
65
 73
0
 40
0.0
  0
LTYPE
  5
1F5
100
AcDbSymbolTableRecord
100
AcDbLinetypeTableRecord
  2
CENTER
 70
64
  3
____ _ ____ _ ____ _ ____ _ ____ _ ____ _ ____
 72
65
 73
4
 40
0.6
 49
0.375
 74
0
 49
-0.075
 74
0
 49
0.075
 74
0
 49
-0.075
 74
0
  0
LTYPE
  5
1F6
100
AcDbSymbolTableRecord
100
AcDbLinetypeTableRecord
  2
HIDDEN
 70
64
  3
- - - - - - - - - - - - - - - - - - - -
 72
65
 73
2
 40
0.2
 49
0.1
 74
0
 49
-0.1
 74
0
  0
LTYPE
  5
1F7
100
AcDbSymbolTableRecord
100
AcDbLinetypeTableRecord
  2
PHANTOM
 70
64
  3
_____ _ _ _____ _ _ _____ _ _ _____
 72
65
 73
6
 40
0.8
 49
0.45
 74
0
 49
-0.05
 74
0
 49
0.1
 74
0
 49
-0.05
 74
0
 49
0.1
 74
0
 49
-0.05
 74
0
  0
LTYPE
  5
1F8
100
AcDbSymbolTableRecord
100
AcDbLinetypeTableRecord
  2
DOT
 70
64
  3
. . . . . . . . . . . . . . . . . . . .
 72
65
 73
2
 40
0.2
 49
0.1
 74
0
 49
-0.1
 74
0
  0
LTYPE
  5
1F9
100
AcDbSymbolTableRecord
100
AcDbLinetypeTableRecord
  2
DASHED
 70
64
  3
- - - - - - - - - - - - - - - - - - - -
 72
65
 73
2
 40
0.2
 49
0.1
 74
0
 49
-0.1
 74
0
  0
ENDTAB
  0
TABLE
  2
LAYER
  5
2
100
AcDbSymbolTable
 70
36
  0
LAYER
  5
10
100
AcDbSymbolTableRecord
100
AcDbLayerTableRecord
  2
0
 70
0
 62
7
  6
CONTINUOUS
370
-3
390
F
  0
LAYER
  5
1FA
100
AcDbSymbolTableRecord
100
AcDbLayerTableRecord
  2
DEFAULT_1
 70
0
 62
7
  6
CENTER
370
-3
390
F
  0
LAYER
  5
1FB
100
AcDbSymbolTableRecord
100
AcDbLayerTableRecord
  2
DEFAULT_2
 70
0
 62
8
  6
HIDDEN
370
-3
390
F
  0
LAYER
  5
1FC
100
AcDbSymbolTableRecord
100
AcDbLayerTableRecord
  2
DEFAULT_3
 70
0
 62
7
  6
PHANTOM
370
-3
390
F
  0
LAYER
  5
1FD
100
AcDbSymbolTableRecord
100
AcDbLayerTableRecord
  2
00_COMPONENTS
 70
0
 62
7
  6
CONTINUOUS
370
-3
390
F
  0
LAYER
  5
1FE
100
AcDbSymbolTableRecord
100
AcDbLayerTableRecord
  2
01_1_DEFAULT_DATUMS
 70
0
 62
7
  6
CONTINUOUS
370
-3
390
F
  0
LAYER
  5
1FF
100
AcDbSymbolTableRecord
100
AcDbLayerTableRecord
  2
01_PLANES
 70
0
 62
7
  6
CONTINUOUS
370
-3
390
F
  0
LAYER
  5
200
100
AcDbSymbolTableRecord
100
AcDbLayerTableRecord
  2
02_COORD_SYS
 70
0
 62
7
  6
CONTINUOUS
370
-3
390
F
  0
LAYER
  5
201
100
AcDbSymbolTableRecord
100
AcDbLayerTableRecord
  2
03_AXES
 70
0
 62
7
  6
CONTINUOUS
370
-3
390
F
  0
LAYER
  5
202
100
AcDbSymbolTableRecord
100
AcDbLayerTableRecord
  2
04_POINTS
 70
0
 62
7
  6
CONTINUOUS
370
-3
390
F
  0
LAYER
  5
203
100
AcDbSymbolTableRecord
100
AcDbLayerTableRecord
  2
05_CURVES
 70
0
 62
7
  6
CONTINUOUS
370
-3
390
F
  0
LAYER
  5
204
100
AcDbSymbolTableRecord
100
AcDbLayerTableRecord
  2
06_SURFS
 70
0
 62
7
  6
CONTINUOUS
370
-3
390
F
  0
LAYER
  5
205
100
AcDbSymbolTableRecord
100
AcDbLayerTableRecord
  2
07_COSMETICS
 70
0
 62
7
  6
CONTINUOUS
370
-3
390
F
  0
LAYER
  5
206
100
AcDbSymbolTableRecord
100
AcDbLayerTableRecord
  2
10_NOTES
 70
0
 62
7
  6
CONTINUOUS
370
-3
390
F
  0
LAYER
  5
207
100
AcDbSymbolTableRecord
100
AcDbLayerTableRecord
  2
11_NOTES_PUB
 70
0
 62
7
  6
CONTINUOUS
370
-3
390
F
  0
LAYER
  5
208
100
AcDbSymbolTableRecord
100
AcDbLayerTableRecord
  2
13_REF_GTOL
 70
0
 62
7
  6
CONTINUOUS
370
-3
390
F
  0
LAYER
  5
209
100
AcDbSymbolTableRecord
100
AcDbLayerTableRecord
  2
16_MISC
 70
0
 62
7
  6
CONTINUOUS
370
-3
390
F
  0
LAYER
  5
20A
100
AcDbSymbolTableRecord
100
AcDbLayerTableRecord
  2
17_NO_PRINT
 70
0
 62
7
  6
CONTINUOUS
370
-3
390
F
  0
LAYER
  5
20B
100
AcDbSymbolTableRecord
100
AcDbLayerTableRecord
  2
18_DATUM_CAMS_JOINTS
 70
0
 62
7
  6
CONTINUOUS
370
-3
390
F
  0
LAYER
  5
20C
100
AcDbSymbolTableRecord
100
AcDbLayerTableRecord
  2
19_DATUM_FUNCTIONAL
 70
0
 62
7
  6
CONTINUOUS
370
-3
390
F
  0
LAYER
  5
20D
100
AcDbSymbolTableRecord
100
AcDbLayerTableRecord
  2
20_DATUM_KINEMATIC_SCHEME
 70
0
 62
7
  6
CONTINUOUS
370
-3
390
F
  0
ENDTAB
  0
TABLE
  2
STYLE
  5
3
100
AcDbSymbolTable
 70
1
  0
STYLE
  5
11
100
AcDbSymbolTableRecord
100
AcDbTextStyleTableRecord
  2
STANDARD
 70
0
 40
0.0
 41
0.8
 50
0.0
 71
0
 42
0.2
  3
txt
  4

  0
STYLE
  5
20E
100
AcDbSymbolTableRecord
100
AcDbTextStyleTableRecord
  2
TEXTSTYLE_1
 70
0
 40
0.0
 41
0.8
 50
0.0
 71
0
 42
0.2
  3
gdt
  4

  0
ENDTAB
  0
TABLE
  2
VIEW
  5
6
100
AcDbSymbolTable
 70
0
  0
ENDTAB
  0
TABLE
  2
UCS
  5
7
100
AcDbSymbolTable
 70
0
  0
ENDTAB
  0
TABLE
  2
APPID
  5
9
100
AcDbSymbolTable
 70
1
  0
APPID
  5
20F
100
AcDbSymbolTableRecord
100
AcDbRegAppTableRecord
  2
ACAD
 70
0
  0
ENDTAB
  0
TABLE
  2
BLOCK_RECORD
  5
1
100
AcDbSymbolTable
 70
0
  0
BLOCK_RECORD
  5
210
100
AcDbSymbolTableRecord
100
AcDbBlockTableRecord
  2
*Model_Space
  0
BLOCK_RECORD
  5
211
100
AcDbSymbolTableRecord
100
AcDbBlockTableRecord
  2
*Paper_Space
  0
BLOCK_RECORD
  5
212
100
AcDbSymbolTableRecord
100
AcDbBlockTableRecord
  2
_FILLED
  0
ENDTAB
  0
TABLE
  2
DIMSTYLE
  5
A
100
AcDbSymbolTable
 70
1
100
AcDbDimStyleTable
 71
0
  0
DIMSTYLE
105
213
100
AcDbSymbolTableRecord
100
AcDbDimStyleTableRecord
  2
STANDARD
 70
0
  3

  4

 40
1.0
 41
8.849968098
 42
1.0
 43
0.38
 44
1.0
 45
0.0
 46
0.0
 47
0.01
 48
0.01
140
12.3899553372
141
0.09
142
0.0
143
25.4
144
1.0
145
0.0
146
1.0
147
0.625
 71
1
 72
0
 73
0
 74
0
 75
0
 76
0
 77
1
 78
8
 79
2
170
0
171
1
172
0
173
0
174
0
175
0
176
0
177
0
178
0
270
2
179
2
271
2
272
2
273
2
274
2
275
0
280
0
281
0
282
0
283
1
284
8
285
0
286
0
287
3
288
0
340
11
278
46
341
212
342
212
343
212
344
212
  0
ENDTAB
  0
ENDSEC
  0
SECTION
  2
BLOCKS
  0
BLOCK
  5
20
100
AcDbEntity
  8
0
100
AcDbBlockBegin
  2
*Model_Space
 70
0
 10
0.0
 20
0.0
 30
0.0
  3
*Model_Space
  1

  0
ENDBLK
  5
21
100
AcDbEntity
  8
0
100
AcDbBlockEnd
  0
BLOCK
  5
1C
100
AcDbEntity
  8
0
100
AcDbBlockBegin
  2
*Paper_Space
 70
0
 10
0.0
 20
0.0
 30
0.0
  3
*Paper_Space
  1

  0
ENDBLK
  5
1D
100
AcDbEntity
  8
0
100
AcDbBlockEnd
  0
BLOCK
  5
214
100
AcDbEntity
  8
0
100
AcDbBlockBegin
  2
_FILLED
 70
64
 10
0.0
 20
0.0
  3
_FILLED
  1

  0
SOLID
  5
215
100
AcDbEntity
  8
0
  6
BYBLOCK
 62
0
100
AcDbTrace
 10
0.0
 20
0.0
 11
-1.0
 21
0.25
 12
-1.0
 22
-0.25
 13
-1.0
 23
-0.25
  0
ENDBLK
  5
216
100
AcDbEntity
  8
0
  6
BYBLOCK
 62
0
100
AcDbBlockEnd
  0
ENDSEC
  0
SECTION
  2
ENTITIES
  0
LINE
  5
217
100
AcDbEntity
  8
0
100
AcDbLine
 62
7
  6
CONTINUOUS
 10
86.6560278951
 20
572.9749792066
 11
86.6560278951
 21
480.9749792066
  0
LINE
  5
218
100
AcDbEntity
  8
0
100
AcDbLine
 62
7
  6
CONTINUOUS
 10
96.1560278951
 20
562.9749792066
 11
96.1560278951
 21
572.9749792066
  0
LINE
  5
219
100
AcDbEntity
  8
0
100
AcDbLine
 62
7
  6
CONTINUOUS
 10
98.4560278951
 20
531.2749792066
 11
98.4560278951
 21
524.2749792066
  0
LINE
  5
21A
100
AcDbEntity
  8
0
100
AcDbLine
 62
7
  6
CONTINUOUS
 10
100.4560278951
 20
524.4080344088
 11
100.4560278951
 21
531.1419240045
  0
LINE
  5
21B
100
AcDbEntity
  8
0
100
AcDbLine
 62
7
  6
CONTINUOUS
 10
101.1060278951
 20
480.9749792066
 11
101.1060278951
 21
562.9749792066
  0
LINE
  5
21C
100
AcDbEntity
  8
0
100
AcDbLine
 62
7
  6
CONTINUOUS
 10
136.1560278951
 20
482.9749792066
 11
136.1560278951
 21
555.9749792066
  0
LINE
  5
21D
100
AcDbEntity
  8
0
100
AcDbLine
 62
7
  6
CONTINUOUS
 10
139.7060278951
 20
537.4749792066
 11
139.7060278951
 21
501.4749792066
  0
LINE
  5
21E
100
AcDbEntity
  8
0
100
AcDbLine
 62
7
  6
CONTINUOUS
 10
141.2260278951
 20
501.4749792066
 11
141.2260278951
 21
537.4749792066
  0
LINE
  5
21F
100
AcDbEntity
  8
0
100
AcDbLine
 62
7
  6
CONTINUOUS
 10
147.7036126786
 20
505.1097433923
 11
147.7036126786
 21
508.6101167678
  0
LINE
  5
220
100
AcDbEntity
  8
0
100
AcDbLine
 62
7
  6
CONTINUOUS
 10
147.7036126786
 20
510.0243303302
 11
147.7036126786
 21
518.4749792066
  0
LINE
  5
221
100
AcDbEntity
  8
0
100
AcDbLine
 62
7
  6
CONTINUOUS
 10
147.7036126786
 20
520.4749792066
 11
147.7036126786
 21
528.9256280831
  0
LINE
  5
222
100
AcDbEntity
  8
0
100
AcDbLine
 62
7
  6
CONTINUOUS
 10
147.7036126786
 20
530.3398416454
 11
147.7036126786
 21
533.8402150209
  0
LINE
  5
223
100
AcDbEntity
  8
0
100
AcDbLine
 62
7
  6
CONTINUOUS
 10
150.7036126786
 20
505.0749792066
 11
150.7036126786
 21
533.8749792066
  0
LINE
  5
224
100
AcDbEntity
  8
0
100
AcDbLine
 62
7
  6
CONTINUOUS
 10
166.2559793135
 20
528.4749792066
 11
166.2559793135
 21
510.7139443636
  0
LINE
  5
225
100
AcDbEntity
  8
0
100
AcDbLine
 62
7
  6
CONTINUOUS
 10
172.2559793135
 20
531.4749792066
 11
172.2559793135
 21
507.7139443636
  0
LINE
  5
226
100
AcDbEntity
  8
0
100
AcDbLine
 62
7
  6
CONTINUOUS
 10
184.2559793135
 20
507.7139443636
 11
184.2559793135
 21
531.4749792066
  0
LINE
  5
227
100
AcDbEntity
  8
0
100
AcDbLine
 62
7
  6
CONTINUOUS
 10
86.6560278951
 20
480.9749792066
 11
101.1060278951
 21
480.9749792066
  0
LINE
  5
228
100
AcDbEntity
  8
0
100
AcDbLine
 62
7
  6
CONTINUOUS
 10
630.7359793135
 20
482.1337040827
 11
647.1912793135
 21
482.1337040827
  0
LINE
  5
229
100
AcDbEntity
  8
0
100
AcDbLine
 62
7
  6
CONTINUOUS
 10
101.1060278951
 20
482.9749792066
 11
136.1560278951
 21
482.9749792066
  0
LINE
  5
22A
100
AcDbEntity
  8
0
100
AcDbLine
 62
7
  6
CONTINUOUS
 10
628.7559793135
 20
489.7837040827
 11
630.7359793135
 21
489.7837040827
  0
LINE
  5
22B
100
AcDbEntity
  8
0
100
AcDbLine
 62
7
  6
CONTINUOUS
 10
647.1912793135
 20
492.1337040827
 11
651.164373507
 21
492.1337040827
  0
LINE
  5
22C
100
AcDbEntity
  8
0
100
AcDbLine
 62
7
  6
CONTINUOUS
 10
647.1912793135
 20
492.5231351103
 11
644.1312793135
 21
492.5231351103
  0
LINE
  5
22D
100
AcDbEntity
  8
0
100
AcDbLine
 62
7
  6
CONTINUOUS
 10
623.1359793135
 20
495.1337040827
 11
628.7559793135
 21
495.1337040827
  0
LINE
  5
22E
100
AcDbEntity
  8
0
100
AcDbLine
 62
7
  6
CONTINUOUS
 10
141.2260278951
 20
501.4749792066
 11
139.7060278951
 21
501.4749792066
  0
LINE
  5
22F
100
AcDbEntity
  8
0
100
AcDbLine
 62
7
  6
CONTINUOUS
 10
150.7036126786
 20
505.0749792066
 11
141.2260278951
 21
505.0749792066
  0
LINE
  5
230
100
AcDbEntity
  8
0
100
AcDbLine
 62
7
  6
CONTINUOUS
 10
147.7036126786
 20
505.1097433923
 11
150.7036126786
 21
505.1097433923
  0
LINE
  5
231
100
AcDbEntity
  8
0
100
AcDbLine
 62
7
  6
CONTINUOUS
 10
136.1560278951
 20
506.9749792066
 11
139.7060278951
 21
506.9749792066
  0
LINE
  5
232
100
AcDbEntity
  8
0
100
AcDbLine
 62
7
  6
CONTINUOUS
 10
150.7036126786
 20
507.5167184635
 11
147.7036126786
 21
507.5167184635
  0
LINE
  5
233
100
AcDbEntity
  8
0
100
AcDbLine
 62
7
  6
CONTINUOUS
 10
184.2559793135
 20
507.7139443636
 11
172.2559793135
 21
507.7139443636
  0
LINE
  5
234
100
AcDbEntity
  8
0
100
AcDbLine
 62
7
  6
CONTINUOUS
 10
150.7036126786
 20
508.6101167678
 11
147.7036126786
 21
508.6101167678
  0
LINE
  5
235
100
AcDbEntity
  8
0
100
AcDbLine
 62
7
  6
CONTINUOUS
 10
166.2559793135
 20
513.3000587163
 11
150.7036126786
 21
513.8431593266
  0
LINE
  5
236
100
AcDbEntity
  8
0
100
AcDbLine
 62
7
  6
CONTINUOUS
 10
147.7036126786
 20
510.0243303302
 11
150.7036126786
 21
510.0243303302
  0
LINE
  5
237
100
AcDbEntity
  8
0
100
AcDbLine
 62
7
  6
CONTINUOUS
 10
172.2559793135
 20
510.7139443636
 11
166.2559793135
 21
510.7139443636
  0
LINE
  5
238
100
AcDbEntity
  8
0
100
AcDbLine
 62
7
  6
CONTINUOUS
 10
150.7036126786
 20
511.7263187252
 11
147.7036126786
 21
511.7263187252
  0
LINE
  5
239
100
AcDbEntity
  8
0
100
AcDbLine
 62
7
  6
CONTINUOUS
 10
623.1359793135
 20
514.5999792065
 11
184.2559793135
 21
514.5999792065
  0
LINE
  5
23A
100
AcDbEntity
  8
0
100
AcDbLine
 62
7
  6
CONTINUOUS
 10
150.7036126786
 20
518.4749792066
 11
147.7036126786
 21
518.4749792066
  0
LINE
  5
23B
100
AcDbEntity
  8
0
100
AcDbLine
 62
7
  6
CONTINUOUS
 10
147.7036126786
 20
520.4749792066
 11
150.7036126786
 21
520.4749792066
  0
LINE
  5
23C
100
AcDbEntity
  8
0
100
AcDbLine
 62
7
  6
CONTINUOUS
 10
98.4560278951
 20
524.2749792066
 11
101.1060278951
 21
524.2749792066
  0
LINE
  5
23D
100
AcDbEntity
  8
0
100
AcDbLine
 62
7
  6
CONTINUOUS
 10
98.4560278951
 20
524.4080151137
 11
100.4560278951
 21
524.4080151137
  0
LINE
  5
23E
100
AcDbEntity
  8
0
100
AcDbLine
 62
7
  6
CONTINUOUS
 10
623.1359793135
 20
524.5999792065
 11
184.2559793135
 21
524.5999792065
  0
LINE
  5
23F
100
AcDbEntity
  8
0
100
AcDbLine
 62
7
  6
CONTINUOUS
 10
147.7036126786
 20
527.2236396881
 11
150.7036126786
 21
527.2236396881
  0
LINE
  5
240
100
AcDbEntity
  8
0
100
AcDbLine
 62
7
  6
CONTINUOUS
 10
172.2559793135
 20
528.4749792066
 11
166.2559793135
 21
528.4749792066
  0
LINE
  5
241
100
AcDbEntity
  8
0
100
AcDbLine
 62
7
  6
CONTINUOUS
 10
150.7036126786
 20
528.9256280831
 11
147.7036126786
 21
528.9256280831
  0
LINE
  5
242
100
AcDbEntity
  8
0
100
AcDbLine
 62
7
  6
CONTINUOUS
 10
166.2559793135
 20
525.888864854
 11
150.7036126786
 21
525.3457642436
  0
LINE
  5
243
100
AcDbEntity
  8
0
100
AcDbLine
 62
7
  6
CONTINUOUS
 10
147.7036126786
 20
530.3398416454
 11
150.7036126786
 21
530.3398416454
  0
LINE
  5
244
100
AcDbEntity
  8
0
100
AcDbLine
 62
7
  6
CONTINUOUS
 10
98.4560278951
 20
531.1419432995
 11
100.4560278951
 21
531.1419432995
  0
LINE
  5
245
100
AcDbEntity
  8
0
100
AcDbLine
 62
7
  6
CONTINUOUS
 10
98.4560278951
 20
531.2749792066
 11
101.1060278951
 21
531.2749792066
  0
LINE
  5
246
100
AcDbEntity
  8
0
100
AcDbLine
 62
7
  6
CONTINUOUS
 10
147.7036126786
 20
531.4332399497
 11
150.7036126786
 21
531.4332399497
  0
LINE
  5
247
100
AcDbEntity
  8
0
100
AcDbLine
 62
7
  6
CONTINUOUS
 10
184.2559793135
 20
531.4749792066
 11
172.2559793135
 21
531.4749792066
  0
LINE
  5
248
100
AcDbEntity
  8
0
100
AcDbLine
 62
7
  6
CONTINUOUS
 10
136.1560278951
 20
531.9749792066
 11
139.7060278951
 21
531.9749792066
  0
LINE
  5
249
100
AcDbEntity
  8
0
100
AcDbLine
 62
7
  6
CONTINUOUS
 10
150.7036126786
 20
533.8402150209
 11
147.7036126786
 21
533.8402150209
  0
LINE
  5
24A
100
AcDbEntity
  8
0
100
AcDbLine
 62
7
  6
CONTINUOUS
 10
150.7036126786
 20
533.8749792066
 11
141.2260278951
 21
533.8749792066
  0
LINE
  5
24B
100
AcDbEntity
  8
0
100
AcDbLine
 62
7
  6
CONTINUOUS
 10
141.2260278951
 20
537.4749792066
 11
139.7060278951
 21
537.4749792066
  0
LINE
  5
24C
100
AcDbEntity
  8
0
100
AcDbLine
 62
7
  6
CONTINUOUS
 10
623.1359793135
 20
544.1337040827
 11
628.7559793135
 21
544.1337040827
  0
LINE
  5
24D
100
AcDbEntity
  8
0
100
AcDbLine
 62
7
  6
CONTINUOUS
 10
647.1912793135
 20
546.7442730551
 11
644.1312793135
 21
546.7442730551
  0
LINE
  5
24E
100
AcDbEntity
  8
0
100
AcDbLine
 62
7
  6
CONTINUOUS
 10
647.1912793135
 20
547.1337040827
 11
651.5826899066
 21
547.1337040827
  0
LINE
  5
24F
100
AcDbEntity
  8
0
100
AcDbLine
 62
7
  6
CONTINUOUS
 10
628.7559793135
 20
549.4837040827
 11
630.7359793135
 21
549.4837040827
  0
LINE
  5
250
100
AcDbEntity
  8
0
100
AcDbLine
 62
7
  6
CONTINUOUS
 10
136.1560278951
 20
555.9749792066
 11
101.1060278951
 21
555.9749792066
  0
LINE
  5
251
100
AcDbEntity
  8
0
100
AcDbLine
 62
7
  6
CONTINUOUS
 10
630.7359793135
 20
557.1337040827
 11
647.1912793135
 21
557.1337040827
  0
LINE
  5
252
100
AcDbEntity
  8
0
100
AcDbLine
 62
7
  6
CONTINUOUS
 10
101.1060278951
 20
562.9749792066
 11
96.1560278951
 21
562.9749792066
  0
LINE
  5
253
100
AcDbEntity
  8
0
100
AcDbLine
 62
7
  6
CONTINUOUS
 10
96.1560278951
 20
568.5549792066
 11
86.6560278951
 21
568.5549792066
  0
LINE
  5
254
100
AcDbEntity
  8
0
100
AcDbLine
 62
7
  6
CONTINUOUS
 10
86.6560278951
 20
572.9749792066
 11
96.1560278951
 21
572.9749792066
  0
LINE
  5
255
100
AcDbEntity
  8
0
100
AcDbLine
 62
7
  6
CONTINUOUS
 10
670.5835485784
 20
545.2453033733
 11
662.4078878962
 21
547.4188300704
  0
LINE
  5
256
100
AcDbEntity
  8
0
100
AcDbLine
 62
7
  6
CONTINUOUS
 10
623.1359793135
 20
544.1337040827
 11
623.1359793135
 21
495.1337040827
  0
LINE
  5
257
100
AcDbEntity
  8
0
100
AcDbLine
 62
7
  6
CONTINUOUS
 10
662.4078878962
 20
547.4188300704
 11
661.4042111967
 21
545.9120203675
  0
LINE
  5
258
100
AcDbEntity
  8
0
100
AcDbLine
 62
7
  6
CONTINUOUS
 10
628.7559793135
 20
549.4837040827
 11
628.7559793135
 21
489.7837040827
  0
LINE
  5
259
100
AcDbEntity
  8
0
100
AcDbLine
 62
7
  6
CONTINUOUS
 10
630.7359793135
 20
557.1337040827
 11
630.7359793135
 21
482.1337040827
  0
LINE
  5
25A
100
AcDbEntity
  8
0
100
AcDbLine
 62
7
  6
CONTINUOUS
 10
649.5255778915
 20
543.5147565312
 11
649.5289722424
 21
542.0812359359
  0
LINE
  5
25B
100
AcDbEntity
  8
0
100
AcDbLine
 62
7
  6
CONTINUOUS
 10
644.1312793135
 20
557.1337040827
 11
644.1312793135
 21
482.1337040827
  0
LINE
  5
25C
100
AcDbEntity
  8
0
100
AcDbLine
 62
7
  6
CONTINUOUS
 10
647.1912793135
 20
482.1337040827
 11
647.1912793135
 21
492.5231351103
  0
LINE
  5
25D
100
AcDbEntity
  8
0
100
AcDbLine
 62
7
  6
CONTINUOUS
 10
647.1912793135
 20
546.7442730551
 11
647.1912793135
 21
557.1337040827
  0
LINE
  5
25E
100
AcDbEntity
  8
0
100
AcDbLine
 62
7
  6
CONTINUOUS
 10
662.4078878962
 20
547.4188300704
 11
662.4078878962
 21
545.7987869385
  0
LINE
  5
25F
100
AcDbEntity
  8
0
100
AcDbLine
 62
7
  6
CONTINUOUS
 10
674.2041680526
 20
545.2110868319
 11
674.2041680526
 21
534.4342479403
  0
LINE
  5
260
100
AcDbEntity
  8
0
100
AcDbLine
 62
7
  6
CONTINUOUS
 10
674.2041680526
 20
533.1848170381
 11
674.2041680526
 21
525.5198779902
  0
LINE
  5
261
100
AcDbEntity
  8
0
100
AcDbLine
 62
7
  6
CONTINUOUS
 10
674.2041680526
 20
524.270447088
 11
674.2041680526
 21
516.6055080401
  0
LINE
  5
262
100
AcDbEntity
  8
0
100
AcDbLine
 62
7
  6
CONTINUOUS
 10
674.2041680526
 20
515.3560771379
 11
674.2041680526
 21
504.5792382463
  0
LINE
  5
263
100
AcDbEntity
  8
0
100
AcDbLine
 62
7
  6
CONTINUOUS
 10
677.3312793135
 20
493.9789285376
 11
677.3312793135
 21
545.2663007667
  0
LINE
  5
264
100
AcDbEntity
  8
0
100
AcDbLine
 62
7
  6
CONTINUOUS
 10
649.5255783708
 20
528.1713689969
 11
649.5289736751
 21
530.6639393974
  0
SPLINE
  5
265
100
AcDbEntity
  8
0
100
AcDbSpline
 62
7
  6
CONTINUOUS
 70
0
 71
3
 72
15
 73
11
 74
0
 42
0.0000001
 43
0.0000001
 44
0.0000000001
 40
0.0
 40
0.0
 40
0.0
 40
0.0
 40
0.0377267258
 40
0.0823345475
 40
0.1883010265
 40
0.3097105232
 40
0.440448682
 40
0.5768015696
 40
0.7164622157
 40
1.0
 40
1.0
 40
1.0
 40
1.0
 10
651.1643807302
 20
492.1337058096
 30
0.0
 10
651.4637189727
 20
492.1337079463
 30
0.0
 10
652.1168495351
 20
492.1671927683
 30
0.0
 10
653.6035379313
 20
492.3163642665
 30
0.0
 10
655.7421429462
 20
492.6079439361
 30
0.0
 10
658.5573918899
 20
492.9917706895
 30
0.0
 10
661.6177172773
 20
493.3629468454
 30
0.0
 10
664.8304215853
 20
493.6741135514
 30
0.0
 10
669.2601172188
 20
493.978036727
 30
0.0
 10
672.620562261
 20
494.0445072815
 30
0.0
 10
674.8700404232
 20
494.0131286796
 30
0.0
  0
SPLINE
  5
266
100
AcDbEntity
  8
0
100
AcDbSpline
 62
7
  6
CONTINUOUS
 70
0
 71
3
 72
15
 73
11
 74
0
 42
0.0000001
 43
0.0000001
 44
0.0000000001
 40
0.0
 40
0.0
 40
0.0
 40
0.0
 40
0.2870578223
 40
0.4281197694
 40
0.5652852649
 40
0.6959620271
 40
0.816212388
 40
0.9200020743
 40
0.96337194
 40
1.0
 40
1.0
 40
1.0
 40
1.0
 10
674.2041680526
 20
545.2110868319
 30
0.0
 10
672.0296315421
 20
545.1724564596
 30
0.0
 10
668.7826764459
 20
545.2382985158
 30
0.0
 10
664.5112558284
 20
545.5576605837
 30
0.0
 10
661.4300031075
 20
545.8843449883
 30
0.0
 10
658.5148229457
 20
546.270320037
 30
0.0
 10
655.8563267749
 20
546.6630213235
 30
0.0
 10
653.851070171
 20
546.9553066577
 30
0.0
 10
652.4661744565
 20
547.1015442817
 30
0.0
 10
651.8602028481
 20
547.1337001754
 30
0.0
 10
651.5826921347
 20
547.1337034728
 30
0.0
  0
SPLINE
  5
267
100
AcDbEntity
  8
0
100
AcDbSpline
 62
7
  6
CONTINUOUS
 70
0
 71
3
 72
11
 73
7
 74
0
 42
0.0000001
 43
0.0000001
 44
0.0000000001
 40
0.0
 40
0.0
 40
0.0
 40
0.0
 40
0.2532348784
 40
0.5062242168
 40
0.7571096238
 40
1.0
 40
1.0
 40
1.0
 40
1.0
 10
670.0312793135
 20
535.9327825444
 30
0.0
 10
670.4847264642
 20
535.9327825444
 30
0.0
 10
671.3991182878
 20
535.7530235909
 30
0.0
 10
672.5749484977
 20
535.0341976845
 30
0.0
 10
673.4810309958
 20
534.0310630869
 30
0.0
 10
673.8996832518
 20
533.2395325168
 30
0.0
 10
674.0485606005
 20
532.8308829126
 30
0.0
  0
SPLINE
  5
268
100
AcDbEntity
  8
0
100
AcDbSpline
 62
7
  6
CONTINUOUS
 70
0
 71
3
 72
11
 73
7
 74
0
 42
0.0000001
 43
0.0000001
 44
0.0000000001
 40
0.0
 40
0.0
 40
0.0
 40
0.0
 40
0.2532348784
 40
0.5062242168
 40
0.7571096238
 40
1.0
 40
1.0
 40
1.0
 40
1.0
 10
670.0312793135
 20
527.0184125943
 30
0.0
 10
670.4847264642
 20
527.0184125943
 30
0.0
 10
671.3991182878
 20
526.8386536408
 30
0.0
 10
672.5749484977
 20
526.1198277344
 30
0.0
 10
673.4810309958
 20
525.1166931368
 30
0.0
 10
673.8996832518
 20
524.3251625667
 30
0.0
 10
674.0485606005
 20
523.9165129625
 30
0.0
  0
SPLINE
  5
269
100
AcDbEntity
  8
0
100
AcDbSpline
 62
7
  6
CONTINUOUS
 70
0
 71
3
 72
11
 73
7
 74
0
 42
0.0000001
 43
0.0000001
 44
0.0000000001
 40
0.0
 40
0.0
 40
0.0
 40
0.0
 40
0.2532348784
 40
0.5062242168
 40
0.7571096238
 40
1.0
 40
1.0
 40
1.0
 40
1.0
 10
670.0312793135
 20
518.1040426441
 30
0.0
 10
670.4847264642
 20
518.1040426441
 30
0.0
 10
671.3991182878
 20
517.9242836906
 30
0.0
 10
672.5749484977
 20
517.2054577843
 30
0.0
 10
673.4810309958
 20
516.2023231867
 30
0.0
 10
673.8996832518
 20
515.4107926166
 30
0.0
 10
674.0485606005
 20
515.0021430124
 30
0.0
  0
SPLINE
  5
26A
100
AcDbEntity
  8
0
100
AcDbSpline
 62
7
  6
CONTINUOUS
 70
0
 71
3
 72
9
 73
5
 74
0
 42
0.0000001
 43
0.0000001
 44
0.0000000001
 40
0.0
 40
0.0
 40
0.0
 40
0.0
 40
0.2546232026
 40
1.0
 40
1.0
 40
1.0
 40
1.0
 10
673.0869407088
 20
513.7378982006
 30
0.0
 10
673.1819724658
 20
513.8462342398
 30
0.0
 10
673.5368875145
 20
514.2873723281
 30
0.0
 10
673.8208601182
 20
514.7860254737
 30
0.0
 10
673.9809603372
 20
515.1763293624
 30
0.0
  0
SPLINE
  5
26B
100
AcDbEntity
  8
0
100
AcDbSpline
 62
7
  6
CONTINUOUS
 70
0
 71
3
 72
9
 73
5
 74
0
 42
0.0000001
 43
0.0000001
 44
0.0000000001
 40
0.0
 40
0.0
 40
0.0
 40
0.0
 40
0.2546232026
 40
1.0
 40
1.0
 40
1.0
 40
1.0
 10
673.0869407088
 20
522.6522681507
 30
0.0
 10
673.1819724658
 20
522.76060419
 30
0.0
 10
673.5368875145
 20
523.2017422783
 30
0.0
 10
673.8208601182
 20
523.7003954238
 30
0.0
 10
673.9809603372
 20
524.0906993126
 30
0.0
  0
SPLINE
  5
26C
100
AcDbEntity
  8
0
100
AcDbSpline
 62
7
  6
CONTINUOUS
 70
0
 71
3
 72
11
 73
7
 74
0
 42
0.0000001
 43
0.0000001
 44
0.0000000001
 40
0.0
 40
0.0
 40
0.0
 40
0.0
 40
0.238238896
 40
0.4974400951
 40
0.7577258457
 40
1.0
 40
1.0
 40
1.0
 40
1.0
 10
666.0935350953
 20
515.101913606
 30
0.0
 10
666.3842380138
 20
515.6935268396
 30
0.0
 10
667.3568584797
 20
516.7575928058
 30
0.0
 10
669.3464901998
 20
517.5838139549
 30
0.0
 10
671.5170487717
 20
517.5419880218
 30
0.0
 10
672.813913229
 20
516.8760225034
 30
0.0
 10
673.3040686259
 20
516.4187411425
 30
0.0
  0
SPLINE
  5
26D
100
AcDbEntity
  8
0
100
AcDbSpline
 62
7
  6
CONTINUOUS
 70
0
 71
3
 72
11
 73
7
 74
0
 42
0.0000001
 43
0.0000001
 44
0.0000000001
 40
0.0
 40
0.0
 40
0.0
 40
0.0
 40
0.2440768371
 40
0.4948285593
 40
0.7473060804
 40
1.0
 40
1.0
 40
1.0
 40
1.0
 10
666.0837336441
 20
515.1819315667
 30
0.0
 10
666.24418804
 20
515.5717305474
 30
0.0
 10
666.6724215154
 20
516.3226870722
 30
0.0
 10
667.5709434701
 20
517.2680546466
 30
0.0
 10
668.7151949279
 20
517.9380356096
 30
0.0
 10
669.5948656654
 20
518.1040426441
 30
0.0
 10
670.0312793135
 20
518.1040426441
 30
0.0
  0
SPLINE
  5
26E
100
AcDbEntity
  8
0
100
AcDbSpline
 62
7
  6
CONTINUOUS
 70
0
 71
3
 72
11
 73
7
 74
0
 42
0.0000001
 43
0.0000001
 44
0.0000000001
 40
0.0
 40
0.0
 40
0.0
 40
0.0
 40
0.238238896
 40
0.4974400951
 40
0.7577258457
 40
1.0
 40
1.0
 40
1.0
 40
1.0
 10
666.0935350953
 20
524.0162835561
 30
0.0
 10
666.3842380138
 20
524.6078967897
 30
0.0
 10
667.3568584797
 20
525.6719627559
 30
0.0
 10
669.3464901998
 20
526.498183905
 30
0.0
 10
671.5170487717
 20
526.456357972
 30
0.0
 10
672.813913229
 20
525.7903924536
 30
0.0
 10
673.3040686259
 20
525.3331110926
 30
0.0
  0
SPLINE
  5
26F
100
AcDbEntity
  8
0
100
AcDbSpline
 62
7
  6
CONTINUOUS
 70
0
 71
3
 72
11
 73
7
 74
0
 42
0.0000001
 43
0.0000001
 44
0.0000000001
 40
0.0
 40
0.0
 40
0.0
 40
0.0
 40
0.2440768371
 40
0.4948285593
 40
0.7473060804
 40
1.0
 40
1.0
 40
1.0
 40
1.0
 10
666.083733644
 20
524.0963015168
 30
0.0
 10
666.24418804
 20
524.4861004976
 30
0.0
 10
666.6724215154
 20
525.2370570223
 30
0.0
 10
667.5709434701
 20
526.1824245967
 30
0.0
 10
668.7151949279
 20
526.8524055597
 30
0.0
 10
669.5948656654
 20
527.0184125943
 30
0.0
 10
670.0312793135
 20
527.0184125943
 30
0.0
  0
SPLINE
  5
270
100
AcDbEntity
  8
0
100
AcDbSpline
 62
7
  6
CONTINUOUS
 70
0
 71
3
 72
11
 73
7
 74
0
 42
0.0000001
 43
0.0000001
 44
0.0000000001
 40
0.0
 40
0.0
 40
0.0
 40
0.0
 40
0.2440768371
 40
0.4948285593
 40
0.7473060804
 40
1.0
 40
1.0
 40
1.0
 40
1.0
 10
666.083733644
 20
533.0106714669
 30
0.0
 10
666.24418804
 20
533.4004704477
 30
0.0
 10
666.6724215154
 20
534.1514269724
 30
0.0
 10
667.5709434701
 20
535.0967945469
 30
0.0
 10
668.7151949279
 20
535.7667755099
 30
0.0
 10
669.5948656654
 20
535.9327825444
 30
0.0
 10
670.0312793135
 20
535.9327825444
 30
0.0
  0
SPLINE
  5
271
100
AcDbEntity
  8
0
100
AcDbSpline
 62
7
  6
CONTINUOUS
 70
0
 71
3
 72
9
 73
5
 74
0
 42
0.0000001
 43
0.0000001
 44
0.0000000001
 40
0.0
 40
0.0
 40
0.0
 40
0.0
 40
0.2893048597
 40
1.0
 40
1.0
 40
1.0
 40
1.0
 10
649.5282818084
 20
530.6639421462
 30
0.0
 10
649.5297900632
 20
531.7649678954
 30
0.0
 10
649.5338040943
 20
535.5707314982
 30
0.0
 10
649.5341572084
 20
539.3765059316
 30
0.0
 10
649.5282818084
 20
542.0812394017
 30
0.0
  0
SPLINE
  5
272
100
AcDbEntity
  8
0
100
AcDbSpline
 62
7
  6
CONTINUOUS
 70
0
 71
3
 72
15
 73
11
 74
0
 42
0.0000001
 43
0.0000001
 44
0.0000000001
 40
0.0
 40
0.0
 40
0.0
 40
0.0
 40
0.1103740033
 40
0.2320597233
 40
0.363345591
 40
0.4996557787
 40
0.6357076746
 40
0.7665127545
 40
0.8882246208
 40
1.0
 40
1.0
 40
1.0
 40
1.0
 10
665.7812793135
 20
516.4139339097
 30
0.0
 10
665.7812793135
 20
515.9936799848
 30
0.0
 10
666.0075343476
 20
515.1044111526
 30
0.0
 10
666.8579165945
 20
513.9784662223
 30
0.0
 10
668.1044890885
 20
513.1315175895
 30
0.0
 10
669.6010778808
 20
512.687009068
 30
0.0
 10
671.161610898
 20
512.7179146333
 30
0.0
 10
672.5809319084
 20
513.225497538
 30
0.0
 10
673.6755218541
 20
514.125423496
 30
0.0
 10
674.101976212
 20
514.9429386105
 30
0.0
 10
674.2041680526
 20
515.3560771379
 30
0.0
  0
SPLINE
  5
273
100
AcDbEntity
  8
0
100
AcDbSpline
 62
7
  6
CONTINUOUS
 70
0
 71
3
 72
15
 73
11
 74
0
 42
0.0000001
 43
0.0000001
 44
0.0000000001
 40
0.0
 40
0.0
 40
0.0
 40
0.0
 40
0.1103740033
 40
0.2320597233
 40
0.363345591
 40
0.4996557787
 40
0.6357076746
 40
0.7665127545
 40
0.8882246208
 40
1.0
 40
1.0
 40
1.0
 40
1.0
 10
665.7812793135
 20
525.3283038598
 30
0.0
 10
665.7812793135
 20
524.9080499349
 30
0.0
 10
666.0075343476
 20
524.0187811027
 30
0.0
 10
666.8579165945
 20
522.8928361724
 30
0.0
 10
668.1044890885
 20
522.0458875396
 30
0.0
 10
669.6010778808
 20
521.6013790182
 30
0.0
 10
671.161610898
 20
521.6322845834
 30
0.0
 10
672.5809319084
 20
522.1398674881
 30
0.0
 10
673.6755218541
 20
523.0397934462
 30
0.0
 10
674.101976212
 20
523.8573085607
 30
0.0
 10
674.2041680526
 20
524.270447088
 30
0.0
  0
SPLINE
  5
274
100
AcDbEntity
  8
0
100
AcDbSpline
 62
7
  6
CONTINUOUS
 70
0
 71
3
 72
15
 73
11
 74
0
 42
0.0000001
 43
0.0000001
 44
0.0000000001
 40
0.0
 40
0.0
 40
0.0
 40
0.0
 40
0.1103740033
 40
0.2320597233
 40
0.363345591
 40
0.4996557787
 40
0.6357076746
 40
0.7665127545
 40
0.8882246208
 40
1.0
 40
1.0
 40
1.0
 40
1.0
 10
665.7812793135
 20
534.2426738099
 30
0.0
 10
665.7812793135
 20
533.822419885
 30
0.0
 10
666.0075343476
 20
532.9331510529
 30
0.0
 10
666.8579165945
 20
531.8072061226
 30
0.0
 10
668.1044890885
 20
530.9602574897
 30
0.0
 10
669.6010778808
 20
530.5157489683
 30
0.0
 10
671.161610898
 20
530.5466545335
 30
0.0
 10
672.5809319084
 20
531.0542374382
 30
0.0
 10
673.6755218541
 20
531.9541633963
 30
0.0
 10
674.101976212
 20
532.7716785108
 30
0.0
 10
674.2041680526
 20
533.1848170381
 30
0.0
  0
SPLINE
  5
275
100
AcDbEntity
  8
0
100
AcDbSpline
 62
7
  6
CONTINUOUS
 70
0
 71
3
 72
21
 73
17
 74
0
 42
0.0000001
 43
0.0000001
 44
0.0000000001
 40
0.0
 40
0.0
 40
0.0
 40
0.0
 40
0.1266821698
 40
0.1898702811
 40
0.2527965121
 40
0.3774724366
 40
0.4393360162
 40
0.5009532322
 40
0.5625400053
 40
0.6244201383
 40
0.6868825597
 40
0.7499516514
 40
0.8133173142
 40
0.8764813834
 40
0.9388895121
 40
1.0
 40
1.0
 40
1.0
 40
1.0
 10
674.2041680526
 20
504.5792382463
 30
0.0
 10
672.5099154039
 20
504.5106707112
 30
0.0
 10
669.9591699878
 20
504.5736166644
 30
0.0
 10
666.6014252992
 20
505.0112503373
 30
0.0
 10
663.3109043032
 20
505.682617935
 30
0.0
 10
660.1189213162
 20
506.7386167148
 30
0.0
 10
657.1674355573
 20
508.2771087342
 30
0.0
 10
655.1282081228
 20
509.6979743611
 30
0.0
 10
653.3296989543
 20
511.4184939293
 30
0.0
 10
651.8559999916
 20
513.4415487358
 30
0.0
 10
650.7707119955
 20
515.7180165508
 30
0.0
 10
650.0732614384
 20
518.1583363478
 30
0.0
 10
649.7056509719
 20
520.6747832774
 30
0.0
 10
649.5685949889
 20
523.2015671949
 30
0.0
 10
649.5283525316
 20
525.7000797456
 30
0.0
 10
649.5255739357
 20
527.3534057729
 30
0.0
 10
649.5255781338
 20
528.1713690386
 30
0.0
  0
SPLINE
  5
276
100
AcDbEntity
  8
0
100
AcDbSpline
 62
7
  6
CONTINUOUS
 70
0
 71
3
 72
18
 73
14
 74
0
 42
0.0000001
 43
0.0000001
 44
0.0000000001
 40
0.0
 40
0.0
 40
0.0
 40
0.0
 40
0.0560335003
 40
0.1142110098
 40
0.2391598271
 40
0.3758701208
 40
0.5175053347
 40
0.6542717204
 40
0.7788485696
 40
0.8364290984
 40
0.8915798402
 40
0.9456107776
 40
1.0
 40
1.0
 40
1.0
 40
1.0
 10
674.2041680526
 20
516.6055080401
 30
0.0
 10
674.1539968665
 20
516.805417066
 30
0.0
 10
674.0020139962
 20
517.2018749722
 30
0.0
 10
673.5094348852
 20
517.938028406
 30
0.0
 10
672.5674059547
 20
518.6893646167
 30
0.0
 10
671.1636953552
 20
519.2208872053
 30
0.0
 10
669.6299237265
 20
519.3884608755
 30
0.0
 10
668.1463779881
 20
519.1796098024
 30
0.0
 10
667.0583132302
 20
518.6757735855
 30
0.0
 10
666.4051470926
 20
518.0874632488
 30
0.0
 10
666.0483383035
 20
517.5814206608
 30
0.0
 10
665.8289328467
 20
517.0147237779
 30
0.0
 10
665.7812793135
 20
516.6139943726
 30
0.0
 10
665.7812793135
 20
516.4139339097
 30
0.0
  0
SPLINE
  5
277
100
AcDbEntity
  8
0
100
AcDbSpline
 62
7
  6
CONTINUOUS
 70
0
 71
3
 72
18
 73
14
 74
0
 42
0.0000001
 43
0.0000001
 44
0.0000000001
 40
0.0
 40
0.0
 40
0.0
 40
0.0
 40
0.0560335003
 40
0.1142110098
 40
0.2391598271
 40
0.3758701208
 40
0.5175053347
 40
0.6542717204
 40
0.7788485696
 40
0.8364290984
 40
0.8915798402
 40
0.9456107776
 40
1.0
 40
1.0
 40
1.0
 40
1.0
 10
674.2041680526
 20
525.5198779902
 30
0.0
 10
674.1539968665
 20
525.7197870162
 30
0.0
 10
674.0020139962
 20
526.1162449224
 30
0.0
 10
673.5094348852
 20
526.8523983561
 30
0.0
 10
672.5674059547
 20
527.6037345669
 30
0.0
 10
671.1636953552
 20
528.1352571555
 30
0.0
 10
669.6299237265
 20
528.3028308256
 30
0.0
 10
668.1463779881
 20
528.0939797526
 30
0.0
 10
667.0583132302
 20
527.5901435356
 30
0.0
 10
666.4051470926
 20
527.001833199
 30
0.0
 10
666.0483383035
 20
526.4957906109
 30
0.0
 10
665.8289328467
 20
525.929093728
 30
0.0
 10
665.7812793135
 20
525.5283643227
 30
0.0
 10
665.7812793135
 20
525.3283038598
 30
0.0
  0
SPLINE
  5
278
100
AcDbEntity
  8
0
100
AcDbSpline
 62
7
  6
CONTINUOUS
 70
0
 71
3
 72
18
 73
14
 74
0
 42
0.0000001
 43
0.0000001
 44
0.0000000001
 40
0.0
 40
0.0
 40
0.0
 40
0.0
 40
0.0560335003
 40
0.1142110098
 40
0.2391598271
 40
0.3758701208
 40
0.5175053347
 40
0.6542717204
 40
0.7788485696
 40
0.8364290984
 40
0.8915798402
 40
0.9456107776
 40
1.0
 40
1.0
 40
1.0
 40
1.0
 10
674.2041680526
 20
534.4342479403
 30
0.0
 10
674.1539968665
 20
534.6341569663
 30
0.0
 10
674.0020139962
 20
535.0306148725
 30
0.0
 10
673.5094348852
 20
535.7667683062
 30
0.0
 10
672.5674059547
 20
536.518104517
 30
0.0
 10
671.1636953552
 20
537.0496271056
 30
0.0
 10
669.6299237265
 20
537.2172007757
 30
0.0
 10
668.1463779881
 20
537.0083497027
 30
0.0
 10
667.0583132302
 20
536.5045134858
 30
0.0
 10
666.4051470926
 20
535.9162031491
 30
0.0
 10
666.0483383035
 20
535.410160561
 30
0.0
 10
665.8289328467
 20
534.8434636781
 30
0.0
 10
665.7812793135
 20
534.4427342728
 30
0.0
 10
665.7812793135
 20
534.2426738099
 30
0.0
  0
SPLINE
  5
279
100
AcDbEntity
  8
0
100
AcDbSpline
 62
7
  6
CONTINUOUS
 70
0
 71
3
 72
15
 73
11
 74
0
 42
0.0000001
 43
0.0000001
 44
0.0000000001
 40
0.0
 40
0.0
 40
0.0
 40
0.0
 40
0.1489535005
 40
0.2631514192
 40
0.355832782
 40
0.4469877068
 40
0.5529225069
 40
0.6799485062
 40
0.8290976371
 40
1.0
 40
1.0
 40
1.0
 40
1.0
 10
651.5826921347
 20
547.1337034728
 30
0.0
 10
651.3357909876
 20
547.1337064065
 30
0.0
 10
650.8988077865
 20
547.1137533036
 30
0.0
 10
650.3189063977
 20
546.9699265136
 30
0.0
 10
649.9034833427
 20
546.6727319899
 30
0.0
 10
649.6792393686
 20
546.232979959
 30
0.0
 10
649.5831280734
 20
545.701904704
 30
0.0
 10
649.5404957888
 20
545.0696024115
 30
0.0
 10
649.5268584665
 20
544.3285365109
 30
0.0
 10
649.5255757391
 20
543.7980396192
 30
0.0
 10
649.5255784131
 20
543.514756653
 30
0.0
  0
ELLIPSE
  5
27A
100
AcDbEntity
  8
0
100
AcDbEllipse
 62
7
  6
CONTINUOUS
 10
493.5083891028
 20
519.6337040827
 30
0.0
 11
596.6610167355
 21
17.3956246985
 31
0.0
 40
0.0356967831
 41
1.2565752769
 42
1.2620793794
  0
ELLIPSE
  5
27B
100
AcDbEntity
  8
0
100
AcDbEllipse
 62
7
  6
CONTINUOUS
 10
443.8598931012
 20
519.6337040827
 30
0.0
 11
752.6248967703
 21
-17.3873861
 31
0.0
 40
0.0283083978
 41
-1.258167001
 42
-1.2547290204
  0
ELLIPSE
  5
27C
100
AcDbEntity
  8
0
100
AcDbEllipse
 62
7
  6
CONTINUOUS
 10
493.5083891028
 20
519.6337040827
 30
0.0
 11
596.6610167355
 21
17.3956246985
 31
0.0
 40
0.0356967831
 41
-1.2641608548
 42
-1.2586567523
  0
ELLIPSE
  5
27D
100
AcDbEntity
  8
0
100
AcDbEllipse
 62
7
  6
CONTINUOUS
 10
670.0312793135
 20
524.7736573171
 30
0.0
 11
4.2432915505
 21
0.3085850918
 31
0.0
 40
0.7735246403
 41
6.0362090751
 42
6.4177738483
  0
ELLIPSE
  5
27E
100
AcDbEntity
  8
0
100
AcDbEllipse
 62
7
  6
CONTINUOUS
 10
670.0312793135
 20
515.8592873669
 30
0.0
 11
4.2432915505
 21
0.3085850918
 31
0.0
 40
0.7735246403
 41
6.0362090751
 42
6.4177738483
  0
ELLIPSE
  5
27F
100
AcDbEntity
  8
0
100
AcDbEllipse
 62
7
  6
CONTINUOUS
 10
670.0312793135
 20
533.6880272672
 30
0.0
 11
4.2432915505
 21
0.3085850918
 31
0.0
 40
0.7735246403
 41
6.0362090751
 42
6.4177738483
  0
ENDSEC
  0
SECTION
  2
OBJECTS
  0
DICTIONARY
  5
C
100
AcDbDictionary
280
0
281
1
  3
ACAD_GROUP
350
D
  3
ACAD_MLINESTYLE
350
17
  3
ACAD_LAYOUT
350
1A
  3
ACAD_PLOTSETTINGS
350
19
  3
ACAD_PLOTSTYLENAME
350
E
  0
DICTIONARY
  5
D
102
{ACAD_REACTORS
330
C
102
}
100
AcDbDictionary
280
0
281
1
  0
ACDBDICTIONARYWDFLT
  5
E
102
{ACAD_REACTORS
330
C
102
}
100
AcDbDictionary
281
1
  3
Normal
350
F
100
AcDbDictionaryWithDefault
340
F
  0
DICTIONARY
  5
17
102
{ACAD_REACTORS
330
C
102
}
100
AcDbDictionary
280
0
281
1
  3
Standard
350
18
  0
DICTIONARY
  5
19
102
{ACAD_REACTORS
330
C
102
}
100
AcDbDictionary
281
1
  0
DICTIONARY
  5
1A
102
{ACAD_REACTORS
330
C
102
}
100
AcDbDictionary
281
1
  3
Model
350
280
  3
Layout1
350
281
  0
ACDBPLACEHOLDER
  5
F
102
{ACAD_REACTORS
330
E
102
}
  0
MLINESTYLE
  5
18
102
{ACAD_REACTORS
330
17
102
}
100
AcDbMlineStyle
  2
STANDARD
 70
0
  3

 62
256
 51
90.0
 52
90.0
 71
2
 49
0.5
 62
256
  6
BYLAYER
 49
-0.5
 62
256
  6
BYLAYER
  0
LAYOUT
  5
280
102
{ACAD_REACTORS
330
1A
102
}
100
AcDbPlotSettings
  1

  2
none_device
  4

  6

 40
0.0
 41
0.0
 42
0.0
 43
0.0
 44
210.0
 45
297.0
 46
0.0
 47
0.0
 48
0.0
 49
0.0
140
0.0
141
0.0
142
1.0
143
1.0
 70
1024
 72
1
 73
0
 74
0
  7

 75
0
147
1.0
148
0.0
149
0.0
100
AcDbLayout
  1
Model
 70
0
 71
0
 10
0.0
 20
0.0
 11
210.0
 21
297.0
 12
0.0
 22
0.0
 32
0.0
 14
0.0
 24
0.0
 34
0.0
 15
0.0
 25
0.0
 35
0.0
146
0.0
 13
0.0
 23
0.0
 33
0.0
 16
1.0
 26
0.0
 36
0.0
 17
0.0
 27
1.0
 37
0.0
 76
0
330
210
345
0
346
0
  0
LAYOUT
  5
281
102
{ACAD_REACTORS
330
1A
102
}
100
AcDbPlotSettings
  1

  2
none_device
  4

  6

 40
0.0
 41
0.0
 42
0.0
 43
0.0
 44
210.0
 45
297.0
 46
0.0
 47
0.0
 48
0.0
 49
0.0
140
0.0
141
0.0
142
1.0
143
1.0
 70
0
 72
1
 73
0
 74
0
  7

 75
0
147
1.0
148
0.0
149
0.0
100
AcDbLayout
  1
Layout1
 70
0
 71
1
 10
0.0
 20
0.0
 11
210.0
 21
297.0
 12
0.0
 22
0.0
 32
0.0
 14
0.0
 24
0.0
 34
0.0
 15
0.0
 25
0.0
 35
0.0
146
0.0
 13
0.0
 23
0.0
 33
0.0
 16
1.0
 26
0.0
 36
0.0
 17
0.0
 27
1.0
 37
0.0
 76
0
330
211
345
0
346
0
  0
ENDSEC
  0
EOF
