999
DXF file: C:\Users\sesa63760\Dev\_Creo\CAD\MCADUE0002783_3D-CAD\drw0001_1.dxf
999
Pro/ENGINEER 2019471 by Parametric Technology Corporation
  0
SECTION
  2
HEADER
  9
$ACADVER
  1
AC1024
  9
$DWGCODEPAGE
  3
ANSI_1252
  9
$EXTMAX
 10
54.6344774383
 20
77.2687609485
 30
0.0
  9
$EXTMIN
 10
0.0
 20
0.0
 30
0.0
  9
$LIMMIN
 10
0.0
 20
0.0
  9
$LIMMAX
 10
54.6344774383
 20
77.2687609485
  9
$VIEWCTR
 10
27.3172387192
 20
38.6343804742
  9
$VIEWSIZE
 40
77.2687609485
  9
$CLAYER
  8
0
  9
$LTSCALE
 40
5.0367784915
  9
$CELTYPE
  6
BYLAYER
  9
$DIMSCALE
 40
1.0
  9
$DIMASZ
 40
0.6504104457
  9
$DIMEXO
 40
1.0
  9
$DIMDLI
 40
3.4799560486
  9
$DIMEXE
 40
1.0
  9
$DIMCEN
 40
0.8242001168
  9
$DIMLFAC
 40
1.0
  9
$DIMBLK
  1
_FILLED
  9
$DIMALT
 70
0
  9
$DIMALTF
 40
0.0393700787
  9
$DIMTXT
 40
0.910574624
  9
$DIMTOL
 70
1
  9
$DIMLIM
 70
0
  9
$DIMTFAC
 40
1.0
  9
$DIMTP
 40
0.01
  9
$DIMTM
 40
0.01
  9
$DIMGAP
 40
0.625
  9
$DIMDSEP
 70
46
  9
$AUNITS
 70
0
  9
$PDMODE
 70
3
  9
$PDSIZE
 40
0.3125
  9
$HANDSEED
  5
2CE
  9
$TILEMODE
 70
1
  9
$MEASUREMENT
 70
1
  9
$INSUNITS
 70
4
  0
ENDSEC
  0
SECTION
  2
CLASSES
  0
CLASS
  1
ACDBDICTIONARYWDFLT
  2
AcDbDictionaryWithDefault
  3
AutoCAD 2000
 90
0
 91
1
280
0
281
0
  0
CLASS
  1
ACDBPLACEHOLDER
  2
AcDbPlaceHolder
  3
AutoCAD 2000
 90
0
 91
1
280
0
281
0
  0
CLASS
  1
LAYOUT
  2
AcDbLayout
  3
AutoCAD 2000
 90
0
 91
0
280
0
281
0
  0
ENDSEC
  0
SECTION
  2
TABLES
  0
TABLE
  2
VPORT
  5
8
100
AcDbSymbolTable
 70
2
  0
VPORT
  5
1F4
100
AcDbSymbolTableRecord
100
AcDbViewportTableRecord
  2
*ACTIVE
 70
0
 10
0.0
 20
0.0
 11
1.0
 21
1.0
 12
27.3172387192
 22
38.6343804742
 13
0.0
 23
0.0
 14
1.0
 24
1.0
 15
0.0
 25
0.0
 16
0.0
 26
0.0
 36
1.0
 17
0.0
 27
0.0
 37
0.0
 40
77.2687609485
 41
0.7070707071
 42
50.0
 43
0.0
 44
0.0
 50
0.0
 51
0.0
 71
0
 72
100
 73
1
 74
1
 75
0
 76
0
 77
0
 78
0
  0
ENDTAB
  0
TABLE
  2
LTYPE
  5
5
100
AcDbSymbolTable
 70
6
  0
LTYPE
  5
14
100
AcDbSymbolTableRecord
100
AcDbLinetypeTableRecord
  2
BYBLOCK
 70
0
  3

 72
65
 73
0
 40
0.0
  0
LTYPE
  5
15
100
AcDbSymbolTableRecord
100
AcDbLinetypeTableRecord
  2
BYLAYER
 70
0
  3

 72
65
 73
0
 40
0.0
  0
LTYPE
  5
16
100
AcDbSymbolTableRecord
100
AcDbLinetypeTableRecord
  2
CONTINUOUS
 70
64
  3
Solid line
 72
65
 73
0
 40
0.0
  0
LTYPE
  5
1F5
100
AcDbSymbolTableRecord
100
AcDbLinetypeTableRecord
  2
CENTER
 70
64
  3
____ _ ____ _ ____ _ ____ _ ____ _ ____ _ ____
 72
65
 73
4
 40
0.6
 49
0.375
 74
0
 49
-0.075
 74
0
 49
0.075
 74
0
 49
-0.075
 74
0
  0
LTYPE
  5
1F6
100
AcDbSymbolTableRecord
100
AcDbLinetypeTableRecord
  2
HIDDEN
 70
64
  3
- - - - - - - - - - - - - - - - - - - -
 72
65
 73
2
 40
0.2
 49
0.1
 74
0
 49
-0.1
 74
0
  0
LTYPE
  5
1F7
100
AcDbSymbolTableRecord
100
AcDbLinetypeTableRecord
  2
PHANTOM
 70
64
  3
_____ _ _ _____ _ _ _____ _ _ _____
 72
65
 73
6
 40
0.8
 49
0.45
 74
0
 49
-0.05
 74
0
 49
0.1
 74
0
 49
-0.05
 74
0
 49
0.1
 74
0
 49
-0.05
 74
0
  0
LTYPE
  5
1F8
100
AcDbSymbolTableRecord
100
AcDbLinetypeTableRecord
  2
DOT
 70
64
  3
. . . . . . . . . . . . . . . . . . . .
 72
65
 73
2
 40
0.2
 49
0.1
 74
0
 49
-0.1
 74
0
  0
LTYPE
  5
1F9
100
AcDbSymbolTableRecord
100
AcDbLinetypeTableRecord
  2
DASHED
 70
64
  3
- - - - - - - - - - - - - - - - - - - -
 72
65
 73
2
 40
0.2
 49
0.1
 74
0
 49
-0.1
 74
0
  0
ENDTAB
  0
TABLE
  2
LAYER
  5
2
100
AcDbSymbolTable
 70
36
  0
LAYER
  5
10
100
AcDbSymbolTableRecord
100
AcDbLayerTableRecord
  2
0
 70
0
 62
7
  6
CONTINUOUS
370
-3
390
F
  0
LAYER
  5
1FA
100
AcDbSymbolTableRecord
100
AcDbLayerTableRecord
  2
DEFAULT_1
 70
0
 62
7
  6
CENTER
370
-3
390
F
  0
LAYER
  5
1FB
100
AcDbSymbolTableRecord
100
AcDbLayerTableRecord
  2
DEFAULT_2
 70
0
 62
8
  6
HIDDEN
370
-3
390
F
  0
LAYER
  5
1FC
100
AcDbSymbolTableRecord
100
AcDbLayerTableRecord
  2
DEFAULT_3
 70
0
 62
7
  6
PHANTOM
370
-3
390
F
  0
LAYER
  5
1FD
100
AcDbSymbolTableRecord
100
AcDbLayerTableRecord
  2
00_COMPONENTS
 70
0
 62
7
  6
CONTINUOUS
370
-3
390
F
  0
LAYER
  5
1FE
100
AcDbSymbolTableRecord
100
AcDbLayerTableRecord
  2
01_1_DEFAULT_DATUMS
 70
0
 62
7
  6
CONTINUOUS
370
-3
390
F
  0
LAYER
  5
1FF
100
AcDbSymbolTableRecord
100
AcDbLayerTableRecord
  2
01_PLANES
 70
0
 62
7
  6
CONTINUOUS
370
-3
390
F
  0
LAYER
  5
200
100
AcDbSymbolTableRecord
100
AcDbLayerTableRecord
  2
02_COORD_SYS
 70
0
 62
7
  6
CONTINUOUS
370
-3
390
F
  0
LAYER
  5
201
100
AcDbSymbolTableRecord
100
AcDbLayerTableRecord
  2
03_AXES
 70
0
 62
7
  6
CONTINUOUS
370
-3
390
F
  0
LAYER
  5
202
100
AcDbSymbolTableRecord
100
AcDbLayerTableRecord
  2
04_POINTS
 70
0
 62
7
  6
CONTINUOUS
370
-3
390
F
  0
LAYER
  5
203
100
AcDbSymbolTableRecord
100
AcDbLayerTableRecord
  2
05_CURVES
 70
0
 62
7
  6
CONTINUOUS
370
-3
390
F
  0
LAYER
  5
204
100
AcDbSymbolTableRecord
100
AcDbLayerTableRecord
  2
06_SURFS
 70
0
 62
7
  6
CONTINUOUS
370
-3
390
F
  0
LAYER
  5
205
100
AcDbSymbolTableRecord
100
AcDbLayerTableRecord
  2
07_COSMETICS
 70
0
 62
7
  6
CONTINUOUS
370
-3
390
F
  0
LAYER
  5
206
100
AcDbSymbolTableRecord
100
AcDbLayerTableRecord
  2
10_NOTES
 70
0
 62
7
  6
CONTINUOUS
370
-3
390
F
  0
LAYER
  5
207
100
AcDbSymbolTableRecord
100
AcDbLayerTableRecord
  2
11_NOTES_PUB
 70
0
 62
7
  6
CONTINUOUS
370
-3
390
F
  0
LAYER
  5
208
100
AcDbSymbolTableRecord
100
AcDbLayerTableRecord
  2
13_REF_GTOL
 70
0
 62
7
  6
CONTINUOUS
370
-3
390
F
  0
LAYER
  5
209
100
AcDbSymbolTableRecord
100
AcDbLayerTableRecord
  2
16_MISC
 70
0
 62
7
  6
CONTINUOUS
370
-3
390
F
  0
LAYER
  5
20A
100
AcDbSymbolTableRecord
100
AcDbLayerTableRecord
  2
17_NO_PRINT
 70
0
 62
7
  6
CONTINUOUS
370
-3
390
F
  0
LAYER
  5
20B
100
AcDbSymbolTableRecord
100
AcDbLayerTableRecord
  2
18_DATUM_CAMS_JOINTS
 70
0
 62
7
  6
CONTINUOUS
370
-3
390
F
  0
LAYER
  5
20C
100
AcDbSymbolTableRecord
100
AcDbLayerTableRecord
  2
19_DATUM_FUNCTIONAL
 70
0
 62
7
  6
CONTINUOUS
370
-3
390
F
  0
LAYER
  5
20D
100
AcDbSymbolTableRecord
100
AcDbLayerTableRecord
  2
20_DATUM_KINEMATIC_SCHEME
 70
0
 62
7
  6
CONTINUOUS
370
-3
390
F
  0
ENDTAB
  0
TABLE
  2
STYLE
  5
3
100
AcDbSymbolTable
 70
1
  0
STYLE
  5
11
100
AcDbSymbolTableRecord
100
AcDbTextStyleTableRecord
  2
STANDARD
 70
0
 40
0.0
 41
0.8
 50
0.0
 71
0
 42
0.2
  3
txt
  4

  0
STYLE
  5
20E
100
AcDbSymbolTableRecord
100
AcDbTextStyleTableRecord
  2
TEXTSTYLE_1
 70
0
 40
0.0
 41
0.8
 50
0.0
 71
0
 42
0.2
  3
gdt
  4

  0
ENDTAB
  0
TABLE
  2
VIEW
  5
6
100
AcDbSymbolTable
 70
0
  0
ENDTAB
  0
TABLE
  2
UCS
  5
7
100
AcDbSymbolTable
 70
0
  0
ENDTAB
  0
TABLE
  2
APPID
  5
9
100
AcDbSymbolTable
 70
1
  0
APPID
  5
20F
100
AcDbSymbolTableRecord
100
AcDbRegAppTableRecord
  2
ACAD
 70
0
  0
ENDTAB
  0
TABLE
  2
BLOCK_RECORD
  5
1
100
AcDbSymbolTable
 70
0
  0
BLOCK_RECORD
  5
210
100
AcDbSymbolTableRecord
100
AcDbBlockTableRecord
  2
*Model_Space
  0
BLOCK_RECORD
  5
211
100
AcDbSymbolTableRecord
100
AcDbBlockTableRecord
  2
*Paper_Space
  0
BLOCK_RECORD
  5
212
100
AcDbSymbolTableRecord
100
AcDbBlockTableRecord
  2
_FILLED
  0
ENDTAB
  0
TABLE
  2
DIMSTYLE
  5
A
100
AcDbSymbolTable
 70
1
100
AcDbDimStyleTable
 71
0
  0
DIMSTYLE
105
213
100
AcDbSymbolTableRecord
100
AcDbDimStyleTableRecord
  2
STANDARD
 70
0
  3

  4

 40
1.0
 41
0.6504104457
 42
1.0
 43
0.38
 44
1.0
 45
0.0
 46
0.0
 47
0.01
 48
0.01
140
0.910574624
141
0.09
142
0.0
143
25.4
144
1.0
145
0.0
146
1.0
147
0.625
 71
1
 72
0
 73
0
 74
0
 75
0
 76
0
 77
1
 78
8
 79
2
170
0
171
1
172
0
173
0
174
0
175
0
176
0
177
0
178
0
270
2
179
2
271
2
272
2
273
2
274
2
275
0
280
0
281
0
282
0
283
1
284
8
285
0
286
0
287
3
288
0
340
11
278
46
341
212
342
212
343
212
344
212
  0
ENDTAB
  0
ENDSEC
  0
SECTION
  2
BLOCKS
  0
BLOCK
  5
20
100
AcDbEntity
  8
0
100
AcDbBlockBegin
  2
*Model_Space
 70
0
 10
0.0
 20
0.0
 30
0.0
  3
*Model_Space
  1

  0
ENDBLK
  5
21
100
AcDbEntity
  8
0
100
AcDbBlockEnd
  0
BLOCK
  5
1C
100
AcDbEntity
  8
0
100
AcDbBlockBegin
  2
*Paper_Space
 70
0
 10
0.0
 20
0.0
 30
0.0
  3
*Paper_Space
  1

  0
ENDBLK
  5
1D
100
AcDbEntity
  8
0
100
AcDbBlockEnd
  0
BLOCK
  5
214
100
AcDbEntity
  8
0
100
AcDbBlockBegin
  2
_FILLED
 70
64
 10
0.0
 20
0.0
  3
_FILLED
  1

  0
SOLID
  5
215
100
AcDbEntity
  8
0
  6
BYBLOCK
 62
0
100
AcDbTrace
 10
0.0
 20
0.0
 11
-1.0
 21
0.25
 12
-1.0
 22
-0.25
 13
-1.0
 23
-0.25
  0
ENDBLK
  5
216
100
AcDbEntity
  8
0
  6
BYBLOCK
 62
0
100
AcDbBlockEnd
  0
ENDSEC
  0
SECTION
  2
ENTITIES
  0
LINE
  5
217
100
AcDbEntity
  8
0
100
AcDbLine
 62
7
  6
CONTINUOUS
 10
8.8888546539
 20
17.2758762127
 11
17.2660782256
 21
12.4393933443
  0
LINE
  5
218
100
AcDbEntity
  8
0
100
AcDbLine
 62
7
  6
CONTINUOUS
 10
8.6817423332
 20
17.7336623605
 11
17.0589659049
 21
12.8971794921
  0
LINE
  5
219
100
AcDbEntity
  8
0
100
AcDbLine
 62
7
  6
CONTINUOUS
 10
8.9812506307
 20
17.9065885008
 11
16.7594576073
 21
13.415940201
  0
LINE
  5
21A
100
AcDbEntity
  8
0
100
AcDbLine
 62
7
  6
CONTINUOUS
 10
9.3676506811
 20
17.9226503336
 11
16.5801698776
 21
13.7585946375
  0
LINE
  5
21B
100
AcDbEntity
  8
0
100
AcDbLine
 62
7
  6
CONTINUOUS
 10
9.2640945208
 20
18.1515434075
 11
16.4766137173
 21
13.9874877114
  0
LINE
  5
21C
100
AcDbEntity
  8
0
100
AcDbLine
 62
7
  6
CONTINUOUS
 10
8.5572527587
 20
55.1308703481
 11
23.8383698421
 21
64.6192628289
  0
LWPOLYLINE
  5
21D
100
AcDbEntity
  8
0
100
AcDbPolyline
 62
7
  6
CONTINUOUS
 90
3
 70
0
 10
8.5572527587
 20
55.1308703481
 10
9.4798028982
 20
55.5246518915
 10
11.4182353587
 20
55.5438556068
  0
LINE
  5
21E
100
AcDbEntity
  8
0
100
AcDbLine
 62
7
  6
CONTINUOUS
 10
10.0452622106
 20
53.6556979144
 11
8.8996611951
 21
52.9942888078
  0
LINE
  5
21F
100
AcDbEntity
  8
0
100
AcDbLine
 62
7
  6
CONTINUOUS
 10
8.3888461704
 20
43.4944954776
 11
8.3888461704
 21
18.1419065143
  0
LINE
  5
220
100
AcDbEntity
  8
0
100
AcDbLine
 62
7
  6
CONTINUOUS
 10
8.6817423332
 20
43.3587272404
 11
8.6817423332
 21
17.7336623605
  0
LINE
  5
221
100
AcDbEntity
  8
0
100
AcDbLine
 62
7
  6
CONTINUOUS
 10
8.9812506307
 20
17.9065885008
 11
8.9812506307
 21
40.3604049718
  0
LINE
  5
222
100
AcDbEntity
  8
0
100
AcDbLine
 62
7
  6
CONTINUOUS
 10
9.1176464394
 20
39.9929795384
 11
9.1176464394
 21
18.3556654845
  0
LINE
  5
223
100
AcDbEntity
  8
0
100
AcDbLine
 62
7
  6
CONTINUOUS
 10
9.2640945208
 20
39.7888574615
 11
9.2640945208
 21
18.1515434075
  0
LINE
  5
224
100
AcDbEntity
  8
0
100
AcDbLine
 62
7
  6
CONTINUOUS
 10
12.1986004689
 20
48.2192900535
 11
12.1986004689
 21
47.7157257952
  0
LINE
  5
225
100
AcDbEntity
  8
0
100
AcDbLine
 62
7
  6
CONTINUOUS
 10
12.1986004689
 20
44.3137412592
 11
12.1986004689
 21
40.8707682993
  0
LINE
  5
226
100
AcDbEntity
  8
0
100
AcDbLine
 62
7
  6
CONTINUOUS
 10
13.1178354573
 20
47.0487768206
 11
13.1178354573
 21
46.0421250339
  0
LINE
  5
227
100
AcDbEntity
  8
0
100
AcDbLine
 62
7
  6
CONTINUOUS
 10
13.4006870017
 20
40.1767590166
 11
13.4006870017
 21
43.6197319766
  0
LINE
  5
228
100
AcDbEntity
  8
0
100
AcDbLine
 62
7
  6
CONTINUOUS
 10
13.4006870017
 20
47.0217165125
 11
13.4006870017
 21
47.5252807708
  0
LINE
  5
229
100
AcDbEntity
  8
0
100
AcDbLine
 62
7
  6
CONTINUOUS
 10
12.1986004689
 20
47.7157257952
 11
12.2693108527
 21
47.7565502106
  0
LINE
  5
22A
100
AcDbEntity
  8
0
100
AcDbLine
 62
7
  6
CONTINUOUS
 10
36.9151870909
 20
59.7463328926
 11
34.4599557086
 21
58.3288128545
  0
LINE
  5
22B
100
AcDbEntity
  8
0
100
AcDbLine
 62
7
  6
CONTINUOUS
 10
16.4766137173
 20
13.9874877114
 11
16.4766137173
 21
35.6248017654
  0
LINE
  5
22C
100
AcDbEntity
  8
0
100
AcDbLine
 62
7
  6
CONTINUOUS
 10
39.4459010327
 20
60.2077969046
 11
35.1113545106
 21
57.7052602413
  0
LINE
  5
22D
100
AcDbEntity
  8
0
100
AcDbLine
 62
7
  6
CONTINUOUS
 10
12.2693108527
 20
44.3545656746
 11
12.1986004689
 21
44.3137412592
  0
LINE
  5
22E
100
AcDbEntity
  8
0
100
AcDbLine
 62
7
  6
CONTINUOUS
 10
13.4006870017
 20
43.6197319766
 11
13.4713973854
 21
43.6605563919
  0
LINE
  5
22F
100
AcDbEntity
  8
0
100
AcDbLine
 62
7
  6
CONTINUOUS
 10
16.7594576073
 20
13.415940201
 11
16.7594576073
 21
35.8697566721
  0
LINE
  5
230
100
AcDbEntity
  8
0
100
AcDbLine
 62
7
  6
CONTINUOUS
 10
17.0589659049
 20
12.8971794921
 11
17.0589659049
 21
38.522244372
  0
LINE
  5
231
100
AcDbEntity
  8
0
100
AcDbLine
 62
7
  6
CONTINUOUS
 10
18.4544273378
 20
38.1612473337
 11
18.4544273378
 21
12.8866361999
  0
LINE
  5
232
100
AcDbEntity
  8
0
100
AcDbLine
 62
7
  6
CONTINUOUS
 10
13.4006870017
 20
41.5647891398
 11
12.1986004689
 21
40.8707682993
  0
LWPOLYLINE
  5
233
100
AcDbEntity
  8
0
100
AcDbPolyline
 62
7
  6
CONTINUOUS
 90
4
 70
0
 10
20.5050455407
 20
42.6674220781
 10
20.1622545483
 20
40.3767833023
 10
19.7417417597
 20
39.4527184984
 10
18.4544273378
 20
38.1612473337
  0
LINE
  5
234
100
AcDbEntity
  8
0
100
AcDbLine
 62
7
  6
CONTINUOUS
 10
40.649879172
 20
54.5076638765
 11
44.9844256941
 21
57.0102005397
  0
LINE
  5
235
100
AcDbEntity
  8
0
100
AcDbLine
 62
7
  6
CONTINUOUS
 10
16.4766137173
 20
35.6248017654
 11
9.2640945208
 21
39.7888574615
  0
LINE
  5
236
100
AcDbEntity
  8
0
100
AcDbLine
 62
7
  6
CONTINUOUS
 10
8.9812506307
 20
40.3604049718
 11
16.7594576073
 21
35.8697566721
  0
LINE
  5
237
100
AcDbEntity
  8
0
100
AcDbLine
 62
7
  6
CONTINUOUS
 10
17.6260104847
 20
40.0191173279
 11
16.6996262755
 21
39.484272348
  0
LINE
  5
238
100
AcDbEntity
  8
0
100
AcDbLine
 62
7
  6
CONTINUOUS
 10
36.414239201
 20
50.2692985577
 11
28.9990764284
 21
46.3428957482
  0
LINE
  5
239
100
AcDbEntity
  8
0
100
AcDbLine
 62
7
  6
CONTINUOUS
 10
12.1986004689
 20
40.8707682993
 11
13.4006870017
 21
40.1767590166
  0
LINE
  5
23A
100
AcDbEntity
  8
0
100
AcDbLine
 62
7
  6
CONTINUOUS
 10
25.595185039
 20
41.9866427635
 11
25.5951850511
 21
23.2114524753
  0
LINE
  5
23B
100
AcDbEntity
  8
0
100
AcDbLine
 62
7
  6
CONTINUOUS
 10
30.477870533
 20
42.8907686353
 11
37.2532498794
 21
46.5202302996
  0
LINE
  5
23C
100
AcDbEntity
  8
0
100
AcDbLine
 62
7
  6
CONTINUOUS
 10
49.1448386698
 20
49.8641985967
 11
44.8102921477
 21
47.3616619335
  0
LINE
  5
23D
100
AcDbEntity
  8
0
100
AcDbLine
 62
7
  6
CONTINUOUS
 10
47.3770790768
 20
47.5863361773
 11
49.1448386698
 21
48.6069465619
  0
LINE
  5
23E
100
AcDbEntity
  8
0
100
AcDbLine
 62
7
  6
CONTINUOUS
 10
13.4006870017
 20
47.5252807708
 11
12.1986004689
 21
48.2192900535
  0
LINE
  5
23F
100
AcDbEntity
  8
0
100
AcDbLine
 62
7
  6
CONTINUOUS
 10
34.4370653135
 20
26.9429265485
 11
34.4370653135
 21
21.1722920189
  0
LINE
  5
240
100
AcDbEntity
  8
0
100
AcDbLine
 62
7
  6
CONTINUOUS
 10
44.8102921477
 20
40.7646457783
 11
47.3770790768
 21
42.2465720569
  0
LWPOLYLINE
  5
241
100
AcDbEntity
  8
0
100
AcDbPolyline
 62
7
  6
CONTINUOUS
 90
3
 70
0
 10
42.430210223
 20
37.8604582669
 10
42.9814116877
 20
38.0186139484
 10
44.3117839425
 20
39.26439679
  0
LINE
  5
242
100
AcDbEntity
  8
0
100
AcDbLine
 62
7
  6
CONTINUOUS
 10
45.7473800429
 20
40.3659565496
 11
44.4330830566
 21
39.6071513603
  0
LINE
  5
243
100
AcDbEntity
  8
0
100
AcDbLine
 62
7
  6
CONTINUOUS
 10
8.9812506307
 20
17.9065885008
 11
9.235955049
 21
18.0536412875
  0
LWPOLYLINE
  5
244
100
AcDbEntity
  8
0
100
AcDbPolyline
 62
7
  6
CONTINUOUS
 90
3
 70
0
 10
43.314767532
 20
38.688772533
 10
41.9843952772
 20
37.4429896915
 10
41.6962925414
 20
37.3603246635
  0
LINE
  5
245
100
AcDbEntity
  8
0
100
AcDbLine
 62
7
  6
CONTINUOUS
 10
11.4182353587
 20
55.5438556068
 11
13.5665036182
 21
54.6939821056
  0
LINE
  5
246
100
AcDbEntity
  8
0
100
AcDbLine
 62
7
  6
CONTINUOUS
 10
36.7587082387
 20
29.8070259506
 11
29.8851729044
 21
25.8386121633
  0
LINE
  5
247
100
AcDbEntity
  8
0
100
AcDbLine
 62
7
  6
CONTINUOUS
 10
27.5443926576
 20
24.7092858047
 11
27.5446017803
 21
24.709405089
  0
LINE
  5
248
100
AcDbEntity
  8
0
100
AcDbLine
 62
7
  6
CONTINUOUS
 10
34.4370653135
 20
26.9429265485
 11
25.7977113894
 21
22.0138565887
  0
LWPOLYLINE
  5
249
100
AcDbEntity
  8
0
100
AcDbPolyline
 62
7
  6
CONTINUOUS
 90
3
 70
0
 10
27.5448415579
 20
24.7092775442
 10
27.7151747439
 20
24.8013776323
 10
28.1154170041
 20
24.9830715493
  0
LINE
  5
24A
100
AcDbEntity
  8
0
100
AcDbLine
 62
7
  6
CONTINUOUS
 10
28.115425025
 20
24.983074757
 11
29.8848405053
 21
25.8384186826
  0
LINE
  5
24B
100
AcDbEntity
  8
0
100
AcDbLine
 62
7
  6
CONTINUOUS
 10
12.6569923696
 20
47.8627813672
 11
12.2693108527
 21
47.7565502106
  0
LINE
  5
24C
100
AcDbEntity
  8
0
100
AcDbLine
 62
7
  6
CONTINUOUS
 10
12.1986004689
 20
47.7157257952
 11
11.6747186632
 21
47.6161678055
  0
LWPOLYLINE
  5
24D
100
AcDbEntity
  8
0
100
AcDbPolyline
 62
7
  6
CONTINUOUS
 90
4
 70
0
 10
36.4560273568
 20
50.6592929069
 10
37.405046978
 20
49.4955532707
 10
38.8254342926
 20
47.055869862
 10
39.8252100954
 20
44.4835406487
  0
LINE
  5
24E
100
AcDbEntity
  8
0
100
AcDbLine
 62
7
  6
CONTINUOUS
 10
47.3770790768
 20
47.5863361773
 11
47.3770790768
 21
42.2465720569
  0
LINE
  5
24F
100
AcDbEntity
  8
0
100
AcDbLine
 62
7
  6
CONTINUOUS
 10
34.4370653135
 20
21.1722920189
 11
18.4544273378
 21
12.8866361999
  0
LINE
  5
250
100
AcDbEntity
  8
0
100
AcDbLine
 62
7
  6
CONTINUOUS
 10
18.2263152003
 20
12.4176319372
 11
34.21680257
 21
20.7073570086
  0
LINE
  5
251
100
AcDbEntity
  8
0
100
AcDbLine
 62
7
  6
CONTINUOUS
 10
49.1448386698
 20
49.8641985967
 11
49.1448386698
 21
48.6069465619
  0
LINE
  5
252
100
AcDbEntity
  8
0
100
AcDbLine
 62
7
  6
CONTINUOUS
 10
44.9844256941
 20
57.0102005397
 11
39.4459010327
 21
60.2077969046
  0
ARC
  5
253
100
AcDbEntity
  8
0
100
AcDbCircle
 62
7
  6
CONTINUOUS
 10
66.56744895
 20
34.5439620059
 40
30.0537210018
100
AcDbArc
 50
159.9805200059
 51
160.9212679222
  0
ARC
  5
254
100
AcDbEntity
  8
0
100
AcDbCircle
 62
7
  6
CONTINUOUS
 10
43.5334770604
 20
80.0236986253
 40
29.466602449
100
AcDbArc
 50
256.158936134
 51
257.9907139466
  0
ARC
  5
255
100
AcDbEntity
  8
0
100
AcDbCircle
 62
7
  6
CONTINUOUS
 10
29.9073969808
 20
36.6296169509
 40
21.7086138222
100
AcDbArc
 50
76.1300701658
 51
77.1960157536
  0
ARC
  5
256
100
AcDbEntity
  8
0
100
AcDbCircle
 62
7
  6
CONTINUOUS
 10
14.8728073256
 20
49.587141707
 40
7.7300419856
100
AcDbArc
 50
180.0021243209
 51
181.2383753875
  0
ARC
  5
257
100
AcDbEntity
  8
0
100
AcDbCircle
 62
7
  6
CONTINUOUS
 10
13.513433418
 20
44.6787022773
 40
1.0649553288
100
AcDbArc
 50
263.9227285884
 51
268.3657160568
  0
ARC
  5
258
100
AcDbEntity
  8
0
100
AcDbCircle
 62
7
  6
CONTINUOUS
 10
17.7660697421
 20
13.305423646
 40
1.0
100
AcDbArc
 50
240.0005612632
 51
297.4029476005
  0
ARC
  5
259
100
AcDbEntity
  8
0
100
AcDbCircle
 62
7
  6
CONTINUOUS
 10
9.3888461704
 20
18.1419065143
 40
1.0
100
AcDbArc
 50
180.0
 51
240.0171956092
  0
ARC
  5
25A
100
AcDbEntity
  8
0
100
AcDbCircle
 62
7
  6
CONTINUOUS
 10
12.1292893104
 20
46.9947734795
 40
0.7656210827
100
AcDbArc
 50
124.9088055463
 51
131.1122605
  0
ARC
  5
25B
100
AcDbEntity
  8
0
100
AcDbCircle
 62
7
  6
CONTINUOUS
 10
9.6176464394
 20
18.3556654845
 40
0.5
100
AcDbArc
 50
180.0
 51
240.0005612632
  0
ARC
  5
25C
100
AcDbEntity
  8
0
100
AcDbCircle
 62
7
  6
CONTINUOUS
 10
16.8301656359
 20
14.1916097884
 40
0.5
100
AcDbArc
 50
240.0005612648
 51
258.3938612209
  0
ARC
  5
25D
100
AcDbEntity
  8
0
100
AcDbCircle
 62
7
  6
CONTINUOUS
 10
9.6176464394
 20
39.9929795384
 40
0.5
100
AcDbArc
 50
150.0104078469
 51
179.9999999981
  0
SPLINE
  5
25E
100
AcDbEntity
  8
0
100
AcDbSpline
 62
7
  6
CONTINUOUS
 70
0
 71
3
 72
11
 73
7
 74
0
 42
0.0000001
 43
0.0000001
 44
0.0000000001
 40
0.0
 40
0.0
 40
0.0
 40
0.0
 40
0.2177850417
 40
0.4509143608
 40
0.710298685
 40
1.0
 40
1.0
 40
1.0
 40
1.0
 10
16.5801698776
 20
13.7585946375
 30
0.0
 10
16.5636762688
 20
13.7681170083
 30
0.0
 10
16.5328175575
 20
13.7940601447
 30
0.0
 10
16.4999659568
 20
13.8477762774
 30
0.0
 10
16.4804540672
 20
13.9139735735
 30
0.0
 10
16.4766137173
 20
13.9621536403
 30
0.0
 10
16.4766137173
 20
13.9874877114
 30
0.0
  0
SPLINE
  5
25F
100
AcDbEntity
  8
0
100
AcDbSpline
 62
7
  6
CONTINUOUS
 70
0
 71
3
 72
9
 73
5
 74
0
 42
0.0000001
 43
0.0000001
 44
0.0000000001
 40
0.0
 40
0.0
 40
0.0
 40
0.0
 40
0.4909249382
 40
1.0
 40
1.0
 40
1.0
 40
1.0
 10
9.1176464394
 20
18.3556654845
 30
0.0
 10
9.1176464387
 20
18.3421959623
 30
0.0
 10
9.1210498772
 20
18.3146659015
 30
0.0
 10
9.1307507528
 20
18.2887316156
 30
0.0
 10
9.1369551685
 20
18.2762177634
 30
0.0
  0
SPLINE
  5
260
100
AcDbEntity
  8
0
100
AcDbSpline
 62
7
  6
CONTINUOUS
 70
0
 71
3
 72
10
 73
6
 74
0
 42
0.0000001
 43
0.0000001
 44
0.0000000001
 40
0.0
 40
0.0
 40
0.0
 40
0.0
 40
0.4635488007
 40
0.7226743462
 40
1.0
 40
1.0
 40
1.0
 40
1.0
 10
9.1369551685
 20
18.2762177634
 30
0.0
 10
9.1493196124
 20
18.2512795854
 30
0.0
 10
9.1766245575
 20
18.2162020858
 30
0.0
 10
9.2225860981
 20
18.1775044642
 30
0.0
 10
9.2496726935
 20
18.159869665
 30
0.0
 10
9.2640945208
 20
18.1515434075
 30
0.0
  0
SPLINE
  5
261
100
AcDbEntity
  8
0
100
AcDbSpline
 62
7
  6
CONTINUOUS
 70
0
 71
3
 72
11
 73
7
 74
0
 42
0.0000001
 43
0.0000001
 44
0.0000000001
 40
0.0
 40
0.0
 40
0.0
 40
0.0
 40
0.2660580495
 40
0.5253103501
 40
0.7717553948
 40
1.0
 40
1.0
 40
1.0
 40
1.0
 10
9.3676489661
 20
40.1373232052
 30
0.0
 10
9.351364453
 20
40.1091176696
 30
0.0
 10
9.3223152095
 20
40.0515675168
 30
0.0
 10
9.2896157664
 20
39.962700621
 30
0.0
 10
9.2692237807
 20
39.8749581955
 30
0.0
 10
9.2640945208
 20
39.8167975708
 30
0.0
 10
9.2640945208
 20
39.7888574615
 30
0.0
  0
SPLINE
  5
262
100
AcDbEntity
  8
0
100
AcDbSpline
 62
7
  6
CONTINUOUS
 70
0
 71
3
 72
10
 73
6
 74
0
 42
0.0000001
 43
0.0000001
 44
0.0000000001
 40
0.0
 40
0.0
 40
0.0
 40
0.0
 40
0.229989014
 40
0.4758590147
 40
1.0
 40
1.0
 40
1.0
 40
1.0
 10
16.4766137173
 20
13.9874877114
 30
0.0
 10
16.496175899
 20
13.976193736
 30
0.0
 10
16.5383628328
 20
13.9557111531
 30
0.0
 10
16.6312874019
 20
13.923473158
 30
0.0
 10
16.7064413552
 20
13.9103230919
 30
0.0
 10
16.7577369304
 20
13.9059881227
 30
0.0
  0
SPLINE
  5
263
100
AcDbEntity
  8
0
100
AcDbSpline
 62
7
  6
CONTINUOUS
 70
0
 71
3
 72
11
 73
7
 74
0
 42
0.0000001
 43
0.0000001
 44
0.0000000001
 40
0.0
 40
0.0
 40
0.0
 40
0.0
 40
0.2897023113
 40
0.5490868678
 40
0.7822157677
 40
1.0
 40
1.0
 40
1.0
 40
1.0
 10
9.2640945208
 20
39.7888574615
 30
0.0
 10
9.2421549042
 20
39.8015240185
 30
0.0
 10
9.2023505024
 20
39.8289388558
 30
0.0
 10
9.1547784048
 20
39.8789335502
 30
0.0
 10
9.1246847455
 20
39.9342401437
 30
0.0
 10
9.1176464385
 20
39.9739350014
 30
0.0
 10
9.1176464394
 20
39.9929795384
 30
0.0
  0
SPLINE
  5
264
100
AcDbEntity
  8
0
100
AcDbSpline
 62
7
  6
CONTINUOUS
 70
0
 71
3
 72
10
 73
6
 74
0
 42
0.0000001
 43
0.0000001
 44
0.0000000001
 40
0.0
 40
0.0
 40
0.0
 40
0.0
 40
0.5241409853
 40
0.770010986
 40
1.0
 40
1.0
 40
1.0
 40
1.0
 10
16.7577369304
 20
35.5433021767
 30
0.0
 10
16.7064413552
 20
35.5476371458
 30
0.0
 10
16.6312874019
 20
35.560787212
 30
0.0
 10
16.5383628328
 20
35.593025207
 30
0.0
 10
16.496175899
 20
35.61350779
 30
0.0
 10
16.4766137173
 20
35.6248017654
 30
0.0
  0
SPLINE
  5
265
100
AcDbEntity
  8
0
100
AcDbSpline
 62
7
  6
CONTINUOUS
 70
0
 71
3
 72
11
 73
7
 74
0
 42
0.0000001
 43
0.0000001
 44
0.0000000001
 40
0.0
 40
0.0
 40
0.0
 40
0.0
 40
0.2282446052
 40
0.4746896499
 40
0.7339419505
 40
1.0
 40
1.0
 40
1.0
 40
1.0
 10
16.4766137173
 20
35.6248017654
 30
0.0
 10
16.4766137173
 20
35.6527418747
 30
0.0
 10
16.4817429772
 20
35.7109024993
 30
0.0
 10
16.5021349629
 20
35.7986449249
 30
0.0
 10
16.534834406
 20
35.8875118207
 30
0.0
 10
16.5638836495
 20
35.9450619735
 30
0.0
 10
16.5801681626
 20
35.9732675091
 30
0.0
  0
SPLINE
  5
266
100
AcDbEntity
  8
0
100
AcDbSpline
 62
7
  6
CONTINUOUS
 70
0
 71
3
 72
10
 73
6
 74
0
 42
0.0000001
 43
0.0000001
 44
0.0000000001
 40
0.0
 40
0.0
 40
0.0
 40
0.0
 40
0.2774625543
 40
0.5366231819
 40
1.0
 40
1.0
 40
1.0
 40
1.0
 10
9.2640945208
 20
18.1515434075
 30
0.0
 10
9.2640945208
 20
18.1348140105
 30
0.0
 10
9.265839407
 20
18.1023953507
 30
0.0
 10
9.2764683098
 20
18.0430093531
 30
0.0
 10
9.2933546962
 20
18.001686135
 30
0.0
 10
9.3089116046
 20
17.9784790672
 30
0.0
  0
SPLINE
  5
267
100
AcDbEntity
  8
0
100
AcDbSpline
 62
7
  6
CONTINUOUS
 70
0
 71
3
 72
9
 73
5
 74
0
 42
0.0000001
 43
0.0000001
 44
0.0000000001
 40
0.0
 40
0.0
 40
0.0
 40
0.0
 40
0.5089286278
 40
1.0
 40
1.0
 40
1.0
 40
1.0
 10
9.3089116046
 20
17.9784790672
 30
0.0
 10
9.3166171824
 20
17.966984247
 30
0.0
 10
9.3341305689
 20
17.945862667
 30
0.0
 10
9.3560865506
 20
17.9293267342
 30
0.0
 10
9.3676506811
 20
17.9226503336
 30
0.0
  0
SPLINE
  5
268
100
AcDbEntity
  8
0
100
AcDbSpline
 62
7
  6
CONTINUOUS
 70
0
 71
3
 72
11
 73
7
 74
0
 42
0.0000001
 43
0.0000001
 44
0.0000000001
 40
0.0
 40
0.0
 40
0.0
 40
0.0
 40
0.2392266247
 40
0.4829851671
 40
0.7354748871
 40
1.0
 40
1.0
 40
1.0
 40
1.0
 10
45.7473780859
 20
40.3659599387
 30
0.0
 10
45.9219284912
 20
40.4667398428
 30
0.0
 10
46.2574646641
 20
40.701068161
 30
0.0
 10
46.7005616186
 20
41.1380768227
 30
0.0
 10
47.0811705644
 20
41.6568558211
 30
0.0
 10
47.2856756936
 20
42.0433078688
 30
0.0
 10
47.3770790768
 20
42.2465720569
 30
0.0
  0
SPLINE
  5
269
100
AcDbEntity
  8
0
100
AcDbSpline
 62
7
  6
CONTINUOUS
 70
0
 71
3
 72
15
 73
11
 74
0
 42
0.0000001
 43
0.0000001
 44
0.0000000001
 40
0.0
 40
0.0
 40
0.0
 40
0.0
 40
0.1222642548
 40
0.24697795
 40
0.3732958769
 40
0.5004164349
 40
0.6274835744
 40
0.7536423647
 40
0.8780943634
 40
1.0
 40
1.0
 40
1.0
 40
1.0
 10
49.1448386698
 20
49.8641985967
 30
0.0
 10
49.0483236211
 20
50.1902736393
 30
0.0
 10
48.8319520844
 20
50.8427986462
 30
0.0
 10
48.4454382125
 20
51.8070707894
 30
0.0
 10
47.9968171344
 20
52.7590392691
 30
0.0
 10
47.4906636367
 20
53.6891391772
 30
0.0
 10
46.9319490732
 20
54.5881272267
 30
0.0
 10
46.3262547678
 20
55.4471206577
 30
0.0
 10
45.6796330834
 20
56.2574303154
 30
0.0
 10
45.2198503471
 20
56.7661965673
 30
0.0
 10
44.9844256941
 20
57.0102005397
 30
0.0
  0
SPLINE
  5
26A
100
AcDbEntity
  8
0
100
AcDbSpline
 62
7
  6
CONTINUOUS
 70
0
 71
3
 72
11
 73
7
 74
0
 42
0.0000001
 43
0.0000001
 44
0.0000000001
 40
0.0
 40
0.0
 40
0.0
 40
0.0
 40
0.2653239044
 40
0.5179678748
 40
0.7613869408
 40
1.0
 40
1.0
 40
1.0
 40
1.0
 10
39.4459010327
 20
60.2077969046
 30
0.0
 10
39.2162201039
 20
60.234952661
 30
0.0
 10
38.7635828801
 20
60.258748805
 30
0.0
 10
38.1003519349
 20
60.1942121225
 30
0.0
 10
37.4787407941
 20
60.0283849174
 30
0.0
 10
37.0953183785
 20
59.8503305033
 30
0.0
 10
36.9151890478
 20
59.7463295035
 30
0.0
  0
SPLINE
  5
26B
100
AcDbEntity
  8
0
100
AcDbSpline
 62
7
  6
CONTINUOUS
 70
0
 71
3
 72
9
 73
5
 74
0
 42
0.0000001
 43
0.0000001
 44
0.0000000001
 40
0.0
 40
0.0
 40
0.0
 40
0.0
 40
0.4972261532
 40
1.0
 40
1.0
 40
1.0
 40
1.0
 10
43.8132757372
 20
40.1890215213
 30
0.0
 10
43.738744808
 20
39.937791269
 30
0.0
 10
43.579637632
 20
39.4352335299
 30
0.0
 10
43.405459513
 20
38.9377451964
 30
0.0
 10
43.314767532
 20
38.688772533
 30
0.0
  0
SPLINE
  5
26C
100
AcDbEntity
  8
0
100
AcDbSpline
 62
7
  6
CONTINUOUS
 70
0
 71
3
 72
9
 73
5
 74
0
 42
0.0000001
 43
0.0000001
 44
0.0000000001
 40
0.0
 40
0.0
 40
0.0
 40
0.0
 40
0.4967516514
 40
1.0
 40
1.0
 40
1.0
 40
1.0
 10
42.8162593268
 20
39.6133972644
 30
0.0
 10
42.7432259591
 20
39.3312284131
 30
0.0
 10
42.5853037705
 20
38.7659892734
 30
0.0
 10
42.4097256322
 20
38.2060424194
 30
0.0
 10
42.3177511215
 20
37.9254529526
 30
0.0
  0
SPLINE
  5
26D
100
AcDbEntity
  8
0
100
AcDbSpline
 62
7
  6
CONTINUOUS
 70
0
 71
3
 72
9
 73
5
 74
0
 42
0.0000001
 43
0.0000001
 44
0.0000000001
 40
0.0
 40
0.0
 40
0.0
 40
0.0
 40
0.4967516514
 40
1.0
 40
1.0
 40
1.0
 40
1.0
 10
41.8192429163
 20
39.0377730074
 30
0.0
 10
41.7462095486
 20
38.7556041561
 30
0.0
 10
41.58828736
 20
38.1903650165
 30
0.0
 10
41.4127092217
 20
37.6304181625
 30
0.0
 10
41.3207347111
 20
37.3498286956
 30
0.0
  0
SPLINE
  5
26E
100
AcDbEntity
  8
0
100
AcDbSpline
 62
7
  6
CONTINUOUS
 70
0
 71
3
 72
9
 73
5
 74
0
 42
0.0000001
 43
0.0000001
 44
0.0000000001
 40
0.0
 40
0.0
 40
0.0
 40
0.0
 40
0.4967516514
 40
1.0
 40
1.0
 40
1.0
 40
1.0
 10
40.8222265058
 20
38.4621487505
 30
0.0
 10
40.7491931382
 20
38.1799798992
 30
0.0
 10
40.5912709495
 20
37.6147407595
 30
0.0
 10
40.4156928113
 20
37.0547939055
 30
0.0
 10
40.3237183006
 20
36.7742044387
 30
0.0
  0
SPLINE
  5
26F
100
AcDbEntity
  8
0
100
AcDbSpline
 62
7
  6
CONTINUOUS
 70
0
 71
3
 72
9
 73
5
 74
0
 42
0.0000001
 43
0.0000001
 44
0.0000000001
 40
0.0
 40
0.0
 40
0.0
 40
0.0
 40
0.5027756999
 40
1.0
 40
1.0
 40
1.0
 40
1.0
 10
44.3117839425
 20
39.26439679
 30
0.0
 10
44.4024762576
 20
39.5133703705
 30
0.0
 10
44.5766541153
 20
40.0108587928
 30
0.0
 10
44.7357614965
 20
40.5134164629
 30
0.0
 10
44.8102921477
 20
40.7646457783
 30
0.0
  0
SPLINE
  5
270
100
AcDbEntity
  8
0
100
AcDbSpline
 62
7
  6
CONTINUOUS
 70
0
 71
3
 72
11
 73
7
 74
0
 42
0.0000001
 43
0.0000001
 44
0.0000000001
 40
0.0
 40
0.0
 40
0.0
 40
0.0
 40
0.2567452451
 40
0.5067736953
 40
0.7533066376
 40
1.0
 40
1.0
 40
1.0
 40
1.0
 10
42.3177511215
 20
37.9254529526
 30
0.0
 10
42.2030570489
 20
37.7661304109
 30
0.0
 10
41.9557754138
 20
37.4659603705
 30
0.0
 10
41.5289573248
 20
37.0762566771
 30
0.0
 10
41.0556739347
 20
36.7579728094
 30
0.0
 10
40.7132908361
 20
36.5959866078
 30
0.0
 10
40.5373448218
 20
36.5279952406
 30
0.0
  0
SPLINE
  5
271
100
AcDbEntity
  8
0
100
AcDbSpline
 62
7
  6
CONTINUOUS
 70
0
 71
3
 72
11
 73
7
 74
0
 42
0.0000001
 43
0.0000001
 44
0.0000000001
 40
0.0
 40
0.0
 40
0.0
 40
0.0
 40
0.2567966587
 40
0.5075136799
 40
0.75437879
 40
1.0
 40
1.0
 40
1.0
 40
1.0
 10
41.3207347111
 20
37.3498286956
 30
0.0
 10
41.2225601305
 20
37.2134535252
 30
0.0
 10
41.0132595734
 20
36.9544845726
 30
0.0
 10
40.6584527419
 20
36.6095532129
 30
0.0
 10
40.2691995569
 20
36.3159383636
 30
0.0
 10
39.9884251854
 20
36.1556762079
 30
0.0
 10
39.8440599649
 20
36.085029406
 30
0.0
  0
SPLINE
  5
272
100
AcDbEntity
  8
0
100
AcDbSpline
 62
7
  6
CONTINUOUS
 70
0
 71
3
 72
9
 73
5
 74
0
 42
0.0000001
 43
0.0000001
 44
0.0000000001
 40
0.0
 40
0.0
 40
0.0
 40
0.0
 40
0.2534028327
 40
1.0
 40
1.0
 40
1.0
 40
1.0
 10
40.3237183006
 20
36.7742044387
 30
0.0
 10
40.2915761336
 20
36.7295554727
 30
0.0
 10
40.1615350194
 20
36.5556899838
 30
0.0
 10
40.0185445423
 20
36.3914540524
 30
0.0
 10
39.9050105937
 20
36.2757683904
 30
0.0
  0
SPLINE
  5
273
100
AcDbEntity
  8
0
100
AcDbSpline
 62
7
  6
CONTINUOUS
 70
0
 71
3
 72
15
 73
11
 74
0
 42
0.0000001
 43
0.0000001
 44
0.0000000001
 40
0.0
 40
0.0
 40
0.0
 40
0.0
 40
0.121905636
 40
0.2463576258
 40
0.3725164145
 40
0.4995835634
 40
0.6267041312
 40
0.7530220575
 40
0.8777357452
 40
1.0
 40
1.0
 40
1.0
 40
1.0
 10
38.655846351
 20
53.3564153626
 30
0.0
 10
38.8912710177
 20
53.1124113761
 30
0.0
 10
39.3510540235
 20
52.6036453615
 30
0.0
 10
39.9976763955
 20
51.7933362079
 30
0.0
 10
40.6033713028
 20
50.934343117
 30
0.0
 10
41.1620861521
 20
50.0353550981
 30
0.0
 10
41.6682394832
 20
49.1052549536
 30
0.0
 10
42.1168599724
 20
48.1532861115
 30
0.0
 10
42.5033730715
 20
47.1890136118
 30
0.0
 10
42.719744272
 20
46.5364884827
 30
0.0
 10
42.8162593268
 20
46.2104134196
 30
0.0
  0
SPLINE
  5
274
100
AcDbEntity
  8
0
100
AcDbSpline
 62
7
  6
CONTINUOUS
 70
0
 71
3
 72
9
 73
5
 74
0
 42
0.0000001
 43
0.0000001
 44
0.0000000001
 40
0.0
 40
0.0
 40
0.0
 40
0.0
 40
0.5032505085
 40
1.0
 40
1.0
 40
1.0
 40
1.0
 10
42.3177511215
 20
47.3227334744
 30
0.0
 10
42.2257762163
 20
47.0421428039
 30
0.0
 10
42.0501983329
 20
46.4821958721
 30
0.0
 10
41.8922759663
 20
45.9169567865
 30
0.0
 10
41.8192429163
 20
45.6347891626
 30
0.0
  0
SPLINE
  5
275
100
AcDbEntity
  8
0
100
AcDbSpline
 62
7
  6
CONTINUOUS
 70
0
 71
3
 72
11
 73
7
 74
0
 42
0.0000001
 43
0.0000001
 44
0.0000000001
 40
0.0
 40
0.0
 40
0.0
 40
0.0
 40
0.2484634833
 40
0.4998113664
 40
0.7512543672
 40
1.0
 40
1.0
 40
1.0
 40
1.0
 10
39.3963874676
 20
52.353253958
 30
0.0
 10
39.6996276248
 20
51.9766724964
 30
0.0
 10
40.2800141323
 20
51.1948143498
 30
0.0
 10
41.0613310804
 20
49.9576795046
 30
0.0
 10
41.7488456759
 20
48.6654384878
 30
0.0
 10
42.1406582452
 20
47.7732193549
 30
0.0
 10
42.3177511215
 20
47.3227334744
 30
0.0
  0
SPLINE
  5
276
100
AcDbEntity
  8
0
100
AcDbSpline
 62
7
  6
CONTINUOUS
 70
0
 71
3
 72
9
 73
5
 74
0
 42
0.0000001
 43
0.0000001
 44
0.0000000001
 40
0.0
 40
0.0
 40
0.0
 40
0.0
 40
0.4965586723
 40
1.0
 40
1.0
 40
1.0
 40
1.0
 10
37.6588299405
 20
52.7807911056
 30
0.0
 10
37.9437835021
 20
52.6998790755
 30
0.0
 10
38.5209416694
 20
52.5484337409
 30
0.0
 10
39.1026886779
 20
52.4159882488
 30
0.0
 10
39.3963874676
 20
52.353253958
 30
0.0
  0
SPLINE
  5
277
100
AcDbEntity
  8
0
100
AcDbSpline
 62
7
  6
CONTINUOUS
 70
0
 71
3
 72
15
 73
11
 74
0
 42
0.0000001
 43
0.0000001
 44
0.0000000001
 40
0.0
 40
0.0
 40
0.0
 40
0.0
 40
0.121905636
 40
0.2463576258
 40
0.3725164145
 40
0.4995835634
 40
0.6267041312
 40
0.7530220575
 40
0.8777357452
 40
1.0
 40
1.0
 40
1.0
 40
1.0
 10
37.6588299405
 20
52.7807911056
 30
0.0
 10
37.8942546072
 20
52.5367871191
 30
0.0
 10
38.354037613
 20
52.0280211046
 30
0.0
 10
39.0006599851
 20
51.217711951
 30
0.0
 10
39.6063548923
 20
50.35871886
 30
0.0
 10
40.1650697416
 20
49.4597308411
 30
0.0
 10
40.6712230727
 20
48.5296306967
 30
0.0
 10
41.119843562
 20
47.5776618546
 30
0.0
 10
41.506356661
 20
46.6133893548
 30
0.0
 10
41.7227278615
 20
45.9608642258
 30
0.0
 10
41.8192429163
 20
45.6347891626
 30
0.0
  0
SPLINE
  5
278
100
AcDbEntity
  8
0
100
AcDbSpline
 62
7
  6
CONTINUOUS
 70
0
 71
3
 72
9
 73
5
 74
0
 42
0.0000001
 43
0.0000001
 44
0.0000000001
 40
0.0
 40
0.0
 40
0.0
 40
0.0
 40
0.5032505085
 40
1.0
 40
1.0
 40
1.0
 40
1.0
 10
41.3207347111
 20
46.7471092175
 30
0.0
 10
41.2287598059
 20
46.4665185469
 30
0.0
 10
41.0531819224
 20
45.9065716152
 30
0.0
 10
40.8952595558
 20
45.3413325295
 30
0.0
 10
40.8222265058
 20
45.0591649057
 30
0.0
  0
SPLINE
  5
279
100
AcDbEntity
  8
0
100
AcDbSpline
 62
7
  6
CONTINUOUS
 70
0
 71
3
 72
11
 73
7
 74
0
 42
0.0000001
 43
0.0000001
 44
0.0000000001
 40
0.0
 40
0.0
 40
0.0
 40
0.0
 40
0.2484634833
 40
0.4998113664
 40
0.7512543672
 40
1.0
 40
1.0
 40
1.0
 40
1.0
 10
38.3993710571
 20
51.777629701
 30
0.0
 10
38.7026112144
 20
51.4010482395
 30
0.0
 10
39.2829977218
 20
50.6191900929
 30
0.0
 10
40.0643146699
 20
49.3820552476
 30
0.0
 10
40.7518292654
 20
48.0898142308
 30
0.0
 10
41.1436418348
 20
47.1975950979
 30
0.0
 10
41.3207347111
 20
46.7471092175
 30
0.0
  0
SPLINE
  5
27A
100
AcDbEntity
  8
0
100
AcDbSpline
 62
7
  6
CONTINUOUS
 70
0
 71
3
 72
9
 73
5
 74
0
 42
0.0000001
 43
0.0000001
 44
0.0000000001
 40
0.0
 40
0.0
 40
0.0
 40
0.0
 40
0.4965586723
 40
1.0
 40
1.0
 40
1.0
 40
1.0
 10
36.6618135301
 20
52.2051668487
 30
0.0
 10
36.9467670916
 20
52.1242548186
 30
0.0
 10
37.523925259
 20
51.972809484
 30
0.0
 10
38.1056722675
 20
51.8403639918
 30
0.0
 10
38.3993710571
 20
51.777629701
 30
0.0
  0
SPLINE
  5
27B
100
AcDbEntity
  8
0
100
AcDbSpline
 62
7
  6
CONTINUOUS
 70
0
 71
3
 72
15
 73
11
 74
0
 42
0.0000001
 43
0.0000001
 44
0.0000000001
 40
0.0
 40
0.0
 40
0.0
 40
0.0
 40
0.121905636
 40
0.2463576258
 40
0.3725164145
 40
0.4995835634
 40
0.6267041312
 40
0.7530220575
 40
0.8777357452
 40
1.0
 40
1.0
 40
1.0
 40
1.0
 10
36.6618135301
 20
52.2051668487
 30
0.0
 10
36.8972381967
 20
51.9611628622
 30
0.0
 10
37.3570212026
 20
51.4523968476
 30
0.0
 10
38.0036435746
 20
50.642087694
 30
0.0
 10
38.6093384818
 20
49.7830946031
 30
0.0
 10
39.1680533311
 20
48.8841065842
 30
0.0
 10
39.6742066623
 20
47.9540064397
 30
0.0
 10
40.1228271515
 20
47.0020375976
 30
0.0
 10
40.5093402505
 20
46.0377650979
 30
0.0
 10
40.725711451
 20
45.3852399688
 30
0.0
 10
40.8222265058
 20
45.0591649057
 30
0.0
  0
SPLINE
  5
27C
100
AcDbEntity
  8
0
100
AcDbSpline
 62
7
  6
CONTINUOUS
 70
0
 71
3
 72
9
 73
5
 74
0
 42
0.0000001
 43
0.0000001
 44
0.0000000001
 40
0.0
 40
0.0
 40
0.0
 40
0.0
 40
0.5032505085
 40
1.0
 40
1.0
 40
1.0
 40
1.0
 10
40.3237183006
 20
46.1714849605
 30
0.0
 10
40.2317433954
 20
45.89089429
 30
0.0
 10
40.056165512
 20
45.3309473582
 30
0.0
 10
39.8982431453
 20
44.7657082725
 30
0.0
 10
39.8252100954
 20
44.4835406487
 30
0.0
  0
SPLINE
  5
27D
100
AcDbEntity
  8
0
100
AcDbSpline
 62
7
  6
CONTINUOUS
 70
0
 71
3
 72
11
 73
7
 74
0
 42
0.0000001
 43
0.0000001
 44
0.0000000001
 40
0.0
 40
0.0
 40
0.0
 40
0.0
 40
0.2484634833
 40
0.4998113664
 40
0.7512543672
 40
1.0
 40
1.0
 40
1.0
 40
1.0
 10
37.4023546466
 20
51.2020054441
 30
0.0
 10
37.7055948039
 20
50.8254239825
 30
0.0
 10
38.2859813113
 20
50.0435658359
 30
0.0
 10
39.0672982595
 20
48.8064309907
 30
0.0
 10
39.7548128549
 20
47.5141899739
 30
0.0
 10
40.1466254243
 20
46.621970841
 30
0.0
 10
40.3237183006
 20
46.1714849605
 30
0.0
  0
SPLINE
  5
27E
100
AcDbEntity
  8
0
100
AcDbSpline
 62
7
  6
CONTINUOUS
 70
0
 71
3
 72
9
 73
5
 74
0
 42
0.0000001
 43
0.0000001
 44
0.0000000001
 40
0.0
 40
0.0
 40
0.0
 40
0.0
 40
0.5032505085
 40
1.0
 40
1.0
 40
1.0
 40
1.0
 10
39.3267018901
 20
45.5958607035
 30
0.0
 10
39.2347269849
 20
45.315270033
 30
0.0
 10
39.0591491015
 20
44.7553231013
 30
0.0
 10
38.9012267349
 20
44.1900840156
 30
0.0
 10
38.8281936849
 20
43.9079163917
 30
0.0
  0
SPLINE
  5
27F
100
AcDbEntity
  8
0
100
AcDbSpline
 62
7
  6
CONTINUOUS
 70
0
 71
3
 72
11
 73
7
 74
0
 42
0.0000001
 43
0.0000001
 44
0.0000000001
 40
0.0
 40
0.0
 40
0.0
 40
0.0
 40
0.2486090941
 40
0.4999532518
 40
0.751326222
 40
1.0
 40
1.0
 40
1.0
 40
1.0
 10
36.4498983623
 20
50.5708233436
 30
0.0
 10
36.7481708174
 20
50.1974545498
 30
0.0
 10
37.3190891242
 20
49.4230564791
 30
0.0
 10
38.0881180875
 20
48.1991368382
 30
0.0
 10
38.7653315689
 20
46.9219821162
 30
0.0
 10
39.151818455
 20
46.0407262447
 30
0.0
 10
39.3267018901
 20
45.5958607035
 30
0.0
  0
SPLINE
  5
280
100
AcDbEntity
  8
0
100
AcDbSpline
 62
7
  6
CONTINUOUS
 70
0
 71
3
 72
11
 73
7
 74
0
 42
0.0000001
 43
0.0000001
 44
0.0000000001
 40
0.0
 40
0.0
 40
0.0
 40
0.0
 40
0.2528716969
 40
0.5057419341
 40
0.7557176931
 40
1.0
 40
1.0
 40
1.0
 40
1.0
 10
36.457965651
 20
48.8472885426
 30
0.0
 10
36.7196105402
 20
48.4646725294
 30
0.0
 10
37.2136967799
 20
47.679027468
 30
0.0
 10
37.8611250921
 20
46.4529258811
 30
0.0
 10
38.406838013
 20
45.1954098868
 30
0.0
 10
38.7011060228
 20
44.3372806762
 30
0.0
 10
38.8281936849
 20
43.9079163917
 30
0.0
  0
SPLINE
  5
281
100
AcDbEntity
  8
0
100
AcDbSpline
 62
7
  6
CONTINUOUS
 70
0
 71
3
 72
9
 73
5
 74
0
 42
0.0000001
 43
0.0000001
 44
0.0000000001
 40
0.0
 40
0.0
 40
0.0
 40
0.0
 40
0.5029630981
 40
1.0
 40
1.0
 40
1.0
 40
1.0
 10
41.2253004068
 20
53.5998323234
 30
0.0
 10
40.9600984341
 20
53.6476545284
 30
0.0
 10
40.4340325402
 20
53.7496397459
 30
0.0
 10
39.9113969846
 20
53.8681811107
 30
0.0
 10
39.6528627615
 20
53.9320396195
 30
0.0
  0
SPLINE
  5
282
100
AcDbEntity
  8
0
100
AcDbSpline
 62
7
  6
CONTINUOUS
 70
0
 71
3
 72
9
 73
5
 74
0
 42
0.0000001
 43
0.0000001
 44
0.0000000001
 40
0.0
 40
0.0
 40
0.0
 40
0.0
 40
0.5066045054
 40
1.0
 40
1.0
 40
1.0
 40
1.0
 10
39.6528627615
 20
53.9320396195
 30
0.0
 10
39.7609964216
 20
53.7861190559
 30
0.0
 10
39.9633814059
 20
53.4897345574
 30
0.0
 10
40.1441169516
 20
53.1797841566
 30
0.0
 10
40.2282839963
 20
53.0242080665
 30
0.0
  0
SPLINE
  5
283
100
AcDbEntity
  8
0
100
AcDbSpline
 62
7
  6
CONTINUOUS
 70
0
 71
3
 72
9
 73
5
 74
0
 42
0.0000001
 43
0.0000001
 44
0.0000000001
 40
0.0
 40
0.0
 40
0.0
 40
0.0
 40
0.5070633133
 40
1.0
 40
1.0
 40
1.0
 40
1.0
 10
38.655846351
 20
53.3564153626
 30
0.0
 10
38.7925932125
 20
53.1958929953
 30
0.0
 10
39.0506406312
 20
52.8692380987
 30
0.0
 10
39.2857803437
 20
52.5258518469
 30
0.0
 10
39.3963874676
 20
52.353253958
 30
0.0
  0
SPLINE
  5
284
100
AcDbEntity
  8
0
100
AcDbSpline
 62
7
  6
CONTINUOUS
 70
0
 71
3
 72
9
 73
5
 74
0
 42
0.0000001
 43
0.0000001
 44
0.0000000001
 40
0.0
 40
0.0
 40
0.0
 40
0.0
 40
0.5070633133
 40
1.0
 40
1.0
 40
1.0
 40
1.0
 10
37.6588299405
 20
52.7807911056
 30
0.0
 10
37.795576802
 20
52.6202687384
 30
0.0
 10
38.0536242207
 20
52.2936138417
 30
0.0
 10
38.2887639332
 20
51.9502275899
 30
0.0
 10
38.3993710571
 20
51.777629701
 30
0.0
  0
SPLINE
  5
285
100
AcDbEntity
  8
0
100
AcDbSpline
 62
7
  6
CONTINUOUS
 70
0
 71
3
 72
9
 73
5
 74
0
 42
0.0000001
 43
0.0000001
 44
0.0000000001
 40
0.0
 40
0.0
 40
0.0
 40
0.0
 40
0.5070633133
 40
1.0
 40
1.0
 40
1.0
 40
1.0
 10
36.6618135301
 20
52.2051668487
 30
0.0
 10
36.7985603916
 20
52.0446444814
 30
0.0
 10
37.0566078103
 20
51.7179895848
 30
0.0
 10
37.2917475227
 20
51.3746033329
 30
0.0
 10
37.4023546466
 20
51.2020054441
 30
0.0
  0
SPLINE
  5
286
100
AcDbEntity
  8
0
100
AcDbSpline
 62
7
  6
CONTINUOUS
 70
0
 71
3
 72
9
 73
5
 74
0
 42
0.0000001
 43
0.0000001
 44
0.0000000001
 40
0.0
 40
0.0
 40
0.0
 40
0.0
 40
0.5028725264
 40
1.0
 40
1.0
 40
1.0
 40
1.0
 10
36.6337497746
 20
48.218324216
 30
0.0
 10
36.9726920373
 20
47.6807191741
 30
0.0
 10
37.5947485548
 20
46.5780309174
 30
0.0
 10
38.1060687619
 20
45.4196702458
 30
0.0
 10
38.3296854797
 20
44.8325411231
 30
0.0
  0
SPLINE
  5
287
100
AcDbEntity
  8
0
100
AcDbSpline
 62
7
  6
CONTINUOUS
 70
0
 71
3
 72
9
 73
5
 74
0
 42
0.0000001
 43
0.0000001
 44
0.0000000001
 40
0.0
 40
0.0
 40
0.0
 40
0.0
 40
0.4937359194
 40
1.0
 40
1.0
 40
1.0
 40
1.0
 10
44.3117839425
 20
39.26439679
 30
0.0
 10
44.2197126193
 20
39.4108419282
 30
0.0
 10
44.042363793
 20
39.7133056356
 30
0.0
 10
43.8862297152
 20
40.0273463806
 30
0.0
 10
43.8132757372
 20
40.1890215213
 30
0.0
  0
SPLINE
  5
288
100
AcDbEntity
  8
0
100
AcDbSpline
 62
7
  6
CONTINUOUS
 70
0
 71
3
 72
9
 73
5
 74
0
 42
0.0000001
 43
0.0000001
 44
0.0000000001
 40
0.0
 40
0.0
 40
0.0
 40
0.0
 40
0.4937359194
 40
1.0
 40
1.0
 40
1.0
 40
1.0
 10
38.3296854797
 20
44.8325411231
 30
0.0
 10
38.4217568028
 20
44.6860959849
 30
0.0
 10
38.5991056292
 20
44.3836322774
 30
0.0
 10
38.7552397069
 20
44.0695915324
 30
0.0
 10
38.8281936849
 20
43.9079163917
 30
0.0
  0
SPLINE
  5
289
100
AcDbEntity
  8
0
100
AcDbSpline
 62
7
  6
CONTINUOUS
 70
0
 71
3
 72
9
 73
5
 74
0
 42
0.0000001
 43
0.0000001
 44
0.0000000001
 40
0.0
 40
0.0
 40
0.0
 40
0.0
 40
0.4932448785
 40
1.0
 40
1.0
 40
1.0
 40
1.0
 10
39.3267018901
 20
45.5958607035
 30
0.0
 10
39.4202450187
 20
45.418499462
 30
0.0
 10
39.5993012241
 20
45.0532127212
 30
0.0
 10
39.7538659671
 20
44.6768024094
 30
0.0
 10
39.8252100954
 20
44.4835406487
 30
0.0
  0
SPLINE
  5
28A
100
AcDbEntity
  8
0
100
AcDbSpline
 62
7
  6
CONTINUOUS
 70
0
 71
3
 72
9
 73
5
 74
0
 42
0.0000001
 43
0.0000001
 44
0.0000000001
 40
0.0
 40
0.0
 40
0.0
 40
0.0
 40
0.4932448785
 40
1.0
 40
1.0
 40
1.0
 40
1.0
 10
40.3237183006
 20
46.1714849605
 30
0.0
 10
40.4172614292
 20
45.994123719
 30
0.0
 10
40.5963176345
 20
45.6288369782
 30
0.0
 10
40.7508823775
 20
45.2524266664
 30
0.0
 10
40.8222265058
 20
45.0591649057
 30
0.0
  0
SPLINE
  5
28B
100
AcDbEntity
  8
0
100
AcDbSpline
 62
7
  6
CONTINUOUS
 70
0
 71
3
 72
9
 73
5
 74
0
 42
0.0000001
 43
0.0000001
 44
0.0000000001
 40
0.0
 40
0.0
 40
0.0
 40
0.0
 40
0.4932448785
 40
1.0
 40
1.0
 40
1.0
 40
1.0
 10
41.3207347111
 20
46.7471092175
 30
0.0
 10
41.4142778396
 20
46.5697479759
 30
0.0
 10
41.593334045
 20
46.2044612351
 30
0.0
 10
41.747898788
 20
45.8280509233
 30
0.0
 10
41.8192429163
 20
45.6347891626
 30
0.0
  0
SPLINE
  5
28C
100
AcDbEntity
  8
0
100
AcDbSpline
 62
7
  6
CONTINUOUS
 70
0
 71
3
 72
9
 73
5
 74
0
 42
0.0000001
 43
0.0000001
 44
0.0000000001
 40
0.0
 40
0.0
 40
0.0
 40
0.0
 40
0.4932448785
 40
1.0
 40
1.0
 40
1.0
 40
1.0
 10
42.3177511215
 20
47.3227334744
 30
0.0
 10
42.4112942501
 20
47.1453722329
 30
0.0
 10
42.5903504555
 20
46.7800854921
 30
0.0
 10
42.7449151985
 20
46.4036751803
 30
0.0
 10
42.8162593268
 20
46.2104134196
 30
0.0
  0
SPLINE
  5
28D
100
AcDbEntity
  8
0
100
AcDbSpline
 62
7
  6
CONTINUOUS
 70
0
 71
3
 72
9
 73
5
 74
0
 42
0.0000001
 43
0.0000001
 44
0.0000000001
 40
0.0
 40
0.0
 40
0.0
 40
0.0
 40
0.4937359194
 40
1.0
 40
1.0
 40
1.0
 40
1.0
 10
43.314767532
 20
47.7106624079
 30
0.0
 10
43.4068388552
 20
47.5642172697
 30
0.0
 10
43.5841876815
 20
47.2617535622
 30
0.0
 10
43.7403217593
 20
46.9477128172
 30
0.0
 10
43.8132757372
 20
46.7860376765
 30
0.0
  0
SPLINE
  5
28E
100
AcDbEntity
  8
0
100
AcDbSpline
 62
7
  6
CONTINUOUS
 70
0
 71
3
 72
9
 73
5
 74
0
 42
0.0000001
 43
0.0000001
 44
0.0000000001
 40
0.0
 40
0.0
 40
0.0
 40
0.0
 40
0.4972261532
 40
1.0
 40
1.0
 40
1.0
 40
1.0
 10
43.8132757372
 20
46.7860376765
 30
0.0
 10
43.8878066665
 20
47.0372679288
 30
0.0
 10
44.0469138425
 20
47.539825668
 30
0.0
 10
44.2210919614
 20
48.0373140015
 30
0.0
 10
44.3117839425
 20
48.2862866648
 30
0.0
  0
SPLINE
  5
28F
100
AcDbEntity
  8
0
100
AcDbSpline
 62
7
  6
CONTINUOUS
 70
0
 71
3
 72
9
 73
5
 74
0
 42
0.0000001
 43
0.0000001
 44
0.0000000001
 40
0.0
 40
0.0
 40
0.0
 40
0.0
 40
0.5062621286
 40
1.0
 40
1.0
 40
1.0
 40
1.0
 10
42.8162593268
 20
39.6133972644
 30
0.0
 10
42.889213023
 20
39.4517227481
 30
0.0
 10
43.0453472396
 20
39.1376820825
 30
0.0
 10
43.2226958454
 20
38.8352182492
 30
0.0
 10
43.314767532
 20
38.688772533
 30
0.0
  0
SPLINE
  5
290
100
AcDbEntity
  8
0
100
AcDbSpline
 62
7
  6
CONTINUOUS
 70
0
 71
3
 72
9
 73
5
 74
0
 42
0.0000001
 43
0.0000001
 44
0.0000000001
 40
0.0
 40
0.0
 40
0.0
 40
0.0
 40
0.506752814
 40
1.0
 40
1.0
 40
1.0
 40
1.0
 10
41.8192429163
 20
39.0377730074
 30
0.0
 10
41.8905867195
 20
38.8445121274
 30
0.0
 10
42.045151519
 20
38.4681018471
 30
0.0
 10
42.2242075557
 20
38.1028150232
 30
0.0
 10
42.3177511215
 20
37.9254529526
 30
0.0
  0
SPLINE
  5
291
100
AcDbEntity
  8
0
100
AcDbSpline
 62
7
  6
CONTINUOUS
 70
0
 71
3
 72
9
 73
5
 74
0
 42
0.0000001
 43
0.0000001
 44
0.0000000001
 40
0.0
 40
0.0
 40
0.0
 40
0.0
 40
0.506752814
 40
1.0
 40
1.0
 40
1.0
 40
1.0
 10
40.8222265058
 20
38.4621487505
 30
0.0
 10
40.893570309
 20
38.2688878704
 30
0.0
 10
41.0481351085
 20
37.8924775901
 30
0.0
 10
41.2271911452
 20
37.5271907663
 30
0.0
 10
41.3207347111
 20
37.3498286956
 30
0.0
  0
SPLINE
  5
292
100
AcDbEntity
  8
0
100
AcDbSpline
 62
7
  6
CONTINUOUS
 70
0
 71
3
 72
9
 73
5
 74
0
 42
0.0000001
 43
0.0000001
 44
0.0000000001
 40
0.0
 40
0.0
 40
0.0
 40
0.0
 40
0.506752814
 40
1.0
 40
1.0
 40
1.0
 40
1.0
 10
39.8252100954
 20
37.8865244935
 30
0.0
 10
39.8965538986
 20
37.6932636134
 30
0.0
 10
40.051118698
 20
37.3168533332
 30
0.0
 10
40.2301747347
 20
36.9515665093
 30
0.0
 10
40.3237183006
 20
36.7742044387
 30
0.0
  0
SPLINE
  5
293
100
AcDbEntity
  8
0
100
AcDbSpline
 62
7
  6
CONTINUOUS
 70
0
 71
3
 72
11
 73
7
 74
0
 42
0.0000001
 43
0.0000001
 44
0.0000000001
 40
0.0
 40
0.0
 40
0.0
 40
0.0
 40
0.2485629864
 40
0.5002100288
 40
0.7517510361
 40
1.0
 40
1.0
 40
1.0
 40
1.0
 10
44.3117839425
 20
48.2862866648
 30
0.0
 10
44.1298377063
 20
48.7640055719
 30
0.0
 10
43.7228945433
 20
49.7103104787
 30
0.0
 10
42.9993007463
 20
51.0783547334
 30
0.0
 10
42.1698049775
 20
52.3841399427
 30
0.0
 10
41.5498282678
 20
53.2056983436
 30
0.0
 10
41.2253004068
 20
53.5998323234
 30
0.0
  0
SPLINE
  5
294
100
AcDbEntity
  8
0
100
AcDbSpline
 62
7
  6
CONTINUOUS
 70
0
 71
3
 72
9
 73
5
 74
0
 42
0.0000001
 43
0.0000001
 44
0.0000000001
 40
0.0
 40
0.0
 40
0.0
 40
0.0
 40
0.5062621286
 40
1.0
 40
1.0
 40
1.0
 40
1.0
 10
44.8102921477
 20
47.3616619335
 30
0.0
 10
44.7373384515
 20
47.5233364497
 30
0.0
 10
44.5812042349
 20
47.8373771154
 30
0.0
 10
44.4038556291
 20
48.1398409487
 30
0.0
 10
44.3117839425
 20
48.2862866648
 30
0.0
  0
SPLINE
  5
295
100
AcDbEntity
  8
0
100
AcDbSpline
 62
7
  6
CONTINUOUS
 70
0
 71
3
 72
15
 73
11
 74
0
 42
0.0000001
 43
0.0000001
 44
0.0000000001
 40
0.0
 40
0.0
 40
0.0
 40
0.0
 40
0.121905636
 40
0.2463576258
 40
0.3725164145
 40
0.4995835634
 40
0.6267041312
 40
0.7530220575
 40
0.8777357452
 40
1.0
 40
1.0
 40
1.0
 40
1.0
 10
40.649879172
 20
54.5076638765
 30
0.0
 10
40.8853038386
 20
54.26365989
 30
0.0
 10
41.3450868444
 20
53.7548938754
 30
0.0
 10
41.9917092165
 20
52.9445847218
 30
0.0
 10
42.5974041237
 20
52.0855916309
 30
0.0
 10
43.156118973
 20
51.186603612
 30
0.0
 10
43.6622723041
 20
50.2565034675
 30
0.0
 10
44.1108927934
 20
49.3045346254
 30
0.0
 10
44.4974058924
 20
48.3402621257
 30
0.0
 10
44.7137770929
 20
47.6877369966
 30
0.0
 10
44.8102921477
 20
47.3616619335
 30
0.0
  0
SPLINE
  5
296
100
AcDbEntity
  8
0
100
AcDbSpline
 62
7
  6
CONTINUOUS
 70
0
 71
3
 72
9
 73
5
 74
0
 42
0.0000001
 43
0.0000001
 44
0.0000000001
 40
0.0
 40
0.0
 40
0.0
 40
0.0
 40
0.4933976797
 40
1.0
 40
1.0
 40
1.0
 40
1.0
 10
41.2253004068
 20
53.5998323234
 30
0.0
 10
41.1411329904
 20
53.7554091004
 30
0.0
 10
40.9603970366
 20
54.0653592528
 30
0.0
 10
40.7580123642
 20
54.3617439443
 30
0.0
 10
40.649879172
 20
54.5076638765
 30
0.0
  0
SPLINE
  5
297
100
AcDbEntity
  8
0
100
AcDbSpline
 62
7
  6
CONTINUOUS
 70
0
 71
3
 72
15
 73
11
 74
0
 42
0.0000001
 43
0.0000001
 44
0.0000000001
 40
0.0
 40
0.0
 40
0.0
 40
0.0
 40
0.121905636
 40
0.2463576258
 40
0.3725164145
 40
0.4995835634
 40
0.6267041312
 40
0.7530220575
 40
0.8777357452
 40
1.0
 40
1.0
 40
1.0
 40
1.0
 10
39.6528627615
 20
53.9320396195
 30
0.0
 10
39.8882874281
 20
53.688035633
 30
0.0
 10
40.348070434
 20
53.1792696185
 30
0.0
 10
40.994692806
 20
52.3689604649
 30
0.0
 10
41.6003877132
 20
51.5099673739
 30
0.0
 10
42.1591025625
 20
50.6109793551
 30
0.0
 10
42.6652558937
 20
49.6808792106
 30
0.0
 10
43.1138763829
 20
48.7289103685
 30
0.0
 10
43.5003894819
 20
47.7646378687
 30
0.0
 10
43.7167606824
 20
47.1121127397
 30
0.0
 10
43.8132757372
 20
46.7860376765
 30
0.0
  0
SPLINE
  5
298
100
AcDbEntity
  8
0
100
AcDbSpline
 62
7
  6
CONTINUOUS
 70
0
 71
3
 72
9
 73
5
 74
0
 42
0.0000001
 43
0.0000001
 44
0.0000000001
 40
0.0
 40
0.0
 40
0.0
 40
0.0
 40
0.5027756999
 40
1.0
 40
1.0
 40
1.0
 40
1.0
 10
43.314767532
 20
47.7106624079
 30
0.0
 10
43.2240752169
 20
47.4616888274
 30
0.0
 10
43.0498973592
 20
46.9642004051
 30
0.0
 10
42.890789978
 20
46.4616427349
 30
0.0
 10
42.8162593268
 20
46.2104134196
 30
0.0
  0
SPLINE
  5
299
100
AcDbEntity
  8
0
100
AcDbSpline
 62
7
  6
CONTINUOUS
 70
0
 71
3
 72
11
 73
7
 74
0
 42
0.0000001
 43
0.0000001
 44
0.0000000001
 40
0.0
 40
0.0
 40
0.0
 40
0.0
 40
0.2482489639
 40
0.4997899712
 40
0.7514370136
 40
1.0
 40
1.0
 40
1.0
 40
1.0
 10
40.2282839963
 20
53.0242080665
 30
0.0
 10
40.5528118573
 20
52.6300740866
 30
0.0
 10
41.172788567
 20
51.8085156858
 30
0.0
 10
42.0022843359
 20
50.5027304765
 30
0.0
 10
42.7258781328
 20
49.1346862218
 30
0.0
 10
43.1328212958
 20
48.188381315
 30
0.0
 10
43.314767532
 20
47.7106624079
 30
0.0
  0
SPLINE
  5
29A
100
AcDbEntity
  8
0
100
AcDbSpline
 62
7
  6
CONTINUOUS
 70
0
 71
3
 72
9
 73
5
 74
0
 42
0.0000001
 43
0.0000001
 44
0.0000000001
 40
0.0
 40
0.0
 40
0.0
 40
0.0
 40
0.4970347459
 40
1.0
 40
1.0
 40
1.0
 40
1.0
 10
38.655846351
 20
53.3564153626
 30
0.0
 10
38.9143794522
 20
53.2925571308
 30
0.0
 10
39.4370150324
 20
53.1740158885
 30
0.0
 10
39.9630808872
 20
53.0720304763
 30
0.0
 10
40.2282839963
 20
53.0242080665
 30
0.0
  0
SPLINE
  5
29B
100
AcDbEntity
  8
0
100
AcDbSpline
 62
7
  6
CONTINUOUS
 70
0
 71
3
 72
15
 73
11
 74
0
 42
0.0000001
 43
0.0000001
 44
0.0000000001
 40
0.0
 40
0.0
 40
0.0
 40
0.0
 40
0.099819239
 40
0.2031880507
 40
0.3130435706
 40
0.4314229664
 40
0.559420337
 40
0.6972466999
 40
0.8444488248
 40
1.0
 40
1.0
 40
1.0
 40
1.0
 10
13.9246371745
 20
43.7191715482
 30
0.0
 10
13.9757735635
 20
43.7486933563
 30
0.0
 10
14.0729960136
 20
43.8215616806
 30
0.0
 10
14.1928947478
 20
43.9645248487
 30
0.0
 10
14.2859809173
 20
44.1385837729
 30
0.0
 10
14.3510591328
 20
44.3400026775
 30
0.0
 10
14.3873401248
 20
44.5651160789
 30
0.0
 10
14.3945755695
 20
44.8099278594
 30
0.0
 10
14.3726596402
 20
45.0700978881
 30
0.0
 10
14.3397716172
 20
45.2464644251
 30
0.0
 10
14.3188828234
 20
45.3360755522
 30
0.0
  0
SPLINE
  5
29C
100
AcDbEntity
  8
0
100
AcDbSpline
 62
7
  6
CONTINUOUS
 70
0
 71
3
 72
11
 73
7
 74
0
 42
0.0000001
 43
0.0000001
 44
0.0000000001
 40
0.0
 40
0.0
 40
0.0
 40
0.0
 40
0.2436266197
 40
0.4968547679
 40
0.7517233046
 40
1.0
 40
1.0
 40
1.0
 40
1.0
 10
14.3188828234
 20
45.3360755522
 30
0.0
 10
14.2831214335
 20
45.489488836
 30
0.0
 10
14.1863762681
 20
45.7971347484
 30
0.0
 10
13.9805227909
 20
46.2388272752
 30
0.0
 10
13.7193168474
 20
46.6537569593
 30
0.0
 10
13.5114839029
 20
46.9055491182
 30
0.0
 10
13.4006870017
 20
47.0217165125
 30
0.0
  0
SPLINE
  5
29D
100
AcDbEntity
  8
0
100
AcDbSpline
 62
7
  6
CONTINUOUS
 70
0
 71
3
 72
26
 73
22
 74
0
 42
0.0000001
 43
0.0000001
 44
0.0000000001
 40
0.0
 40
0.0
 40
0.0
 40
0.0
 40
0.0213315283
 40
0.0428915108
 40
0.0648962412
 40
0.0875401452
 40
0.1353135045
 40
0.160736057
 40
0.1872601282
 40
0.2436951719
 40
0.304639702
 40
0.3697234836
 40
0.4383165393
 40
0.5095988784
 40
0.582619386
 40
0.6563475222
 40
0.7297195602
 40
0.8016930848
 40
0.8712794229
 40
0.9376230885
 40
1.0
 40
1.0
 40
1.0
 40
1.0
 10
16.6996130308
 20
39.4842952036
 30
0.0
 10
16.6037825135
 20
39.4289677762
 30
0.0
 10
16.4037451247
 20
39.3299312722
 30
0.0
 10
16.0847792624
 20
39.2197113864
 30
0.0
 10
15.748049251
 20
39.1478788898
 30
0.0
 10
15.2698280484
 20
39.1030019396
 30
0.0
 10
14.7699197624
 20
39.1396657031
 30
0.0
 10
14.2636698578
 20
39.2478606087
 30
0.0
 10
13.7252706857
 20
39.4120528043
 30
0.0
 10
13.0398527452
 20
39.7150236394
 30
0.0
 10
12.230524533
 20
40.2101780975
 30
0.0
 10
11.434000487
 20
40.8337565135
 30
0.0
 10
10.6669902109
 20
41.5724504208
 30
0.0
 10
9.9455828561
 20
42.4106354207
 30
0.0
 10
9.2851008385
 20
43.3304906151
 30
0.0
 10
8.6996249832
 20
44.3124097743
 30
0.0
 10
8.2016131746
 20
45.3354434115
 30
0.0
 10
7.8017426861
 20
46.3777630551
 30
0.0
 10
7.5084091927
 20
47.4173068787
 30
0.0
 10
7.3280495501
 20
48.4318141077
 30
0.0
 10
7.2841878792
 20
49.0999838688
 30
0.0
 10
7.2841878792
 20
49.4235584631
 30
0.0
  0
SPLINE
  5
29E
100
AcDbEntity
  8
0
100
AcDbSpline
 62
7
  6
CONTINUOUS
 70
0
 71
3
 72
15
 73
11
 74
0
 42
0.0000001
 43
0.0000001
 44
0.0000000001
 40
0.0
 40
0.0
 40
0.0
 40
0.0
 40
0.1080118601
 40
0.2180589981
 40
0.3319966981
 40
0.4513572586
 40
0.5772650277
 40
0.7104895118
 40
0.8514454427
 40
1.0
 40
1.0
 40
1.0
 40
1.0
 10
16.9203222371
 20
39.2653125311
 30
0.0
 10
17.0531252617
 20
39.3419855511
 30
0.0
 10
17.3084774913
 20
39.520123246
 30
0.0
 10
17.6458293562
 20
39.8521764347
 30
0.0
 10
17.9359991651
 20
40.2462420216
 30
0.0
 10
18.1762288468
 20
40.6979326542
 30
0.0
 10
18.3647174286
 20
41.2026182718
 30
0.0
 10
18.4999951975
 20
41.7554986806
 30
0.0
 10
18.5808939411
 20
42.3511420296
 30
0.0
 10
18.5979428927
 20
42.762448036
 30
0.0
 10
18.5979428927
 20
42.9733548817
 30
0.0
  0
SPLINE
  5
29F
100
AcDbEntity
  8
0
100
AcDbSpline
 62
7
  6
CONTINUOUS
 70
0
 71
3
 72
26
 73
22
 74
0
 42
0.0000001
 43
0.0000001
 44
0.0000000001
 40
0.0
 40
0.0
 40
0.0
 40
0.0
 40
0.0623762422
 40
0.128718963
 40
0.1983051844
 40
0.2702788337
 40
0.3436515395
 40
0.4173807863
 40
0.4904024709
 40
0.561685853
 40
0.6302796146
 40
0.6953636773
 40
0.7563080873
 40
0.8127426648
 40
0.8392663834
 40
0.8646885622
 40
0.9124611241
 40
0.9351046518
 40
0.9571090279
 40
0.9786687057
 40
1.0
 40
1.0
 40
1.0
 40
1.0
 10
18.5979428927
 20
42.9733548817
 30
0.0
 10
18.5979428927
 20
43.309371054
 30
0.0
 10
18.5523968157
 20
44.0032310889
 30
0.0
 10
18.365102065
 20
45.0567486857
 30
0.0
 10
18.0604914354
 20
46.1362710793
 30
0.0
 10
17.6452413474
 20
47.2186839548
 30
0.0
 10
17.1280721335
 20
48.2810749539
 30
0.0
 10
16.520070574
 20
49.3007744679
 30
0.0
 10
15.8341737845
 20
50.2560225996
 30
0.0
 10
15.0850071436
 20
51.1264553418
 30
0.0
 10
14.2884856612
 20
51.8935651891
 30
0.0
 10
13.4613192913
 20
52.5411264333
 30
0.0
 10
12.620861316
 20
53.0553193795
 30
0.0
 10
11.9090833818
 20
53.3699357107
 30
0.0
 10
11.3499810783
 20
53.5404358352
 30
0.0
 10
10.8242671026
 20
53.6527859536
 30
0.0
 10
10.3051397675
 20
53.6908552747
 30
0.0
 10
9.8085338965
 20
53.6442509389
 30
0.0
 10
9.45885838
 20
53.5696557346
 30
0.0
 10
9.1276299245
 20
53.4551960501
 30
0.0
 10
8.9199013351
 20
53.3523520295
 30
0.0
 10
8.8203860009
 20
53.2948974554
 30
0.0
  0
SPLINE
  5
2A0
100
AcDbEntity
  8
0
100
AcDbSpline
 62
7
  6
CONTINUOUS
 70
0
 71
3
 72
12
 73
8
 74
0
 42
0.0000001
 43
0.0000001
 44
0.0000000001
 40
0.0
 40
0.0
 40
0.0
 40
0.0
 40
0.1084702347
 40
0.2185732456
 40
0.4508012449
 40
0.7096943154
 40
1.0
 40
1.0
 40
1.0
 40
1.0
 10
34.2167968251
 20
20.7073673386
 30
0.0
 10
34.2341305791
 20
20.7163487835
 30
0.0
 10
34.2675187883
 20
20.7376112025
 30
0.0
 10
34.327614817
 20
20.7926447184
 30
0.0
 10
34.3874272107
 20
20.8851117382
 30
0.0
 10
34.4289091308
 20
21.0208439148
 30
0.0
 10
34.4370653135
 20
21.1200649606
 30
0.0
 10
34.4370653135
 20
21.1723140704
 30
0.0
  0
SPLINE
  5
2A1
100
AcDbEntity
  8
0
100
AcDbSpline
 62
7
  6
CONTINUOUS
 70
0
 71
3
 72
21
 73
17
 74
0
 42
0.0000001
 43
0.0000001
 44
0.0000000001
 40
0.0
 40
0.0
 40
0.0
 40
0.0
 40
0.0508793018
 40
0.0764761267
 40
0.1022345283
 40
0.1543842643
 40
0.2077719814
 40
0.2627790342
 40
0.3197385109
 40
0.3788867305
 40
0.4403615884
 40
0.5041866497
 40
0.5702820817
 40
0.7084419491
 40
0.852685496
 40
1.0
 40
1.0
 40
1.0
 40
1.0
 10
8.5565602414
 20
55.1303474434
 30
0.0
 10
8.3726135323
 20
55.0160466066
 30
0.0
 10
8.1096318172
 20
54.8209941518
 30
0.0
 10
7.7939010034
 20
54.5210708447
 30
0.0
 10
7.4988915707
 20
54.1932978672
 30
0.0
 10
7.1738779953
 20
53.7359413953
 30
0.0
 10
6.8597444921
 20
53.1268034
 30
0.0
 10
6.6192514403
 20
52.4634713765
 30
0.0
 10
6.4513977247
 20
51.7532406852
 30
0.0
 10
6.354530891
 20
51.0023667253
 30
0.0
 10
6.3272190858
 20
50.2167153703
 30
0.0
 10
6.3679333581
 20
49.4021524612
 30
0.0
 10
6.5131527387
 20
48.2694100867
 30
0.0
 10
6.8611462978
 20
46.8222811128
 30
0.0
 10
7.5096531313
 20
45.1077219727
 30
0.0
 10
8.0829297933
 20
44.0033095224
 30
0.0
 10
8.4032423139
 20
43.4642548206
 30
0.0
  0
SPLINE
  5
2A2
100
AcDbEntity
  8
0
100
AcDbSpline
 62
7
  6
CONTINUOUS
 70
0
 71
3
 72
15
 73
11
 74
0
 42
0.0000001
 43
0.0000001
 44
0.0000000001
 40
0.0
 40
0.0
 40
0.0
 40
0.0
 40
0.10802901
 40
0.218069361
 40
0.3320062969
 40
0.4513671561
 40
0.5772818674
 40
0.7104954456
 40
0.8514237032
 40
1.0
 40
1.0
 40
1.0
 40
1.0
 10
36.7586957464
 20
29.8070475942
 30
0.0
 10
37.0087782992
 20
29.951403116
 30
0.0
 10
37.4895117609
 20
30.2868728978
 30
0.0
 10
38.1246925765
 20
30.9120204214
 30
0.0
 10
38.6709549667
 20
31.6539494147
 30
0.0
 10
39.1232461179
 20
32.5043687425
 30
0.0
 10
39.4780928447
 20
33.4545511548
 30
0.0
 10
39.7327276282
 20
34.4953914156
 30
0.0
 10
39.8851252406
 20
35.616763267
 30
0.0
 10
39.9171656834
 20
36.3911252859
 30
0.0
 10
39.9171656834
 20
36.7882615604
 30
0.0
  0
SPLINE
  5
2A3
100
AcDbEntity
  8
0
100
AcDbSpline
 62
7
  6
CONTINUOUS
 70
0
 71
3
 72
11
 73
7
 74
0
 42
0.0000001
 43
0.0000001
 44
0.0000000001
 40
0.0
 40
0.0
 40
0.0
 40
0.0
 40
0.2790878654
 40
0.5380037758
 40
0.7773876788
 40
1.0
 40
1.0
 40
1.0
 40
1.0
 10
34.4370653135
 20
26.943016816
 30
0.0
 10
34.4370618661
 20
27.1215312928
 30
0.0
 10
34.4565699258
 20
27.4661464405
 30
0.0
 10
34.5515176451
 20
27.956018576
 30
0.0
 10
34.7100651458
 20
28.3912570246
 30
0.0
 10
34.8618142395
 20
28.647536773
 30
0.0
 10
34.9472575374
 20
28.7614426988
 30
0.0
  0
SPLINE
  5
2A4
100
AcDbEntity
  8
0
100
AcDbSpline
 62
7
  6
CONTINUOUS
 70
0
 71
3
 72
15
 73
11
 74
0
 42
0.0000001
 43
0.0000001
 44
0.0000000001
 40
0.0
 40
0.0
 40
0.0
 40
0.0
 40
0.1121540859
 40
0.2289905087
 40
0.350047313
 40
0.4748774095
 40
0.6029204764
 40
0.7335621935
 40
0.8661824405
 40
1.0
 40
1.0
 40
1.0
 40
1.0
 10
39.9171656834
 20
36.7882615604
 30
0.0
 10
39.9171656834
 20
37.1689712388
 30
0.0
 10
39.8863053559
 20
37.9465285593
 30
0.0
 10
39.7549254149
 20
39.1283568312
 30
0.0
 10
39.5383466884
 20
40.3412967639
 30
0.0
 10
39.2383995294
 20
41.5754381221
 30
0.0
 10
38.8575842208
 20
42.8210798538
 30
0.0
 10
38.398792212
 20
44.0683414593
 30
0.0
 10
37.8657562998
 20
45.3070201295
 30
0.0
 10
37.4649413048
 20
46.1183259856
 30
0.0
 10
37.2532516905
 20
46.520231082
 30
0.0
  0
SPLINE
  5
2A5
100
AcDbEntity
  8
0
100
AcDbSpline
 62
7
  6
CONTINUOUS
 70
0
 71
3
 72
13
 73
9
 74
0
 42
0.0000001
 43
0.0000001
 44
0.0000000001
 40
0.0
 40
0.0
 40
0.0
 40
0.0
 40
0.2726584881
 40
0.5345084261
 40
0.6592036872
 40
0.7786847323
 40
0.8924385896
 40
1.0
 40
1.0
 40
1.0
 40
1.0
 10
37.2532516905
 20
46.520231082
 30
0.0
 10
37.0881827079
 20
46.8336210401
 30
0.0
 10
36.8018155791
 20
47.4684417602
 30
0.0
 10
36.5522736737
 20
48.2906359072
 30
0.0
 10
36.4315564185
 20
48.9373989111
 30
0.0
 10
36.382441854
 20
49.4003290716
 30
0.0
 10
36.3738615147
 20
49.8435262302
 30
0.0
 10
36.3958371909
 20
50.1307906355
 30
0.0
 10
36.4142297389
 20
50.269305575
 30
0.0
  0
SPLINE
  5
2A6
100
AcDbEntity
  8
0
100
AcDbSpline
 62
7
  6
CONTINUOUS
 70
0
 71
3
 72
9
 73
5
 74
0
 42
0.0000001
 43
0.0000001
 44
0.0000000001
 40
0.0
 40
0.0
 40
0.0
 40
0.0
 40
0.2429886029
 40
1.0
 40
1.0
 40
1.0
 40
1.0
 10
36.4142297389
 20
50.269305575
 30
0.0
 10
36.4265696687
 20
50.3622451345
 30
0.0
 10
36.4704955641
 20
50.7456270125
 30
0.0
 10
36.4876835165
 20
51.1319299527
 30
0.0
 10
36.4876835165
 20
51.4240166853
 30
0.0
  0
SPLINE
  5
2A7
100
AcDbEntity
  8
0
100
AcDbSpline
 62
7
  6
CONTINUOUS
 70
0
 71
3
 72
27
 73
23
 74
0
 42
0.0000001
 43
0.0000001
 44
0.0000000001
 40
0.0
 40
0.0
 40
0.0
 40
0.0
 40
0.0625462044
 40
0.1290893357
 40
0.1989015921
 40
0.2711013765
 40
0.3446834663
 40
0.4185827848
 40
0.4917168958
 40
0.5630398592
 40
0.6315892169
 40
0.696540711
 40
0.7572698474
 40
0.8134252933
 40
0.8397975111
 40
0.8650666188
 40
0.8893068417
 40
0.9126253385
 40
0.9351653039
 40
0.9571013905
 40
0.9786383023
 40
1.0
 40
1.0
 40
1.0
 40
1.0
 10
36.4876835165
 20
51.4240166853
 30
0.0
 10
36.4876835165
 20
51.858959108
 30
0.0
 10
36.4282598497
 20
52.7572423405
 30
0.0
 10
36.183994911
 20
54.1210248879
 30
0.0
 10
35.7869184871
 20
55.5182314196
 30
0.0
 10
35.2457660809
 20
56.9185053481
 30
0.0
 10
34.5721454158
 20
58.2917210226
 30
0.0
 10
33.7806981227
 20
59.6081271294
 30
0.0
 10
32.8885435558
 20
60.8391987523
 30
0.0
 10
31.9149888456
 20
61.9582946962
 30
0.0
 10
30.8810194366
 20
62.9412500335
 30
0.0
 10
29.8086284565
 20
63.7669433138
 30
0.0
 10
28.7206782586
 20
64.4174906952
 30
0.0
 10
27.8005566726
 20
64.8099139662
 30
0.0
 10
27.079401021
 20
65.0174439862
 30
0.0
 10
26.5607118703
 20
65.1184212943
 30
0.0
 10
26.0558061979
 20
65.1674056147
 30
0.0
 10
25.567411841
 20
65.1638600357
 30
0.0
 10
25.0982620034
 20
65.1078189781
 30
0.0
 10
24.6510502282
 20
64.9992233052
 30
0.0
 10
24.2284636009
 20
64.838815445
 30
0.0
 10
23.9645782422
 20
64.6976069546
 30
0.0
 10
23.8383825831
 20
64.619241528
 30
0.0
  0
SPLINE
  5
2A8
100
AcDbEntity
  8
0
100
AcDbSpline
 62
7
  6
CONTINUOUS
 70
0
 71
3
 72
15
 73
11
 74
0
 42
0.0000001
 43
0.0000001
 44
0.0000000001
 40
0.0
 40
0.0
 40
0.0
 40
0.0
 40
0.1485539541
 40
0.289507437
 40
0.4227307997
 40
0.5486388296
 40
0.668000075
 40
0.7819384522
 40
0.8919867325
 40
1.0
 40
1.0
 40
1.0
 40
1.0
 10
7.2841878792
 20
49.4235584631
 30
0.0
 10
7.2841878792
 20
49.626653141
 30
0.0
 10
7.3006033689
 20
50.0227215911
 30
0.0
 10
7.3785066663
 20
50.5962982068
 30
0.0
 10
7.5087701702
 20
51.1286979448
 30
0.0
 10
7.6902774385
 20
51.6146912545
 30
0.0
 10
7.9216059837
 20
52.0496573006
 30
0.0
 10
8.2010320418
 20
52.4291297953
 30
0.0
 10
8.5258900388
 20
52.7488904418
 30
0.0
 10
8.7717885161
 20
52.9204314436
 30
0.0
 10
8.8996744399
 20
52.9942659522
 30
0.0
  0
SPLINE
  5
2A9
100
AcDbEntity
  8
0
100
AcDbSpline
 62
7
  6
CONTINUOUS
 70
0
 71
3
 72
14
 73
10
 74
0
 42
0.0000001
 43
0.0000001
 44
0.0000000001
 40
0.0
 40
0.0
 40
0.0
 40
0.0
 40
0.1132928016
 40
0.2332756022
 40
0.4917807899
 40
0.6260209075
 40
0.7582620392
 40
0.884261064
 40
1.0
 40
1.0
 40
1.0
 40
1.0
 10
14.3195964873
 20
45.3040079838
 30
0.0
 10
14.3185082462
 20
45.2313315181
 30
0.0
 10
14.3104358663
 20
45.0816206664
 30
0.0
 10
14.2601309671
 20
44.7696487978
 30
0.0
 10
14.149903302
 20
44.455710385
 30
0.0
 10
13.9831041074
 20
44.1623723398
 30
0.0
 10
13.8315983534
 20
43.9602551497
 30
0.0
 10
13.6619767488
 20
43.7894696859
 30
0.0
 10
13.5357033015
 20
43.6976832083
 30
0.0
 10
13.4713973854
 20
43.6605563919
 30
0.0
  0
SPLINE
  5
2AA
100
AcDbEntity
  8
0
100
AcDbSpline
 62
7
  6
CONTINUOUS
 70
0
 71
3
 72
11
 73
7
 74
0
 42
0.0000001
 43
0.0000001
 44
0.0000000001
 40
0.0
 40
0.0
 40
0.0
 40
0.0
 40
0.2632636598
 40
0.5186357736
 40
0.7644535298
 40
1.0
 40
1.0
 40
1.0
 40
1.0
 10
30.0872122203
 20
42.4897111256
 30
0.0
 10
29.8834506994
 20
42.6858217107
 30
0.0
 10
29.5049445639
 20
43.0971176886
 30
0.0
 10
29.036266484
 20
43.7750709434
 30
0.0
 10
28.6936907498
 20
44.4925344598
 30
0.0
 10
28.55930373
 20
44.9960278899
 30
0.0
 10
28.5204896551
 20
45.2460627501
 30
0.0
  0
SPLINE
  5
2AB
100
AcDbEntity
  8
0
100
AcDbSpline
 62
7
  6
CONTINUOUS
 70
0
 71
3
 72
10
 73
6
 74
0
 42
0.0000001
 43
0.0000001
 44
0.0000000001
 40
0.0
 40
0.0
 40
0.0
 40
0.0
 40
0.5201980797
 40
0.7671854155
 40
1.0
 40
1.0
 40
1.0
 40
1.0
 10
28.9990764284
 20
46.3428957482
 30
0.0
 10
28.9130631861
 20
46.1540219555
 30
0.0
 10
28.7852104714
 20
45.875912682
 30
0.0
 10
28.6257064859
 20
45.5102133268
 30
0.0
 10
28.5535382067
 20
45.332867367
 30
0.0
 10
28.5204896016
 20
45.2460626036
 30
0.0
  0
SPLINE
  5
2AC
100
AcDbEntity
  8
0
100
AcDbSpline
 62
7
  6
CONTINUOUS
 70
0
 71
3
 72
11
 73
7
 74
0
 42
0.0000001
 43
0.0000001
 44
0.0000000001
 40
0.0
 40
0.0
 40
0.0
 40
0.0
 40
0.244338498
 40
0.4908185246
 40
0.7421213766
 40
1.0
 40
1.0
 40
1.0
 40
1.0
 10
28.5204896551
 20
45.2460627501
 30
0.0
 10
28.391165711
 20
44.9063831836
 30
0.0
 10
28.0633908169
 20
44.2479038676
 30
0.0
 10
27.3901407444
 20
43.365669241
 30
0.0
 10
26.5607334422
 20
42.5995596858
 30
0.0
 10
25.9281034189
 20
42.1772193858
 30
0.0
 10
25.595185039
 20
41.9866427635
 30
0.0
  0
LINE
  5
2AD
100
AcDbEntity
  8
0
100
AcDbLine
 62
7
  6
CONTINUOUS
 10
25.595185039
 20
41.9866427635
 11
18.4544273378
 21
38.1612473337
  0
SPLINE
  5
2AE
100
AcDbEntity
  8
0
100
AcDbSpline
 62
7
  6
CONTINUOUS
 70
0
 71
3
 72
26
 73
22
 74
0
 42
0.0000001
 43
0.0000001
 44
0.0000000001
 40
0.0
 40
0.0
 40
0.0
 40
0.0
 40
0.0213315283
 40
0.0428915108
 40
0.0648962412
 40
0.0875401452
 40
0.1353135045
 40
0.160736057
 40
0.1872601282
 40
0.2436951719
 40
0.304639702
 40
0.3697234836
 40
0.4383165393
 40
0.5095988784
 40
0.582619386
 40
0.6563475222
 40
0.7297195602
 40
0.8016930848
 40
0.8712794229
 40
0.9376230885
 40
1.0
 40
1.0
 40
1.0
 40
1.0
 10
8.8996744399
 20
52.9942659522
 30
0.0
 10
8.9955049571
 20
53.0495933795
 30
0.0
 10
9.1955423459
 20
53.1486298835
 30
0.0
 10
9.5145082082
 20
53.2588497694
 30
0.0
 10
9.8512382196
 20
53.3306822659
 30
0.0
 10
10.3294594223
 20
53.3755592161
 30
0.0
 10
10.8293677082
 20
53.3388954527
 30
0.0
 10
11.3356176128
 20
53.2307005471
 30
0.0
 10
11.8740167849
 20
53.0665083514
 30
0.0
 10
12.5594347254
 20
52.7635375164
 30
0.0
 10
13.3687629376
 20
52.2683830583
 30
0.0
 10
14.1652869836
 20
51.6448046423
 30
0.0
 10
14.9322972597
 20
50.906110735
 30
0.0
 10
15.6537046146
 20
50.067925735
 30
0.0
 10
16.3141866321
 20
49.1480705406
 30
0.0
 10
16.8996624874
 20
48.1661513815
 30
0.0
 10
17.397674296
 20
47.1431177443
 30
0.0
 10
17.7975447845
 20
46.1007981006
 30
0.0
 10
18.0908782779
 20
45.061254277
 30
0.0
 10
18.2712379205
 20
44.046747048
 30
0.0
 10
18.3150995915
 20
43.3785772869
 30
0.0
 10
18.3150995915
 20
43.0550026926
 30
0.0
  0
SPLINE
  5
2AF
100
AcDbEntity
  8
0
100
AcDbSpline
 62
7
  6
CONTINUOUS
 70
0
 71
3
 72
11
 73
7
 74
0
 42
0.0000001
 43
0.0000001
 44
0.0000000001
 40
0.0
 40
0.0
 40
0.0
 40
0.0
 40
0.3263324362
 40
0.4701226243
 40
0.6007014139
 40
1.0
 40
1.0
 40
1.0
 40
1.0
 10
8.6817423332
 20
43.3587272404
 30
0.0
 10
8.6485828053
 20
43.3608919973
 30
0.0
 10
8.6009125251
 20
43.366181017
 30
0.0
 10
8.5409914068
 20
43.3795312644
 30
0.0
 10
8.4761205223
 20
43.3998140684
 30
0.0
 10
8.4240208393
 20
43.4292952104
 30
0.0
 10
8.4032534954
 20
43.464251871
 30
0.0
  0
SPLINE
  5
2B0
100
AcDbEntity
  8
0
100
AcDbSpline
 62
7
  6
CONTINUOUS
 70
0
 71
3
 72
19
 73
15
 74
0
 42
0.0000001
 43
0.0000001
 44
0.0000000001
 40
0.0
 40
0.0
 40
0.0
 40
0.0
 40
0.0558627877
 40
0.1142501503
 40
0.1748790924
 40
0.2374716659
 40
0.3670900217
 40
0.5000668642
 40
0.6330343969
 40
0.7626255494
 40
0.8251984802
 40
0.8858042831
 40
0.9441655523
 40
1.0
 40
1.0
 40
1.0
 40
1.0
 10
13.5665036182
 20
54.6939821056
 30
0.0
 10
13.7990069613
 20
54.5594572486
 30
0.0
 10
14.2627502864
 20
54.2635862833
 30
0.0
 10
14.9353771374
 20
53.7577349677
 30
0.0
 10
15.5948100686
 20
53.184150904
 30
0.0
 10
16.4577870148
 20
52.3267381959
 30
0.0
 10
17.4608556153
 20
51.1218187084
 30
0.0
 10
18.5043115585
 20
49.5268205786
 30
0.0
 10
19.3627802778
 20
47.8252465809
 30
0.0
 10
19.9036874506
 20
46.3540022551
 30
0.0
 10
20.2138242188
 20
45.1780412438
 30
0.0
 10
20.3801380642
 20
44.3203625323
 30
0.0
 10
20.4811826743
 20
43.4852120836
 30
0.0
 10
20.5050455407
 20
42.9359021517
 30
0.0
 10
20.5050455407
 20
42.6674220781
 30
0.0
  0
SPLINE
  5
2B1
100
AcDbEntity
  8
0
100
AcDbSpline
 62
7
  6
CONTINUOUS
 70
0
 71
3
 72
11
 73
7
 74
0
 42
0.0000001
 43
0.0000001
 44
0.0000000001
 40
0.0
 40
0.0
 40
0.0
 40
0.0
 40
0.2177855294
 40
0.4509168406
 40
0.7102884181
 40
1.0
 40
1.0
 40
1.0
 40
1.0
 10
17.2660784755
 20
12.4393937772
 30
0.0
 10
17.2330887952
 20
12.458434427
 30
0.0
 10
17.1713748889
 20
12.5103275867
 30
0.0
 10
17.1056711151
 20
12.6177552898
 30
0.0
 10
17.0666439717
 20
12.7501496219
 30
0.0
 10
17.0589659049
 20
12.8465095519
 30
0.0
 10
17.0589659049
 20
12.8971794921
 30
0.0
  0
SPLINE
  5
2B2
100
AcDbEntity
  8
0
100
AcDbSpline
 62
7
  6
CONTINUOUS
 70
0
 71
3
 72
11
 73
7
 74
0
 42
0.0000001
 43
0.0000001
 44
0.0000000001
 40
0.0
 40
0.0
 40
0.0
 40
0.0
 40
0.2897115804
 40
0.549083155
 40
0.7822144682
 40
1.0
 40
1.0
 40
1.0
 40
1.0
 10
8.6817423332
 20
17.7336623605
 30
0.0
 10
8.6817423332
 20
17.6829924205
 30
0.0
 10
8.6894203991
 20
17.5866324912
 30
0.0
 10
8.728447543
 20
17.4542381596
 30
0.0
 10
8.7941513164
 20
17.3468104561
 30
0.0
 10
8.855865223
 20
17.2949172954
 30
0.0
 10
8.8888549038
 20
17.2758766456
 30
0.0
  0
SPLINE
  5
2B3
100
AcDbEntity
  8
0
100
AcDbSpline
 62
7
  6
CONTINUOUS
 70
0
 71
3
 72
11
 73
7
 74
0
 42
0.0000001
 43
0.0000001
 44
0.0000000001
 40
0.0
 40
0.0
 40
0.0
 40
0.0
 40
0.2177847204
 40
0.450915612
 40
0.7102874216
 40
1.0
 40
1.0
 40
1.0
 40
1.0
 10
8.3888466695
 20
18.1419065143
 30
0.0
 10
8.3888418917
 20
18.1038173534
 30
0.0
 10
8.4029262311
 20
18.0244272401
 30
0.0
 10
8.4631093111
 20
17.9138158383
 30
0.0
 10
8.5582515992
 20
17.8138236659
 30
0.0
 10
8.6378615427
 20
17.7589963735
 30
0.0
 10
8.6817423332
 20
17.7336623605
 30
0.0
  0
SPLINE
  5
2B4
100
AcDbEntity
  8
0
100
AcDbSpline
 62
7
  6
CONTINUOUS
 70
0
 71
3
 72
12
 73
8
 74
0
 42
0.0000001
 43
0.0000001
 44
0.0000000001
 40
0.0
 40
0.0
 40
0.0
 40
0.0
 40
0.2909964908
 40
0.5507257492
 40
0.7830582226
 40
0.8926088575
 40
1.0
 40
1.0
 40
1.0
 40
1.0
 10
18.4544273378
 20
12.8866361993
 30
0.0
 10
18.4532115439
 20
12.8336898052
 30
0.0
 10
18.442824024
 20
12.7333114073
 30
0.0
 10
18.3988168394
 20
12.5964847045
 30
0.0
 10
18.337794915
 20
12.5033563403
 30
0.0
 10
18.2771699864
 20
12.4479750938
 30
0.0
 10
18.2436680581
 20
12.4266251635
 30
0.0
 10
18.2263143418
 20
12.4176335935
 30
0.0
  0
SPLINE
  5
2B5
100
AcDbEntity
  8
0
100
AcDbSpline
 62
7
  6
CONTINUOUS
 70
0
 71
3
 72
15
 73
11
 74
0
 42
0.0000001
 43
0.0000001
 44
0.0000000001
 40
0.0
 40
0.0
 40
0.0
 40
0.0
 40
0.113807146
 40
0.2365798778
 40
0.3657325183
 40
0.4983855457
 40
0.6312623282
 40
0.7610687009
 40
0.8848743782
 40
1.0
 40
1.0
 40
1.0
 40
1.0
 10
17.0589659049
 20
12.8971794921
 30
0.0
 10
17.1065207232
 20
12.8697243261
 30
0.0
 10
17.2104172535
 20
12.8211772785
 30
0.0
 10
17.3794984178
 20
12.7691230842
 30
0.0
 10
17.5626190374
 20
12.7365541518
 30
0.0
 10
17.7530660899
 20
12.7245853232
 30
0.0
 10
17.9439847889
 20
12.733708228
 30
0.0
 10
18.1284992559
 20
12.7635328242
 30
0.0
 10
18.2998422986
 20
12.8130429095
 30
0.0
 10
18.4057122937
 20
12.8599461189
 30
0.0
 10
18.4544273378
 20
12.8866361993
 30
0.0
  0
SPLINE
  5
2B6
100
AcDbEntity
  8
0
100
AcDbSpline
 62
7
  6
CONTINUOUS
 70
0
 71
3
 72
15
 73
11
 74
0
 42
0.0000001
 43
0.0000001
 44
0.0000000001
 40
0.0
 40
0.0
 40
0.0
 40
0.0
 40
0.1080118601
 40
0.2180589981
 40
0.3319966981
 40
0.4513572586
 40
0.5772650277
 40
0.7104895118
 40
0.8514454427
 40
1.0
 40
1.0
 40
1.0
 40
1.0
 10
8.8203860009
 20
53.2948974554
 30
0.0
 10
8.6875829764
 20
53.2182244354
 30
0.0
 10
8.4322307468
 20
53.0400867405
 30
0.0
 10
8.0948788818
 20
52.7080335518
 30
0.0
 10
7.804709073
 20
52.3139679649
 30
0.0
 10
7.5644793913
 20
51.8622773323
 30
0.0
 10
7.3759908095
 20
51.3575917147
 30
0.0
 10
7.2407130406
 20
50.804711306
 30
0.0
 10
7.159814297
 20
50.209067957
 30
0.0
 10
7.1427653453
 20
49.7977619505
 30
0.0
 10
7.1427653453
 20
49.5868551049
 30
0.0
  0
SPLINE
  5
2B7
100
AcDbEntity
  8
0
100
AcDbSpline
 62
7
  6
CONTINUOUS
 70
0
 71
3
 72
10
 73
6
 74
0
 42
0.0000001
 43
0.0000001
 44
0.0000000001
 40
0.0
 40
0.0
 40
0.0
 40
0.0
 40
0.2392578423
 40
0.4841843623
 40
1.0
 40
1.0
 40
1.0
 40
1.0
 10
13.9298655604
 20
43.7263591974
 30
0.0
 10
13.8958817645
 20
43.7109433816
 30
0.0
 10
13.8246736568
 20
43.6848147952
 30
0.0
 10
13.6716967789
 20
43.6525086245
 30
0.0
 10
13.5513987791
 20
43.6520600115
 30
0.0
 10
13.4713973854
 20
43.6605563919
 30
0.0
  0
SPLINE
  5
2B8
100
AcDbEntity
  8
0
100
AcDbSpline
 62
7
  6
CONTINUOUS
 70
0
 71
3
 72
29
 73
25
 74
0
 42
0.0000001
 43
0.0000001
 44
0.0000000001
 40
0.0
 40
0.0
 40
0.0
 40
0.0
 40
0.0818070769
 40
0.162801003
 40
0.2417685607
 40
0.3176304053
 40
0.3894447646
 40
0.4565094334
 40
0.5184353169
 40
0.5474884287
 40
0.5753128165
 40
0.6275924935
 40
0.652417951
 40
0.6766043123
 40
0.7003880173
 40
0.7240274575
 40
0.7477882929
 40
0.7719303719
 40
0.7966925611
 40
0.8222846596
 40
0.8765287279
 40
0.9054727013
 40
0.9357044416
 40
1.0
 40
1.0
 40
1.0
 40
1.0
 10
8.6817423332
 20
43.3587272404
 30
0.0
 10
8.4499818461
 20
43.7349356211
 30
0.0
 10
8.020999347
 20
44.5040282487
 30
0.0
 10
7.485548856
 20
45.6968371675
 30
0.0
 10
7.0698759596
 20
46.902812862
 30
0.0
 10
6.783180364
 20
48.0950324289
 30
0.0
 10
6.6319289976
 20
49.2474890764
 30
0.0
 10
6.6196488137
 20
50.334831734
 30
0.0
 10
6.7282956549
 20
51.1851924725
 30
0.0
 10
6.8891383266
 20
51.807257801
 30
0.0
 10
7.08741421
 20
52.3630396778
 30
0.0
 10
7.3550888235
 20
52.8684284307
 30
0.0
 10
7.6921183296
 20
53.3008211482
 30
0.0
 10
7.9704293793
 20
53.5800503224
 30
0.0
 10
8.2769186175
 20
53.8177439939
 30
0.0
 10
8.6097777641
 20
54.012373404
 30
0.0
 10
8.9668833997
 20
54.1628261237
 30
0.0
 10
9.3460549414
 20
54.2680801124
 30
0.0
 10
9.7449628753
 20
54.3277928265
 30
0.0
 10
10.3106506562
 20
54.3465544834
 30
0.0
 10
10.8977752778
 20
54.2696171294
 30
0.0
 10
11.4897020557
 20
54.1100256554
 30
0.0
 10
12.1176273008
 20
53.8834061611
 30
0.0
 10
12.5765486178
 20
53.6545668535
 30
0.0
 10
12.8771407203
 20
53.4806463023
 30
0.0
  0
SPLINE
  5
2B9
100
AcDbEntity
  8
0
100
AcDbSpline
 62
7
  6
CONTINUOUS
 70
0
 71
3
 72
12
 73
8
 74
0
 42
0.0000001
 43
0.0000001
 44
0.0000000001
 40
0.0
 40
0.0
 40
0.0
 40
0.0
 40
0.1120806477
 40
0.2289329848
 40
0.474894502
 40
0.7336926179
 40
1.0
 40
1.0
 40
1.0
 40
1.0
 10
12.8771407203
 20
53.4806463023
 30
0.0
 10
13.0724215276
 20
53.3676581521
 30
0.0
 10
13.4620712039
 20
53.1206012596
 30
0.0
 10
14.2307046156
 20
52.5511742689
 30
0.0
 10
15.1577894205
 20
51.705254681
 30
0.0
 10
16.1756077364
 20
50.5295299115
 30
0.0
 10
16.7777990897
 20
49.6578906249
 30
0.0
 10
17.0589659049
 20
49.2014827461
 30
0.0
  0
SPLINE
  5
2BA
100
AcDbEntity
  8
0
100
AcDbSpline
 62
7
  6
CONTINUOUS
 70
0
 71
3
 72
24
 73
20
 74
0
 42
0.0000001
 43
0.0000001
 44
0.0000000001
 40
0.0
 40
0.0
 40
0.0
 40
0.0
 40
0.0779040561
 40
0.1555534604
 40
0.2323188055
 40
0.30769004
 40
0.3811651677
 40
0.4522750331
 40
0.5206205391
 40
0.585880165
 40
0.6478241683
 40
0.7063446129
 40
0.7614742148
 40
0.7878369769
 40
0.8134427546
 40
0.862579567
 40
0.9095068352
 40
0.9550210867
 40
1.0
 40
1.0
 40
1.0
 40
1.0
 10
17.0589659049
 20
49.2014827461
 30
0.0
 10
17.2198300843
 20
48.9403577665
 30
0.0
 10
17.5253640408
 20
48.4091241513
 30
0.0
 10
17.9331761601
 20
47.5898756398
 30
0.0
 10
18.2862865199
 20
46.7563638709
 30
0.0
 10
18.580847169
 20
45.9177836234
 30
0.0
 10
18.8138079911
 20
45.0830870876
 30
0.0
 10
18.9825442317
 20
44.2612253582
 30
0.0
 10
19.0852594826
 20
43.4610396449
 30
0.0
 10
19.1208544428
 20
42.6910782166
 30
0.0
 10
19.088761187
 20
41.9595003289
 30
0.0
 10
18.9892887307
 20
41.2741453389
 30
0.0
 10
18.8487616383
 20
40.7396218834
 30
0.0
 10
18.7024073187
 20
40.3438923688
 30
0.0
 10
18.5392621178
 20
39.9805570123
 30
0.0
 10
18.2969311179
 20
39.5651290502
 30
0.0
 10
17.9414234353
 20
39.1324857361
 30
0.0
 10
17.5289386161
 20
38.7782138085
 30
0.0
 10
17.2193107971
 20
38.5973802668
 30
0.0
 10
17.0589659049
 20
38.522244372
 30
0.0
  0
SPLINE
  5
2BB
100
AcDbEntity
  8
0
100
AcDbSpline
 62
7
  6
CONTINUOUS
 70
0
 71
3
 72
26
 73
22
 74
0
 42
0.0000001
 43
0.0000001
 44
0.0000000001
 40
0.0
 40
0.0
 40
0.0
 40
0.0
 40
0.0630612893
 40
0.1299303058
 40
0.1998944137
 40
0.272089129
 40
0.3455383391
 40
0.4192169595
 40
0.4920849507
 40
0.5631393735
 40
0.6314585555
 40
0.6962526018
 40
0.7569202996
 40
0.8131166356
 40
0.8395416815
 40
0.8648809911
 40
0.912538455
 40
0.9351472519
 40
0.9571296675
 40
0.9786765917
 40
1.0
 40
1.0
 40
1.0
 40
1.0
 10
7.1445708268
 20
49.4200796909
 30
0.0
 10
7.1518002822
 20
49.0839514857
 30
0.0
 10
7.2104606466
 20
48.3918944446
 30
0.0
 10
7.413994994
 20
47.3440689311
 30
0.0
 10
7.7315214117
 20
46.274142082
 30
0.0
 10
8.1563438084
 20
45.204472329
 30
0.0
 10
8.6796793575
 20
44.1572716295
 30
0.0
 10
9.2905528224
 20
43.1544148819
 30
0.0
 10
9.9762343345
 20
42.2168573822
 30
0.0
 10
10.7224179427
 20
41.364170522
 30
0.0
 10
11.513586641
 20
40.6141030565
 30
0.0
 10
12.3334958906
 20
39.9821873111
 30
0.0
 10
13.1653107232
 20
39.4816316064
 30
0.0
 10
13.8688996364
 20
39.1765374464
 30
0.0
 10
14.4211902923
 20
39.0120962526
 30
0.0
 10
14.9406206833
 20
38.9044789836
 30
0.0
 10
15.4532977459
 20
38.8697499318
 30
0.0
 10
15.9436551772
 20
38.9178807628
 30
0.0
 10
16.2891095505
 20
38.9927385737
 30
0.0
 10
16.6164634597
 20
39.1066017603
 30
0.0
 10
16.8218687765
 20
39.2084710233
 30
0.0
 10
16.9203222371
 20
39.2653125311
 30
0.0
  0
SPLINE
  5
2BC
100
AcDbEntity
  8
0
100
AcDbSpline
 62
7
  6
CONTINUOUS
 70
0
 71
3
 72
14
 73
10
 74
0
 42
0.0000001
 43
0.0000001
 44
0.0000000001
 40
0.0
 40
0.0
 40
0.0
 40
0.0
 40
0.1233396144
 40
0.2453691497
 40
0.3671008255
 40
0.4895802336
 40
0.6136287325
 40
0.7398489649
 40
1.0
 40
1.0
 40
1.0
 40
1.0
 10
25.7977104114
 20
22.0138558265
 30
0.0
 10
25.7979486308
 20
22.1522962923
 30
0.0
 10
25.8189990772
 20
22.4281259166
 30
0.0
 10
25.9118455442
 20
22.831105524
 30
0.0
 10
26.0637761906
 20
23.2147356633
 30
0.0
 10
26.2705296735
 20
23.5742031775
 30
0.0
 10
26.5270189679
 20
23.9063340035
 30
0.0
 10
26.9324337238
 20
24.3127358434
 30
0.0
 10
27.2908730837
 20
24.5644631851
 30
0.0
 10
27.5445358919
 20
24.7091030061
 30
0.0
  0
SPLINE
  5
2BD
100
AcDbEntity
  8
0
100
AcDbSpline
 62
7
  6
CONTINUOUS
 70
0
 71
3
 72
13
 73
9
 74
0
 42
0.0000001
 43
0.0000001
 44
0.0000000001
 40
0.0
 40
0.0
 40
0.0
 40
0.0
 40
0.2565312133
 40
0.5178326598
 40
0.6463037164
 40
0.7704659824
 40
0.8887063121
 40
1.0
 40
1.0
 40
1.0
 40
1.0
 10
17.0589659049
 20
38.522244372
 30
0.0
 10
17.1477898019
 20
38.4254803902
 30
0.0
 10
17.3562685084
 20
38.2555624127
 30
0.0
 10
17.6633101893
 20
38.1203670374
 30
0.0
 10
17.9224818254
 20
38.0696304864
 30
0.0
 10
18.1132795982
 20
38.0638924817
 30
0.0
 10
18.2933160278
 20
38.0918102372
 30
0.0
 10
18.4041940567
 20
38.1343413887
 30
0.0
 10
18.4544273378
 20
38.1612473337
 30
0.0
  0
SPLINE
  5
2BE
100
AcDbEntity
  8
0
100
AcDbSpline
 62
7
  6
CONTINUOUS
 70
0
 71
3
 72
15
 73
11
 74
0
 42
0.0000001
 43
0.0000001
 44
0.0000000001
 40
0.0
 40
0.0
 40
0.0
 40
0.0
 40
0.1485539541
 40
0.289507437
 40
0.4227307997
 40
0.5486388296
 40
0.668000075
 40
0.7819384522
 40
0.8919867325
 40
1.0
 40
1.0
 40
1.0
 40
1.0
 10
18.3150995915
 20
43.0550026926
 30
0.0
 10
18.3150995915
 20
42.8519080148
 30
0.0
 10
18.2986841017
 20
42.4558395647
 30
0.0
 10
18.2207808043
 20
41.882262949
 30
0.0
 10
18.0905173004
 20
41.349863211
 30
0.0
 10
17.9090100321
 20
40.8638699013
 30
0.0
 10
17.6776814869
 20
40.4289038552
 30
0.0
 10
17.3982554289
 20
40.0494313604
 30
0.0
 10
17.0733974318
 20
39.7296707139
 30
0.0
 10
16.8274989545
 20
39.5581297122
 30
0.0
 10
16.6996130308
 20
39.4842952036
 30
0.0
  0
SPLINE
  5
2BF
100
AcDbEntity
  8
0
100
AcDbSpline
 62
7
  6
CONTINUOUS
 70
0
 71
3
 72
9
 73
5
 74
0
 42
0.0000001
 43
0.0000001
 44
0.0000000001
 40
0.0
 40
0.0
 40
0.0
 40
0.0
 40
0.5204421486
 40
1.0
 40
1.0
 40
1.0
 40
1.0
 10
25.5951850511
 20
23.2114524753
 30
0.0
 10
25.5951849785
 20
23.0000494003
 30
0.0
 10
25.6325319449
 20
22.592968368
 30
0.0
 10
25.7362540425
 20
22.1987036686
 30
0.0
 10
25.7977113894
 20
22.0138565887
 30
0.0
  0
SPLINE
  5
2C0
100
AcDbEntity
  8
0
100
AcDbSpline
 62
7
  6
CONTINUOUS
 70
0
 71
3
 72
19
 73
15
 74
0
 42
0.0000001
 43
0.0000001
 44
0.0000000001
 40
0.0
 40
0.0
 40
0.0
 40
0.0
 40
0.0431661755
 40
0.0876028085
 40
0.1343906455
 40
0.1843378122
 40
0.2379365872
 40
0.295390126
 40
0.3566518827
 40
0.421473067
 40
0.5599244396
 40
0.7063147849
 40
0.8549818674
 40
1.0
 40
1.0
 40
1.0
 40
1.0
 10
11.6746502962
 20
47.6162862235
 30
0.0
 10
11.6283674308
 20
47.5895664279
 30
0.0
 10
11.5400488284
 20
47.5249596465
 30
0.0
 10
11.4283766961
 20
47.4001871591
 30
0.0
 10
11.3382068707
 20
47.2493418504
 30
0.0
 10
11.2707165846
 20
47.0750664693
 30
0.0
 10
11.2265516277
 20
46.8800612668
 30
0.0
 10
11.2061417387
 20
46.6672061246
 30
0.0
 10
11.209691457
 20
46.439585938
 30
0.0
 10
11.2470191925
 20
46.1137777434
 30
0.0
 10
11.3542084385
 20
45.6921310531
 30
0.0
 10
11.563621043
 20
45.1960243574
 30
0.0
 10
11.8445470113
 20
44.7272214006
 30
0.0
 10
12.0746850796
 20
44.4436630147
 30
0.0
 10
12.1986004689
 20
44.3137412592
 30
0.0
  0
SPLINE
  5
2C1
100
AcDbEntity
  8
0
100
AcDbSpline
 62
7
  6
CONTINUOUS
 70
0
 71
3
 72
10
 73
6
 74
0
 42
0.0000001
 43
0.0000001
 44
0.0000000001
 40
0.0
 40
0.0
 40
0.0
 40
0.0
 40
0.5127018036
 40
0.7581378625
 40
1.0
 40
1.0
 40
1.0
 40
1.0
 10
13.483061139
 20
43.6141801418
 30
0.0
 10
13.5614600213
 20
43.6120056238
 30
0.0
 10
13.6787604274
 20
43.6223909406
 30
0.0
 10
13.8251476481
 20
43.6681520284
 30
0.0
 10
13.892595356
 20
43.7006733236
 30
0.0
 10
13.9246371745
 20
43.7191715482
 30
0.0
  0
SPLINE
  5
2C2
100
AcDbEntity
  8
0
100
AcDbSpline
 62
7
  6
CONTINUOUS
 70
0
 71
3
 72
22
 73
18
 74
0
 42
0.0000001
 43
0.0000001
 44
0.0000000001
 40
0.0
 40
0.0
 40
0.0
 40
0.0
 40
0.0707470995
 40
0.1401601149
 40
0.2080148634
 40
0.2741208101
 40
0.3383980559
 40
0.4008585318
 40
0.4616611428
 40
0.5211102344
 40
0.579618574
 40
0.6376910583
 40
0.6958177054
 40
0.7544680088
 40
0.8139980194
 40
0.8746982843
 40
1.0
 40
1.0
 40
1.0
 40
1.0
 10
30.0872162799
 20
42.4897140834
 30
0.0
 10
30.4516615178
 20
42.1389538541
 30
0.0
 10
31.1450226272
 20
41.413393109
 30
0.0
 10
32.0723123801
 20
40.2478891664
 30
0.0
 10
32.8619570872
 20
39.0238438731
 30
0.0
 10
33.4994409966
 20
37.7545808886
 30
0.0
 10
33.9693051054
 20
36.4546492094
 30
0.0
 10
34.261804649
 20
35.1419887797
 30
0.0
 10
34.3665388025
 20
33.835415035
 30
0.0
 10
34.2825284887
 20
32.555312605
 30
0.0
 10
34.0088886312
 20
31.3218218493
 30
0.0
 10
33.5549841679
 20
30.1529488911
 30
0.0
 10
32.930167665
 20
29.0649312775
 30
0.0
 10
32.1506543191
 20
28.069202192
 30
0.0
 10
31.2311462683
 20
27.1748888688
 30
0.0
 10
29.8281783708
 20
26.1141911313
 30
0.0
 10
28.6333326353
 20
25.5009929458
 30
0.0
 10
27.801532801
 20
25.1682959501
 30
0.0
  0
SPLINE
  5
2C3
100
AcDbEntity
  8
0
100
AcDbSpline
 62
7
  6
CONTINUOUS
 70
0
 71
3
 72
12
 73
8
 74
0
 42
0.0000001
 43
0.0000001
 44
0.0000000001
 40
0.0
 40
0.0
 40
0.0
 40
0.0
 40
0.1203707971
 40
0.2413854355
 40
0.4866154536
 40
0.739023299
 40
1.0
 40
1.0
 40
1.0
 40
1.0
 10
25.5951850409
 20
23.2114524683
 30
0.0
 10
25.6449041352
 20
23.3219416075
 30
0.0
 10
25.7578581929
 20
23.5378089315
 30
0.0
 10
26.0330840239
 20
23.9439941413
 30
0.0
 10
26.4653541475
 20
24.399050592
 30
0.0
 10
27.0905524374
 20
24.8439961338
 30
0.0
 10
27.5576267172
 20
25.070747046
 30
0.0
 10
27.8015295863
 20
25.1683005897
 30
0.0
  0
SPLINE
  5
2C4
100
AcDbEntity
  8
0
100
AcDbSpline
 62
7
  6
CONTINUOUS
 70
0
 71
3
 72
16
 73
12
 74
0
 42
0.0000001
 43
0.0000001
 44
0.0000000001
 40
0.0
 40
0.0
 40
0.0
 40
0.0
 40
0.14999729
 40
0.2933587861
 40
0.4282098419
 40
0.4921354457
 40
0.5536756911
 40
0.6700987807
 40
0.7800924036
 40
0.8881999777
 40
1.0
 40
1.0
 40
1.0
 40
1.0
 10
13.1178354573
 20
47.0487768206
 30
0.0
 10
13.1178354573
 20
47.1005586808
 30
0.0
 10
13.1153145012
 20
47.2018768214
 30
0.0
 10
13.1001582302
 20
47.3491247621
 30
0.0
 10
13.0746297758
 20
47.4648493388
 30
0.0
 10
13.0453297286
 20
47.5499120874
 30
0.0
 10
13.0113952899
 20
47.6262982578
 30
0.0
 10
12.9578015951
 20
47.7110104665
 30
0.0
 10
12.8734258127
 20
47.7918477617
 30
0.0
 10
12.7710698982
 20
47.8451983236
 30
0.0
 10
12.6955063175
 20
47.8601249943
 30
0.0
 10
12.6570046336
 20
47.8628137148
 30
0.0
  0
SPLINE
  5
2C5
100
AcDbEntity
  8
0
100
AcDbSpline
 62
7
  6
CONTINUOUS
 70
0
 71
3
 72
15
 73
11
 74
0
 42
0.0000001
 43
0.0000001
 44
0.0000000001
 40
0.0
 40
0.0
 40
0.0
 40
0.0
 40
0.1161984939
 40
0.2428513252
 40
0.3756938214
 40
0.5102412657
 40
0.6422336386
 40
0.7684560279
 40
0.8875316732
 40
1.0
 40
1.0
 40
1.0
 40
1.0
 10
12.2693108527
 20
44.3545656746
 30
0.0
 10
12.3353786862
 20
44.3927097284
 30
0.0
 10
12.4649688723
 20
44.4874606109
 30
0.0
 10
12.6383062974
 20
44.6641131417
 30
0.0
 10
12.7921654041
 20
44.8730939714
 30
0.0
 10
12.919484078
 20
45.103105123
 30
0.0
 10
13.0157100676
 20
45.3430506044
 30
0.0
 10
13.0793005178
 20
45.5830859455
 30
0.0
 10
13.1123212302
 20
45.8161430806
 30
0.0
 10
13.1178354573
 20
45.9682855723
 30
0.0
 10
13.1178354573
 20
46.0421250339
 30
0.0
  0
SPLINE
  5
2C6
100
AcDbEntity
  8
0
100
AcDbSpline
 62
7
  6
CONTINUOUS
 70
0
 71
3
 72
18
 73
14
 74
0
 42
0.0000001
 43
0.0000001
 44
0.0000000001
 40
0.0
 40
0.0
 40
0.0
 40
0.0
 40
0.1421801586
 40
0.28806318
 40
0.4324103638
 40
0.5702971193
 40
0.6974349247
 40
0.7561025061
 40
0.8112143907
 40
0.8627931896
 40
0.911083355
 40
0.9565664789
 40
1.0
 40
1.0
 40
1.0
 40
1.0
 10
12.2693108527
 20
44.3545656746
 30
0.0
 10
12.1526244767
 20
44.4769080155
 30
0.0
 10
11.9347007905
 20
44.742931651
 30
0.0
 10
11.6643598547
 20
45.1819436426
 30
0.0
 10
11.4562819731
 20
45.6483105552
 30
0.0
 10
11.3213336711
 20
46.1177142608
 30
0.0
 10
11.2742895945
 20
46.5020012446
 30
0.0
 10
11.282097335
 20
46.7888410078
 30
0.0
 10
11.3090478689
 20
46.9840766932
 30
0.0
 10
11.3570814998
 20
47.1625570053
 30
0.0
 10
11.4256225269
 20
47.3219779346
 30
0.0
 10
11.5141237282
 20
47.4599586489
 30
0.0
 10
11.5869492812
 20
47.5376552671
 30
0.0
 10
11.6258655165
 20
47.5716097873
 30
0.0
  0
SPLINE
  5
2C7
100
AcDbEntity
  8
0
100
AcDbSpline
 62
7
  6
CONTINUOUS
 70
0
 71
3
 72
14
 73
10
 74
0
 42
0.0000001
 43
0.0000001
 44
0.0000000001
 40
0.0
 40
0.0
 40
0.0
 40
0.0
 40
0.3090696101
 40
0.4538026618
 40
0.5875885414
 40
0.7082027751
 40
0.8155850284
 40
0.9116210377
 40
1.0
 40
1.0
 40
1.0
 40
1.0
 10
27.8015295853
 20
25.1683005893
 30
0.0
 10
27.8243587521
 20
25.135351952
 30
0.0
 10
27.8614628173
 20
25.089138828
 30
0.0
 10
27.9178153622
 20
25.0376401844
 30
0.0
 10
27.9600942542
 20
25.0074951709
 30
0.0
 10
28.0021937431
 20
24.9862631497
 30
0.0
 10
28.0429389966
 20
24.974760776
 30
0.0
 10
28.0811539414
 20
24.9731178578
 30
0.0
 10
28.1047653186
 20
24.9788376163
 30
0.0
 10
28.1154088893
 20
24.9830918412
 30
0.0
  0
SPLINE
  5
2C8
100
AcDbEntity
  8
0
100
AcDbSpline
 62
7
  6
CONTINUOUS
 70
0
 71
3
 72
14
 73
10
 74
0
 42
0.0000001
 43
0.0000001
 44
0.0000000001
 40
0.0
 40
0.0
 40
0.0
 40
0.0
 40
0.2991997905
 40
0.4394303544
 40
0.570895008
 40
0.6924796111
 40
0.8038219344
 40
0.9057219023
 40
1.0
 40
1.0
 40
1.0
 40
1.0
 10
13.1178354573
 20
46.0421250339
 30
0.0
 10
13.073542659
 20
46.1382199359
 30
0.0
 10
13.0206437534
 20
46.2857410907
 30
0.0
 10
12.9831363981
 20
46.4844471034
 30
0.0
 10
12.9734320045
 20
46.6235675501
 30
0.0
 10
12.9817398187
 20
46.7526112918
 30
0.0
 10
13.0081359824
 20
46.8686744516
 30
0.0
 10
13.0523016245
 20
46.9688643505
 30
0.0
 10
13.0944341493
 20
47.0250276891
 30
0.0
 10
13.1178354573
 20
47.0487768206
 30
0.0
  0
SPLINE
  5
2C9
100
AcDbEntity
  8
0
100
AcDbSpline
 62
7
  6
CONTINUOUS
 70
0
 71
3
 72
23
 73
19
 74
0
 42
0.0000001
 43
0.0000001
 44
0.0000000001
 40
0.0
 40
0.0
 40
0.0
 40
0.0
 40
0.1407756155
 40
0.2092534886
 40
0.2429351712
 40
0.2762156154
 40
0.3415036467
 40
0.405099746
 40
0.4670639716
 40
0.5275603518
 40
0.5868592627
 40
0.6453175317
 40
0.7033431359
 40
0.7613534377
 40
0.8197341129
 40
0.8788134783
 40
0.9388430531
 40
1.0
 40
1.0
 40
1.0
 40
1.0
 10
30.477870533
 20
42.8907686353
 30
0.0
 10
31.1529571319
 20
42.2283604389
 30
0.0
 10
32.0855550508
 20
41.1652013058
 30
0.0
 10
32.9907233498
 20
39.8046950931
 30
0.0
 10
33.439292899
 20
39.0125575152
 30
0.0
 10
33.8384844573
 20
38.2184414758
 30
0.0
 10
34.2524396111
 20
37.2082239865
 30
0.0
 10
34.6044808523
 20
35.9723743644
 30
0.0
 10
34.8013578775
 20
34.7347142135
 30
0.0
 10
34.8383260801
 20
33.5106418671
 30
0.0
 10
34.7142018682
 20
32.3157889212
 30
0.0
 10
34.4313890233
 20
31.1652757236
 30
0.0
 10
33.9956833534
 20
30.0729155608
 30
0.0
 10
33.4158062254
 20
29.0505865175
 30
0.0
 10
32.7027921218
 20
28.1077114989
 30
0.0
 10
31.8687582169
 20
27.251362909
 30
0.0
 10
30.9264775566
 20
26.4866029391
 30
0.0
 10
30.2410097625
 20
26.0440508162
 30
0.0
 10
29.8851765617
 20
25.8386120503
 30
0.0
  0
SPLINE
  5
2CA
100
AcDbEntity
  8
0
100
AcDbSpline
 62
7
  6
CONTINUOUS
 70
0
 71
3
 72
11
 73
7
 74
0
 42
0.0000001
 43
0.0000001
 44
0.0000000001
 40
0.0
 40
0.0
 40
0.0
 40
0.0
 40
0.228951059
 40
0.4934734867
 40
0.7616864185
 40
1.0
 40
1.0
 40
1.0
 40
1.0
 10
30.0872162848
 20
42.4897140787
 30
0.0
 10
30.1218777871
 20
42.5149689871
 30
0.0
 10
30.1936530345
 20
42.5734456198
 30
0.0
 10
30.2970142652
 20
42.6719730983
 30
0.0
 10
30.3940990875
 20
42.7790714316
 30
0.0
 10
30.4523559372
 20
42.8541389343
 30
0.0
 10
30.4778705381
 20
42.8907686304
 30
0.0
  0
SPLINE
  5
2CB
100
AcDbEntity
  8
0
100
AcDbSpline
 62
7
  6
CONTINUOUS
 70
0
 71
3
 72
14
 73
10
 74
0
 42
0.0000001
 43
0.0000001
 44
0.0000000001
 40
0.0
 40
0.0
 40
0.0
 40
0.0
 40
0.2701211391
 40
0.4005400911
 40
0.5272766317
 40
0.6502646752
 40
0.769643986
 40
0.8859341689
 40
1.0
 40
1.0
 40
1.0
 40
1.0
 10
30.4778700281
 20
42.8907678776
 30
0.0
 10
30.2161192642
 20
43.127426167
 30
0.0
 10
29.8556199069
 20
43.5124009777
 30
0.0
 10
29.4682729063
 20
44.0832998352
 30
0.0
 10
29.2375178314
 20
44.524465831
 30
0.0
 10
29.0699094074
 20
44.9780827614
 30
0.0
 10
28.969760371
 20
45.43754506
 30
0.0
 10
28.9417802281
 20
45.8953664288
 30
0.0
 10
28.9718531138
 20
46.1963923675
 30
0.0
 10
28.9990757528
 20
46.3428953807
 30
0.0
  0
ENDSEC
  0
SECTION
  2
OBJECTS
  0
DICTIONARY
  5
C
100
AcDbDictionary
280
0
281
1
  3
ACAD_GROUP
350
D
  3
ACAD_MLINESTYLE
350
17
  3
ACAD_LAYOUT
350
1A
  3
ACAD_PLOTSETTINGS
350
19
  3
ACAD_PLOTSTYLENAME
350
E
  0
DICTIONARY
  5
D
102
{ACAD_REACTORS
330
C
102
}
100
AcDbDictionary
280
0
281
1
  0
ACDBDICTIONARYWDFLT
  5
E
102
{ACAD_REACTORS
330
C
102
}
100
AcDbDictionary
281
1
  3
Normal
350
F
100
AcDbDictionaryWithDefault
340
F
  0
DICTIONARY
  5
17
102
{ACAD_REACTORS
330
C
102
}
100
AcDbDictionary
280
0
281
1
  3
Standard
350
18
  0
DICTIONARY
  5
19
102
{ACAD_REACTORS
330
C
102
}
100
AcDbDictionary
281
1
  0
DICTIONARY
  5
1A
102
{ACAD_REACTORS
330
C
102
}
100
AcDbDictionary
281
1
  3
Model
350
2CC
  3
Layout1
350
2CD
  0
ACDBPLACEHOLDER
  5
F
102
{ACAD_REACTORS
330
E
102
}
  0
MLINESTYLE
  5
18
102
{ACAD_REACTORS
330
17
102
}
100
AcDbMlineStyle
  2
STANDARD
 70
0
  3

 62
256
 51
90.0
 52
90.0
 71
2
 49
0.5
 62
256
  6
BYLAYER
 49
-0.5
 62
256
  6
BYLAYER
  0
LAYOUT
  5
2CC
102
{ACAD_REACTORS
330
1A
102
}
100
AcDbPlotSettings
  1

  2
none_device
  4

  6

 40
0.0
 41
0.0
 42
0.0
 43
0.0
 44
210.0
 45
297.0
 46
0.0
 47
0.0
 48
0.0
 49
0.0
140
0.0
141
0.0
142
1.0
143
1.0
 70
1024
 72
1
 73
0
 74
0
  7

 75
0
147
1.0
148
0.0
149
0.0
100
AcDbLayout
  1
Model
 70
0
 71
0
 10
0.0
 20
0.0
 11
210.0
 21
297.0
 12
0.0
 22
0.0
 32
0.0
 14
0.0
 24
0.0
 34
0.0
 15
0.0
 25
0.0
 35
0.0
146
0.0
 13
0.0
 23
0.0
 33
0.0
 16
1.0
 26
0.0
 36
0.0
 17
0.0
 27
1.0
 37
0.0
 76
0
330
210
345
0
346
0
  0
LAYOUT
  5
2CD
102
{ACAD_REACTORS
330
1A
102
}
100
AcDbPlotSettings
  1

  2
none_device
  4

  6

 40
0.0
 41
0.0
 42
0.0
 43
0.0
 44
210.0
 45
297.0
 46
0.0
 47
0.0
 48
0.0
 49
0.0
140
0.0
141
0.0
142
1.0
143
1.0
 70
0
 72
1
 73
0
 74
0
  7

 75
0
147
1.0
148
0.0
149
0.0
100
AcDbLayout
  1
Layout1
 70
0
 71
1
 10
0.0
 20
0.0
 11
210.0
 21
297.0
 12
0.0
 22
0.0
 32
0.0
 14
0.0
 24
0.0
 34
0.0
 15
0.0
 25
0.0
 35
0.0
146
0.0
 13
0.0
 23
0.0
 33
0.0
 16
1.0
 26
0.0
 36
0.0
 17
0.0
 27
1.0
 37
0.0
 76
0
330
211
345
0
346
0
  0
ENDSEC
  0
EOF
