  0
SECTION
  2
HEADER
  9
$ACADVER
  1
AC1009
  9
$INSBASE
 10
0.0
 20
0.0
 30
0.0
  9
$EXTMIN
 10
230.155336
 20
130.417878
 30
0.0
  9
$EXTMAX
 10
250.182496
 20
142.449967
 30
0.0
  9
$LIMMIN
 10
0.0
 20
0.0
  9
$LIMMAX
 10
420.0
 20
297.0
  9
$ORTHOMODE
 70
     0
  9
$REGENMODE
 70
     1
  9
$FILLMODE
 70
     1
  9
$QTEXTMODE
 70
     0
  9
$MIRRTEXT
 70
     1
  9
$DRAGMODE
 70
     2
  9
$LTSCALE
 40
1.0
  9
$OSMODE
 70
     0
  9
$ATTMODE
 70
     1
  9
$TEXTSIZE
 40
2.5
  9
$TRACEWID
 40
1.0
  9
$TEXTSTYLE
  7
WMF-ARIAL1
  9
$CLAYER
  8
0
  9
$CELTYPE
  6
BYLAYER
  9
$CECOLOR
 62
   256
  9
$DIMSCALE
 40
1.0
  9
$DIMASZ
 40
2.5
  9
$DIMEXO
 40
0.625
  9
$DIMDLI
 40
3.75
  9
$DIMRND
 40
0.0
  9
$DIMDLE
 40
0.0
  9
$DIMEXE
 40
1.25
  9
$DIMTP
 40
0.0
  9
$DIMTM
 40
0.0
  9
$DIMTXT
 40
2.5
  9
$DIMCEN
 40
2.5
  9
$DIMTSZ
 40
0.0
  9
$DIMTOL
 70
     0
  9
$DIMLIM
 70
     0
  9
$DIMTIH
 70
     0
  9
$DIMTOH
 70
     0
  9
$DIMSE1
 70
     0
  9
$DIMSE2
 70
     0
  9
$DIMTAD
 70
     1
  9
$DIMZIN
 70
     8
  9
$DIMBLK
  1

  9
$DIMASO
 70
     1
  9
$DIMSHO
 70
     1
  9
$DIMPOST
  1

  9
$DIMAPOST
  1

  9
$DIMALT
 70
     0
  9
$DIMALTD
 70
     4
  9
$DIMALTF
 40
0.0394
  9
$DIMLFAC
 40
1.0
  9
$DIMTOFL
 70
     1
  9
$DIMTVP
 40
0.0
  9
$DIMTIX
 70
     0
  9
$DIMSOXD
 70
     0
  9
$DIMSAH
 70
     0
  9
$DIMBLK1
  1

  9
$DIMBLK2
  1

  9
$DIMSTYLE
  2
STANDARD
  9
$DIMCLRD
 70
     0
  9
$DIMCLRE
 70
     0
  9
$DIMCLRT
 70
     0
  9
$DIMTFAC
 40
1.0
  9
$DIMGAP
 40
0.625
  9
$LUNITS
 70
     2
  9
$LUPREC
 70
     4
  9
$SKETCHINC
 40
1.0
  9
$FILLETRAD
 40
10.0
  9
$AUNITS
 70
     0
  9
$AUPREC
 70
     0
  9
$MENU
  1
acad
  9
$ELEVATION
 40
0.0
  9
$PELEVATION
 40
0.0
  9
$THICKNESS
 40
0.0
  9
$LIMCHECK
 70
     0
  9
$BLIPMODE
 70
     0
  9
$CHAMFERA
 40
10.0
  9
$CHAMFERB
 40
10.0
  9
$SKPOLY
 70
     0
  9
$TDCREATE
 40
2452397.404554
  9
$TDUPDATE
 40
2452397.652459
  9
$TDINDWG
 40
0.016519
  9
$TDUSRTIMER
 40
0.016519
  9
$USRTIMER
 70
     1
  9
$ANGBASE
 50
0.0
  9
$ANGDIR
 70
     0
  9
$PDMODE
 70
     0
  9
$PDSIZE
 40
0.0
  9
$PLINEWID
 40
0.0
  9
$COORDS
 70
     1
  9
$SPLFRAME
 70
     0
  9
$SPLINETYPE
 70
     6
  9
$SPLINESEGS
 70
     8
  9
$ATTDIA
 70
     0
  9
$ATTREQ
 70
     1
  9
$HANDLING
 70
     1
  9
$HANDSEED
  5
11A5
  9
$SURFTAB1
 70
     6
  9
$SURFTAB2
 70
     6
  9
$SURFTYPE
 70
     6
  9
$SURFU
 70
     6
  9
$SURFV
 70
     6
  9
$UCSNAME
  2

  9
$UCSORG
 10
0.0
 20
0.0
 30
0.0
  9
$UCSXDIR
 10
1.0
 20
0.0
 30
0.0
  9
$UCSYDIR
 10
0.0
 20
1.0
 30
0.0
  9
$PUCSNAME
  2

  9
$PUCSORG
 10
0.0
 20
0.0
 30
0.0
  9
$PUCSXDIR
 10
1.0
 20
0.0
 30
0.0
  9
$PUCSYDIR
 10
0.0
 20
1.0
 30
0.0
  9
$USERI1
 70
     0
  9
$USERI2
 70
     0
  9
$USERI3
 70
     0
  9
$USERI4
 70
     0
  9
$USERI5
 70
     0
  9
$USERR1
 40
0.0
  9
$USERR2
 40
0.0
  9
$USERR3
 40
0.0
  9
$USERR4
 40
0.0
  9
$USERR5
 40
0.0
  9
$WORLDVIEW
 70
     1
  9
$SHADEDGE
 70
     3
  9
$SHADEDIF
 70
    70
  9
$TILEMODE
 70
     1
  9
$MAXACTVP
 70
    48
  9
$PLIMCHECK
 70
     0
  9
$PEXTMIN
 10
1.000000E+020
 20
1.000000E+020
 30
1.000000E+020
  9
$PEXTMAX
 10
-1.000000E+020
 20
-1.000000E+020
 30
-1.000000E+020
  9
$PLIMMIN
 10
0.0
 20
0.0
  9
$PLIMMAX
 10
420.0
 20
297.0
  9
$UNITMODE
 70
     0
  9
$VISRETAIN
 70
     1
  9
$PLINEGEN
 70
     0
  9
$PSLTSCALE
 70
     1
  0
ENDSEC
  0
SECTION
  2
TABLES
  0
TABLE
  2
VPORT
 70
     2
  0
VPORT
  2
*ACTIVE
 70
     0
 10
0.0
 20
0.0
 11
1.0
 21
1.0
 12
240.168916
 22
136.433922
 13
0.0
 23
0.0
 14
10.0
 24
10.0
 15
10.0
 25
10.0
 16
0.0
 26
0.0
 36
1.0
 17
0.0
 27
0.0
 37
0.0
 40
12.379706
 41
1.628676
 42
50.0
 43
0.0
 44
0.0
 50
0.0
 51
0.0
 71
     0
 72
   100
 73
     1
 74
     1
 75
     0
 76
     0
 77
     0
 78
     0
  0
ENDTAB
  0
TABLE
  2
LTYPE
 70
     1
  0
LTYPE
  2
CONTINUOUS
 70
     0
  3
Solid line
 72
    65
 73
     0
 40
0.0
  0
ENDTAB
  0
TABLE
  2
LAYER
 70
     2
  0
LAYER
  2
0
 70
     0
 62
     7
  6
CONTINUOUS
  0
ENDTAB
  0
TABLE
  2
STYLE
 70
     6
  0
STYLE
  2
STANDARD
 70
     0
 40
0.0
 41
1.0
 50
0.0
 71
     0
 42
2.5
  3
txt
  4

  0
STYLE
  2
STYLE_STD
 70
     0
 40
0.0
 41
1.0
 50
0.0
 71
     0
 42
2.5
  3
txt
  4

  0
STYLE
  2
STYLE_ITALIQUE
 70
     0
 40
0.0
 41
1.0
 50
0.0
 71
     0
 42
2.5
  3
txt
  4

  0
STYLE
  2
WMF-ARIAL1
 70
     0
 40
0.0
 41
1.0
 50
0.0
 71
     0
 42
2.5
  3
txt
  4

  0
STYLE
  2
WMF-ARIAL0
 70
     0
 40
0.0
 41
1.0
 50
0.0
 71
     0
 42
2.5
  3
txt
  4

  0
ENDTAB
  0
TABLE
  2
VIEW
 70
     0
  0
ENDTAB
  0
TABLE
  2
UCS
 70
     0
  0
ENDTAB
  0
TABLE
  2
APPID
 70
     1
  0
APPID
  2
ACAD
 70
     0
  0
ENDTAB
  0
TABLE
  2
DIMSTYLE
 70
     1
  0
DIMSTYLE
  2
STANDARD
 70
     0
  3

  4

  5

  6

  7

 40
1.0
 41
0.18
 42
0.0625
 43
0.38
 44
0.18
 45
0.0
 46
0.0
 47
0.0
 48
0.0
140
0.18
141
0.09
142
0.0
143
25.4
144
1.0
145
0.0
146
1.0
147
0.09
 71
     0
 72
     0
 73
     1
 74
     1
 75
     0
 76
     0
 77
     0
 78
     0
170
     0
171
     2
172
     0
173
     0
174
     0
175
     0
176
     0
177
     0
178
     0
  0
ENDTAB
  0
ENDSEC
  0
SECTION
  2
BLOCKS
  0
BLOCK
  8
0
  2
$MODEL_SPACE
 70
     0
 10
0.0
 20
0.0
 30
0.0
  3
$MODEL_SPACE
  1

  0
ENDBLK
  5
A75
  8
0
  0
BLOCK
 67
     1
  8
0
  2
$PAPER_SPACE
 70
     0
 10
0.0
 20
0.0
 30
0.0
  3
$PAPER_SPACE
  1

  0
ENDBLK
  5
A73
 67
     1
  8
0
  0
ENDSEC
  0
SECTION
  2
ENTITIES
  0
POLYLINE
  5
DCF
  8
0
 62
     7
 66
     1
 10
0.0
 20
0.0
 30
0.0
  0
VERTEX
  5
DD0
  8
0
 62
     7
 10
250.055979
 20
142.44783
 30
0.0
 40
0.20131
 41
0.20131
  0
VERTEX
  5
DD1
  8
0
 62
     7
 10
250.056195
 20
140.367651
 30
0.0
 40
0.20131
 41
0.20131
  0
VERTEX
  5
DD2
  8
0
 62
     7
 10
230.260669
 20
140.367651
 30
0.0
 40
0.20131
 41
0.20131
  0
SEQEND
  5
DD3
  8
0
 62
     7
  0
POLYLINE
  5
DD4
  8
0
 62
     7
 66
     1
 10
0.0
 20
0.0
 30
0.0
  0
VERTEX
  5
DD5
  8
0
 62
     7
 10
230.258863
 20
140.266443
 30
0.0
 40
0.20131
 41
0.20131
  0
VERTEX
  5
DD6
  8
0
 62
     7
 10
230.260669
 20
142.347203
 30
0.0
 40
0.20131
 41
0.20131
  0
VERTEX
  5
DD7
  8
0
 62
     7
 10
250.056195
 20
142.347203
 30
0.0
 40
0.20131
 41
0.20131
  0
SEQEND
  5
DD8
  8
0
 62
     7
  0
POLYLINE
  5
DE1
  8
0
 62
     7
 66
     1
 10
0.0
 20
0.0
 30
0.0
  0
VERTEX
  5
DE2
  8
0
 62
     7
 10
240.49395
 20
130.469887
 30
0.0
 40
0.067103
 41
0.067103
  0
VERTEX
  5
DE3
  8
0
 62
     7
 10
241.030777
 20
130.469887
 30
0.0
 40
0.067103
 41
0.067103
  0
SEQEND
  5
DE4
  8
0
 62
     7
  0
POLYLINE
  5
DE5
  8
0
 62
     7
 66
     1
 10
0.0
 20
0.0
 30
0.0
  0
VERTEX
  5
DE6
  8
0
 62
     7
 10
238.212431
 20
138.388098
 30
0.0
 40
0.067103
 41
0.067103
  0
VERTEX
  5
DE7
  8
0
 62
     7
 10
242.171536
 20
136.408545
 30
0.0
 40
0.067103
 41
0.067103
  0
SEQEND
  5
DE8
  8
0
 62
     7
  0
POLYLINE
  5
DE9
  8
0
 62
     7
 66
     1
 10
0.0
 20
0.0
 30
0.0
  0
VERTEX
  5
DEA
  8
0
 62
     7
 10
238.313086
 20
132.44944
 30
0.0
 40
0.067103
 41
0.067103
  0
VERTEX
  5
DEB
  8
0
 62
     7
 10
242.976778
 20
134.428993
 30
0.0
 40
0.067103
 41
0.067103
  0
SEQEND
  5
DEC
  8
0
 62
     7
  0
POLYLINE
  5
DED
  8
0
 62
     7
 66
     1
 10
0.0
 20
0.0
 30
0.0
  0
VERTEX
  5
DEE
  8
0
 62
     7
 10
230.294221
 20
135.032924
 30
0.0
 40
0.067103
 41
0.067103
  0
VERTEX
  5
DEF
  8
0
 62
     7
 10
230.294221
 20
134.496096
 30
0.0
 40
0.067103
 41
0.067103
  0
SEQEND
  5
DF0
  8
0
 62
     7
  0
POLYLINE
  5
DF1
  8
0
 62
     7
 66
     1
 10
0.0
 20
0.0
 30
0.0
  0
VERTEX
  5
DF2
  8
0
 62
     7
 10
232.374428
 20
132.44944
 30
0.0
 40
0.067103
 41
0.067103
  0
VERTEX
  5
DF3
  8
0
 62
     7
 10
238.313086
 20
132.44944
 30
0.0
 40
0.067103
 41
0.067103
  0
SEQEND
  5
DF4
  8
0
 62
     7
  0
POLYLINE
  5
DF5
  8
0
 62
     7
 66
     1
 10
0.0
 20
0.0
 30
0.0
  0
VERTEX
  5
DF6
  8
0
 62
     7
 10
230.294221
 20
131.208026
 30
0.0
 40
0.067103
 41
0.067103
  0
VERTEX
  5
DF7
  8
0
 62
     7
 10
230.294221
 20
130.671198
 30
0.0
 40
0.067103
 41
0.067103
  0
SEQEND
  5
DF8
  8
0
 62
     7
  0
POLYLINE
  5
DF9
  8
0
 62
     7
 66
     1
 10
0.0
 20
0.0
 30
0.0
  0
VERTEX
  5
DFA
  8
0
 62
     7
 10
230.294221
 20
131.610646
 30
0.0
 40
0.067103
 41
0.067103
  0
VERTEX
  5
DFB
  8
0
 62
     7
 10
230.294221
 20
131.543543
 30
0.0
 40
0.067103
 41
0.067103
  0
SEQEND
  5
DFC
  8
0
 62
     7
  0
POLYLINE
  5
DFD
  8
0
 62
     7
 66
     1
 10
0.0
 20
0.0
 30
0.0
  0
VERTEX
  5
DFE
  8
0
 62
     7
 10
230.294221
 20
132.482992
 30
0.0
 40
0.067103
 41
0.067103
  0
VERTEX
  5
DFF
  8
0
 62
     7
 10
230.294221
 20
131.946164
 30
0.0
 40
0.067103
 41
0.067103
  0
SEQEND
  5
E00
  8
0
 62
     7
  0
POLYLINE
  5
E01
  8
0
 62
     7
 66
     1
 10
0.0
 20
0.0
 30
0.0
  0
VERTEX
  5
E02
  8
0
 62
     7
 10
230.294221
 20
132.885613
 30
0.0
 40
0.067103
 41
0.067103
  0
VERTEX
  5
E03
  8
0
 62
     7
 10
230.294221
 20
132.818509
 30
0.0
 40
0.067103
 41
0.067103
  0
SEQEND
  5
E04
  8
0
 62
     7
  0
POLYLINE
  5
E05
  8
0
 62
     7
 66
     1
 10
0.0
 20
0.0
 30
0.0
  0
VERTEX
  5
E06
  8
0
 62
     7
 10
230.294221
 20
133.757958
 30
0.0
 40
0.067103
 41
0.067103
  0
VERTEX
  5
E07
  8
0
 62
     7
 10
230.294221
 20
133.22113
 30
0.0
 40
0.067103
 41
0.067103
  0
SEQEND
  5
E08
  8
0
 62
     7
  0
POLYLINE
  5
E09
  8
0
 62
     7
 66
     1
 10
0.0
 20
0.0
 30
0.0
  0
VERTEX
  5
E0A
  8
0
 62
     7
 10
230.294221
 20
134.160579
 30
0.0
 40
0.067103
 41
0.067103
  0
VERTEX
  5
E0B
  8
0
 62
     7
 10
230.294221
 20
134.093475
 30
0.0
 40
0.067103
 41
0.067103
  0
SEQEND
  5
E0C
  8
0
 62
     7
  0
POLYLINE
  5
E0D
  8
0
 62
     7
 66
     1
 10
0.0
 20
0.0
 30
0.0
  0
VERTEX
  5
E0E
  8
0
 62
     7
 10
232.441532
 20
130.469887
 30
0.0
 40
0.067103
 41
0.067103
  0
VERTEX
  5
E0F
  8
0
 62
     7
 10
232.508635
 20
130.469887
 30
0.0
 40
0.067103
 41
0.067103
  0
SEQEND
  5
E10
  8
0
 62
     7
  0
POLYLINE
  5
E11
  8
0
 62
     7
 66
     1
 10
0.0
 20
0.0
 30
0.0
  0
VERTEX
  5
E12
  8
0
 62
     7
 10
231.569187
 20
130.469887
 30
0.0
 40
0.067103
 41
0.067103
  0
VERTEX
  5
E13
  8
0
 62
     7
 10
232.106015
 20
130.469887
 30
0.0
 40
0.067103
 41
0.067103
  0
SEQEND
  5
E14
  8
0
 62
     7
  0
POLYLINE
  5
E15
  8
0
 62
     7
 66
     1
 10
0.0
 20
0.0
 30
0.0
  0
VERTEX
  5
E16
  8
0
 62
     7
 10
231.166566
 20
130.469887
 30
0.0
 40
0.067103
 41
0.067103
  0
VERTEX
  5
E17
  8
0
 62
     7
 10
231.233669
 20
130.469887
 30
0.0
 40
0.067103
 41
0.067103
  0
SEQEND
  5
E18
  8
0
 62
     7
  0
POLYLINE
  5
E19
  8
0
 62
     7
 66
     1
 10
0.0
 20
0.0
 30
0.0
  0
VERTEX
  5
E1A
  8
0
 62
     7
 10
230.294221
 20
130.469887
 30
0.0
 40
0.067103
 41
0.067103
  0
VERTEX
  5
E1B
  8
0
 62
     7
 10
230.831048
 20
130.469887
 30
0.0
 40
0.067103
 41
0.067103
  0
SEQEND
  5
E1C
  8
0
 62
     7
  0
POLYLINE
  5
E1D
  8
0
 62
     7
 66
     1
 10
0.0
 20
0.0
 30
0.0
  0
VERTEX
  5
E1E
  8
0
 62
     7
 10
236.669051
 20
130.469887
 30
0.0
 40
0.067103
 41
0.067103
  0
VERTEX
  5
E1F
  8
0
 62
     7
 10
237.205879
 20
130.469887
 30
0.0
 40
0.067103
 41
0.067103
  0
SEQEND
  5
E20
  8
0
 62
     7
  0
POLYLINE
  5
E21
  8
0
 62
     7
 66
     1
 10
0.0
 20
0.0
 30
0.0
  0
VERTEX
  5
E22
  8
0
 62
     7
 10
236.26643
 20
130.469887
 30
0.0
 40
0.067103
 41
0.067103
  0
VERTEX
  5
E23
  8
0
 62
     7
 10
236.333534
 20
130.469887
 30
0.0
 40
0.067103
 41
0.067103
  0
SEQEND
  5
E24
  8
0
 62
     7
  0
POLYLINE
  5
E25
  8
0
 62
     7
 66
     1
 10
0.0
 20
0.0
 30
0.0
  0
VERTEX
  5
E26
  8
0
 62
     7
 10
235.394085
 20
130.469887
 30
0.0
 40
0.067103
 41
0.067103
  0
VERTEX
  5
E27
  8
0
 62
     7
 10
235.930913
 20
130.469887
 30
0.0
 40
0.067103
 41
0.067103
  0
SEQEND
  5
E28
  8
0
 62
     7
  0
POLYLINE
  5
E29
  8
0
 62
     7
 66
     1
 10
0.0
 20
0.0
 30
0.0
  0
VERTEX
  5
E2A
  8
0
 62
     7
 10
234.991464
 20
130.469887
 30
0.0
 40
0.067103
 41
0.067103
  0
VERTEX
  5
E2B
  8
0
 62
     7
 10
235.058568
 20
130.469887
 30
0.0
 40
0.067103
 41
0.067103
  0
SEQEND
  5
E2C
  8
0
 62
     7
  0
POLYLINE
  5
E2D
  8
0
 62
     7
 66
     1
 10
0.0
 20
0.0
 30
0.0
  0
VERTEX
  5
E2E
  8
0
 62
     7
 10
234.119119
 20
130.469887
 30
0.0
 40
0.067103
 41
0.067103
  0
VERTEX
  5
E2F
  8
0
 62
     7
 10
234.655947
 20
130.469887
 30
0.0
 40
0.067103
 41
0.067103
  0
SEQEND
  5
E30
  8
0
 62
     7
  0
POLYLINE
  5
E31
  8
0
 62
     7
 66
     1
 10
0.0
 20
0.0
 30
0.0
  0
VERTEX
  5
E32
  8
0
 62
     7
 10
233.716498
 20
130.469887
 30
0.0
 40
0.067103
 41
0.067103
  0
VERTEX
  5
E33
  8
0
 62
     7
 10
233.783602
 20
130.469887
 30
0.0
 40
0.067103
 41
0.067103
  0
SEQEND
  5
E34
  8
0
 62
     7
  0
POLYLINE
  5
E35
  8
0
 62
     7
 66
     1
 10
0.0
 20
0.0
 30
0.0
  0
VERTEX
  5
E36
  8
0
 62
     7
 10
232.844153
 20
130.469887
 30
0.0
 40
0.067103
 41
0.067103
  0
VERTEX
  5
E37
  8
0
 62
     7
 10
233.380981
 20
130.469887
 30
0.0
 40
0.067103
 41
0.067103
  0
SEQEND
  5
E38
  8
0
 62
     7
  0
TEXT
  5
E39
  8
0
 62
     7
 10
233.146119
 20
132.885613
 30
0.0
 40
1.019973
  1
31/NC
  7
STYLE_STD
  0
POLYLINE
  5
E3A
  8
0
 62
     7
 66
     1
 10
0.0
 20
0.0
 30
0.0
  0
VERTEX
  5
E3B
  8
0
 62
     7
 10
240.158432
 20
133.724406
 30
0.0
 40
0.067103
 41
0.067103
  0
VERTEX
  5
E3C
  8
0
 62
     7
 10
240.158432
 20
133.22113
 30
0.0
 40
0.067103
 41
0.067103
  0
SEQEND
  5
E3D
  8
0
 62
     7
  0
POLYLINE
  5
E3E
  8
0
 62
     7
 66
     1
 10
0.0
 20
0.0
 30
0.0
  0
VERTEX
  5
E3F
  8
0
 62
     7
 10
240.158432
 20
134.596751
 30
0.0
 40
0.067103
 41
0.067103
  0
VERTEX
  5
E40
  8
0
 62
     7
 10
240.158432
 20
134.059923
 30
0.0
 40
0.067103
 41
0.067103
  0
SEQEND
  5
E41
  8
0
 62
     7
  0
POLYLINE
  5
E42
  8
0
 62
     7
 66
     1
 10
0.0
 20
0.0
 30
0.0
  0
VERTEX
  5
E43
  8
0
 62
     7
 10
240.091329
 20
130.469887
 30
0.0
 40
0.067103
 41
0.067103
  0
VERTEX
  5
E44
  8
0
 62
     7
 10
240.158432
 20
130.469887
 30
0.0
 40
0.067103
 41
0.067103
  0
SEQEND
  5
E45
  8
0
 62
     7
  0
POLYLINE
  5
E46
  8
0
 62
     7
 66
     1
 10
0.0
 20
0.0
 30
0.0
  0
VERTEX
  5
E47
  8
0
 62
     7
 10
239.218983
 20
130.469887
 30
0.0
 40
0.067103
 41
0.067103
  0
VERTEX
  5
E48
  8
0
 62
     7
 10
239.755811
 20
130.469887
 30
0.0
 40
0.067103
 41
0.067103
  0
SEQEND
  5
E49
  8
0
 62
     7
  0
POLYLINE
  5
E4A
  8
0
 62
     7
 66
     1
 10
0.0
 20
0.0
 30
0.0
  0
VERTEX
  5
E4B
  8
0
 62
     7
 10
238.816363
 20
130.469887
 30
0.0
 40
0.067103
 41
0.067103
  0
VERTEX
  5
E4C
  8
0
 62
     7
 10
238.883466
 20
130.469887
 30
0.0
 40
0.067103
 41
0.067103
  0
SEQEND
  5
E4D
  8
0
 62
     7
  0
POLYLINE
  5
E4E
  8
0
 62
     7
 66
     1
 10
0.0
 20
0.0
 30
0.0
  0
VERTEX
  5
E4F
  8
0
 62
     7
 10
237.944017
 20
130.469887
 30
0.0
 40
0.067103
 41
0.067103
  0
VERTEX
  5
E50
  8
0
 62
     7
 10
238.480845
 20
130.469887
 30
0.0
 40
0.067103
 41
0.067103
  0
SEQEND
  5
E51
  8
0
 62
     7
  0
POLYLINE
  5
E52
  8
0
 62
     7
 66
     1
 10
0.0
 20
0.0
 30
0.0
  0
VERTEX
  5
E53
  8
0
 62
     7
 10
237.541396
 20
130.469887
 30
0.0
 40
0.067103
 41
0.067103
  0
VERTEX
  5
E54
  8
0
 62
     7
 10
237.6085
 20
130.469887
 30
0.0
 40
0.067103
 41
0.067103
  0
SEQEND
  5
E55
  8
0
 62
     7
  0
TEXT
  5
E56
  8
0
 62
     7
 10
230.562635
 20
140.803823
 30
0.0
 40
1.019973
  1
LUFN11
  7
STYLE_STD
  0
POLYLINE
  5
E57
  8
0
 62
     7
 66
     1
 10
0.0
 20
0.0
 30
0.0
  0
VERTEX
  5
E58
  8
0
 62
     7
 10
232.609291
 20
140.367651
 30
0.0
 40
0.067103
 41
0.067103
  0
VERTEX
  5
E59
  8
0
 62
     7
 10
232.072463
 20
140.367651
 30
0.0
 40
0.067103
 41
0.067103
  0
SEQEND
  5
E5A
  8
0
 62
     7
  0
POLYLINE
  5
E5B
  8
0
 62
     7
 66
     1
 10
0.0
 20
0.0
 30
0.0
  0
VERTEX
  5
E5C
  8
0
 62
     7
 10
232.273773
 20
138.388098
 30
0.0
 40
0.067103
 41
0.067103
  0
VERTEX
  5
E5D
  8
0
 62
     7
 10
238.212431
 20
138.388098
 30
0.0
 40
0.067103
 41
0.067103
  0
SEQEND
  5
E5E
  8
0
 62
     7
  0
POLYLINE
  5
E5F
  8
0
 62
     7
 66
     1
 10
0.0
 20
0.0
 30
0.0
  0
VERTEX
  5
E60
  8
0
 62
     7
 10
230.294221
 20
135.435545
 30
0.0
 40
0.067103
 41
0.067103
  0
VERTEX
  5
E61
  8
0
 62
     7
 10
230.294221
 20
135.368441
 30
0.0
 40
0.067103
 41
0.067103
  0
SEQEND
  5
E62
  8
0
 62
     7
  0
POLYLINE
  5
E63
  8
0
 62
     7
 66
     1
 10
0.0
 20
0.0
 30
0.0
  0
VERTEX
  5
E64
  8
0
 62
     7
 10
230.294221
 20
136.30789
 30
0.0
 40
0.067103
 41
0.067103
  0
VERTEX
  5
E65
  8
0
 62
     7
 10
230.294221
 20
135.771062
 30
0.0
 40
0.067103
 41
0.067103
  0
SEQEND
  5
E66
  8
0
 62
     7
  0
POLYLINE
  5
E67
  8
0
 62
     7
 66
     1
 10
0.0
 20
0.0
 30
0.0
  0
VERTEX
  5
E68
  8
0
 62
     7
 10
230.294221
 20
136.710511
 30
0.0
 40
0.067103
 41
0.067103
  0
VERTEX
  5
E69
  8
0
 62
     7
 10
230.294221
 20
136.643407
 30
0.0
 40
0.067103
 41
0.067103
  0
SEQEND
  5
E6A
  8
0
 62
     7
  0
POLYLINE
  5
E6B
  8
0
 62
     7
 66
     1
 10
0.0
 20
0.0
 30
0.0
  0
VERTEX
  5
E6C
  8
0
 62
     7
 10
230.294221
 20
137.582856
 30
0.0
 40
0.067103
 41
0.067103
  0
VERTEX
  5
E6D
  8
0
 62
     7
 10
230.294221
 20
137.046028
 30
0.0
 40
0.067103
 41
0.067103
  0
SEQEND
  5
E6E
  8
0
 62
     7
  0
POLYLINE
  5
E6F
  8
0
 62
     7
 66
     1
 10
0.0
 20
0.0
 30
0.0
  0
VERTEX
  5
E70
  8
0
 62
     7
 10
230.294221
 20
137.985477
 30
0.0
 40
0.067103
 41
0.067103
  0
VERTEX
  5
E71
  8
0
 62
     7
 10
230.294221
 20
137.918374
 30
0.0
 40
0.067103
 41
0.067103
  0
SEQEND
  5
E72
  8
0
 62
     7
  0
POLYLINE
  5
E73
  8
0
 62
     7
 66
     1
 10
0.0
 20
0.0
 30
0.0
  0
VERTEX
  5
E74
  8
0
 62
     7
 10
230.294221
 20
138.857822
 30
0.0
 40
0.067103
 41
0.067103
  0
VERTEX
  5
E75
  8
0
 62
     7
 10
230.294221
 20
138.320994
 30
0.0
 40
0.067103
 41
0.067103
  0
SEQEND
  5
E76
  8
0
 62
     7
  0
POLYLINE
  5
E77
  8
0
 62
     7
 66
     1
 10
0.0
 20
0.0
 30
0.0
  0
VERTEX
  5
E78
  8
0
 62
     7
 10
230.294221
 20
139.260443
 30
0.0
 40
0.067103
 41
0.067103
  0
VERTEX
  5
E79
  8
0
 62
     7
 10
230.294221
 20
139.19334
 30
0.0
 40
0.067103
 41
0.067103
  0
SEQEND
  5
E7A
  8
0
 62
     7
  0
POLYLINE
  5
E7B
  8
0
 62
     7
 66
     1
 10
0.0
 20
0.0
 30
0.0
  0
VERTEX
  5
E7C
  8
0
 62
     7
 10
230.294221
 20
140.132788
 30
0.0
 40
0.067103
 41
0.067103
  0
VERTEX
  5
E7D
  8
0
 62
     7
 10
230.294221
 20
139.59596
 30
0.0
 40
0.067103
 41
0.067103
  0
SEQEND
  5
E7E
  8
0
 62
     7
  0
POLYLINE
  5
E7F
  8
0
 62
     7
 66
     1
 10
0.0
 20
0.0
 30
0.0
  0
VERTEX
  5
E80
  8
0
 62
     7
 10
230.461979
 20
140.367651
 30
0.0
 40
0.067103
 41
0.067103
  0
VERTEX
  5
E81
  8
0
 62
     7
 10
230.394876
 20
140.367651
 30
0.0
 40
0.067103
 41
0.067103
  0
SEQEND
  5
E82
  8
0
 62
     7
  0
POLYLINE
  5
E83
  8
0
 62
     7
 66
     1
 10
0.0
 20
0.0
 30
0.0
  0
VERTEX
  5
E84
  8
0
 62
     7
 10
231.334325
 20
140.367651
 30
0.0
 40
0.067103
 41
0.067103
  0
VERTEX
  5
E85
  8
0
 62
     7
 10
230.797497
 20
140.367651
 30
0.0
 40
0.067103
 41
0.067103
  0
SEQEND
  5
E86
  8
0
 62
     7
  0
POLYLINE
  5
E87
  8
0
 62
     7
 66
     1
 10
0.0
 20
0.0
 30
0.0
  0
VERTEX
  5
E88
  8
0
 62
     7
 10
231.736945
 20
140.367651
 30
0.0
 40
0.067103
 41
0.067103
  0
VERTEX
  5
E89
  8
0
 62
     7
 10
231.669842
 20
140.367651
 30
0.0
 40
0.067103
 41
0.067103
  0
SEQEND
  5
E8A
  8
0
 62
     7
  0
TEXT
  5
E8B
  8
0
 62
     7
 10
233.213222
 20
138.82427
 30
0.0
 40
1.019973
  1
43/NO
  7
STYLE_STD
  0
POLYLINE
  5
E8C
  8
0
 62
     7
 66
     1
 10
0.0
 20
0.0
 30
0.0
  0
VERTEX
  5
E8D
  8
0
 62
     7
 10
233.011912
 20
140.367651
 30
0.0
 40
0.067103
 41
0.067103
  0
VERTEX
  5
E8E
  8
0
 62
     7
 10
232.944808
 20
140.367651
 30
0.0
 40
0.067103
 41
0.067103
  0
SEQEND
  5
E8F
  8
0
 62
     7
  0
POLYLINE
  5
E90
  8
0
 62
     7
 66
     1
 10
0.0
 20
0.0
 30
0.0
  0
VERTEX
  5
E91
  8
0
 62
     7
 10
233.884257
 20
140.367651
 30
0.0
 40
0.067103
 41
0.067103
  0
VERTEX
  5
E92
  8
0
 62
     7
 10
233.347429
 20
140.367651
 30
0.0
 40
0.067103
 41
0.067103
  0
SEQEND
  5
E93
  8
0
 62
     7
  0
POLYLINE
  5
E94
  8
0
 62
     7
 66
     1
 10
0.0
 20
0.0
 30
0.0
  0
VERTEX
  5
E95
  8
0
 62
     7
 10
234.286878
 20
140.367651
 30
0.0
 40
0.067103
 41
0.067103
  0
VERTEX
  5
E96
  8
0
 62
     7
 10
234.219774
 20
140.367651
 30
0.0
 40
0.067103
 41
0.067103
  0
SEQEND
  5
E97
  8
0
 62
     7
  0
POLYLINE
  5
E98
  8
0
 62
     7
 66
     1
 10
0.0
 20
0.0
 30
0.0
  0
VERTEX
  5
E99
  8
0
 62
     7
 10
235.159223
 20
140.367651
 30
0.0
 40
0.067103
 41
0.067103
  0
VERTEX
  5
E9A
  8
0
 62
     7
 10
234.622395
 20
140.367651
 30
0.0
 40
0.067103
 41
0.067103
  0
SEQEND
  5
E9B
  8
0
 62
     7
  0
POLYLINE
  5
E9C
  8
0
 62
     7
 66
     1
 10
0.0
 20
0.0
 30
0.0
  0
VERTEX
  5
E9D
  8
0
 62
     7
 10
235.561844
 20
140.367651
 30
0.0
 40
0.067103
 41
0.067103
  0
VERTEX
  5
E9E
  8
0
 62
     7
 10
235.49474
 20
140.367651
 30
0.0
 40
0.067103
 41
0.067103
  0
SEQEND
  5
E9F
  8
0
 62
     7
  0
POLYLINE
  5
EA0
  8
0
 62
     7
 66
     1
 10
0.0
 20
0.0
 30
0.0
  0
VERTEX
  5
EA1
  8
0
 62
     7
 10
236.434189
 20
140.367651
 30
0.0
 40
0.067103
 41
0.067103
  0
VERTEX
  5
EA2
  8
0
 62
     7
 10
235.897361
 20
140.367651
 30
0.0
 40
0.067103
 41
0.067103
  0
SEQEND
  5
EA3
  8
0
 62
     7
  0
POLYLINE
  5
EA4
  8
0
 62
     7
 66
     1
 10
0.0
 20
0.0
 30
0.0
  0
VERTEX
  5
EA5
  8
0
 62
     7
 10
240.158432
 20
135.469097
 30
0.0
 40
0.067103
 41
0.067103
  0
VERTEX
  5
EA6
  8
0
 62
     7
 10
240.158432
 20
134.932269
 30
0.0
 40
0.067103
 41
0.067103
  0
SEQEND
  5
EA7
  8
0
 62
     7
  0
POLYLINE
  5
EA8
  8
0
 62
     7
 66
     1
 10
0.0
 20
0.0
 30
0.0
  0
VERTEX
  5
EA9
  8
0
 62
     7
 10
240.158432
 20
136.341442
 30
0.0
 40
0.067103
 41
0.067103
  0
VERTEX
  5
EAA
  8
0
 62
     7
 10
240.158432
 20
135.804614
 30
0.0
 40
0.067103
 41
0.067103
  0
SEQEND
  5
EAB
  8
0
 62
     7
  0
POLYLINE
  5
EAC
  8
0
 62
     7
 66
     1
 10
0.0
 20
0.0
 30
0.0
  0
VERTEX
  5
EAD
  8
0
 62
     7
 10
240.158432
 20
137.213787
 30
0.0
 40
0.067103
 41
0.067103
  0
VERTEX
  5
EAE
  8
0
 62
     7
 10
240.158432
 20
136.676959
 30
0.0
 40
0.067103
 41
0.067103
  0
SEQEND
  5
EAF
  8
0
 62
     7
  0
POLYLINE
  5
EB0
  8
0
 62
     7
 66
     1
 10
0.0
 20
0.0
 30
0.0
  0
VERTEX
  5
EB1
  8
0
 62
     7
 10
236.83681
 20
140.367651
 30
0.0
 40
0.067103
 41
0.067103
  0
VERTEX
  5
EB2
  8
0
 62
     7
 10
236.769706
 20
140.367651
 30
0.0
 40
0.067103
 41
0.067103
  0
SEQEND
  5
EB3
  8
0
 62
     7
  0
POLYLINE
  5
EB4
  8
0
 62
     7
 66
     1
 10
0.0
 20
0.0
 30
0.0
  0
VERTEX
  5
EB5
  8
0
 62
     7
 10
237.709155
 20
140.367651
 30
0.0
 40
0.067103
 41
0.067103
  0
VERTEX
  5
EB6
  8
0
 62
     7
 10
237.172327
 20
140.367651
 30
0.0
 40
0.067103
 41
0.067103
  0
SEQEND
  5
EB7
  8
0
 62
     7
  0
POLYLINE
  5
EB8
  8
0
 62
     7
 66
     1
 10
0.0
 20
0.0
 30
0.0
  0
VERTEX
  5
EB9
  8
0
 62
     7
 10
238.111776
 20
140.367651
 30
0.0
 40
0.067103
 41
0.067103
  0
VERTEX
  5
EBA
  8
0
 62
     7
 10
238.044673
 20
140.367651
 30
0.0
 40
0.067103
 41
0.067103
  0
SEQEND
  5
EBB
  8
0
 62
     7
  0
POLYLINE
  5
EBC
  8
0
 62
     7
 66
     1
 10
0.0
 20
0.0
 30
0.0
  0
VERTEX
  5
EBD
  8
0
 62
     7
 10
238.984121
 20
140.367651
 30
0.0
 40
0.067103
 41
0.067103
  0
VERTEX
  5
EBE
  8
0
 62
     7
 10
238.447293
 20
140.367651
 30
0.0
 40
0.067103
 41
0.067103
  0
SEQEND
  5
EBF
  8
0
 62
     7
  0
POLYLINE
  5
EC0
  8
0
 62
     7
 66
     1
 10
0.0
 20
0.0
 30
0.0
  0
VERTEX
  5
EC1
  8
0
 62
     7
 10
239.386742
 20
140.367651
 30
0.0
 40
0.067103
 41
0.067103
  0
VERTEX
  5
EC2
  8
0
 62
     7
 10
239.319639
 20
140.367651
 30
0.0
 40
0.067103
 41
0.067103
  0
SEQEND
  5
EC3
  8
0
 62
     7
  0
POLYLINE
  5
EC4
  8
0
 62
     7
 66
     1
 10
0.0
 20
0.0
 30
0.0
  0
VERTEX
  5
EC5
  8
0
 62
     7
 10
240.259087
 20
140.367651
 30
0.0
 40
0.067103
 41
0.067103
  0
VERTEX
  5
EC6
  8
0
 62
     7
 10
239.722259
 20
140.367651
 30
0.0
 40
0.067103
 41
0.067103
  0
SEQEND
  5
EC7
  8
0
 62
     7
  0
POLYLINE
  5
EC8
  8
0
 62
     7
 66
     1
 10
0.0
 20
0.0
 30
0.0
  0
VERTEX
  5
EC9
  8
0
 62
     7
 10
240.661708
 20
140.367651
 30
0.0
 40
0.067103
 41
0.067103
  0
VERTEX
  5
ECA
  8
0
 62
     7
 10
240.594605
 20
140.367651
 30
0.0
 40
0.067103
 41
0.067103
  0
SEQEND
  5
ECB
  8
0
 62
     7
  0
TEXT
  5
ECC
  8
0
 62
     7
 10
243.278744
 20
132.885613
 30
0.0
 40
1.019973
  1
32/NC
  7
STYLE_STD
  0
POLYLINE
  5
ECD
  8
0
 62
     7
 66
     1
 10
0.0
 20
0.0
 30
0.0
  0
VERTEX
  5
ECE
  8
0
 62
     7
 10
242.272192
 20
134.428993
 30
0.0
 40
0.067103
 41
0.067103
  0
VERTEX
  5
ECF
  8
0
 62
     7
 10
242.272192
 20
132.44944
 30
0.0
 40
0.067103
 41
0.067103
  0
VERTEX
  5
ED0
  8
0
 62
     7
 10
248.21085
 20
132.44944
 30
0.0
 40
0.067103
 41
0.067103
  0
SEQEND
  5
ED1
  8
0
 62
     7
  0
POLYLINE
  5
ED2
  8
0
 62
     7
 66
     1
 10
0.0
 20
0.0
 30
0.0
  0
VERTEX
  5
ED3
  8
0
 62
     7
 10
244.318848
 20
130.469887
 30
0.0
 40
0.067103
 41
0.067103
  0
VERTEX
  5
ED4
  8
0
 62
     7
 10
244.855676
 20
130.469887
 30
0.0
 40
0.067103
 41
0.067103
  0
SEQEND
  5
ED5
  8
0
 62
     7
  0
POLYLINE
  5
ED6
  8
0
 62
     7
 66
     1
 10
0.0
 20
0.0
 30
0.0
  0
VERTEX
  5
ED7
  8
0
 62
     7
 10
243.916227
 20
130.469887
 30
0.0
 40
0.067103
 41
0.067103
  0
VERTEX
  5
ED8
  8
0
 62
     7
 10
243.98333
 20
130.469887
 30
0.0
 40
0.067103
 41
0.067103
  0
SEQEND
  5
ED9
  8
0
 62
     7
  0
POLYLINE
  5
EDA
  8
0
 62
     7
 66
     1
 10
0.0
 20
0.0
 30
0.0
  0
VERTEX
  5
EDB
  8
0
 62
     7
 10
243.043882
 20
130.469887
 30
0.0
 40
0.067103
 41
0.067103
  0
VERTEX
  5
EDC
  8
0
 62
     7
 10
243.58071
 20
130.469887
 30
0.0
 40
0.067103
 41
0.067103
  0
SEQEND
  5
EDD
  8
0
 62
     7
  0
POLYLINE
  5
EDE
  8
0
 62
     7
 66
     1
 10
0.0
 20
0.0
 30
0.0
  0
VERTEX
  5
EDF
  8
0
 62
     7
 10
242.641261
 20
130.469887
 30
0.0
 40
0.067103
 41
0.067103
  0
VERTEX
  5
EE0
  8
0
 62
     7
 10
242.708364
 20
130.469887
 30
0.0
 40
0.067103
 41
0.067103
  0
SEQEND
  5
EE1
  8
0
 62
     7
  0
POLYLINE
  5
EE2
  8
0
 62
     7
 66
     1
 10
0.0
 20
0.0
 30
0.0
  0
VERTEX
  5
EE3
  8
0
 62
     7
 10
241.768916
 20
130.469887
 30
0.0
 40
0.067103
 41
0.067103
  0
VERTEX
  5
EE4
  8
0
 62
     7
 10
242.305743
 20
130.469887
 30
0.0
 40
0.067103
 41
0.067103
  0
SEQEND
  5
EE5
  8
0
 62
     7
  0
POLYLINE
  5
EE6
  8
0
 62
     7
 66
     1
 10
0.0
 20
0.0
 30
0.0
  0
VERTEX
  5
EE7
  8
0
 62
     7
 10
241.366295
 20
130.469887
 30
0.0
 40
0.067103
 41
0.067103
  0
VERTEX
  5
EE8
  8
0
 62
     7
 10
241.433398
 20
130.469887
 30
0.0
 40
0.067103
 41
0.067103
  0
SEQEND
  5
EE9
  8
0
 62
     7
  0
POLYLINE
  5
EEA
  8
0
 62
     7
 66
     1
 10
0.0
 20
0.0
 30
0.0
  0
VERTEX
  5
EEB
  8
0
 62
     7
 10
248.143746
 20
130.469887
 30
0.0
 40
0.067103
 41
0.067103
  0
VERTEX
  5
EEC
  8
0
 62
     7
 10
248.680574
 20
130.469887
 30
0.0
 40
0.067103
 41
0.067103
  0
SEQEND
  5
EED
  8
0
 62
     7
  0
POLYLINE
  5
EEE
  8
0
 62
     7
 66
     1
 10
0.0
 20
0.0
 30
0.0
  0
VERTEX
  5
EEF
  8
0
 62
     7
 10
247.741125
 20
130.469887
 30
0.0
 40
0.067103
 41
0.067103
  0
VERTEX
  5
EF0
  8
0
 62
     7
 10
247.808229
 20
130.469887
 30
0.0
 40
0.067103
 41
0.067103
  0
SEQEND
  5
EF1
  8
0
 62
     7
  0
POLYLINE
  5
EF2
  8
0
 62
     7
 66
     1
 10
0.0
 20
0.0
 30
0.0
  0
VERTEX
  5
EF3
  8
0
 62
     7
 10
246.86878
 20
130.469887
 30
0.0
 40
0.067103
 41
0.067103
  0
VERTEX
  5
EF4
  8
0
 62
     7
 10
247.405608
 20
130.469887
 30
0.0
 40
0.067103
 41
0.067103
  0
SEQEND
  5
EF5
  8
0
 62
     7
  0
POLYLINE
  5
EF6
  8
0
 62
     7
 66
     1
 10
0.0
 20
0.0
 30
0.0
  0
VERTEX
  5
EF7
  8
0
 62
     7
 10
246.466159
 20
130.469887
 30
0.0
 40
0.067103
 41
0.067103
  0
VERTEX
  5
EF8
  8
0
 62
     7
 10
246.533263
 20
130.469887
 30
0.0
 40
0.067103
 41
0.067103
  0
SEQEND
  5
EF9
  8
0
 62
     7
  0
POLYLINE
  5
EFA
  8
0
 62
     7
 66
     1
 10
0.0
 20
0.0
 30
0.0
  0
VERTEX
  5
EFB
  8
0
 62
     7
 10
245.593814
 20
130.469887
 30
0.0
 40
0.067103
 41
0.067103
  0
VERTEX
  5
EFC
  8
0
 62
     7
 10
246.130642
 20
130.469887
 30
0.0
 40
0.067103
 41
0.067103
  0
SEQEND
  5
EFD
  8
0
 62
     7
  0
POLYLINE
  5
EFE
  8
0
 62
     7
 66
     1
 10
0.0
 20
0.0
 30
0.0
  0
VERTEX
  5
EFF
  8
0
 62
     7
 10
245.191193
 20
130.469887
 30
0.0
 40
0.067103
 41
0.067103
  0
VERTEX
  5
F00
  8
0
 62
     7
 10
245.258297
 20
130.469887
 30
0.0
 40
0.067103
 41
0.067103
  0
SEQEND
  5
F01
  8
0
 62
     7
  0
POLYLINE
  5
F02
  8
0
 62
     7
 66
     1
 10
0.0
 20
0.0
 30
0.0
  0
VERTEX
  5
F03
  8
0
 62
     7
 10
250.089747
 20
134.496096
 30
0.0
 40
0.067103
 41
0.067103
  0
VERTEX
  5
F04
  8
0
 62
     7
 10
250.089747
 20
134.5632
 30
0.0
 40
0.067103
 41
0.067103
  0
SEQEND
  5
F05
  8
0
 62
     7
  0
POLYLINE
  5
F06
  8
0
 62
     7
 66
     1
 10
0.0
 20
0.0
 30
0.0
  0
VERTEX
  5
F07
  8
0
 62
     7
 10
250.089747
 20
133.623751
 30
0.0
 40
0.067103
 41
0.067103
  0
VERTEX
  5
F08
  8
0
 62
     7
 10
250.089747
 20
134.160579
 30
0.0
 40
0.067103
 41
0.067103
  0
SEQEND
  5
F09
  8
0
 62
     7
  0
POLYLINE
  5
F0A
  8
0
 62
     7
 66
     1
 10
0.0
 20
0.0
 30
0.0
  0
VERTEX
  5
F0B
  8
0
 62
     7
 10
250.089747
 20
133.22113
 30
0.0
 40
0.067103
 41
0.067103
  0
VERTEX
  5
F0C
  8
0
 62
     7
 10
250.089747
 20
133.288233
 30
0.0
 40
0.067103
 41
0.067103
  0
SEQEND
  5
F0D
  8
0
 62
     7
  0
POLYLINE
  5
F0E
  8
0
 62
     7
 66
     1
 10
0.0
 20
0.0
 30
0.0
  0
VERTEX
  5
F0F
  8
0
 62
     7
 10
250.089747
 20
132.348785
 30
0.0
 40
0.067103
 41
0.067103
  0
VERTEX
  5
F10
  8
0
 62
     7
 10
250.089747
 20
132.885613
 30
0.0
 40
0.067103
 41
0.067103
  0
SEQEND
  5
F11
  8
0
 62
     7
  0
POLYLINE
  5
F12
  8
0
 62
     7
 66
     1
 10
0.0
 20
0.0
 30
0.0
  0
VERTEX
  5
F13
  8
0
 62
     7
 10
250.089747
 20
131.946164
 30
0.0
 40
0.067103
 41
0.067103
  0
VERTEX
  5
F14
  8
0
 62
     7
 10
250.089747
 20
132.013267
 30
0.0
 40
0.067103
 41
0.067103
  0
SEQEND
  5
F15
  8
0
 62
     7
  0
POLYLINE
  5
F16
  8
0
 62
     7
 66
     1
 10
0.0
 20
0.0
 30
0.0
  0
VERTEX
  5
F17
  8
0
 62
     7
 10
250.089747
 20
131.073819
 30
0.0
 40
0.067103
 41
0.067103
  0
VERTEX
  5
F18
  8
0
 62
     7
 10
250.089747
 20
131.610646
 30
0.0
 40
0.067103
 41
0.067103
  0
SEQEND
  5
F19
  8
0
 62
     7
  0
POLYLINE
  5
F1A
  8
0
 62
     7
 66
     1
 10
0.0
 20
0.0
 30
0.0
  0
VERTEX
  5
F1B
  8
0
 62
     7
 10
250.089747
 20
130.671198
 30
0.0
 40
0.067103
 41
0.067103
  0
VERTEX
  5
F1C
  8
0
 62
     7
 10
250.089747
 20
130.738301
 30
0.0
 40
0.067103
 41
0.067103
  0
SEQEND
  5
F1D
  8
0
 62
     7
  0
POLYLINE
  5
F1E
  8
0
 62
     7
 66
     1
 10
0.0
 20
0.0
 30
0.0
  0
VERTEX
  5
F1F
  8
0
 62
     7
 10
249.418712
 20
130.469887
 30
0.0
 40
0.067103
 41
0.067103
  0
VERTEX
  5
F20
  8
0
 62
     7
 10
249.95554
 20
130.469887
 30
0.0
 40
0.067103
 41
0.067103
  0
SEQEND
  5
F21
  8
0
 62
     7
  0
POLYLINE
  5
F22
  8
0
 62
     7
 66
     1
 10
0.0
 20
0.0
 30
0.0
  0
VERTEX
  5
F23
  8
0
 62
     7
 10
249.016091
 20
130.469887
 30
0.0
 40
0.067103
 41
0.067103
  0
VERTEX
  5
F24
  8
0
 62
     7
 10
249.083195
 20
130.469887
 30
0.0
 40
0.067103
 41
0.067103
  0
SEQEND
  5
F25
  8
0
 62
     7
  0
POLYLINE
  5
F26
  8
0
 62
     7
 66
     1
 10
0.0
 20
0.0
 30
0.0
  0
VERTEX
  5
F27
  8
0
 62
     7
 10
249.18385
 20
140.367651
 30
0.0
 40
0.067103
 41
0.067103
  0
VERTEX
  5
F28
  8
0
 62
     7
 10
248.647022
 20
140.367651
 30
0.0
 40
0.067103
 41
0.067103
  0
SEQEND
  5
F29
  8
0
 62
     7
  0
TEXT
  5
F2A
  8
0
 62
     7
 10
243.110985
 20
138.82427
 30
0.0
 40
1.019973
  1
44/NO
  7
STYLE_STD
  0
POLYLINE
  5
F2B
  8
0
 62
     7
 66
     1
 10
0.0
 20
0.0
 30
0.0
  0
VERTEX
  5
F2C
  8
0
 62
     7
 10
245.358952
 20
140.367651
 30
0.0
 40
0.067103
 41
0.067103
  0
VERTEX
  5
F2D
  8
0
 62
     7
 10
244.822124
 20
140.367651
 30
0.0
 40
0.067103
 41
0.067103
  0
SEQEND
  5
F2E
  8
0
 62
     7
  0
POLYLINE
  5
F2F
  8
0
 62
     7
 66
     1
 10
0.0
 20
0.0
 30
0.0
  0
VERTEX
  5
F30
  8
0
 62
     7
 10
242.171536
 20
138.388098
 30
0.0
 40
0.067103
 41
0.067103
  0
VERTEX
  5
F31
  8
0
 62
     7
 10
248.110194
 20
138.388098
 30
0.0
 40
0.067103
 41
0.067103
  0
SEQEND
  5
F32
  8
0
 62
     7
  0
POLYLINE
  5
F33
  8
0
 62
     7
 66
     1
 10
0.0
 20
0.0
 30
0.0
  0
VERTEX
  5
F34
  8
0
 62
     7
 10
241.534053
 20
140.367651
 30
0.0
 40
0.067103
 41
0.067103
  0
VERTEX
  5
F35
  8
0
 62
     7
 10
240.997226
 20
140.367651
 30
0.0
 40
0.067103
 41
0.067103
  0
SEQEND
  5
F36
  8
0
 62
     7
  0
POLYLINE
  5
F37
  8
0
 62
     7
 66
     1
 10
0.0
 20
0.0
 30
0.0
  0
VERTEX
  5
F38
  8
0
 62
     7
 10
241.936674
 20
140.367651
 30
0.0
 40
0.067103
 41
0.067103
  0
VERTEX
  5
F39
  8
0
 62
     7
 10
241.869571
 20
140.367651
 30
0.0
 40
0.067103
 41
0.067103
  0
SEQEND
  5
F3A
  8
0
 62
     7
  0
POLYLINE
  5
F3B
  8
0
 62
     7
 66
     1
 10
0.0
 20
0.0
 30
0.0
  0
VERTEX
  5
F3C
  8
0
 62
     7
 10
242.80902
 20
140.367651
 30
0.0
 40
0.067103
 41
0.067103
  0
VERTEX
  5
F3D
  8
0
 62
     7
 10
242.272192
 20
140.367651
 30
0.0
 40
0.067103
 41
0.067103
  0
SEQEND
  5
F3E
  8
0
 62
     7
  0
POLYLINE
  5
F3F
  8
0
 62
     7
 66
     1
 10
0.0
 20
0.0
 30
0.0
  0
VERTEX
  5
F40
  8
0
 62
     7
 10
243.21164
 20
140.367651
 30
0.0
 40
0.067103
 41
0.067103
  0
VERTEX
  5
F41
  8
0
 62
     7
 10
243.144537
 20
140.367651
 30
0.0
 40
0.067103
 41
0.067103
  0
SEQEND
  5
F42
  8
0
 62
     7
  0
POLYLINE
  5
F43
  8
0
 62
     7
 66
     1
 10
0.0
 20
0.0
 30
0.0
  0
VERTEX
  5
F44
  8
0
 62
     7
 10
244.083986
 20
140.367651
 30
0.0
 40
0.067103
 41
0.067103
  0
VERTEX
  5
F45
  8
0
 62
     7
 10
243.547158
 20
140.367651
 30
0.0
 40
0.067103
 41
0.067103
  0
SEQEND
  5
F46
  8
0
 62
     7
  0
POLYLINE
  5
F47
  8
0
 62
     7
 66
     1
 10
0.0
 20
0.0
 30
0.0
  0
VERTEX
  5
F48
  8
0
 62
     7
 10
244.486607
 20
140.367651
 30
0.0
 40
0.067103
 41
0.067103
  0
VERTEX
  5
F49
  8
0
 62
     7
 10
244.419503
 20
140.367651
 30
0.0
 40
0.067103
 41
0.067103
  0
SEQEND
  5
F4A
  8
0
 62
     7
  0
POLYLINE
  5
F4B
  8
0
 62
     7
 66
     1
 10
0.0
 20
0.0
 30
0.0
  0
VERTEX
  5
F4C
  8
0
 62
     7
 10
245.761573
 20
140.367651
 30
0.0
 40
0.067103
 41
0.067103
  0
VERTEX
  5
F4D
  8
0
 62
     7
 10
245.694469
 20
140.367651
 30
0.0
 40
0.067103
 41
0.067103
  0
SEQEND
  5
F4E
  8
0
 62
     7
  0
POLYLINE
  5
F4F
  8
0
 62
     7
 66
     1
 10
0.0
 20
0.0
 30
0.0
  0
VERTEX
  5
F50
  8
0
 62
     7
 10
246.633918
 20
140.367651
 30
0.0
 40
0.067103
 41
0.067103
  0
VERTEX
  5
F51
  8
0
 62
     7
 10
246.09709
 20
140.367651
 30
0.0
 40
0.067103
 41
0.067103
  0
SEQEND
  5
F52
  8
0
 62
     7
  0
POLYLINE
  5
F53
  8
0
 62
     7
 66
     1
 10
0.0
 20
0.0
 30
0.0
  0
VERTEX
  5
F54
  8
0
 62
     7
 10
247.036539
 20
140.367651
 30
0.0
 40
0.067103
 41
0.067103
  0
VERTEX
  5
F55
  8
0
 62
     7
 10
246.969435
 20
140.367651
 30
0.0
 40
0.067103
 41
0.067103
  0
SEQEND
  5
F56
  8
0
 62
     7
  0
POLYLINE
  5
F57
  8
0
 62
     7
 66
     1
 10
0.0
 20
0.0
 30
0.0
  0
VERTEX
  5
F58
  8
0
 62
     7
 10
247.908884
 20
140.367651
 30
0.0
 40
0.067103
 41
0.067103
  0
VERTEX
  5
F59
  8
0
 62
     7
 10
247.372056
 20
140.367651
 30
0.0
 40
0.067103
 41
0.067103
  0
SEQEND
  5
F5A
  8
0
 62
     7
  0
POLYLINE
  5
F5B
  8
0
 62
     7
 66
     1
 10
0.0
 20
0.0
 30
0.0
  0
VERTEX
  5
F5C
  8
0
 62
     7
 10
248.311505
 20
140.367651
 30
0.0
 40
0.067103
 41
0.067103
  0
VERTEX
  5
F5D
  8
0
 62
     7
 10
248.244401
 20
140.367651
 30
0.0
 40
0.067103
 41
0.067103
  0
SEQEND
  5
F5E
  8
0
 62
     7
  0
POLYLINE
  5
F5F
  8
0
 62
     7
 66
     1
 10
0.0
 20
0.0
 30
0.0
  0
VERTEX
  5
F60
  8
0
 62
     7
 10
249.586471
 20
140.367651
 30
0.0
 40
0.067103
 41
0.067103
  0
VERTEX
  5
F61
  8
0
 62
     7
 10
249.519367
 20
140.367651
 30
0.0
 40
0.067103
 41
0.067103
  0
SEQEND
  5
F62
  8
0
 62
     7
  0
POLYLINE
  5
F63
  8
0
 62
     7
 66
     1
 10
0.0
 20
0.0
 30
0.0
  0
VERTEX
  5
F64
  8
0
 62
     7
 10
250.089747
 20
140.367651
 30
0.0
 40
0.067103
 41
0.067103
  0
VERTEX
  5
F65
  8
0
 62
     7
 10
249.921988
 20
140.367651
 30
0.0
 40
0.067103
 41
0.067103
  0
SEQEND
  5
F66
  8
0
 62
     7
  0
POLYLINE
  5
F67
  8
0
 62
     7
 66
     1
 10
0.0
 20
0.0
 30
0.0
  0
VERTEX
  5
F68
  8
0
 62
     7
 10
250.089747
 20
139.998581
 30
0.0
 40
0.067103
 41
0.067103
  0
VERTEX
  5
F69
  8
0
 62
     7
 10
250.089747
 20
140.367651
 30
0.0
 40
0.067103
 41
0.067103
  0
SEQEND
  5
F6A
  8
0
 62
     7
  0
POLYLINE
  5
F6B
  8
0
 62
     7
 66
     1
 10
0.0
 20
0.0
 30
0.0
  0
VERTEX
  5
F6C
  8
0
 62
     7
 10
250.089747
 20
139.59596
 30
0.0
 40
0.067103
 41
0.067103
  0
VERTEX
  5
F6D
  8
0
 62
     7
 10
250.089747
 20
139.663064
 30
0.0
 40
0.067103
 41
0.067103
  0
SEQEND
  5
F6E
  8
0
 62
     7
  0
POLYLINE
  5
F6F
  8
0
 62
     7
 66
     1
 10
0.0
 20
0.0
 30
0.0
  0
VERTEX
  5
F70
  8
0
 62
     7
 10
250.089747
 20
138.723615
 30
0.0
 40
0.067103
 41
0.067103
  0
VERTEX
  5
F71
  8
0
 62
     7
 10
250.089747
 20
139.260443
 30
0.0
 40
0.067103
 41
0.067103
  0
SEQEND
  5
F72
  8
0
 62
     7
  0
POLYLINE
  5
F73
  8
0
 62
     7
 66
     1
 10
0.0
 20
0.0
 30
0.0
  0
VERTEX
  5
F74
  8
0
 62
     7
 10
250.089747
 20
138.320994
 30
0.0
 40
0.067103
 41
0.067103
  0
VERTEX
  5
F75
  8
0
 62
     7
 10
250.089747
 20
138.388098
 30
0.0
 40
0.067103
 41
0.067103
  0
SEQEND
  5
F76
  8
0
 62
     7
  0
POLYLINE
  5
F77
  8
0
 62
     7
 66
     1
 10
0.0
 20
0.0
 30
0.0
  0
VERTEX
  5
F78
  8
0
 62
     7
 10
250.089747
 20
137.448649
 30
0.0
 40
0.067103
 41
0.067103
  0
VERTEX
  5
F79
  8
0
 62
     7
 10
250.089747
 20
137.985477
 30
0.0
 40
0.067103
 41
0.067103
  0
SEQEND
  5
F7A
  8
0
 62
     7
  0
POLYLINE
  5
F7B
  8
0
 62
     7
 66
     1
 10
0.0
 20
0.0
 30
0.0
  0
VERTEX
  5
F7C
  8
0
 62
     7
 10
250.089747
 20
137.046028
 30
0.0
 40
0.067103
 41
0.067103
  0
VERTEX
  5
F7D
  8
0
 62
     7
 10
250.089747
 20
137.113132
 30
0.0
 40
0.067103
 41
0.067103
  0
SEQEND
  5
F7E
  8
0
 62
     7
  0
POLYLINE
  5
F7F
  8
0
 62
     7
 66
     1
 10
0.0
 20
0.0
 30
0.0
  0
VERTEX
  5
F80
  8
0
 62
     7
 10
250.089747
 20
136.173683
 30
0.0
 40
0.067103
 41
0.067103
  0
VERTEX
  5
F81
  8
0
 62
     7
 10
250.089747
 20
136.710511
 30
0.0
 40
0.067103
 41
0.067103
  0
SEQEND
  5
F82
  8
0
 62
     7
  0
POLYLINE
  5
F83
  8
0
 62
     7
 66
     1
 10
0.0
 20
0.0
 30
0.0
  0
VERTEX
  5
F84
  8
0
 62
     7
 10
250.089747
 20
135.771062
 30
0.0
 40
0.067103
 41
0.067103
  0
VERTEX
  5
F85
  8
0
 62
     7
 10
250.089747
 20
135.838166
 30
0.0
 40
0.067103
 41
0.067103
  0
SEQEND
  5
F86
  8
0
 62
     7
  0
POLYLINE
  5
F87
  8
0
 62
     7
 66
     1
 10
0.0
 20
0.0
 30
0.0
  0
VERTEX
  5
F88
  8
0
 62
     7
 10
250.089747
 20
134.898717
 30
0.0
 40
0.067103
 41
0.067103
  0
VERTEX
  5
F89
  8
0
 62
     7
 10
250.089747
 20
135.435545
 30
0.0
 40
0.067103
 41
0.067103
  0
SEQEND
  5
F8A
  8
0
 62
     7
  0
ENDSEC
  0
EOF
