  0
SECTION
  2
HEADER
  9
$ACADVER
  1
AC1009
  9
$DWGCODEPAGE
  3
ansi_1250
  9
$INSBASE
 10
0.0
 20
0.0
 30
0.0
  9
$EXTMIN
 10
-0.88
 20
-1.67
 30
0.0
  9
$EXTMAX
 10
0.88
 20
1.67
 30
0.0
  9
$LIMMIN
 10
0.0
 20
0.0
  9
$LIMMAX
 10
0.0
 20
0.0
  9
$ORTHOMODE
 70
     0
  9
$REGENMODE
 70
     1
  9
$FILLMODE
 70
     1
  9
$QTEXTMODE
 70
     0
  9
$MIRRTEXT
 70
     1
  9
$DRAGMODE
 70
     2
  9
$LTSCALE
 40
1.0
  9
$OSMODE
 70
     0
  9
$ATTMODE
 70
     1
  9
$TEXTSIZE
 40
0.2
  9
$TRACEWID
 40
0.05
  9
$TEXTSTYLE
  7
STANDARD
  9
$CLAYER
  8
0
  9
$CELTYPE
  6
CONTINUOUS
  9
$CECOLOR
 62
   256
  9
$DIMSCALE
 40
1.0
  9
$DIMASZ
 40
0.18
  9
$DIMEXO
 40
0.0625
  9
$DIMDLI
 40
0.38
  9
$DIMRND
 40
0.0
  9
$DIMDLE
 40
0.0
  9
$DIMEXE
 40
0.18
  9
$DIMTP
 40
0.0
  9
$DIMTM
 40
0.0
  9
$DIMTXT
 40
0.18
  9
$DIMCEN
 40
0.09
  9
$DIMTSZ
 40
0.0
  9
$DIMTOL
 70
     0
  9
$DIMLIM
 70
     0
  9
$DIMTIH
 70
     1
  9
$DIMTOH
 70
     1
  9
$DIMSE1
 70
     0
  9
$DIMSE2
 70
     0
  9
$DIMTAD
 70
     0
  9
$DIMZIN
 70
     0
  9
$DIMBLK
  1

  9
$DIMASO
 70
     1
  9
$DIMSHO
 70
     1
  9
$DIMPOST
  1

  9
$DIMAPOST
  1

  9
$DIMALT
 70
     0
  9
$DIMALTD
 70
     2
  9
$DIMALTF
 40
25.4
  9
$DIMLFAC
 40
1.0
  9
$DIMTOFL
 70
     0
  9
$DIMTVP
 40
0.0
  9
$DIMTIX
 70
     0
  9
$DIMSOXD
 70
     0
  9
$DIMSAH
 70
     0
  9
$DIMBLK1
  1

  9
$DIMBLK2
  1

  9
$DIMSTYLE
  2
STANDARD
  9
$DIMCLRD
 70
     0
  9
$DIMCLRE
 70
     0
  9
$DIMCLRT
 70
     0
  9
$DIMTFAC
 40
1.0
  9
$DIMGAP
 40
0.09
  9
$LUNITS
 70
     2
  9
$LUPREC
 70
     4
  9
$AXISMODE
 70
     0
  9
$AXISUNIT
 10
0.0
 20
0.0
  9
$SKETCHINC
 40
0.1
  9
$FILLETRAD
 40
0.0
  9
$AUNITS
 70
     0
  9
$AUPREC
 70
     0
  9
$MENU
  1
acad
  9
$ELEVATION
 40
0.0
  9
$PELEVATION
 40
0.0
  9
$THICKNESS
 40
0.0
  9
$LIMCHECK
 70
     0
  9
$BLIPMODE
 70
     1
  9
$CHAMFERA
 40
0.0
  9
$CHAMFERB
 40
0.0
  9
$SKPOLY
 70
     0
  9
$TDCREATE
 40
0.000000000
  9
$TDUPDATE
 40
0.000000000
  9
$TDINDWG
 40
0.0000000000
  9
$TDUSRTIMER
 40
0.0000000000
  9
$USRTIMER
 70
     1
  9
$ANGBASE
 50
0.0
  9
$ANGDIR
 70
     0
  9
$PDMODE
 70
     0
  9
$PDSIZE
 40
0.0
  9
$PLINEWID
 40
0.0
  9
$COORDS
 70
     0
  9
$SPLFRAME
 70
     0
  9
$SPLINETYPE
 70
     6
  9
$SPLINESEGS
 70
     8
  9
$ATTDIA
 70
     0
  9
$ATTREQ
 70
     1
  9
$HANDLING
 70
     1
  9
$HANDSEED
  5
468
  9
$SURFTAB1
 70
     6
  9
$SURFTAB2
 70
     6
  9
$SURFTYPE
 70
     6
  9
$SURFU
 70
     6
  9
$SURFV
 70
     6
  9
$UCSNAME
  2

  9
$UCSORG
 10
0.0
 20
0.0
 30
0.0
  9
$UCSXDIR
 10
1.0
 20
0.0
 30
0.0
  9
$UCSYDIR
 10
0.0
 20
1.0
 30
0.0
  9
$PUCSNAME
  2

  9
$PUCSORG
 10
0.0
 20
0.0
 30
0.0
  9
$PUCSXDIR
 10
1.0
 20
0.0
 30
0.0
  9
$PUCSYDIR
 10
0.0
 20
1.0
 30
0.0
  9
$USERI1
 70
     0
  9
$USERI2
 70
     0
  9
$USERI3
 70
     0
  9
$USERI4
 70
     0
  9
$USERI5
 70
     0
  9
$USERR1
 40
0.0
  9
$USERR2
 40
0.0
  9
$USERR3
 40
0.0
  9
$USERR4
 40
0.0
  9
$USERR5
 40
0.0
  9
$WORLDVIEW
 70
     1
  9
$SHADEDGE
 70
     3
  9
$SHADEDIF
 70
    70
  9
$TILEMODE
 70
     1
  9
$MAXACTVP
 70
    16
  9
$PINSBASE
 10
0.0
 20
0.0
 30
0.0
  9
$PLIMCHECK
 70
     0
  9
$PEXTMIN
 10
1.000000E+20
 20
1.000000E+20
 30
1.000000E+20
  9
$PEXTMAX
 10
-1.000000E+20
 20
-1.000000E+20
 30
-1.000000E+20
  9
$PLIMMIN
 10
0.0
 20
0.0
  9
$PLIMMAX
 10
12.0
 20
9.0
  9
$UNITMODE
 70
     0
  9
$VISRETAIN
 70
     0
  9
$PLINEGEN
 70
     1
  9
$PSLTSCALE
 70
     0
  9
$TREEDEPTH
 70
  3020
  0
ENDSEC
  0
SECTION
  2
TABLES
  0
TABLE
  2
VPORT
 70
     1
  0
VPORT
  2
*ACTIVE
 70
     0
 10
0.0
 20
0.0
 11
1.0
 21
1.0
 12
6.591288
 22
4.579184
 13
0.0
 23
0.0
 14
1.0
 24
1.0
 15
0.0
 25
0.0
 16
0.0
 26
0.0
 36
1.0
 17
0.0
 27
0.0
 37
0.0
 40
9.158369
 41
0.688564
 42
50.0
 43
0.0
 44
0.0
 50
0.0
 51
0.0
 71
     0
 72
   100
 73
     1
 74
     1
 75
     0
 76
     0
 77
     0
 78
     0
  0
ENDTAB
  0
TABLE
  2
LTYPE
 70
     5
  0
LTYPE
  2
CONTINUOUS
 70
    64
  3
Solid line
 72
    65
 73
     0
 40
0.0
  0
LTYPE
  2
CENTER
 70
    64
  3
Center ____ _ ____ _ ____ _ ____ _ ____ _ ____
 72
    65
 73
     4
 40
50.8
 49
31.75
 49
-6.35
 49
6.35
 49
-6.35
  0
LTYPE
  2
HIDDEN
 70
    64
  3
Hidden __ __ __ __ __ __ __ __ __ __ __ __ __ __
 72
    65
 73
     2
 40
9.525
 49
6.35
 49
-3.175
  0
LTYPE
  2
CENTER2
 70
    64
  3
Center (.5x) ___ _ ___ _ ___ _ ___ _ ___ _ ___
 72
    65
 73
     4
 40
28.575
 49
19.05
 49
-3.175
 49
3.175
 49
-3.175
  0
LTYPE
  2
HIDDEN2
 70
    64
  3
Hidden (.5x) _ _ _ _ _ _ _ _ _ _ _ _ _ _ _ _ _
 72
    65
 73
     2
 40
4.7625
 49
3.175
 49
-1.5875
  0
ENDTAB
  0
TABLE
  2
LAYER
 70
     1
  0
LAYER
  2
0
 70
     0
 62
     7
  6
CONTINUOUS
  0
ENDTAB
  0
TABLE
  2
STYLE
 70
     1
  0
STYLE
  2
STANDARD
 70
     0
 40
0.0
 41
1.0
 50
0.0
 71
     0
 42
0.0
  3
txt
  4

  0
ENDTAB
  0
TABLE
  2
VIEW
 70
     0
  0
ENDTAB
  0
TABLE
  2
UCS
 70
     0
  0
ENDTAB
  0
TABLE
  2
APPID
 70
     1
  0
APPID
  2
ACAD
 70
     0
  0
ENDTAB
  0
TABLE
  2
DIMSTYLE
 70
     1
  0
DIMSTYLE
  2
STANDARD
 70
     0
  3

  4

  5

  6

  7

 40
1.0
 41
0.18
 42
0.0625
 43
0.38
 44
0.18
 45
0.0
 46
0.0
 47
0.0
 48
0.0
 71
     0
 72
     0
 73
     1
 74
     1
 75
     0
 76
     0
 77
     0
 78
     0
140
0.18
141
0.09
142
0.0
143
25.4
144
1.0
145
0.0
146
1.0
147
0.09
170
     0
171
     2
172
     0
173
     0
174
     0
175
     0
176
     0
177
     0
178
     0
  0
ENDTAB
  0
ENDSEC
  0
SECTION
  2
BLOCKS
  0
ENDSEC
  0
SECTION
  2
ENTITIES
  0
LINE
  8
0
  6
CONTINUOUS
 62
     7
  5
259
 10
0.88
 20
0.5783
 30
0.0
 11
0.88
 21
-0.5783
 31
0.0
  0
LINE
  8
0
  6
CONTINUOUS
 62
     7
  5
25A
 10
0.0
 20
0.5783
 30
0.0
 11
0.88
 21
0.5783
 31
0.0
  0
LINE
  8
0
  6
CONTINUOUS
 62
     7
  5
25B
 10
-0.88
 20
0.5783
 30
0.0
 11
0.0
 21
0.5783
 31
0.0
  0
LINE
  8
0
  6
CONTINUOUS
 62
     7
  5
25C
 10
-0.88
 20
-0.5783
 30
0.0
 11
-0.88
 21
0.5783
 31
0.0
  0
LINE
  8
0
  6
CONTINUOUS
 62
     7
  5
25D
 10
0.0
 20
-0.5783
 30
0.0
 11
-0.88
 21
-0.5783
 31
0.0
  0
LINE
  8
0
  6
CONTINUOUS
 62
     7
  5
25E
 10
0.88
 20
-0.5783
 30
0.0
 11
0.0
 21
-0.5783
 31
0.0
  0
LINE
  8
0
  6
CONTINUOUS
 62
     7
  5
25F
 10
0.88
 20
1.67
 30
0.0
 11
0.88
 21
1.01575
 31
0.0
  0
LINE
  8
0
  6
CONTINUOUS
 62
     7
  5
260
 10
0.88
 20
1.01575
 30
0.0
 11
0.88
 21
0.5783
 31
0.0
  0
LINE
  8
0
  6
CONTINUOUS
 62
     7
  5
261
 10
0.88
 20
-0.5783
 30
0.0
 11
0.88
 21
-1.01575
 31
0.0
  0
LINE
  8
0
  6
CONTINUOUS
 62
     7
  5
262
 10
0.88
 20
-1.01575
 30
0.0
 11
0.88
 21
-1.67
 31
0.0
  0
LINE
  8
0
  6
CONTINUOUS
 62
     7
  5
263
 10
0.88
 20
1.67
 30
0.0
 11
-0.88
 21
1.67
 31
0.0
  0
LINE
  8
0
  6
CONTINUOUS
 62
     7
  5
264
 10
-0.88
 20
-1.01575
 30
0.0
 11
-0.88
 21
-1.67
 31
0.0
  0
LINE
  8
0
  6
CONTINUOUS
 62
     7
  5
265
 10
-0.88
 20
-0.5783
 30
0.0
 11
-0.88
 21
-1.01575
 31
0.0
  0
LINE
  8
0
  6
CONTINUOUS
 62
     7
  5
266
 10
-0.88
 20
1.01575
 30
0.0
 11
-0.88
 21
0.5783
 31
0.0
  0
LINE
  8
0
  6
CONTINUOUS
 62
     7
  5
267
 10
-0.88
 20
1.67
 30
0.0
 11
-0.88
 21
1.01575
 31
0.0
  0
LINE
  8
0
  6
CONTINUOUS
 62
     7
  5
268
 10
-0.095
 20
-0.77
 30
0.0
 11
-0.096635
 21
-0.788458
 31
0.0
  0
LINE
  8
0
  6
CONTINUOUS
 62
     7
  5
269
 10
-0.096635
 20
-0.788458
 30
0.0
 11
-0.101682
 21
-0.806858
 31
0.0
  0
LINE
  8
0
  6
CONTINUOUS
 62
     7
  5
26A
 10
-0.101682
 20
-0.806858
 30
0.0
 11
-0.110012
 21
-0.824104
 31
0.0
  0
LINE
  8
0
  6
CONTINUOUS
 62
     7
  5
26B
 10
-0.110012
 20
-0.824104
 30
0.0
 11
-0.1211
 21
-0.83928
 31
0.0
  0
LINE
  8
0
  6
CONTINUOUS
 62
     7
  5
26C
 10
-0.1211
 20
-0.83928
 30
0.0
 11
-0.134352
 21
-0.851947
 31
0.0
  0
LINE
  8
0
  6
CONTINUOUS
 62
     7
  5
26D
 10
-0.134352
 20
-0.851947
 30
0.0
 11
-0.150132
 21
-0.862402
 31
0.0
  0
LINE
  8
0
  6
CONTINUOUS
 62
     7
  5
26E
 10
-0.150132
 20
-0.862402
 30
0.0
 11
-0.167752
 21
-0.869925
 31
0.0
  0
LINE
  8
0
  6
CONTINUOUS
 62
     7
  5
26F
 10
-0.167752
 20
-0.869925
 30
0.0
 11
-0.186261
 21
-0.874097
 31
0.0
  0
LINE
  8
0
  6
CONTINUOUS
 62
     7
  5
270
 10
-0.186261
 20
-0.874097
 30
0.0
 11
-0.204596
 21
-0.874899
 31
0.0
  0
LINE
  8
0
  6
CONTINUOUS
 62
     7
  5
271
 10
-0.204596
 20
-0.874899
 30
0.0
 11
-0.223124
 21
-0.872422
 31
0.0
  0
LINE
  8
0
  6
CONTINUOUS
 62
     7
  5
272
 10
-0.223124
 20
-0.872422
 30
0.0
 11
-0.241302
 21
-0.866536
 31
0.0
  0
LINE
  8
0
  6
CONTINUOUS
 62
     7
  5
273
 10
-0.241302
 20
-0.866536
 30
0.0
 11
-0.258092
 21
-0.857466
 31
0.0
  0
LINE
  8
0
  6
CONTINUOUS
 62
     7
  5
274
 10
-0.258092
 20
-0.857466
 30
0.0
 11
-0.272617
 21
-0.84584
 31
0.0
  0
LINE
  8
0
  6
CONTINUOUS
 62
     7
  5
275
 10
-0.272617
 20
-0.84584
 30
0.0
 11
-0.284752
 21
-0.831984
 31
0.0
  0
LINE
  8
0
  6
CONTINUOUS
 62
     7
  5
276
 10
-0.284752
 20
-0.831984
 30
0.0
 11
-0.294546
 21
-0.815674
 31
0.0
  0
LINE
  8
0
  6
CONTINUOUS
 62
     7
  5
277
 10
-0.294546
 20
-0.815674
 30
0.0
 11
-0.301271
 21
-0.797735
 31
0.0
  0
LINE
  8
0
  6
CONTINUOUS
 62
     7
  5
278
 10
-0.301271
 20
-0.797735
 30
0.0
 11
-0.3046
 21
-0.779162
 31
0.0
  0
LINE
  8
0
  6
CONTINUOUS
 62
     7
  5
279
 10
-0.3046
 20
-0.779162
 30
0.0
 11
-0.3046
 21
-0.760838
 31
0.0
  0
LINE
  8
0
  6
CONTINUOUS
 62
     7
  5
27A
 10
-0.3046
 20
-0.760838
 30
0.0
 11
-0.301271
 21
-0.742265
 31
0.0
  0
LINE
  8
0
  6
CONTINUOUS
 62
     7
  5
27B
 10
-0.301271
 20
-0.742265
 30
0.0
 11
-0.294546
 21
-0.724326
 31
0.0
  0
LINE
  8
0
  6
CONTINUOUS
 62
     7
  5
27C
 10
-0.294546
 20
-0.724326
 30
0.0
 11
-0.284752
 21
-0.708016
 31
0.0
  0
LINE
  8
0
  6
CONTINUOUS
 62
     7
  5
27D
 10
-0.284752
 20
-0.708016
 30
0.0
 11
-0.272617
 21
-0.69416
 31
0.0
  0
LINE
  8
0
  6
CONTINUOUS
 62
     7
  5
27E
 10
-0.272617
 20
-0.69416
 30
0.0
 11
-0.258092
 21
-0.682534
 31
0.0
  0
LINE
  8
0
  6
CONTINUOUS
 62
     7
  5
27F
 10
-0.258092
 20
-0.682534
 30
0.0
 11
-0.241302
 21
-0.673464
 31
0.0
  0
LINE
  8
0
  6
CONTINUOUS
 62
     7
  5
280
 10
-0.241302
 20
-0.673464
 30
0.0
 11
-0.223124
 21
-0.667578
 31
0.0
  0
LINE
  8
0
  6
CONTINUOUS
 62
     7
  5
281
 10
-0.223124
 20
-0.667578
 30
0.0
 11
-0.204596
 21
-0.665101
 31
0.0
  0
LINE
  8
0
  6
CONTINUOUS
 62
     7
  5
282
 10
-0.204596
 20
-0.665101
 30
0.0
 11
-0.186261
 21
-0.665903
 31
0.0
  0
LINE
  8
0
  6
CONTINUOUS
 62
     7
  5
283
 10
-0.186261
 20
-0.665903
 30
0.0
 11
-0.167752
 21
-0.670075
 31
0.0
  0
LINE
  8
0
  6
CONTINUOUS
 62
     7
  5
284
 10
-0.167752
 20
-0.670075
 30
0.0
 11
-0.150132
 21
-0.677598
 31
0.0
  0
LINE
  8
0
  6
CONTINUOUS
 62
     7
  5
285
 10
-0.150132
 20
-0.677598
 30
0.0
 11
-0.134352
 21
-0.688053
 31
0.0
  0
LINE
  8
0
  6
CONTINUOUS
 62
     7
  5
286
 10
-0.134352
 20
-0.688053
 30
0.0
 11
-0.1211
 21
-0.70072
 31
0.0
  0
LINE
  8
0
  6
CONTINUOUS
 62
     7
  5
287
 10
-0.1211
 20
-0.70072
 30
0.0
 11
-0.110012
 21
-0.715896
 31
0.0
  0
LINE
  8
0
  6
CONTINUOUS
 62
     7
  5
288
 10
-0.110012
 20
-0.715896
 30
0.0
 11
-0.101682
 21
-0.733142
 31
0.0
  0
LINE
  8
0
  6
CONTINUOUS
 62
     7
  5
289
 10
-0.101682
 20
-0.733142
 30
0.0
 11
-0.096635
 21
-0.751542
 31
0.0
  0
LINE
  8
0
  6
CONTINUOUS
 62
     7
  5
28A
 10
-0.096635
 20
-0.751542
 30
0.0
 11
-0.095
 21
-0.77
 31
0.0
  0
LINE
  8
0
  6
CONTINUOUS
 62
     7
  5
28B
 10
-0.095
 20
0.75
 30
0.0
 11
-0.096635
 21
0.731542
 31
0.0
  0
LINE
  8
0
  6
CONTINUOUS
 62
     7
  5
28C
 10
-0.096635
 20
0.731542
 30
0.0
 11
-0.101682
 21
0.713142
 31
0.0
  0
LINE
  8
0
  6
CONTINUOUS
 62
     7
  5
28D
 10
-0.101682
 20
0.713142
 30
0.0
 11
-0.110012
 21
0.695896
 31
0.0
  0
LINE
  8
0
  6
CONTINUOUS
 62
     7
  5
28E
 10
-0.110012
 20
0.695896
 30
0.0
 11
-0.1211
 21
0.68072
 31
0.0
  0
LINE
  8
0
  6
CONTINUOUS
 62
     7
  5
28F
 10
-0.1211
 20
0.68072
 30
0.0
 11
-0.134352
 21
0.668053
 31
0.0
  0
LINE
  8
0
  6
CONTINUOUS
 62
     7
  5
290
 10
-0.134352
 20
0.668053
 30
0.0
 11
-0.150132
 21
0.657598
 31
0.0
  0
LINE
  8
0
  6
CONTINUOUS
 62
     7
  5
291
 10
-0.150132
 20
0.657598
 30
0.0
 11
-0.167752
 21
0.650075
 31
0.0
  0
LINE
  8
0
  6
CONTINUOUS
 62
     7
  5
292
 10
-0.167752
 20
0.650075
 30
0.0
 11
-0.186261
 21
0.645903
 31
0.0
  0
LINE
  8
0
  6
CONTINUOUS
 62
     7
  5
293
 10
-0.186261
 20
0.645903
 30
0.0
 11
-0.204596
 21
0.645101
 31
0.0
  0
LINE
  8
0
  6
CONTINUOUS
 62
     7
  5
294
 10
-0.204596
 20
0.645101
 30
0.0
 11
-0.223124
 21
0.647578
 31
0.0
  0
LINE
  8
0
  6
CONTINUOUS
 62
     7
  5
295
 10
-0.223124
 20
0.647578
 30
0.0
 11
-0.241302
 21
0.653464
 31
0.0
  0
LINE
  8
0
  6
CONTINUOUS
 62
     7
  5
296
 10
-0.241302
 20
0.653464
 30
0.0
 11
-0.258092
 21
0.662534
 31
0.0
  0
LINE
  8
0
  6
CONTINUOUS
 62
     7
  5
297
 10
-0.258092
 20
0.662534
 30
0.0
 11
-0.272617
 21
0.67416
 31
0.0
  0
LINE
  8
0
  6
CONTINUOUS
 62
     7
  5
298
 10
-0.272617
 20
0.67416
 30
0.0
 11
-0.284752
 21
0.688016
 31
0.0
  0
LINE
  8
0
  6
CONTINUOUS
 62
     7
  5
299
 10
-0.284752
 20
0.688016
 30
0.0
 11
-0.294546
 21
0.704326
 31
0.0
  0
LINE
  8
0
  6
CONTINUOUS
 62
     7
  5
29A
 10
-0.294546
 20
0.704326
 30
0.0
 11
-0.301271
 21
0.722265
 31
0.0
  0
LINE
  8
0
  6
CONTINUOUS
 62
     7
  5
29B
 10
-0.301271
 20
0.722265
 30
0.0
 11
-0.3046
 21
0.740838
 31
0.0
  0
LINE
  8
0
  6
CONTINUOUS
 62
     7
  5
29C
 10
-0.3046
 20
0.740838
 30
0.0
 11
-0.3046
 21
0.759162
 31
0.0
  0
LINE
  8
0
  6
CONTINUOUS
 62
     7
  5
29D
 10
-0.3046
 20
0.759162
 30
0.0
 11
-0.301271
 21
0.777735
 31
0.0
  0
LINE
  8
0
  6
CONTINUOUS
 62
     7
  5
29E
 10
-0.301271
 20
0.777735
 30
0.0
 11
-0.294546
 21
0.795674
 31
0.0
  0
LINE
  8
0
  6
CONTINUOUS
 62
     7
  5
29F
 10
-0.294546
 20
0.795674
 30
0.0
 11
-0.284752
 21
0.811984
 31
0.0
  0
LINE
  8
0
  6
CONTINUOUS
 62
     7
  5
2A0
 10
-0.284752
 20
0.811984
 30
0.0
 11
-0.272617
 21
0.82584
 31
0.0
  0
LINE
  8
0
  6
CONTINUOUS
 62
     7
  5
2A1
 10
-0.272617
 20
0.82584
 30
0.0
 11
-0.258092
 21
0.837466
 31
0.0
  0
LINE
  8
0
  6
CONTINUOUS
 62
     7
  5
2A2
 10
-0.258092
 20
0.837466
 30
0.0
 11
-0.241302
 21
0.846536
 31
0.0
  0
LINE
  8
0
  6
CONTINUOUS
 62
     7
  5
2A3
 10
-0.241302
 20
0.846536
 30
0.0
 11
-0.223124
 21
0.852422
 31
0.0
  0
LINE
  8
0
  6
CONTINUOUS
 62
     7
  5
2A4
 10
-0.223124
 20
0.852422
 30
0.0
 11
-0.204596
 21
0.854899
 31
0.0
  0
LINE
  8
0
  6
CONTINUOUS
 62
     7
  5
2A5
 10
-0.204596
 20
0.854899
 30
0.0
 11
-0.186261
 21
0.854097
 31
0.0
  0
LINE
  8
0
  6
CONTINUOUS
 62
     7
  5
2A6
 10
-0.186261
 20
0.854097
 30
0.0
 11
-0.167752
 21
0.849925
 31
0.0
  0
LINE
  8
0
  6
CONTINUOUS
 62
     7
  5
2A7
 10
-0.167752
 20
0.849925
 30
0.0
 11
-0.150132
 21
0.842402
 31
0.0
  0
LINE
  8
0
  6
CONTINUOUS
 62
     7
  5
2A8
 10
-0.150132
 20
0.842402
 30
0.0
 11
-0.134352
 21
0.831947
 31
0.0
  0
LINE
  8
0
  6
CONTINUOUS
 62
     7
  5
2A9
 10
-0.134352
 20
0.831947
 30
0.0
 11
-0.1211
 21
0.81928
 31
0.0
  0
LINE
  8
0
  6
CONTINUOUS
 62
     7
  5
2AA
 10
-0.1211
 20
0.81928
 30
0.0
 11
-0.110012
 21
0.804104
 31
0.0
  0
LINE
  8
0
  6
CONTINUOUS
 62
     7
  5
2AB
 10
-0.110012
 20
0.804104
 30
0.0
 11
-0.101682
 21
0.786858
 31
0.0
  0
LINE
  8
0
  6
CONTINUOUS
 62
     7
  5
2AC
 10
-0.101682
 20
0.786858
 30
0.0
 11
-0.096635
 21
0.768458
 31
0.0
  0
LINE
  8
0
  6
CONTINUOUS
 62
     7
  5
2AD
 10
-0.096635
 20
0.768458
 30
0.0
 11
-0.095
 21
0.75
 31
0.0
  0
LINE
  8
0
  6
CONTINUOUS
 62
     7
  5
2AE
 10
0.305
 20
-0.77
 30
0.0
 11
0.303365
 21
-0.788456
 31
0.0
  0
LINE
  8
0
  6
CONTINUOUS
 62
     7
  5
2AF
 10
0.303365
 20
-0.788456
 30
0.0
 11
0.298321
 21
-0.806851
 31
0.0
  0
LINE
  8
0
  6
CONTINUOUS
 62
     7
  5
2B0
 10
0.298321
 20
-0.806851
 30
0.0
 11
0.289996
 21
-0.824089
 31
0.0
  0
LINE
  8
0
  6
CONTINUOUS
 62
     7
  5
2B1
 10
0.289996
 20
-0.824089
 30
0.0
 11
0.27892
 21
-0.839257
 31
0.0
  0
LINE
  8
0
  6
CONTINUOUS
 62
     7
  5
2B2
 10
0.27892
 20
-0.839257
 30
0.0
 11
0.265686
 21
-0.851917
 31
0.0
  0
LINE
  8
0
  6
CONTINUOUS
 62
     7
  5
2B3
 10
0.265686
 20
-0.851917
 30
0.0
 11
0.249928
 21
-0.86237
 31
0.0
  0
LINE
  8
0
  6
CONTINUOUS
 62
     7
  5
2B4
 10
0.249928
 20
-0.86237
 30
0.0
 11
0.232328
 21
-0.8699
 31
0.0
  0
LINE
  8
0
  6
CONTINUOUS
 62
     7
  5
2B5
 10
0.232328
 20
-0.8699
 30
0.0
 11
0.213831
 21
-0.874085
 31
0.0
  0
LINE
  8
0
  6
CONTINUOUS
 62
     7
  5
2B6
 10
0.213831
 20
-0.874085
 30
0.0
 11
0.195498
 21
-0.874903
 31
0.0
  0
LINE
  8
0
  6
CONTINUOUS
 62
     7
  5
2B7
 10
0.195498
 20
-0.874903
 30
0.0
 11
0.176963
 21
-0.872442
 31
0.0
  0
LINE
  8
0
  6
CONTINUOUS
 62
     7
  5
2B8
 10
0.176963
 20
-0.872442
 30
0.0
 11
0.158768
 21
-0.866566
 31
0.0
  0
LINE
  8
0
  6
CONTINUOUS
 62
     7
  5
2B9
 10
0.158768
 20
-0.866566
 30
0.0
 11
0.141957
 21
-0.857499
 31
0.0
  0
LINE
  8
0
  6
CONTINUOUS
 62
     7
  5
2BA
 10
0.141957
 20
-0.857499
 30
0.0
 11
0.127411
 21
-0.845867
 31
0.0
  0
LINE
  8
0
  6
CONTINUOUS
 62
     7
  5
2BB
 10
0.127411
 20
-0.845867
 30
0.0
 11
0.115262
 21
-0.832003
 31
0.0
  0
LINE
  8
0
  6
CONTINUOUS
 62
     7
  5
2BC
 10
0.115262
 20
-0.832003
 30
0.0
 11
0.105459
 21
-0.815684
 31
0.0
  0
LINE
  8
0
  6
CONTINUOUS
 62
     7
  5
2BD
 10
0.105459
 20
-0.815684
 30
0.0
 11
0.09873
 21
-0.797739
 31
0.0
  0
LINE
  8
0
  6
CONTINUOUS
 62
     7
  5
2BE
 10
0.09873
 20
-0.797739
 30
0.0
 11
0.0954
 21
-0.779162
 31
0.0
  0
LINE
  8
0
  6
CONTINUOUS
 62
     7
  5
2BF
 10
0.0954
 20
-0.779162
 30
0.0
 11
0.0954
 21
-0.760838
 31
0.0
  0
LINE
  8
0
  6
CONTINUOUS
 62
     7
  5
2C0
 10
0.0954
 20
-0.760838
 30
0.0
 11
0.09873
 21
-0.742261
 31
0.0
  0
LINE
  8
0
  6
CONTINUOUS
 62
     7
  5
2C1
 10
0.09873
 20
-0.742261
 30
0.0
 11
0.105459
 21
-0.724316
 31
0.0
  0
LINE
  8
0
  6
CONTINUOUS
 62
     7
  5
2C2
 10
0.105459
 20
-0.724316
 30
0.0
 11
0.115262
 21
-0.707997
 31
0.0
  0
LINE
  8
0
  6
CONTINUOUS
 62
     7
  5
2C3
 10
0.115262
 20
-0.707997
 30
0.0
 11
0.127411
 21
-0.694133
 31
0.0
  0
LINE
  8
0
  6
CONTINUOUS
 62
     7
  5
2C4
 10
0.127411
 20
-0.694133
 30
0.0
 11
0.141957
 21
-0.682501
 31
0.0
  0
LINE
  8
0
  6
CONTINUOUS
 62
     7
  5
2C5
 10
0.141957
 20
-0.682501
 30
0.0
 11
0.158768
 21
-0.673434
 31
0.0
  0
LINE
  8
0
  6
CONTINUOUS
 62
     7
  5
2C6
 10
0.158768
 20
-0.673434
 30
0.0
 11
0.176963
 21
-0.667558
 31
0.0
  0
LINE
  8
0
  6
CONTINUOUS
 62
     7
  5
2C7
 10
0.176963
 20
-0.667558
 30
0.0
 11
0.195498
 21
-0.665097
 31
0.0
  0
LINE
  8
0
  6
CONTINUOUS
 62
     7
  5
2C8
 10
0.195498
 20
-0.665097
 30
0.0
 11
0.213831
 21
-0.665915
 31
0.0
  0
LINE
  8
0
  6
CONTINUOUS
 62
     7
  5
2C9
 10
0.213831
 20
-0.665915
 30
0.0
 11
0.232328
 21
-0.6701
 31
0.0
  0
LINE
  8
0
  6
CONTINUOUS
 62
     7
  5
2CA
 10
0.232328
 20
-0.6701
 30
0.0
 11
0.249928
 21
-0.67763
 31
0.0
  0
LINE
  8
0
  6
CONTINUOUS
 62
     7
  5
2CB
 10
0.249928
 20
-0.67763
 30
0.0
 11
0.265686
 21
-0.688083
 31
0.0
  0
LINE
  8
0
  6
CONTINUOUS
 62
     7
  5
2CC
 10
0.265686
 20
-0.688083
 30
0.0
 11
0.27892
 21
-0.700743
 31
0.0
  0
LINE
  8
0
  6
CONTINUOUS
 62
     7
  5
2CD
 10
0.27892
 20
-0.700743
 30
0.0
 11
0.289996
 21
-0.715911
 31
0.0
  0
LINE
  8
0
  6
CONTINUOUS
 62
     7
  5
2CE
 10
0.289996
 20
-0.715911
 30
0.0
 11
0.298321
 21
-0.733149
 31
0.0
  0
LINE
  8
0
  6
CONTINUOUS
 62
     7
  5
2CF
 10
0.298321
 20
-0.733149
 30
0.0
 11
0.303365
 21
-0.751544
 31
0.0
  0
LINE
  8
0
  6
CONTINUOUS
 62
     7
  5
2D0
 10
0.303365
 20
-0.751544
 30
0.0
 11
0.305
 21
-0.77
 31
0.0
  0
LINE
  8
0
  6
CONTINUOUS
 62
     7
  5
2D1
 10
0.305
 20
0.75
 30
0.0
 11
0.303365
 21
0.731544
 31
0.0
  0
LINE
  8
0
  6
CONTINUOUS
 62
     7
  5
2D2
 10
0.303365
 20
0.731544
 30
0.0
 11
0.298321
 21
0.713149
 31
0.0
  0
LINE
  8
0
  6
CONTINUOUS
 62
     7
  5
2D3
 10
0.298321
 20
0.713149
 30
0.0
 11
0.289996
 21
0.695911
 31
0.0
  0
LINE
  8
0
  6
CONTINUOUS
 62
     7
  5
2D4
 10
0.289996
 20
0.695911
 30
0.0
 11
0.27892
 21
0.680743
 31
0.0
  0
LINE
  8
0
  6
CONTINUOUS
 62
     7
  5
2D5
 10
0.27892
 20
0.680743
 30
0.0
 11
0.265686
 21
0.668083
 31
0.0
  0
LINE
  8
0
  6
CONTINUOUS
 62
     7
  5
2D6
 10
0.265686
 20
0.668083
 30
0.0
 11
0.249928
 21
0.65763
 31
0.0
  0
LINE
  8
0
  6
CONTINUOUS
 62
     7
  5
2D7
 10
0.249928
 20
0.65763
 30
0.0
 11
0.232328
 21
0.6501
 31
0.0
  0
LINE
  8
0
  6
CONTINUOUS
 62
     7
  5
2D8
 10
0.232328
 20
0.6501
 30
0.0
 11
0.213831
 21
0.645915
 31
0.0
  0
LINE
  8
0
  6
CONTINUOUS
 62
     7
  5
2D9
 10
0.213831
 20
0.645915
 30
0.0
 11
0.195498
 21
0.645097
 31
0.0
  0
LINE
  8
0
  6
CONTINUOUS
 62
     7
  5
2DA
 10
0.195498
 20
0.645097
 30
0.0
 11
0.176963
 21
0.647558
 31
0.0
  0
LINE
  8
0
  6
CONTINUOUS
 62
     7
  5
2DB
 10
0.176963
 20
0.647558
 30
0.0
 11
0.158768
 21
0.653434
 31
0.0
  0
LINE
  8
0
  6
CONTINUOUS
 62
     7
  5
2DC
 10
0.158768
 20
0.653434
 30
0.0
 11
0.141957
 21
0.662501
 31
0.0
  0
LINE
  8
0
  6
CONTINUOUS
 62
     7
  5
2DD
 10
0.141957
 20
0.662501
 30
0.0
 11
0.127411
 21
0.674133
 31
0.0
  0
LINE
  8
0
  6
CONTINUOUS
 62
     7
  5
2DE
 10
0.127411
 20
0.674133
 30
0.0
 11
0.115262
 21
0.687997
 31
0.0
  0
LINE
  8
0
  6
CONTINUOUS
 62
     7
  5
2DF
 10
0.115262
 20
0.687997
 30
0.0
 11
0.105459
 21
0.704316
 31
0.0
  0
LINE
  8
0
  6
CONTINUOUS
 62
     7
  5
2E0
 10
0.105459
 20
0.704316
 30
0.0
 11
0.09873
 21
0.722261
 31
0.0
  0
LINE
  8
0
  6
CONTINUOUS
 62
     7
  5
2E1
 10
0.09873
 20
0.722261
 30
0.0
 11
0.0954
 21
0.740838
 31
0.0
  0
LINE
  8
0
  6
CONTINUOUS
 62
     7
  5
2E2
 10
0.0954
 20
0.740838
 30
0.0
 11
0.0954
 21
0.759162
 31
0.0
  0
LINE
  8
0
  6
CONTINUOUS
 62
     7
  5
2E3
 10
0.0954
 20
0.759162
 30
0.0
 11
0.09873
 21
0.777739
 31
0.0
  0
LINE
  8
0
  6
CONTINUOUS
 62
     7
  5
2E4
 10
0.09873
 20
0.777739
 30
0.0
 11
0.105459
 21
0.795684
 31
0.0
  0
LINE
  8
0
  6
CONTINUOUS
 62
     7
  5
2E5
 10
0.105459
 20
0.795684
 30
0.0
 11
0.115262
 21
0.812003
 31
0.0
  0
LINE
  8
0
  6
CONTINUOUS
 62
     7
  5
2E6
 10
0.115262
 20
0.812003
 30
0.0
 11
0.127411
 21
0.825867
 31
0.0
  0
LINE
  8
0
  6
CONTINUOUS
 62
     7
  5
2E7
 10
0.127411
 20
0.825867
 30
0.0
 11
0.141957
 21
0.837499
 31
0.0
  0
LINE
  8
0
  6
CONTINUOUS
 62
     7
  5
2E8
 10
0.141957
 20
0.837499
 30
0.0
 11
0.158768
 21
0.846566
 31
0.0
  0
LINE
  8
0
  6
CONTINUOUS
 62
     7
  5
2E9
 10
0.158768
 20
0.846566
 30
0.0
 11
0.176963
 21
0.852442
 31
0.0
  0
LINE
  8
0
  6
CONTINUOUS
 62
     7
  5
2EA
 10
0.176963
 20
0.852442
 30
0.0
 11
0.195498
 21
0.854903
 31
0.0
  0
LINE
  8
0
  6
CONTINUOUS
 62
     7
  5
2EB
 10
0.195498
 20
0.854903
 30
0.0
 11
0.213831
 21
0.854085
 31
0.0
  0
LINE
  8
0
  6
CONTINUOUS
 62
     7
  5
2EC
 10
0.213831
 20
0.854085
 30
0.0
 11
0.232328
 21
0.8499
 31
0.0
  0
LINE
  8
0
  6
CONTINUOUS
 62
     7
  5
2ED
 10
0.232328
 20
0.8499
 30
0.0
 11
0.249928
 21
0.84237
 31
0.0
  0
LINE
  8
0
  6
CONTINUOUS
 62
     7
  5
2EE
 10
0.249928
 20
0.84237
 30
0.0
 11
0.265686
 21
0.831917
 31
0.0
  0
LINE
  8
0
  6
CONTINUOUS
 62
     7
  5
2EF
 10
0.265686
 20
0.831917
 30
0.0
 11
0.27892
 21
0.819257
 31
0.0
  0
LINE
  8
0
  6
CONTINUOUS
 62
     7
  5
2F0
 10
0.27892
 20
0.819257
 30
0.0
 11
0.289996
 21
0.804089
 31
0.0
  0
LINE
  8
0
  6
CONTINUOUS
 62
     7
  5
2F1
 10
0.289996
 20
0.804089
 30
0.0
 11
0.298321
 21
0.786851
 31
0.0
  0
LINE
  8
0
  6
CONTINUOUS
 62
     7
  5
2F2
 10
0.298321
 20
0.786851
 30
0.0
 11
0.303365
 21
0.768456
 31
0.0
  0
LINE
  8
0
  6
CONTINUOUS
 62
     7
  5
2F3
 10
0.303365
 20
0.768456
 30
0.0
 11
0.305
 21
0.75
 31
0.0
  0
LINE
  8
0
  6
CONTINUOUS
 62
     7
  5
2F4
 10
0.705
 20
-0.77
 30
0.0
 11
0.703349
 21
-0.788547
 31
0.0
  0
LINE
  8
0
  6
CONTINUOUS
 62
     7
  5
2F5
 10
0.703349
 20
-0.788547
 30
0.0
 11
0.698262
 21
-0.807008
 31
0.0
  0
LINE
  8
0
  6
CONTINUOUS
 62
     7
  5
2F6
 10
0.698262
 20
-0.807008
 30
0.0
 11
0.689886
 21
-0.824273
 31
0.0
  0
LINE
  8
0
  6
CONTINUOUS
 62
     7
  5
2F7
 10
0.689886
 20
-0.824273
 30
0.0
 11
0.678777
 21
-0.839421
 31
0.0
  0
LINE
  8
0
  6
CONTINUOUS
 62
     7
  5
2F8
 10
0.678777
 20
-0.839421
 30
0.0
 11
0.665531
 21
-0.852041
 31
0.0
  0
LINE
  8
0
  6
CONTINUOUS
 62
     7
  5
2F9
 10
0.665531
 20
-0.852041
 30
0.0
 11
0.649798
 21
-0.86244
 31
0.0
  0
LINE
  8
0
  6
CONTINUOUS
 62
     7
  5
2FA
 10
0.649798
 20
-0.86244
 30
0.0
 11
0.632263
 21
-0.86992
 31
0.0
  0
LINE
  8
0
  6
CONTINUOUS
 62
     7
  5
2FB
 10
0.632263
 20
-0.86992
 30
0.0
 11
0.613857
 21
-0.874082
 31
0.0
  0
LINE
  8
0
  6
CONTINUOUS
 62
     7
  5
2FC
 10
0.613857
 20
-0.874082
 30
0.0
 11
0.595618
 21
-0.874909
 31
0.0
  0
LINE
  8
0
  6
CONTINUOUS
 62
     7
  5
2FD
 10
0.595618
 20
-0.874909
 30
0.0
 11
0.577167
 21
-0.872487
 31
0.0
  0
LINE
  8
0
  6
CONTINUOUS
 62
     7
  5
2FE
 10
0.577167
 20
-0.872487
 30
0.0
 11
0.559017
 21
-0.866672
 31
0.0
  0
LINE
  8
0
  6
CONTINUOUS
 62
     7
  5
2FF
 10
0.559017
 20
-0.866672
 30
0.0
 11
0.542208
 21
-0.857665
 31
0.0
  0
LINE
  8
0
  6
CONTINUOUS
 62
     7
  5
300
 10
0.542208
 20
-0.857665
 30
0.0
 11
0.527619
 21
-0.846066
 31
0.0
  0
LINE
  8
0
  6
CONTINUOUS
 62
     7
  5
301
 10
0.527619
 20
-0.846066
 30
0.0
 11
0.515422
 21
-0.832222
 31
0.0
  0
LINE
  8
0
  6
CONTINUOUS
 62
     7
  5
302
 10
0.515422
 20
-0.832222
 30
0.0
 11
0.505555
 21
-0.815882
 31
0.0
  0
LINE
  8
0
  6
CONTINUOUS
 62
     7
  5
303
 10
0.505555
 20
-0.815882
 30
0.0
 11
0.498768
 21
-0.797875
 31
0.0
  0
LINE
  8
0
  6
CONTINUOUS
 62
     7
  5
304
 10
0.498768
 20
-0.797875
 30
0.0
 11
0.495405
 21
-0.77921
 31
0.0
  0
LINE
  8
0
  6
CONTINUOUS
 62
     7
  5
305
 10
0.495405
 20
-0.77921
 30
0.0
 11
0.495405
 21
-0.76079
 31
0.0
  0
LINE
  8
0
  6
CONTINUOUS
 62
     7
  5
306
 10
0.495405
 20
-0.76079
 30
0.0
 11
0.498768
 21
-0.742125
 31
0.0
  0
LINE
  8
0
  6
CONTINUOUS
 62
     7
  5
307
 10
0.498768
 20
-0.742125
 30
0.0
 11
0.505555
 21
-0.724118
 31
0.0
  0
LINE
  8
0
  6
CONTINUOUS
 62
     7
  5
308
 10
0.505555
 20
-0.724118
 30
0.0
 11
0.515422
 21
-0.707778
 31
0.0
  0
LINE
  8
0
  6
CONTINUOUS
 62
     7
  5
309
 10
0.515422
 20
-0.707778
 30
0.0
 11
0.527619
 21
-0.693934
 31
0.0
  0
LINE
  8
0
  6
CONTINUOUS
 62
     7
  5
30A
 10
0.527619
 20
-0.693934
 30
0.0
 11
0.542208
 21
-0.682335
 31
0.0
  0
LINE
  8
0
  6
CONTINUOUS
 62
     7
  5
30B
 10
0.542208
 20
-0.682335
 30
0.0
 11
0.559017
 21
-0.673328
 31
0.0
  0
LINE
  8
0
  6
CONTINUOUS
 62
     7
  5
30C
 10
0.559017
 20
-0.673328
 30
0.0
 11
0.577167
 21
-0.667513
 31
0.0
  0
LINE
  8
0
  6
CONTINUOUS
 62
     7
  5
30D
 10
0.577167
 20
-0.667513
 30
0.0
 11
0.595618
 21
-0.665091
 31
0.0
  0
LINE
  8
0
  6
CONTINUOUS
 62
     7
  5
30E
 10
0.595618
 20
-0.665091
 30
0.0
 11
0.613857
 21
-0.665918
 31
0.0
  0
LINE
  8
0
  6
CONTINUOUS
 62
     7
  5
30F
 10
0.613857
 20
-0.665918
 30
0.0
 11
0.632263
 21
-0.67008
 31
0.0
  0
LINE
  8
0
  6
CONTINUOUS
 62
     7
  5
310
 10
0.632263
 20
-0.67008
 30
0.0
 11
0.649798
 21
-0.67756
 31
0.0
  0
LINE
  8
0
  6
CONTINUOUS
 62
     7
  5
311
 10
0.649798
 20
-0.67756
 30
0.0
 11
0.665531
 21
-0.687959
 31
0.0
  0
LINE
  8
0
  6
CONTINUOUS
 62
     7
  5
312
 10
0.665531
 20
-0.687959
 30
0.0
 11
0.678777
 21
-0.700579
 31
0.0
  0
LINE
  8
0
  6
CONTINUOUS
 62
     7
  5
313
 10
0.678777
 20
-0.700579
 30
0.0
 11
0.689886
 21
-0.715727
 31
0.0
  0
LINE
  8
0
  6
CONTINUOUS
 62
     7
  5
314
 10
0.689886
 20
-0.715727
 30
0.0
 11
0.698262
 21
-0.732992
 31
0.0
  0
LINE
  8
0
  6
CONTINUOUS
 62
     7
  5
315
 10
0.698262
 20
-0.732992
 30
0.0
 11
0.703349
 21
-0.751453
 31
0.0
  0
LINE
  8
0
  6
CONTINUOUS
 62
     7
  5
316
 10
0.703349
 20
-0.751453
 30
0.0
 11
0.705
 21
-0.77
 31
0.0
  0
LINE
  8
0
  6
CONTINUOUS
 62
     7
  5
317
 10
0.705
 20
0.75
 30
0.0
 11
0.703349
 21
0.731453
 31
0.0
  0
LINE
  8
0
  6
CONTINUOUS
 62
     7
  5
318
 10
0.703349
 20
0.731453
 30
0.0
 11
0.698262
 21
0.712992
 31
0.0
  0
LINE
  8
0
  6
CONTINUOUS
 62
     7
  5
319
 10
0.698262
 20
0.712992
 30
0.0
 11
0.689886
 21
0.695727
 31
0.0
  0
LINE
  8
0
  6
CONTINUOUS
 62
     7
  5
31A
 10
0.689886
 20
0.695727
 30
0.0
 11
0.678777
 21
0.680579
 31
0.0
  0
LINE
  8
0
  6
CONTINUOUS
 62
     7
  5
31B
 10
0.678777
 20
0.680579
 30
0.0
 11
0.665531
 21
0.667959
 31
0.0
  0
LINE
  8
0
  6
CONTINUOUS
 62
     7
  5
31C
 10
0.665531
 20
0.667959
 30
0.0
 11
0.649798
 21
0.65756
 31
0.0
  0
LINE
  8
0
  6
CONTINUOUS
 62
     7
  5
31D
 10
0.649798
 20
0.65756
 30
0.0
 11
0.632263
 21
0.65008
 31
0.0
  0
LINE
  8
0
  6
CONTINUOUS
 62
     7
  5
31E
 10
0.632263
 20
0.65008
 30
0.0
 11
0.613857
 21
0.645918
 31
0.0
  0
LINE
  8
0
  6
CONTINUOUS
 62
     7
  5
31F
 10
0.613857
 20
0.645918
 30
0.0
 11
0.595618
 21
0.645091
 31
0.0
  0
LINE
  8
0
  6
CONTINUOUS
 62
     7
  5
320
 10
0.595618
 20
0.645091
 30
0.0
 11
0.577167
 21
0.647513
 31
0.0
  0
LINE
  8
0
  6
CONTINUOUS
 62
     7
  5
321
 10
0.577167
 20
0.647513
 30
0.0
 11
0.559017
 21
0.653328
 31
0.0
  0
LINE
  8
0
  6
CONTINUOUS
 62
     7
  5
322
 10
0.559017
 20
0.653328
 30
0.0
 11
0.542208
 21
0.662335
 31
0.0
  0
LINE
  8
0
  6
CONTINUOUS
 62
     7
  5
323
 10
0.542208
 20
0.662335
 30
0.0
 11
0.527619
 21
0.673934
 31
0.0
  0
LINE
  8
0
  6
CONTINUOUS
 62
     7
  5
324
 10
0.527619
 20
0.673934
 30
0.0
 11
0.515422
 21
0.687778
 31
0.0
  0
LINE
  8
0
  6
CONTINUOUS
 62
     7
  5
325
 10
0.515422
 20
0.687778
 30
0.0
 11
0.505555
 21
0.704118
 31
0.0
  0
LINE
  8
0
  6
CONTINUOUS
 62
     7
  5
326
 10
0.505555
 20
0.704118
 30
0.0
 11
0.498768
 21
0.722125
 31
0.0
  0
LINE
  8
0
  6
CONTINUOUS
 62
     7
  5
327
 10
0.498768
 20
0.722125
 30
0.0
 11
0.495405
 21
0.74079
 31
0.0
  0
LINE
  8
0
  6
CONTINUOUS
 62
     7
  5
328
 10
0.495405
 20
0.74079
 30
0.0
 11
0.495405
 21
0.75921
 31
0.0
  0
LINE
  8
0
  6
CONTINUOUS
 62
     7
  5
329
 10
0.495405
 20
0.75921
 30
0.0
 11
0.498768
 21
0.777875
 31
0.0
  0
LINE
  8
0
  6
CONTINUOUS
 62
     7
  5
32A
 10
0.498768
 20
0.777875
 30
0.0
 11
0.505555
 21
0.795882
 31
0.0
  0
LINE
  8
0
  6
CONTINUOUS
 62
     7
  5
32B
 10
0.505555
 20
0.795882
 30
0.0
 11
0.515422
 21
0.812222
 31
0.0
  0
LINE
  8
0
  6
CONTINUOUS
 62
     7
  5
32C
 10
0.515422
 20
0.812222
 30
0.0
 11
0.527619
 21
0.826066
 31
0.0
  0
LINE
  8
0
  6
CONTINUOUS
 62
     7
  5
32D
 10
0.527619
 20
0.826066
 30
0.0
 11
0.542208
 21
0.837665
 31
0.0
  0
LINE
  8
0
  6
CONTINUOUS
 62
     7
  5
32E
 10
0.542208
 20
0.837665
 30
0.0
 11
0.559017
 21
0.846672
 31
0.0
  0
LINE
  8
0
  6
CONTINUOUS
 62
     7
  5
32F
 10
0.559017
 20
0.846672
 30
0.0
 11
0.577167
 21
0.852487
 31
0.0
  0
LINE
  8
0
  6
CONTINUOUS
 62
     7
  5
330
 10
0.577167
 20
0.852487
 30
0.0
 11
0.595618
 21
0.854909
 31
0.0
  0
LINE
  8
0
  6
CONTINUOUS
 62
     7
  5
331
 10
0.595618
 20
0.854909
 30
0.0
 11
0.613857
 21
0.854082
 31
0.0
  0
LINE
  8
0
  6
CONTINUOUS
 62
     7
  5
332
 10
0.613857
 20
0.854082
 30
0.0
 11
0.632263
 21
0.84992
 31
0.0
  0
LINE
  8
0
  6
CONTINUOUS
 62
     7
  5
333
 10
0.632263
 20
0.84992
 30
0.0
 11
0.649798
 21
0.84244
 31
0.0
  0
LINE
  8
0
  6
CONTINUOUS
 62
     7
  5
334
 10
0.649798
 20
0.84244
 30
0.0
 11
0.665531
 21
0.832041
 31
0.0
  0
LINE
  8
0
  6
CONTINUOUS
 62
     7
  5
335
 10
0.665531
 20
0.832041
 30
0.0
 11
0.678777
 21
0.819421
 31
0.0
  0
LINE
  8
0
  6
CONTINUOUS
 62
     7
  5
336
 10
0.678777
 20
0.819421
 30
0.0
 11
0.689886
 21
0.804273
 31
0.0
  0
LINE
  8
0
  6
CONTINUOUS
 62
     7
  5
337
 10
0.689886
 20
0.804273
 30
0.0
 11
0.698262
 21
0.787008
 31
0.0
  0
LINE
  8
0
  6
CONTINUOUS
 62
     7
  5
338
 10
0.698262
 20
0.787008
 30
0.0
 11
0.703349
 21
0.768547
 31
0.0
  0
LINE
  8
0
  6
CONTINUOUS
 62
     7
  5
339
 10
0.703349
 20
0.768547
 30
0.0
 11
0.705
 21
0.75
 31
0.0
  0
LINE
  8
0
  6
CONTINUOUS
 62
     7
  5
33A
 10
0.71
 20
-1.2756
 30
0.0
 11
0.70749
 21
-1.303832
 31
0.0
  0
LINE
  8
0
  6
CONTINUOUS
 62
     7
  5
33B
 10
0.70749
 20
-1.303832
 30
0.0
 11
0.699756
 21
-1.331931
 31
0.0
  0
LINE
  8
0
  6
CONTINUOUS
 62
     7
  5
33C
 10
0.699756
 20
-1.331931
 30
0.0
 11
0.687018
 21
-1.35822
 31
0.0
  0
LINE
  8
0
  6
CONTINUOUS
 62
     7
  5
33D
 10
0.687018
 20
-1.35822
 30
0.0
 11
0.670111
 21
-1.381304
 31
0.0
  0
LINE
  8
0
  6
CONTINUOUS
 62
     7
  5
33E
 10
0.670111
 20
-1.381304
 30
0.0
 11
0.649956
 21
-1.400535
 31
0.0
  0
LINE
  8
0
  6
CONTINUOUS
 62
     7
  5
33F
 10
0.649956
 20
-1.400535
 30
0.0
 11
0.626006
 21
-1.416394
 31
0.0
  0
LINE
  8
0
  6
CONTINUOUS
 62
     7
  5
340
 10
0.626006
 20
-1.416394
 30
0.0
 11
0.599289
 21
-1.427819
 31
0.0
  0
LINE
  8
0
  6
CONTINUOUS
 62
     7
  5
341
 10
0.599289
 20
-1.427819
 30
0.0
 11
0.571224
 21
-1.434186
 31
0.0
  0
LINE
  8
0
  6
CONTINUOUS
 62
     7
  5
342
 10
0.571224
 20
-1.434186
 30
0.0
 11
0.543402
 21
-1.435464
 31
0.0
  0
LINE
  8
0
  6
CONTINUOUS
 62
     7
  5
343
 10
0.543402
 20
-1.435464
 30
0.0
 11
0.515251
 21
-1.431781
 31
0.0
  0
LINE
  8
0
  6
CONTINUOUS
 62
     7
  5
344
 10
0.515251
 20
-1.431781
 30
0.0
 11
0.487559
 21
-1.422913
 31
0.0
  0
LINE
  8
0
  6
CONTINUOUS
 62
     7
  5
345
 10
0.487559
 20
-1.422913
 30
0.0
 11
0.461917
 21
-1.409172
 31
0.0
  0
LINE
  8
0
  6
CONTINUOUS
 62
     7
  5
346
 10
0.461917
 20
-1.409172
 30
0.0
 11
0.439681
 21
-1.391486
 31
0.0
  0
LINE
  8
0
  6
CONTINUOUS
 62
     7
  5
347
 10
0.439681
 20
-1.391486
 30
0.0
 11
0.421088
 21
-1.370372
 31
0.0
  0
LINE
  8
0
  6
CONTINUOUS
 62
     7
  5
348
 10
0.421088
 20
-1.370372
 30
0.0
 11
0.406061
 21
-1.345468
 31
0.0
  0
LINE
  8
0
  6
CONTINUOUS
 62
     7
  5
349
 10
0.406061
 20
-1.345468
 30
0.0
 11
0.395732
 21
-1.318041
 31
0.0
  0
LINE
  8
0
  6
CONTINUOUS
 62
     7
  5
34A
 10
0.395732
 20
-1.318041
 30
0.0
 11
0.390616
 21
-1.289622
 31
0.0
  0
LINE
  8
0
  6
CONTINUOUS
 62
     7
  5
34B
 10
0.390616
 20
-1.289622
 30
0.0
 11
0.390616
 21
-1.261578
 31
0.0
  0
LINE
  8
0
  6
CONTINUOUS
 62
     7
  5
34C
 10
0.390616
 20
-1.261578
 30
0.0
 11
0.395733
 21
-1.233155
 31
0.0
  0
LINE
  8
0
  6
CONTINUOUS
 62
     7
  5
34D
 10
0.395733
 20
-1.233155
 30
0.0
 11
0.406065
 21
-1.205724
 31
0.0
  0
LINE
  8
0
  6
CONTINUOUS
 62
     7
  5
34E
 10
0.406065
 20
-1.205724
 30
0.0
 11
0.421093
 21
-1.180822
 31
0.0
  0
LINE
  8
0
  6
CONTINUOUS
 62
     7
  5
34F
 10
0.421093
 20
-1.180822
 30
0.0
 11
0.439682
 21
-1.159712
 31
0.0
  0
LINE
  8
0
  6
CONTINUOUS
 62
     7
  5
350
 10
0.439682
 20
-1.159712
 30
0.0
 11
0.461925
 21
-1.142023
 31
0.0
  0
LINE
  8
0
  6
CONTINUOUS
 62
     7
  5
351
 10
0.461925
 20
-1.142023
 30
0.0
 11
0.487565
 21
-1.128284
 31
0.0
  0
LINE
  8
0
  6
CONTINUOUS
 62
     7
  5
352
 10
0.487565
 20
-1.128284
 30
0.0
 11
0.515254
 21
-1.119418
 31
0.0
  0
LINE
  8
0
  6
CONTINUOUS
 62
     7
  5
353
 10
0.515254
 20
-1.119418
 30
0.0
 11
0.543402
 21
-1.115736
 31
0.0
  0
LINE
  8
0
  6
CONTINUOUS
 62
     7
  5
354
 10
0.543402
 20
-1.115736
 30
0.0
 11
0.571221
 21
-1.117013
 31
0.0
  0
LINE
  8
0
  6
CONTINUOUS
 62
     7
  5
355
 10
0.571221
 20
-1.117013
 30
0.0
 11
0.599279
 21
-1.123378
 31
0.0
  0
LINE
  8
0
  6
CONTINUOUS
 62
     7
  5
356
 10
0.599279
 20
-1.123378
 30
0.0
 11
0.625992
 21
-1.134798
 31
0.0
  0
LINE
  8
0
  6
CONTINUOUS
 62
     7
  5
357
 10
0.625992
 20
-1.134798
 30
0.0
 11
0.649946
 21
-1.150657
 31
0.0
  0
LINE
  8
0
  6
CONTINUOUS
 62
     7
  5
358
 10
0.649946
 20
-1.150657
 30
0.0
 11
0.670105
 21
-1.169889
 31
0.0
  0
LINE
  8
0
  6
CONTINUOUS
 62
     7
  5
359
 10
0.670105
 20
-1.169889
 30
0.0
 11
0.68701
 21
-1.192966
 31
0.0
  0
LINE
  8
0
  6
CONTINUOUS
 62
     7
  5
35A
 10
0.68701
 20
-1.192966
 30
0.0
 11
0.699751
 21
-1.219257
 31
0.0
  0
LINE
  8
0
  6
CONTINUOUS
 62
     7
  5
35B
 10
0.699751
 20
-1.219257
 30
0.0
 11
0.707489
 21
-1.247363
 31
0.0
  0
LINE
  8
0
  6
CONTINUOUS
 62
     7
  5
35C
 10
0.707489
 20
-1.247363
 30
0.0
 11
0.71
 21
-1.2756
 31
0.0
  0
LINE
  8
0
  6
CONTINUOUS
 62
     7
  5
35D
 10
0.71
 20
1.2756
 30
0.0
 11
0.707489
 21
1.247363
 31
0.0
  0
LINE
  8
0
  6
CONTINUOUS
 62
     7
  5
35E
 10
0.707489
 20
1.247363
 30
0.0
 11
0.699751
 21
1.219257
 31
0.0
  0
LINE
  8
0
  6
CONTINUOUS
 62
     7
  5
35F
 10
0.699751
 20
1.219257
 30
0.0
 11
0.68701
 21
1.192966
 31
0.0
  0
LINE
  8
0
  6
CONTINUOUS
 62
     7
  5
360
 10
0.68701
 20
1.192966
 30
0.0
 11
0.670105
 21
1.169889
 31
0.0
  0
LINE
  8
0
  6
CONTINUOUS
 62
     7
  5
361
 10
0.670105
 20
1.169889
 30
0.0
 11
0.649946
 21
1.150657
 31
0.0
  0
LINE
  8
0
  6
CONTINUOUS
 62
     7
  5
362
 10
0.649946
 20
1.150657
 30
0.0
 11
0.625992
 21
1.134798
 31
0.0
  0
LINE
  8
0
  6
CONTINUOUS
 62
     7
  5
363
 10
0.625992
 20
1.134798
 30
0.0
 11
0.599279
 21
1.123378
 31
0.0
  0
LINE
  8
0
  6
CONTINUOUS
 62
     7
  5
364
 10
0.599279
 20
1.123378
 30
0.0
 11
0.571221
 21
1.117013
 31
0.0
  0
LINE
  8
0
  6
CONTINUOUS
 62
     7
  5
365
 10
0.571221
 20
1.117013
 30
0.0
 11
0.543402
 21
1.115736
 31
0.0
  0
LINE
  8
0
  6
CONTINUOUS
 62
     7
  5
366
 10
0.543402
 20
1.115736
 30
0.0
 11
0.515254
 21
1.119418
 31
0.0
  0
LINE
  8
0
  6
CONTINUOUS
 62
     7
  5
367
 10
0.515254
 20
1.119418
 30
0.0
 11
0.487565
 21
1.128284
 31
0.0
  0
LINE
  8
0
  6
CONTINUOUS
 62
     7
  5
368
 10
0.487565
 20
1.128284
 30
0.0
 11
0.461925
 21
1.142023
 31
0.0
  0
LINE
  8
0
  6
CONTINUOUS
 62
     7
  5
369
 10
0.461925
 20
1.142023
 30
0.0
 11
0.439682
 21
1.159712
 31
0.0
  0
LINE
  8
0
  6
CONTINUOUS
 62
     7
  5
36A
 10
0.439682
 20
1.159712
 30
0.0
 11
0.421093
 21
1.180822
 31
0.0
  0
LINE
  8
0
  6
CONTINUOUS
 62
     7
  5
36B
 10
0.421093
 20
1.180822
 30
0.0
 11
0.406065
 21
1.205724
 31
0.0
  0
LINE
  8
0
  6
CONTINUOUS
 62
     7
  5
36C
 10
0.406065
 20
1.205724
 30
0.0
 11
0.395733
 21
1.233155
 31
0.0
  0
LINE
  8
0
  6
CONTINUOUS
 62
     7
  5
36D
 10
0.395733
 20
1.233155
 30
0.0
 11
0.390616
 21
1.261577
 31
0.0
  0
LINE
  8
0
  6
CONTINUOUS
 62
     7
  5
36E
 10
0.390616
 20
1.261577
 30
0.0
 11
0.390616
 21
1.289623
 31
0.0
  0
LINE
  8
0
  6
CONTINUOUS
 62
     7
  5
36F
 10
0.390616
 20
1.289623
 30
0.0
 11
0.395733
 21
1.318045
 31
0.0
  0
LINE
  8
0
  6
CONTINUOUS
 62
     7
  5
370
 10
0.395733
 20
1.318045
 30
0.0
 11
0.406065
 21
1.345476
 31
0.0
  0
LINE
  8
0
  6
CONTINUOUS
 62
     7
  5
371
 10
0.406065
 20
1.345476
 30
0.0
 11
0.421093
 21
1.370378
 31
0.0
  0
LINE
  8
0
  6
CONTINUOUS
 62
     7
  5
372
 10
0.421093
 20
1.370378
 30
0.0
 11
0.439682
 21
1.391488
 31
0.0
  0
LINE
  8
0
  6
CONTINUOUS
 62
     7
  5
373
 10
0.439682
 20
1.391488
 30
0.0
 11
0.461925
 21
1.409177
 31
0.0
  0
LINE
  8
0
  6
CONTINUOUS
 62
     7
  5
374
 10
0.461925
 20
1.409177
 30
0.0
 11
0.487565
 21
1.422916
 31
0.0
  0
LINE
  8
0
  6
CONTINUOUS
 62
     7
  5
375
 10
0.487565
 20
1.422916
 30
0.0
 11
0.515254
 21
1.431782
 31
0.0
  0
LINE
  8
0
  6
CONTINUOUS
 62
     7
  5
376
 10
0.515254
 20
1.431782
 30
0.0
 11
0.543402
 21
1.435464
 31
0.0
  0
LINE
  8
0
  6
CONTINUOUS
 62
     7
  5
377
 10
0.543402
 20
1.435464
 30
0.0
 11
0.571221
 21
1.434187
 31
0.0
  0
LINE
  8
0
  6
CONTINUOUS
 62
     7
  5
378
 10
0.571221
 20
1.434187
 30
0.0
 11
0.599279
 21
1.427822
 31
0.0
  0
LINE
  8
0
  6
CONTINUOUS
 62
     7
  5
379
 10
0.599279
 20
1.427822
 30
0.0
 11
0.625992
 21
1.416402
 31
0.0
  0
LINE
  8
0
  6
CONTINUOUS
 62
     7
  5
37A
 10
0.625992
 20
1.416402
 30
0.0
 11
0.649946
 21
1.400543
 31
0.0
  0
LINE
  8
0
  6
CONTINUOUS
 62
     7
  5
37B
 10
0.649946
 20
1.400543
 30
0.0
 11
0.670105
 21
1.381311
 31
0.0
  0
LINE
  8
0
  6
CONTINUOUS
 62
     7
  5
37C
 10
0.670105
 20
1.381311
 30
0.0
 11
0.68701
 21
1.358234
 31
0.0
  0
LINE
  8
0
  6
CONTINUOUS
 62
     7
  5
37D
 10
0.68701
 20
1.358234
 30
0.0
 11
0.699751
 21
1.331943
 31
0.0
  0
LINE
  8
0
  6
CONTINUOUS
 62
     7
  5
37E
 10
0.699751
 20
1.331943
 30
0.0
 11
0.707489
 21
1.303837
 31
0.0
  0
LINE
  8
0
  6
CONTINUOUS
 62
     7
  5
37F
 10
0.707489
 20
1.303837
 30
0.0
 11
0.71
 21
1.2756
 31
0.0
  0
LINE
  8
0
  6
CONTINUOUS
 62
     7
  5
380
 10
0.0
 20
-1.4356
 30
0.0
 11
-0.013953
 21
-1.43499
 31
0.0
  0
LINE
  8
0
  6
CONTINUOUS
 62
     7
  5
381
 10
-0.013953
 20
-1.43499
 30
0.0
 11
-0.028109
 21
-1.433111
 31
0.0
  0
LINE
  8
0
  6
CONTINUOUS
 62
     7
  5
382
 10
-0.028109
 20
-1.433111
 30
0.0
 11
-0.042242
 21
-1.429923
 31
0.0
  0
LINE
  8
0
  6
CONTINUOUS
 62
     7
  5
383
 10
-0.042242
 20
-1.429923
 30
0.0
 11
-0.05613
 21
-1.425431
 31
0.0
  0
LINE
  8
0
  6
CONTINUOUS
 62
     7
  5
384
 10
-0.05613
 20
-1.425431
 30
0.0
 11
-0.069573
 21
-1.419682
 31
0.0
  0
LINE
  8
0
  6
CONTINUOUS
 62
     7
  5
385
 10
-0.069573
 20
-1.419682
 30
0.0
 11
-0.082397
 21
-1.412752
 31
0.0
  0
LINE
  8
0
  6
CONTINUOUS
 62
     7
  5
386
 10
-0.082397
 20
-1.412752
 30
0.0
 11
-0.09443
 21
-1.404762
 31
0.0
  0
LINE
  8
0
  6
CONTINUOUS
 62
     7
  5
387
 10
-0.09443
 20
-1.404762
 30
0.0
 11
-0.105518
 21
-1.395875
 31
0.0
  0
LINE
  8
0
  6
CONTINUOUS
 62
     7
  5
388
 10
-0.105518
 20
-1.395875
 30
0.0
 11
-0.115555
 21
-1.386267
 31
0.0
  0
LINE
  8
0
  6
CONTINUOUS
 62
     7
  5
389
 10
-0.115555
 20
-1.386267
 30
0.0
 11
-0.124819
 21
-1.375701
 31
0.0
  0
LINE
  8
0
  6
CONTINUOUS
 62
     7
  5
38A
 10
-0.124819
 20
-1.375701
 30
0.0
 11
-0.133281
 21
-1.364123
 31
0.0
  0
LINE
  8
0
  6
CONTINUOUS
 62
     7
  5
38B
 10
-0.133281
 20
-1.364123
 30
0.0
 11
-0.140758
 21
-1.351673
 31
0.0
  0
LINE
  8
0
  6
CONTINUOUS
 62
     7
  5
38C
 10
-0.140758
 20
-1.351673
 30
0.0
 11
-0.14711
 21
-1.338518
 31
0.0
  0
LINE
  8
0
  6
CONTINUOUS
 62
     7
  5
38D
 10
-0.14711
 20
-1.338518
 30
0.0
 11
-0.152238
 21
-1.32483
 31
0.0
  0
LINE
  8
0
  6
CONTINUOUS
 62
     7
  5
38E
 10
-0.152238
 20
-1.32483
 30
0.0
 11
-0.156082
 21
-1.310793
 31
0.0
  0
LINE
  8
0
  6
CONTINUOUS
 62
     7
  5
38F
 10
-0.156082
 20
-1.310793
 30
0.0
 11
-0.158613
 21
-1.29662
 31
0.0
  0
LINE
  8
0
  6
CONTINUOUS
 62
     7
  5
390
 10
-0.158613
 20
-1.29662
 30
0.0
 11
-0.15985
 21
-1.282537
 31
0.0
  0
LINE
  8
0
  6
CONTINUOUS
 62
     7
  5
391
 10
-0.15985
 20
-1.282537
 30
0.0
 11
-0.15985
 21
-1.268663
 31
0.0
  0
LINE
  8
0
  6
CONTINUOUS
 62
     7
  5
392
 10
-0.15985
 20
-1.268663
 30
0.0
 11
-0.158613
 21
-1.25458
 31
0.0
  0
LINE
  8
0
  6
CONTINUOUS
 62
     7
  5
393
 10
-0.158613
 20
-1.25458
 30
0.0
 11
-0.156082
 21
-1.240407
 31
0.0
  0
LINE
  8
0
  6
CONTINUOUS
 62
     7
  5
394
 10
-0.156082
 20
-1.240407
 30
0.0
 11
-0.152238
 21
-1.22637
 31
0.0
  0
LINE
  8
0
  6
CONTINUOUS
 62
     7
  5
395
 10
-0.152238
 20
-1.22637
 30
0.0
 11
-0.14711
 21
-1.212682
 31
0.0
  0
LINE
  8
0
  6
CONTINUOUS
 62
     7
  5
396
 10
-0.14711
 20
-1.212682
 30
0.0
 11
-0.140758
 21
-1.199527
 31
0.0
  0
LINE
  8
0
  6
CONTINUOUS
 62
     7
  5
397
 10
-0.140758
 20
-1.199527
 30
0.0
 11
-0.133281
 21
-1.187077
 31
0.0
  0
LINE
  8
0
  6
CONTINUOUS
 62
     7
  5
398
 10
-0.133281
 20
-1.187077
 30
0.0
 11
-0.124819
 21
-1.175499
 31
0.0
  0
LINE
  8
0
  6
CONTINUOUS
 62
     7
  5
399
 10
-0.124819
 20
-1.175499
 30
0.0
 11
-0.115555
 21
-1.164933
 31
0.0
  0
LINE
  8
0
  6
CONTINUOUS
 62
     7
  5
39A
 10
-0.115555
 20
-1.164933
 30
0.0
 11
-0.105518
 21
-1.155325
 31
0.0
  0
LINE
  8
0
  6
CONTINUOUS
 62
     7
  5
39B
 10
-0.105518
 20
-1.155325
 30
0.0
 11
-0.09443
 21
-1.146438
 31
0.0
  0
LINE
  8
0
  6
CONTINUOUS
 62
     7
  5
39C
 10
-0.09443
 20
-1.146438
 30
0.0
 11
-0.082397
 21
-1.138448
 31
0.0
  0
LINE
  8
0
  6
CONTINUOUS
 62
     7
  5
39D
 10
-0.082397
 20
-1.138448
 30
0.0
 11
-0.069573
 21
-1.131518
 31
0.0
  0
LINE
  8
0
  6
CONTINUOUS
 62
     7
  5
39E
 10
-0.069573
 20
-1.131518
 30
0.0
 11
-0.05613
 21
-1.125769
 31
0.0
  0
LINE
  8
0
  6
CONTINUOUS
 62
     7
  5
39F
 10
-0.05613
 20
-1.125769
 30
0.0
 11
-0.042242
 21
-1.121277
 31
0.0
  0
LINE
  8
0
  6
CONTINUOUS
 62
     7
  5
3A0
 10
-0.042242
 20
-1.121277
 30
0.0
 11
-0.028109
 21
-1.118089
 31
0.0
  0
LINE
  8
0
  6
CONTINUOUS
 62
     7
  5
3A1
 10
-0.028109
 20
-1.118089
 30
0.0
 11
-0.013953
 21
-1.11621
 31
0.0
  0
LINE
  8
0
  6
CONTINUOUS
 62
     7
  5
3A2
 10
-0.013953
 20
-1.11621
 30
0.0
 11
0.0
 21
-1.1156
 31
0.0
  0
LINE
  8
0
  6
CONTINUOUS
 62
     7
  5
3A3
 10
0.0
 20
-1.1156
 30
0.0
 11
0.013953
 21
-1.11621
 31
0.0
  0
LINE
  8
0
  6
CONTINUOUS
 62
     7
  5
3A4
 10
0.013953
 20
-1.11621
 30
0.0
 11
0.028109
 21
-1.118089
 31
0.0
  0
LINE
  8
0
  6
CONTINUOUS
 62
     7
  5
3A5
 10
0.028109
 20
-1.118089
 30
0.0
 11
0.042242
 21
-1.121277
 31
0.0
  0
LINE
  8
0
  6
CONTINUOUS
 62
     7
  5
3A6
 10
0.042242
 20
-1.121277
 30
0.0
 11
0.05613
 21
-1.125769
 31
0.0
  0
LINE
  8
0
  6
CONTINUOUS
 62
     7
  5
3A7
 10
0.05613
 20
-1.125769
 30
0.0
 11
0.069573
 21
-1.131518
 31
0.0
  0
LINE
  8
0
  6
CONTINUOUS
 62
     7
  5
3A8
 10
0.069573
 20
-1.131518
 30
0.0
 11
0.082397
 21
-1.138448
 31
0.0
  0
LINE
  8
0
  6
CONTINUOUS
 62
     7
  5
3A9
 10
0.082397
 20
-1.138448
 30
0.0
 11
0.09443
 21
-1.146438
 31
0.0
  0
LINE
  8
0
  6
CONTINUOUS
 62
     7
  5
3AA
 10
0.09443
 20
-1.146438
 30
0.0
 11
0.105518
 21
-1.155325
 31
0.0
  0
LINE
  8
0
  6
CONTINUOUS
 62
     7
  5
3AB
 10
0.105518
 20
-1.155325
 30
0.0
 11
0.115555
 21
-1.164933
 31
0.0
  0
LINE
  8
0
  6
CONTINUOUS
 62
     7
  5
3AC
 10
0.115555
 20
-1.164933
 30
0.0
 11
0.124819
 21
-1.175499
 31
0.0
  0
LINE
  8
0
  6
CONTINUOUS
 62
     7
  5
3AD
 10
0.124819
 20
-1.175499
 30
0.0
 11
0.133281
 21
-1.187077
 31
0.0
  0
LINE
  8
0
  6
CONTINUOUS
 62
     7
  5
3AE
 10
0.133281
 20
-1.187077
 30
0.0
 11
0.140758
 21
-1.199527
 31
0.0
  0
LINE
  8
0
  6
CONTINUOUS
 62
     7
  5
3AF
 10
0.140758
 20
-1.199527
 30
0.0
 11
0.14711
 21
-1.212682
 31
0.0
  0
LINE
  8
0
  6
CONTINUOUS
 62
     7
  5
3B0
 10
0.14711
 20
-1.212682
 30
0.0
 11
0.152238
 21
-1.22637
 31
0.0
  0
LINE
  8
0
  6
CONTINUOUS
 62
     7
  5
3B1
 10
0.152238
 20
-1.22637
 30
0.0
 11
0.156082
 21
-1.240407
 31
0.0
  0
LINE
  8
0
  6
CONTINUOUS
 62
     7
  5
3B2
 10
0.156082
 20
-1.240407
 30
0.0
 11
0.158613
 21
-1.25458
 31
0.0
  0
LINE
  8
0
  6
CONTINUOUS
 62
     7
  5
3B3
 10
0.158613
 20
-1.25458
 30
0.0
 11
0.15985
 21
-1.268663
 31
0.0
  0
LINE
  8
0
  6
CONTINUOUS
 62
     7
  5
3B4
 10
0.15985
 20
-1.268663
 30
0.0
 11
0.15985
 21
-1.282537
 31
0.0
  0
LINE
  8
0
  6
CONTINUOUS
 62
     7
  5
3B5
 10
0.15985
 20
-1.282537
 30
0.0
 11
0.158613
 21
-1.29662
 31
0.0
  0
LINE
  8
0
  6
CONTINUOUS
 62
     7
  5
3B6
 10
0.158613
 20
-1.29662
 30
0.0
 11
0.156082
 21
-1.310793
 31
0.0
  0
LINE
  8
0
  6
CONTINUOUS
 62
     7
  5
3B7
 10
0.156082
 20
-1.310793
 30
0.0
 11
0.152238
 21
-1.32483
 31
0.0
  0
LINE
  8
0
  6
CONTINUOUS
 62
     7
  5
3B8
 10
0.152238
 20
-1.32483
 30
0.0
 11
0.14711
 21
-1.338518
 31
0.0
  0
LINE
  8
0
  6
CONTINUOUS
 62
     7
  5
3B9
 10
0.14711
 20
-1.338518
 30
0.0
 11
0.140758
 21
-1.351673
 31
0.0
  0
LINE
  8
0
  6
CONTINUOUS
 62
     7
  5
3BA
 10
0.140758
 20
-1.351673
 30
0.0
 11
0.133281
 21
-1.364123
 31
0.0
  0
LINE
  8
0
  6
CONTINUOUS
 62
     7
  5
3BB
 10
0.133281
 20
-1.364123
 30
0.0
 11
0.124819
 21
-1.375701
 31
0.0
  0
LINE
  8
0
  6
CONTINUOUS
 62
     7
  5
3BC
 10
0.124819
 20
-1.375701
 30
0.0
 11
0.115555
 21
-1.386267
 31
0.0
  0
LINE
  8
0
  6
CONTINUOUS
 62
     7
  5
3BD
 10
0.115555
 20
-1.386267
 30
0.0
 11
0.105518
 21
-1.395875
 31
0.0
  0
LINE
  8
0
  6
CONTINUOUS
 62
     7
  5
3BE
 10
0.105518
 20
-1.395875
 30
0.0
 11
0.09443
 21
-1.404762
 31
0.0
  0
LINE
  8
0
  6
CONTINUOUS
 62
     7
  5
3BF
 10
0.09443
 20
-1.404762
 30
0.0
 11
0.082397
 21
-1.412752
 31
0.0
  0
LINE
  8
0
  6
CONTINUOUS
 62
     7
  5
3C0
 10
0.082397
 20
-1.412752
 30
0.0
 11
0.069573
 21
-1.419682
 31
0.0
  0
LINE
  8
0
  6
CONTINUOUS
 62
     7
  5
3C1
 10
0.069573
 20
-1.419682
 30
0.0
 11
0.05613
 21
-1.425431
 31
0.0
  0
LINE
  8
0
  6
CONTINUOUS
 62
     7
  5
3C2
 10
0.05613
 20
-1.425431
 30
0.0
 11
0.042242
 21
-1.429923
 31
0.0
  0
LINE
  8
0
  6
CONTINUOUS
 62
     7
  5
3C3
 10
0.042242
 20
-1.429923
 30
0.0
 11
0.028109
 21
-1.433111
 31
0.0
  0
LINE
  8
0
  6
CONTINUOUS
 62
     7
  5
3C4
 10
0.028109
 20
-1.433111
 30
0.0
 11
0.013953
 21
-1.43499
 31
0.0
  0
LINE
  8
0
  6
CONTINUOUS
 62
     7
  5
3C5
 10
0.013953
 20
-1.43499
 30
0.0
 11
0.0
 21
-1.4356
 31
0.0
  0
LINE
  8
0
  6
CONTINUOUS
 62
     7
  5
3C6
 10
0.0
 20
1.1156
 30
0.0
 11
-0.013953
 21
1.11621
 31
0.0
  0
LINE
  8
0
  6
CONTINUOUS
 62
     7
  5
3C7
 10
-0.013953
 20
1.11621
 30
0.0
 11
-0.028109
 21
1.118089
 31
0.0
  0
LINE
  8
0
  6
CONTINUOUS
 62
     7
  5
3C8
 10
-0.028109
 20
1.118089
 30
0.0
 11
-0.042242
 21
1.121277
 31
0.0
  0
LINE
  8
0
  6
CONTINUOUS
 62
     7
  5
3C9
 10
-0.042242
 20
1.121277
 30
0.0
 11
-0.05613
 21
1.125769
 31
0.0
  0
LINE
  8
0
  6
CONTINUOUS
 62
     7
  5
3CA
 10
-0.05613
 20
1.125769
 30
0.0
 11
-0.069573
 21
1.131518
 31
0.0
  0
LINE
  8
0
  6
CONTINUOUS
 62
     7
  5
3CB
 10
-0.069573
 20
1.131518
 30
0.0
 11
-0.082397
 21
1.138448
 31
0.0
  0
LINE
  8
0
  6
CONTINUOUS
 62
     7
  5
3CC
 10
-0.082397
 20
1.138448
 30
0.0
 11
-0.09443
 21
1.146438
 31
0.0
  0
LINE
  8
0
  6
CONTINUOUS
 62
     7
  5
3CD
 10
-0.09443
 20
1.146438
 30
0.0
 11
-0.105518
 21
1.155325
 31
0.0
  0
LINE
  8
0
  6
CONTINUOUS
 62
     7
  5
3CE
 10
-0.105518
 20
1.155325
 30
0.0
 11
-0.115555
 21
1.164933
 31
0.0
  0
LINE
  8
0
  6
CONTINUOUS
 62
     7
  5
3CF
 10
-0.115555
 20
1.164933
 30
0.0
 11
-0.124819
 21
1.175499
 31
0.0
  0
LINE
  8
0
  6
CONTINUOUS
 62
     7
  5
3D0
 10
-0.124819
 20
1.175499
 30
0.0
 11
-0.133281
 21
1.187077
 31
0.0
  0
LINE
  8
0
  6
CONTINUOUS
 62
     7
  5
3D1
 10
-0.133281
 20
1.187077
 30
0.0
 11
-0.140758
 21
1.199527
 31
0.0
  0
LINE
  8
0
  6
CONTINUOUS
 62
     7
  5
3D2
 10
-0.140758
 20
1.199527
 30
0.0
 11
-0.14711
 21
1.212682
 31
0.0
  0
LINE
  8
0
  6
CONTINUOUS
 62
     7
  5
3D3
 10
-0.14711
 20
1.212682
 30
0.0
 11
-0.152238
 21
1.22637
 31
0.0
  0
LINE
  8
0
  6
CONTINUOUS
 62
     7
  5
3D4
 10
-0.152238
 20
1.22637
 30
0.0
 11
-0.156082
 21
1.240407
 31
0.0
  0
LINE
  8
0
  6
CONTINUOUS
 62
     7
  5
3D5
 10
-0.156082
 20
1.240407
 30
0.0
 11
-0.158613
 21
1.25458
 31
0.0
  0
LINE
  8
0
  6
CONTINUOUS
 62
     7
  5
3D6
 10
-0.158613
 20
1.25458
 30
0.0
 11
-0.15985
 21
1.268663
 31
0.0
  0
LINE
  8
0
  6
CONTINUOUS
 62
     7
  5
3D7
 10
-0.15985
 20
1.268663
 30
0.0
 11
-0.15985
 21
1.282537
 31
0.0
  0
LINE
  8
0
  6
CONTINUOUS
 62
     7
  5
3D8
 10
-0.15985
 20
1.282537
 30
0.0
 11
-0.158613
 21
1.29662
 31
0.0
  0
LINE
  8
0
  6
CONTINUOUS
 62
     7
  5
3D9
 10
-0.158613
 20
1.29662
 30
0.0
 11
-0.156082
 21
1.310793
 31
0.0
  0
LINE
  8
0
  6
CONTINUOUS
 62
     7
  5
3DA
 10
-0.156082
 20
1.310793
 30
0.0
 11
-0.152238
 21
1.32483
 31
0.0
  0
LINE
  8
0
  6
CONTINUOUS
 62
     7
  5
3DB
 10
-0.152238
 20
1.32483
 30
0.0
 11
-0.14711
 21
1.338518
 31
0.0
  0
LINE
  8
0
  6
CONTINUOUS
 62
     7
  5
3DC
 10
-0.14711
 20
1.338518
 30
0.0
 11
-0.140758
 21
1.351673
 31
0.0
  0
LINE
  8
0
  6
CONTINUOUS
 62
     7
  5
3DD
 10
-0.140758
 20
1.351673
 30
0.0
 11
-0.133281
 21
1.364123
 31
0.0
  0
LINE
  8
0
  6
CONTINUOUS
 62
     7
  5
3DE
 10
-0.133281
 20
1.364123
 30
0.0
 11
-0.124819
 21
1.375701
 31
0.0
  0
LINE
  8
0
  6
CONTINUOUS
 62
     7
  5
3DF
 10
-0.124819
 20
1.375701
 30
0.0
 11
-0.115555
 21
1.386267
 31
0.0
  0
LINE
  8
0
  6
CONTINUOUS
 62
     7
  5
3E0
 10
-0.115555
 20
1.386267
 30
0.0
 11
-0.105518
 21
1.395875
 31
0.0
  0
LINE
  8
0
  6
CONTINUOUS
 62
     7
  5
3E1
 10
-0.105518
 20
1.395875
 30
0.0
 11
-0.09443
 21
1.404762
 31
0.0
  0
LINE
  8
0
  6
CONTINUOUS
 62
     7
  5
3E2
 10
-0.09443
 20
1.404762
 30
0.0
 11
-0.082397
 21
1.412752
 31
0.0
  0
LINE
  8
0
  6
CONTINUOUS
 62
     7
  5
3E3
 10
-0.082397
 20
1.412752
 30
0.0
 11
-0.069573
 21
1.419682
 31
0.0
  0
LINE
  8
0
  6
CONTINUOUS
 62
     7
  5
3E4
 10
-0.069573
 20
1.419682
 30
0.0
 11
-0.05613
 21
1.425431
 31
0.0
  0
LINE
  8
0
  6
CONTINUOUS
 62
     7
  5
3E5
 10
-0.05613
 20
1.425431
 30
0.0
 11
-0.042242
 21
1.429923
 31
0.0
  0
LINE
  8
0
  6
CONTINUOUS
 62
     7
  5
3E6
 10
-0.042242
 20
1.429923
 30
0.0
 11
-0.028109
 21
1.433111
 31
0.0
  0
LINE
  8
0
  6
CONTINUOUS
 62
     7
  5
3E7
 10
-0.028109
 20
1.433111
 30
0.0
 11
-0.013953
 21
1.43499
 31
0.0
  0
LINE
  8
0
  6
CONTINUOUS
 62
     7
  5
3E8
 10
-0.013953
 20
1.43499
 30
0.0
 11
0.0
 21
1.4356
 31
0.0
  0
LINE
  8
0
  6
CONTINUOUS
 62
     7
  5
3E9
 10
0.0
 20
1.4356
 30
0.0
 11
0.013953
 21
1.43499
 31
0.0
  0
LINE
  8
0
  6
CONTINUOUS
 62
     7
  5
3EA
 10
0.013953
 20
1.43499
 30
0.0
 11
0.028109
 21
1.433111
 31
0.0
  0
LINE
  8
0
  6
CONTINUOUS
 62
     7
  5
3EB
 10
0.028109
 20
1.433111
 30
0.0
 11
0.042242
 21
1.429923
 31
0.0
  0
LINE
  8
0
  6
CONTINUOUS
 62
     7
  5
3EC
 10
0.042242
 20
1.429923
 30
0.0
 11
0.05613
 21
1.425431
 31
0.0
  0
LINE
  8
0
  6
CONTINUOUS
 62
     7
  5
3ED
 10
0.05613
 20
1.425431
 30
0.0
 11
0.069573
 21
1.419682
 31
0.0
  0
LINE
  8
0
  6
CONTINUOUS
 62
     7
  5
3EE
 10
0.069573
 20
1.419682
 30
0.0
 11
0.082397
 21
1.412752
 31
0.0
  0
LINE
  8
0
  6
CONTINUOUS
 62
     7
  5
3EF
 10
0.082397
 20
1.412752
 30
0.0
 11
0.09443
 21
1.404762
 31
0.0
  0
LINE
  8
0
  6
CONTINUOUS
 62
     7
  5
3F0
 10
0.09443
 20
1.404762
 30
0.0
 11
0.105518
 21
1.395875
 31
0.0
  0
LINE
  8
0
  6
CONTINUOUS
 62
     7
  5
3F1
 10
0.105518
 20
1.395875
 30
0.0
 11
0.115555
 21
1.386267
 31
0.0
  0
LINE
  8
0
  6
CONTINUOUS
 62
     7
  5
3F2
 10
0.115555
 20
1.386267
 30
0.0
 11
0.124819
 21
1.375701
 31
0.0
  0
LINE
  8
0
  6
CONTINUOUS
 62
     7
  5
3F3
 10
0.124819
 20
1.375701
 30
0.0
 11
0.133281
 21
1.364123
 31
0.0
  0
LINE
  8
0
  6
CONTINUOUS
 62
     7
  5
3F4
 10
0.133281
 20
1.364123
 30
0.0
 11
0.140758
 21
1.351673
 31
0.0
  0
LINE
  8
0
  6
CONTINUOUS
 62
     7
  5
3F5
 10
0.140758
 20
1.351673
 30
0.0
 11
0.14711
 21
1.338518
 31
0.0
  0
LINE
  8
0
  6
CONTINUOUS
 62
     7
  5
3F6
 10
0.14711
 20
1.338518
 30
0.0
 11
0.152238
 21
1.32483
 31
0.0
  0
LINE
  8
0
  6
CONTINUOUS
 62
     7
  5
3F7
 10
0.152238
 20
1.32483
 30
0.0
 11
0.156082
 21
1.310793
 31
0.0
  0
LINE
  8
0
  6
CONTINUOUS
 62
     7
  5
3F8
 10
0.156082
 20
1.310793
 30
0.0
 11
0.158613
 21
1.29662
 31
0.0
  0
LINE
  8
0
  6
CONTINUOUS
 62
     7
  5
3F9
 10
0.158613
 20
1.29662
 30
0.0
 11
0.15985
 21
1.282537
 31
0.0
  0
LINE
  8
0
  6
CONTINUOUS
 62
     7
  5
3FA
 10
0.15985
 20
1.282537
 30
0.0
 11
0.15985
 21
1.268663
 31
0.0
  0
LINE
  8
0
  6
CONTINUOUS
 62
     7
  5
3FB
 10
0.15985
 20
1.268663
 30
0.0
 11
0.158613
 21
1.25458
 31
0.0
  0
LINE
  8
0
  6
CONTINUOUS
 62
     7
  5
3FC
 10
0.158613
 20
1.25458
 30
0.0
 11
0.156082
 21
1.240407
 31
0.0
  0
LINE
  8
0
  6
CONTINUOUS
 62
     7
  5
3FD
 10
0.156082
 20
1.240407
 30
0.0
 11
0.152238
 21
1.22637
 31
0.0
  0
LINE
  8
0
  6
CONTINUOUS
 62
     7
  5
3FE
 10
0.152238
 20
1.22637
 30
0.0
 11
0.14711
 21
1.212682
 31
0.0
  0
LINE
  8
0
  6
CONTINUOUS
 62
     7
  5
3FF
 10
0.14711
 20
1.212682
 30
0.0
 11
0.140758
 21
1.199527
 31
0.0
  0
LINE
  8
0
  6
CONTINUOUS
 62
     7
  5
400
 10
0.140758
 20
1.199527
 30
0.0
 11
0.133281
 21
1.187077
 31
0.0
  0
LINE
  8
0
  6
CONTINUOUS
 62
     7
  5
401
 10
0.133281
 20
1.187077
 30
0.0
 11
0.124819
 21
1.175499
 31
0.0
  0
LINE
  8
0
  6
CONTINUOUS
 62
     7
  5
402
 10
0.124819
 20
1.175499
 30
0.0
 11
0.115555
 21
1.164933
 31
0.0
  0
LINE
  8
0
  6
CONTINUOUS
 62
     7
  5
403
 10
0.115555
 20
1.164933
 30
0.0
 11
0.105518
 21
1.155325
 31
0.0
  0
LINE
  8
0
  6
CONTINUOUS
 62
     7
  5
404
 10
0.105518
 20
1.155325
 30
0.0
 11
0.09443
 21
1.146438
 31
0.0
  0
LINE
  8
0
  6
CONTINUOUS
 62
     7
  5
405
 10
0.09443
 20
1.146438
 30
0.0
 11
0.082397
 21
1.138448
 31
0.0
  0
LINE
  8
0
  6
CONTINUOUS
 62
     7
  5
406
 10
0.082397
 20
1.138448
 30
0.0
 11
0.069573
 21
1.131518
 31
0.0
  0
LINE
  8
0
  6
CONTINUOUS
 62
     7
  5
407
 10
0.069573
 20
1.131518
 30
0.0
 11
0.05613
 21
1.125769
 31
0.0
  0
LINE
  8
0
  6
CONTINUOUS
 62
     7
  5
408
 10
0.05613
 20
1.125769
 30
0.0
 11
0.042242
 21
1.121277
 31
0.0
  0
LINE
  8
0
  6
CONTINUOUS
 62
     7
  5
409
 10
0.042242
 20
1.121277
 30
0.0
 11
0.028109
 21
1.118089
 31
0.0
  0
LINE
  8
0
  6
CONTINUOUS
 62
     7
  5
40A
 10
0.028109
 20
1.118089
 30
0.0
 11
0.013953
 21
1.11621
 31
0.0
  0
LINE
  8
0
  6
CONTINUOUS
 62
     7
  5
40B
 10
0.013953
 20
1.11621
 30
0.0
 11
0.0
 21
1.1156
 31
0.0
  0
LINE
  8
0
  6
CONTINUOUS
 62
     7
  5
40C
 10
-0.39
 20
-1.2756
 30
0.0
 11
-0.392513
 21
-1.303846
 31
0.0
  0
LINE
  8
0
  6
CONTINUOUS
 62
     7
  5
40D
 10
-0.392513
 20
-1.303846
 30
0.0
 11
-0.400263
 21
-1.331982
 31
0.0
  0
LINE
  8
0
  6
CONTINUOUS
 62
     7
  5
40E
 10
-0.400263
 20
-1.331982
 30
0.0
 11
-0.413044
 21
-1.358323
 31
0.0
  0
LINE
  8
0
  6
CONTINUOUS
 62
     7
  5
40F
 10
-0.413044
 20
-1.358323
 30
0.0
 11
-0.430026
 21
-1.381459
 31
0.0
  0
LINE
  8
0
  6
CONTINUOUS
 62
     7
  5
410
 10
-0.430026
 20
-1.381459
 30
0.0
 11
-0.450298
 21
-1.400738
 31
0.0
  0
LINE
  8
0
  6
CONTINUOUS
 62
     7
  5
411
 10
-0.450298
 20
-1.400738
 30
0.0
 11
-0.474393
 21
-1.416609
 31
0.0
  0
LINE
  8
0
  6
CONTINUOUS
 62
     7
  5
412
 10
-0.474393
 20
-1.416609
 30
0.0
 11
-0.50124
 21
-1.427989
 31
0.0
  0
LINE
  8
0
  6
CONTINUOUS
 62
     7
  5
413
 10
-0.50124
 20
-1.427989
 30
0.0
 11
-0.52938
 21
-1.434266
 31
0.0
  0
LINE
  8
0
  6
CONTINUOUS
 62
     7
  5
414
 10
-0.52938
 20
-1.434266
 30
0.0
 11
-0.557208
 21
-1.435438
 31
0.0
  0
LINE
  8
0
  6
CONTINUOUS
 62
     7
  5
415
 10
-0.557208
 20
-1.435438
 30
0.0
 11
-0.585324
 21
-1.431652
 31
0.0
  0
LINE
  8
0
  6
CONTINUOUS
 62
     7
  5
416
 10
-0.585324
 20
-1.431652
 30
0.0
 11
-0.61291
 21
-1.422713
 31
0.0
  0
LINE
  8
0
  6
CONTINUOUS
 62
     7
  5
417
 10
-0.61291
 20
-1.422713
 30
0.0
 11
-0.638409
 21
-1.408956
 31
0.0
  0
LINE
  8
0
  6
CONTINUOUS
 62
     7
  5
418
 10
-0.638409
 20
-1.408956
 30
0.0
 11
-0.660507
 21
-1.391307
 31
0.0
  0
LINE
  8
0
  6
CONTINUOUS
 62
     7
  5
419
 10
-0.660507
 20
-1.391307
 30
0.0
 11
-0.679007
 21
-1.370242
 31
0.0
  0
LINE
  8
0
  6
CONTINUOUS
 62
     7
  5
41A
 10
-0.679007
 20
-1.370242
 30
0.0
 11
-0.693976
 21
-1.345392
 31
0.0
  0
LINE
  8
0
  6
CONTINUOUS
 62
     7
  5
41B
 10
-0.693976
 20
-1.345392
 30
0.0
 11
-0.704277
 21
-1.318011
 31
0.0
  0
LINE
  8
0
  6
CONTINUOUS
 62
     7
  5
41C
 10
-0.704277
 20
-1.318011
 30
0.0
 11
-0.709385
 21
-1.289618
 31
0.0
  0
LINE
  8
0
  6
CONTINUOUS
 62
     7
  5
41D
 10
-0.709385
 20
-1.289618
 30
0.0
 11
-0.709385
 21
-1.261581
 31
0.0
  0
LINE
  8
0
  6
CONTINUOUS
 62
     7
  5
41E
 10
-0.709385
 20
-1.261581
 30
0.0
 11
-0.704274
 21
-1.233181
 31
0.0
  0
LINE
  8
0
  6
CONTINUOUS
 62
     7
  5
41F
 10
-0.704274
 20
-1.233181
 30
0.0
 11
-0.693969
 21
-1.205794
 31
0.0
  0
LINE
  8
0
  6
CONTINUOUS
 62
     7
  5
420
 10
-0.693969
 20
-1.205794
 30
0.0
 11
-0.678999
 21
-1.180946
 31
0.0
  0
LINE
  8
0
  6
CONTINUOUS
 62
     7
  5
421
 10
-0.678999
 20
-1.180946
 30
0.0
 11
-0.660504
 21
-1.15989
 31
0.0
  0
LINE
  8
0
  6
CONTINUOUS
 62
     7
  5
422
 10
-0.660504
 20
-1.15989
 30
0.0
 11
-0.638396
 21
-1.142235
 31
0.0
  0
LINE
  8
0
  6
CONTINUOUS
 62
     7
  5
423
 10
-0.638396
 20
-1.142235
 30
0.0
 11
-0.612897
 21
-1.128481
 31
0.0
  0
LINE
  8
0
  6
CONTINUOUS
 62
     7
  5
424
 10
-0.612897
 20
-1.128481
 30
0.0
 11
-0.585318
 21
-1.119547
 31
0.0
  0
LINE
  8
0
  6
CONTINUOUS
 62
     7
  5
425
 10
-0.585318
 20
-1.119547
 30
0.0
 11
-0.557208
 21
-1.115762
 31
0.0
  0
LINE
  8
0
  6
CONTINUOUS
 62
     7
  5
426
 10
-0.557208
 20
-1.115762
 30
0.0
 11
-0.529382
 21
-1.116934
 31
0.0
  0
LINE
  8
0
  6
CONTINUOUS
 62
     7
  5
427
 10
-0.529382
 20
-1.116934
 30
0.0
 11
-0.501245
 21
-1.123209
 31
0.0
  0
LINE
  8
0
  6
CONTINUOUS
 62
     7
  5
428
 10
-0.501245
 20
-1.123209
 30
0.0
 11
-0.474401
 21
-1.134587
 31
0.0
  0
LINE
  8
0
  6
CONTINUOUS
 62
     7
  5
429
 10
-0.474401
 20
-1.134587
 30
0.0
 11
-0.450304
 21
-1.150457
 31
0.0
  0
LINE
  8
0
  6
CONTINUOUS
 62
     7
  5
42A
 10
-0.450304
 20
-1.150457
 30
0.0
 11
-0.430029
 21
-1.169737
 31
0.0
  0
LINE
  8
0
  6
CONTINUOUS
 62
     7
  5
42B
 10
-0.430029
 20
-1.169737
 30
0.0
 11
-0.413049
 21
-1.19287
 31
0.0
  0
LINE
  8
0
  6
CONTINUOUS
 62
     7
  5
42C
 10
-0.413049
 20
-1.19287
 30
0.0
 11
-0.400266
 21
-1.219212
 31
0.0
  0
LINE
  8
0
  6
CONTINUOUS
 62
     7
  5
42D
 10
-0.400266
 20
-1.219212
 30
0.0
 11
-0.392513
 21
-1.247352
 31
0.0
  0
LINE
  8
0
  6
CONTINUOUS
 62
     7
  5
42E
 10
-0.392513
 20
-1.247352
 30
0.0
 11
-0.39
 21
-1.2756
 31
0.0
  0
LINE
  8
0
  6
CONTINUOUS
 62
     7
  5
42F
 10
-0.39
 20
1.2756
 30
0.0
 11
-0.392513
 21
1.247352
 31
0.0
  0
LINE
  8
0
  6
CONTINUOUS
 62
     7
  5
430
 10
-0.392513
 20
1.247352
 30
0.0
 11
-0.400266
 21
1.219212
 31
0.0
  0
LINE
  8
0
  6
CONTINUOUS
 62
     7
  5
431
 10
-0.400266
 20
1.219212
 30
0.0
 11
-0.413049
 21
1.19287
 31
0.0
  0
LINE
  8
0
  6
CONTINUOUS
 62
     7
  5
432
 10
-0.413049
 20
1.19287
 30
0.0
 11
-0.430029
 21
1.169737
 31
0.0
  0
LINE
  8
0
  6
CONTINUOUS
 62
     7
  5
433
 10
-0.430029
 20
1.169737
 30
0.0
 11
-0.450304
 21
1.150457
 31
0.0
  0
LINE
  8
0
  6
CONTINUOUS
 62
     7
  5
434
 10
-0.450304
 20
1.150457
 30
0.0
 11
-0.474401
 21
1.134587
 31
0.0
  0
LINE
  8
0
  6
CONTINUOUS
 62
     7
  5
435
 10
-0.474401
 20
1.134587
 30
0.0
 11
-0.501245
 21
1.123209
 31
0.0
  0
LINE
  8
0
  6
CONTINUOUS
 62
     7
  5
436
 10
-0.501245
 20
1.123209
 30
0.0
 11
-0.529382
 21
1.116934
 31
0.0
  0
LINE
  8
0
  6
CONTINUOUS
 62
     7
  5
437
 10
-0.529382
 20
1.116934
 30
0.0
 11
-0.557208
 21
1.115762
 31
0.0
  0
LINE
  8
0
  6
CONTINUOUS
 62
     7
  5
438
 10
-0.557208
 20
1.115762
 30
0.0
 11
-0.585318
 21
1.119547
 31
0.0
  0
LINE
  8
0
  6
CONTINUOUS
 62
     7
  5
439
 10
-0.585318
 20
1.119547
 30
0.0
 11
-0.612897
 21
1.128481
 31
0.0
  0
LINE
  8
0
  6
CONTINUOUS
 62
     7
  5
43A
 10
-0.612897
 20
1.128481
 30
0.0
 11
-0.638396
 21
1.142235
 31
0.0
  0
LINE
  8
0
  6
CONTINUOUS
 62
     7
  5
43B
 10
-0.638396
 20
1.142235
 30
0.0
 11
-0.660504
 21
1.15989
 31
0.0
  0
LINE
  8
0
  6
CONTINUOUS
 62
     7
  5
43C
 10
-0.660504
 20
1.15989
 30
0.0
 11
-0.678998
 21
1.180946
 31
0.0
  0
LINE
  8
0
  6
CONTINUOUS
 62
     7
  5
43D
 10
-0.678998
 20
1.180946
 30
0.0
 11
-0.693969
 21
1.205794
 31
0.0
  0
LINE
  8
0
  6
CONTINUOUS
 62
     7
  5
43E
 10
-0.693969
 20
1.205794
 30
0.0
 11
-0.704274
 21
1.233181
 31
0.0
  0
LINE
  8
0
  6
CONTINUOUS
 62
     7
  5
43F
 10
-0.704274
 20
1.233181
 30
0.0
 11
-0.709385
 21
1.26158
 31
0.0
  0
LINE
  8
0
  6
CONTINUOUS
 62
     7
  5
440
 10
-0.709385
 20
1.26158
 30
0.0
 11
-0.709385
 21
1.28962
 31
0.0
  0
LINE
  8
0
  6
CONTINUOUS
 62
     7
  5
441
 10
-0.709385
 20
1.28962
 30
0.0
 11
-0.704274
 21
1.318019
 31
0.0
  0
LINE
  8
0
  6
CONTINUOUS
 62
     7
  5
442
 10
-0.704274
 20
1.318019
 30
0.0
 11
-0.693969
 21
1.345406
 31
0.0
  0
LINE
  8
0
  6
CONTINUOUS
 62
     7
  5
443
 10
-0.693969
 20
1.345406
 30
0.0
 11
-0.678998
 21
1.370254
 31
0.0
  0
LINE
  8
0
  6
CONTINUOUS
 62
     7
  5
444
 10
-0.678998
 20
1.370254
 30
0.0
 11
-0.660504
 21
1.39131
 31
0.0
  0
LINE
  8
0
  6
CONTINUOUS
 62
     7
  5
445
 10
-0.660504
 20
1.39131
 30
0.0
 11
-0.638396
 21
1.408965
 31
0.0
  0
LINE
  8
0
  6
CONTINUOUS
 62
     7
  5
446
 10
-0.638396
 20
1.408965
 30
0.0
 11
-0.612897
 21
1.422719
 31
0.0
  0
LINE
  8
0
  6
CONTINUOUS
 62
     7
  5
447
 10
-0.612897
 20
1.422719
 30
0.0
 11
-0.585318
 21
1.431653
 31
0.0
  0
LINE
  8
0
  6
CONTINUOUS
 62
     7
  5
448
 10
-0.585318
 20
1.431653
 30
0.0
 11
-0.557208
 21
1.435438
 31
0.0
  0
LINE
  8
0
  6
CONTINUOUS
 62
     7
  5
449
 10
-0.557208
 20
1.435438
 30
0.0
 11
-0.529382
 21
1.434266
 31
0.0
  0
LINE
  8
0
  6
CONTINUOUS
 62
     7
  5
44A
 10
-0.529382
 20
1.434266
 30
0.0
 11
-0.501245
 21
1.427991
 31
0.0
  0
LINE
  8
0
  6
CONTINUOUS
 62
     7
  5
44B
 10
-0.501245
 20
1.427991
 30
0.0
 11
-0.474401
 21
1.416613
 31
0.0
  0
LINE
  8
0
  6
CONTINUOUS
 62
     7
  5
44C
 10
-0.474401
 20
1.416613
 30
0.0
 11
-0.450304
 21
1.400743
 31
0.0
  0
LINE
  8
0
  6
CONTINUOUS
 62
     7
  5
44D
 10
-0.450304
 20
1.400743
 30
0.0
 11
-0.430029
 21
1.381463
 31
0.0
  0
LINE
  8
0
  6
CONTINUOUS
 62
     7
  5
44E
 10
-0.430029
 20
1.381463
 30
0.0
 11
-0.413049
 21
1.35833
 31
0.0
  0
LINE
  8
0
  6
CONTINUOUS
 62
     7
  5
44F
 10
-0.413049
 20
1.35833
 30
0.0
 11
-0.400266
 21
1.331988
 31
0.0
  0
LINE
  8
0
  6
CONTINUOUS
 62
     7
  5
450
 10
-0.400266
 20
1.331988
 30
0.0
 11
-0.392513
 21
1.303848
 31
0.0
  0
LINE
  8
0
  6
CONTINUOUS
 62
     7
  5
451
 10
-0.392513
 20
1.303848
 30
0.0
 11
-0.39
 21
1.2756
 31
0.0
  0
LINE
  8
0
  6
CONTINUOUS
 62
     7
  5
452
 10
-0.88
 20
-1.01575
 30
0.0
 11
0.88
 21
-1.01575
 31
0.0
  0
LINE
  8
0
  6
CONTINUOUS
 62
     7
  5
453
 10
0.88
 20
1.01575
 30
0.0
 11
-0.88
 21
1.01575
 31
0.0
  0
LINE
  8
0
  6
CONTINUOUS
 62
     7
  5
454
 10
-0.88
 20
-1.67
 30
0.0
 11
0.88
 21
-1.67
 31
0.0
  0
LINE
  8
0
  6
CONTINUOUS
 62
     7
  5
455
 10
-0.879
 20
0.5773
 30
0.0
 11
-0.879
 21
-0.5773
 31
0.0
  0
LINE
  8
0
  6
CONTINUOUS
 62
     7
  5
456
 10
0.879
 20
0.5773
 30
0.0
 11
0.879
 21
0.3858
 31
0.0
  0
LINE
  8
0
  6
CONTINUOUS
 62
     7
  5
457
 10
0.879
 20
0.3858
 30
0.0
 11
0.879
 21
0.059
 31
0.0
  0
LINE
  8
0
  6
CONTINUOUS
 62
     7
  5
458
 10
0.879
 20
0.059
 30
0.0
 11
0.879
 21
-0.5773
 31
0.0
  0
LINE
  8
0
  6
CONTINUOUS
 62
     7
  5
459
 10
-0.7245
 20
0.059
 30
0.0
 11
-0.7245
 21
0.3858
 31
0.0
  0
LINE
  8
0
  6
CONTINUOUS
 62
     7
  5
45A
 10
-0.7245
 20
0.3858
 30
0.0
 11
0.879
 21
0.3858
 31
0.0
  0
LINE
  8
0
  6
CONTINUOUS
 62
     7
  5
45B
 10
0.879
 20
0.5773
 30
0.0
 11
-0.879
 21
0.5773
 31
0.0
  0
LINE
  8
0
  6
CONTINUOUS
 62
     7
  5
45C
 10
0.879
 20
0.059
 30
0.0
 11
-0.7245
 21
0.059
 31
0.0
  0
LINE
  8
0
  6
CONTINUOUS
 62
     7
  5
45D
 10
-0.879
 20
-0.5773
 30
0.0
 11
0.879
 21
-0.5773
 31
0.0
  0
LINE
  8
0
  6
CONTINUOUS
 62
     3
  5
45E
 10
0.594
 20
1.18
 30
0.0
 11
0.786
 21
1.18
 31
0.0
  0
LINE
  8
0
  6
CONTINUOUS
 62
     3
  5
45F
 10
0.69
 20
1.084
 30
0.0
 11
0.69
 21
1.276
 31
0.0
  0
LINE
  8
0
  6
CONTINUOUS
 62
     3
  5
460
 10
0.594
 20
1.38
 30
0.0
 11
0.786
 21
1.38
 31
0.0
  0
LINE
  8
0
  6
CONTINUOUS
 62
     3
  5
461
 10
0.69
 20
1.284
 30
0.0
 11
0.69
 21
1.476
 31
0.0
  0
LINE
  8
0
  6
CONTINUOUS
 62
     3
  5
462
 10
-0.786
 20
-1.18
 30
0.0
 11
-0.594
 21
-1.18
 31
0.0
  0
LINE
  8
0
  6
CONTINUOUS
 62
     3
  5
463
 10
-0.69
 20
-1.276
 30
0.0
 11
-0.69
 21
-1.084
 31
0.0
  0
LINE
  8
0
  6
CONTINUOUS
 62
     3
  5
464
 10
-0.786
 20
-1.38
 30
0.0
 11
-0.594
 21
-1.38
 31
0.0
  0
LINE
  8
0
  6
CONTINUOUS
 62
     3
  5
465
 10
-0.69
 20
-1.476
 30
0.0
 11
-0.69
 21
-1.284
 31
0.0
  0
ENDSEC
  0
EOF
