  0
SECTION
  2
HEADER
  9
$ACADVER
  1
AC1009
  9
$DWGCODEPAGE
  3
ansi_1250
  9
$INSBASE
 10
0.0
 20
0.0
 30
0.0
  9
$EXTMIN
 10
-3.6555
 20
-1.67
 30
0.0
  9
$EXTMAX
 10
0.0
 20
1.67
 30
0.0
  9
$LIMMIN
 10
0.0
 20
0.0
  9
$LIMMAX
 10
0.0
 20
0.0
  9
$ORTHOMODE
 70
     0
  9
$REGENMODE
 70
     1
  9
$FILLMODE
 70
     1
  9
$QTEXTMODE
 70
     0
  9
$MIRRTEXT
 70
     1
  9
$DRAGMODE
 70
     2
  9
$LTSCALE
 40
1.0
  9
$OSMODE
 70
     0
  9
$ATTMODE
 70
     1
  9
$TEXTSIZE
 40
0.2
  9
$TRACEWID
 40
0.05
  9
$TEXTSTYLE
  7
STANDARD
  9
$CLAYER
  8
0
  9
$CELTYPE
  6
CONTINUOUS
  9
$CECOLOR
 62
   256
  9
$DIMSCALE
 40
1.0
  9
$DIMASZ
 40
0.18
  9
$DIMEXO
 40
0.0625
  9
$DIMDLI
 40
0.38
  9
$DIMRND
 40
0.0
  9
$DIMDLE
 40
0.0
  9
$DIMEXE
 40
0.18
  9
$DIMTP
 40
0.0
  9
$DIMTM
 40
0.0
  9
$DIMTXT
 40
0.18
  9
$DIMCEN
 40
0.09
  9
$DIMTSZ
 40
0.0
  9
$DIMTOL
 70
     0
  9
$DIMLIM
 70
     0
  9
$DIMTIH
 70
     1
  9
$DIMTOH
 70
     1
  9
$DIMSE1
 70
     0
  9
$DIMSE2
 70
     0
  9
$DIMTAD
 70
     0
  9
$DIMZIN
 70
     0
  9
$DIMBLK
  1

  9
$DIMASO
 70
     1
  9
$DIMSHO
 70
     1
  9
$DIMPOST
  1

  9
$DIMAPOST
  1

  9
$DIMALT
 70
     0
  9
$DIMALTD
 70
     2
  9
$DIMALTF
 40
25.4
  9
$DIMLFAC
 40
1.0
  9
$DIMTOFL
 70
     0
  9
$DIMTVP
 40
0.0
  9
$DIMTIX
 70
     0
  9
$DIMSOXD
 70
     0
  9
$DIMSAH
 70
     0
  9
$DIMBLK1
  1

  9
$DIMBLK2
  1

  9
$DIMSTYLE
  2
STANDARD
  9
$DIMCLRD
 70
     0
  9
$DIMCLRE
 70
     0
  9
$DIMCLRT
 70
     0
  9
$DIMTFAC
 40
1.0
  9
$DIMGAP
 40
0.09
  9
$LUNITS
 70
     2
  9
$LUPREC
 70
     4
  9
$AXISMODE
 70
     0
  9
$AXISUNIT
 10
0.0
 20
0.0
  9
$SKETCHINC
 40
0.1
  9
$FILLETRAD
 40
0.0
  9
$AUNITS
 70
     0
  9
$AUPREC
 70
     0
  9
$MENU
  1
acad
  9
$ELEVATION
 40
0.0
  9
$PELEVATION
 40
0.0
  9
$THICKNESS
 40
0.0
  9
$LIMCHECK
 70
     0
  9
$BLIPMODE
 70
     1
  9
$CHAMFERA
 40
0.0
  9
$CHAMFERB
 40
0.0
  9
$SKPOLY
 70
     0
  9
$TDCREATE
 40
0.000000000
  9
$TDUPDATE
 40
0.000000000
  9
$TDINDWG
 40
0.0000000000
  9
$TDUSRTIMER
 40
0.0000000000
  9
$USRTIMER
 70
     1
  9
$ANGBASE
 50
0.0
  9
$ANGDIR
 70
     0
  9
$PDMODE
 70
     0
  9
$PDSIZE
 40
0.0
  9
$PLINEWID
 40
0.0
  9
$COORDS
 70
     0
  9
$SPLFRAME
 70
     0
  9
$SPLINETYPE
 70
     6
  9
$SPLINESEGS
 70
     8
  9
$ATTDIA
 70
     0
  9
$ATTREQ
 70
     1
  9
$HANDLING
 70
     1
  9
$HANDSEED
  5
6F0
  9
$SURFTAB1
 70
     6
  9
$SURFTAB2
 70
     6
  9
$SURFTYPE
 70
     6
  9
$SURFU
 70
     6
  9
$SURFV
 70
     6
  9
$UCSNAME
  2

  9
$UCSORG
 10
0.0
 20
0.0
 30
0.0
  9
$UCSXDIR
 10
1.0
 20
0.0
 30
0.0
  9
$UCSYDIR
 10
0.0
 20
1.0
 30
0.0
  9
$PUCSNAME
  2

  9
$PUCSORG
 10
0.0
 20
0.0
 30
0.0
  9
$PUCSXDIR
 10
1.0
 20
0.0
 30
0.0
  9
$PUCSYDIR
 10
0.0
 20
1.0
 30
0.0
  9
$USERI1
 70
     0
  9
$USERI2
 70
     0
  9
$USERI3
 70
     0
  9
$USERI4
 70
     0
  9
$USERI5
 70
     0
  9
$USERR1
 40
0.0
  9
$USERR2
 40
0.0
  9
$USERR3
 40
0.0
  9
$USERR4
 40
0.0
  9
$USERR5
 40
0.0
  9
$WORLDVIEW
 70
     1
  9
$SHADEDGE
 70
     3
  9
$SHADEDIF
 70
    70
  9
$TILEMODE
 70
     1
  9
$MAXACTVP
 70
    16
  9
$PINSBASE
 10
0.0
 20
0.0
 30
0.0
  9
$PLIMCHECK
 70
     0
  9
$PEXTMIN
 10
1.000000E+20
 20
1.000000E+20
 30
1.000000E+20
  9
$PEXTMAX
 10
-1.000000E+20
 20
-1.000000E+20
 30
-1.000000E+20
  9
$PLIMMIN
 10
0.0
 20
0.0
  9
$PLIMMAX
 10
12.0
 20
9.0
  9
$UNITMODE
 70
     0
  9
$VISRETAIN
 70
     0
  9
$PLINEGEN
 70
     1
  9
$PSLTSCALE
 70
     0
  9
$TREEDEPTH
 70
  3020
  0
ENDSEC
  0
SECTION
  2
TABLES
  0
TABLE
  2
VPORT
 70
     1
  0
VPORT
  2
*ACTIVE
 70
     0
 10
0.0
 20
0.0
 11
1.0
 21
1.0
 12
6.591288
 22
4.579184
 13
0.0
 23
0.0
 14
1.0
 24
1.0
 15
0.0
 25
0.0
 16
0.0
 26
0.0
 36
1.0
 17
0.0
 27
0.0
 37
0.0
 40
9.158369
 41
0.688564
 42
50.0
 43
0.0
 44
0.0
 50
0.0
 51
0.0
 71
     0
 72
   100
 73
     1
 74
     1
 75
     0
 76
     0
 77
     0
 78
     0
  0
ENDTAB
  0
TABLE
  2
LTYPE
 70
     5
  0
LTYPE
  2
CONTINUOUS
 70
    64
  3
Solid line
 72
    65
 73
     0
 40
0.0
  0
LTYPE
  2
CENTER
 70
    64
  3
Center ____ _ ____ _ ____ _ ____ _ ____ _ ____
 72
    65
 73
     4
 40
50.8
 49
31.75
 49
-6.35
 49
6.35
 49
-6.35
  0
LTYPE
  2
HIDDEN
 70
    64
  3
Hidden __ __ __ __ __ __ __ __ __ __ __ __ __ __
 72
    65
 73
     2
 40
9.525
 49
6.35
 49
-3.175
  0
LTYPE
  2
CENTER2
 70
    64
  3
Center (.5x) ___ _ ___ _ ___ _ ___ _ ___ _ ___
 72
    65
 73
     4
 40
28.575
 49
19.05
 49
-3.175
 49
3.175
 49
-3.175
  0
LTYPE
  2
HIDDEN2
 70
    64
  3
Hidden (.5x) _ _ _ _ _ _ _ _ _ _ _ _ _ _ _ _ _
 72
    65
 73
     2
 40
4.7625
 49
3.175
 49
-1.5875
  0
ENDTAB
  0
TABLE
  2
LAYER
 70
     1
  0
LAYER
  2
0
 70
     0
 62
     7
  6
CONTINUOUS
  0
ENDTAB
  0
TABLE
  2
STYLE
 70
     1
  0
STYLE
  2
STANDARD
 70
     0
 40
0.0
 41
1.0
 50
0.0
 71
     0
 42
0.0
  3
txt
  4

  0
ENDTAB
  0
TABLE
  2
VIEW
 70
     0
  0
ENDTAB
  0
TABLE
  2
UCS
 70
     0
  0
ENDTAB
  0
TABLE
  2
APPID
 70
     1
  0
APPID
  2
ACAD
 70
     0
  0
ENDTAB
  0
TABLE
  2
DIMSTYLE
 70
     1
  0
DIMSTYLE
  2
STANDARD
 70
     0
  3

  4

  5

  6

  7

 40
1.0
 41
0.18
 42
0.0625
 43
0.38
 44
0.18
 45
0.0
 46
0.0
 47
0.0
 48
0.0
 71
     0
 72
     0
 73
     1
 74
     1
 75
     0
 76
     0
 77
     0
 78
     0
140
0.18
141
0.09
142
0.0
143
25.4
144
1.0
145
0.0
146
1.0
147
0.09
170
     0
171
     2
172
     0
173
     0
174
     0
175
     0
176
     0
177
     0
178
     0
  0
ENDTAB
  0
ENDSEC
  0
SECTION
  2
BLOCKS
  0
ENDSEC
  0
SECTION
  2
ENTITIES
  0
LINE
  8
0
  6
CONTINUOUS
 62
     7
  5
39D
 10
-1.6575
 20
1.175
 30
0.0
 11
-1.4252
 21
1.175
 31
0.0
  0
LINE
  8
0
  6
CONTINUOUS
 62
     7
  5
39E
 10
-1.6575
 20
1.175
 30
0.0
 11
-1.6575
 21
-1.175
 31
0.0
  0
LINE
  8
0
  6
CONTINUOUS
 62
     7
  5
39F
 10
0.0
 20
0.5785
 30
0.0
 11
-0.1653
 21
0.5785
 31
0.0
  0
LINE
  8
0
  6
CONTINUOUS
 62
     7
  5
3A0
 10
-0.1653
 20
0.6885
 30
0.0
 11
-0.1653
 21
0.5785
 31
0.0
  0
LINE
  8
0
  6
CONTINUOUS
 62
     7
  5
3A1
 10
0.0
 20
0.6885
 30
0.0
 11
0.0
 21
0.5785
 31
0.0
  0
LINE
  8
0
  6
CONTINUOUS
 62
     7
  5
3A2
 10
-0.1397
 20
-0.60588
 30
0.0
 11
-0.1653
 21
-0.60588
 31
0.0
  0
LINE
  8
0
  6
CONTINUOUS
 62
     7
  5
3A3
 10
-0.1653
 20
-0.60588
 30
0.0
 11
-0.1653
 21
-0.6885
 31
0.0
  0
LINE
  8
0
  6
CONTINUOUS
 62
     7
  5
3A4
 10
-0.1653
 20
-0.6885
 30
0.0
 11
-0.2165
 21
-0.6885
 31
0.0
  0
LINE
  8
0
  6
CONTINUOUS
 62
     7
  5
3A5
 10
-0.2165
 20
-0.6885
 30
0.0
 11
-0.2165
 21
0.6885
 31
0.0
  0
LINE
  8
0
  6
CONTINUOUS
 62
     7
  5
3A6
 10
-0.2165
 20
0.6885
 30
0.0
 11
0.0
 21
0.6885
 31
0.0
  0
LINE
  8
0
  6
CONTINUOUS
 62
     7
  5
3A7
 10
0.0
 20
1.365
 30
0.0
 11
0.0
 21
0.6885
 31
0.0
  0
LINE
  8
0
  6
CONTINUOUS
 62
     7
  5
3A8
 10
-0.2756
 20
1.365
 30
0.0
 11
-0.2756
 21
-1.365
 31
0.0
  0
LINE
  8
0
  6
CONTINUOUS
 62
     7
  5
3A9
 10
0.0
 20
-1.365
 30
0.0
 11
-0.2756
 21
-1.365
 31
0.0
  0
LINE
  8
0
  6
CONTINUOUS
 62
     7
  5
3AA
 10
0.0
 20
-0.686536
 30
0.0
 11
0.0
 21
-1.365
 31
0.0
  0
LINE
  8
0
  6
CONTINUOUS
 62
     7
  5
3AB
 10
0.0
 20
-0.686536
 30
0.0
 11
-0.1397
 21
-0.60588
 31
0.0
  0
LINE
  8
0
  6
CONTINUOUS
 62
     7
  5
3AC
 10
0.0
 20
1.515
 30
0.0
 11
0.0
 21
1.365
 31
0.0
  0
LINE
  8
0
  6
CONTINUOUS
 62
     7
  5
3AD
 10
-0.2756
 20
-1.365
 30
0.0
 11
-0.2756
 21
-1.515
 31
0.0
  0
LINE
  8
0
  6
CONTINUOUS
 62
     7
  5
3AE
 10
-0.2756
 20
1.365
 30
0.0
 11
-0.2756
 21
1.515
 31
0.0
  0
LINE
  8
0
  6
CONTINUOUS
 62
     7
  5
3AF
 10
-1.4252
 20
-1.175
 30
0.0
 11
-1.6575
 21
-1.175
 31
0.0
  0
LINE
  8
0
  6
CONTINUOUS
 62
     7
  5
3B0
 10
-1.4252
 20
-1.175
 30
0.0
 11
-1.4252
 21
-1.4134
 31
0.0
  0
LINE
  8
0
  6
CONTINUOUS
 62
     7
  5
3B1
 10
-1.4252
 20
1.4134
 30
0.0
 11
-1.4252
 21
1.175
 31
0.0
  0
LINE
  8
0
  6
CONTINUOUS
 62
     7
  5
3B2
 10
-1.1417
 20
1.4134
 30
0.0
 11
-1.1417
 21
-1.4134
 31
0.0
  0
LINE
  8
0
  6
CONTINUOUS
 62
     7
  5
3B3
 10
-1.4252
 20
1.4134
 30
0.0
 11
-1.1417
 21
1.4134
 31
0.0
  0
LINE
  8
0
  6
CONTINUOUS
 62
     7
  5
3B4
 10
-1.1417
 20
-1.4134
 30
0.0
 11
-1.4252
 21
-1.4134
 31
0.0
  0
LINE
  8
0
  6
CONTINUOUS
 62
     7
  5
3B5
 10
-0.2756
 20
-0.72835
 30
0.0
 11
-1.1417
 21
-0.72835
 31
0.0
  0
LINE
  8
0
  6
CONTINUOUS
 62
     7
  5
3B6
 10
-0.2756
 20
0.72835
 30
0.0
 11
-1.1417
 21
0.72835
 31
0.0
  0
LINE
  8
0
  6
CONTINUOUS
 62
     7
  5
3B7
 10
-0.2756
 20
-1.2992
 30
0.0
 11
-1.1417
 21
-1.2992
 31
0.0
  0
LINE
  8
0
  6
CONTINUOUS
 62
     7
  5
3B8
 10
-0.2756
 20
1.2992
 30
0.0
 11
-1.1417
 21
1.2992
 31
0.0
  0
LINE
  8
0
  6
CONTINUOUS
 62
     7
  5
3B9
 10
0.0
 20
-1.365
 30
0.0
 11
0.0
 21
-1.515
 31
0.0
  0
LINE
  8
0
  6
CONTINUOUS
 62
     7
  5
3BA
 10
-0.2756
 20
1.515
 30
0.0
 11
0.0
 21
1.515
 31
0.0
  0
LINE
  8
0
  6
CONTINUOUS
 62
     7
  5
3BB
 10
-3.3425
 20
0.5783
 30
0.0
 11
-3.3425
 21
-0.5783
 31
0.0
  0
LINE
  8
0
  6
CONTINUOUS
 62
     7
  5
3BC
 10
-1.4616
 20
-1.612576
 30
0.0
 11
-1.4606
 21
-1.6124
 31
0.0
  0
LINE
  8
0
  6
CONTINUOUS
 62
     7
  5
3BD
 10
-1.787266
 20
-1.67
 30
0.0
 11
-1.4616
 21
-1.612576
 31
0.0
  0
LINE
  8
0
  6
CONTINUOUS
 62
     7
  5
3BE
 10
-1.4606
 20
-1.175
 30
0.0
 11
-1.4606
 21
-1.6124
 31
0.0
  0
LINE
  8
0
  6
CONTINUOUS
 62
     7
  5
3BF
 10
-1.4606
 20
1.6124
 30
0.0
 11
-1.4606
 21
1.175
 31
0.0
  0
LINE
  8
0
  6
CONTINUOUS
 62
     7
  5
3C0
 10
-1.4606
 20
1.6124
 30
0.0
 11
-1.4616
 21
1.612576
 31
0.0
  0
LINE
  8
0
  6
CONTINUOUS
 62
     7
  5
3C1
 10
-1.4616
 20
1.612576
 30
0.0
 11
-1.787266
 21
1.67
 31
0.0
  0
LINE
  8
0
  6
CONTINUOUS
 62
     7
  5
3C2
 10
-1.4616
 20
-1.612576
 30
0.0
 11
-1.4616
 21
-1.176
 31
0.0
  0
LINE
  8
0
  6
CONTINUOUS
 62
     7
  5
3C3
 10
-1.4616
 20
-1.176
 30
0.0
 11
-1.6585
 21
-1.176
 31
0.0
  0
LINE
  8
0
  6
CONTINUOUS
 62
     7
  5
3C4
 10
-1.6585
 20
-1.176
 30
0.0
 11
-1.6585
 21
1.176
 31
0.0
  0
LINE
  8
0
  6
CONTINUOUS
 62
     7
  5
3C5
 10
-1.6585
 20
1.176
 30
0.0
 11
-1.4616
 21
1.176
 31
0.0
  0
LINE
  8
0
  6
CONTINUOUS
 62
     7
  5
3C6
 10
-1.4616
 20
1.176
 30
0.0
 11
-1.4616
 21
1.612576
 31
0.0
  0
LINE
  8
0
  6
CONTINUOUS
 62
     7
  5
3C7
 10
-2.6775
 20
1.67
 30
0.0
 11
-1.787266
 21
1.67
 31
0.0
  0
LINE
  8
0
  6
CONTINUOUS
 62
     7
  5
3C8
 10
-2.6775
 20
1.67
 30
0.0
 11
-2.6775
 21
1.01575
 31
0.0
  0
LINE
  8
0
  6
CONTINUOUS
 62
     7
  5
3C9
 10
-3.2425
 20
1.01575
 30
0.0
 11
-2.6775
 21
1.01575
 31
0.0
  0
LINE
  8
0
  6
CONTINUOUS
 62
     7
  5
3CA
 10
-3.2425
 20
1.01575
 30
0.0
 11
-3.2425
 21
0.5783
 31
0.0
  0
LINE
  8
0
  6
CONTINUOUS
 62
     7
  5
3CB
 10
-3.3425
 20
0.5783
 30
0.0
 11
-3.2425
 21
0.5783
 31
0.0
  0
LINE
  8
0
  6
CONTINUOUS
 62
     7
  5
3CC
 10
-3.2425
 20
-0.5783
 30
0.0
 11
-3.3425
 21
-0.5783
 31
0.0
  0
LINE
  8
0
  6
CONTINUOUS
 62
     7
  5
3CD
 10
-3.2425
 20
-0.5783
 30
0.0
 11
-3.2425
 21
-1.01575
 31
0.0
  0
LINE
  8
0
  6
CONTINUOUS
 62
     7
  5
3CE
 10
-2.6775
 20
-1.01575
 30
0.0
 11
-3.2425
 21
-1.01575
 31
0.0
  0
LINE
  8
0
  6
CONTINUOUS
 62
     7
  5
3CF
 10
-2.6775
 20
-1.01575
 30
0.0
 11
-2.6775
 21
-1.67
 31
0.0
  0
LINE
  8
0
  6
CONTINUOUS
 62
     7
  5
3D0
 10
-1.787266
 20
-1.67
 30
0.0
 11
-2.6775
 21
-1.67
 31
0.0
  0
LINE
  8
0
  6
CONTINUOUS
 62
     7
  5
3D1
 10
-2.6775
 20
1.67
 30
0.0
 11
-2.7775
 21
1.67
 31
0.0
  0
LINE
  8
0
  6
CONTINUOUS
 62
     7
  5
3D2
 10
-3.337397
 20
-0.665
 30
0.0
 11
-3.337162
 21
-0.665099
 31
0.0
  0
LINE
  8
0
  6
CONTINUOUS
 62
     7
  5
3D3
 10
-3.337162
 20
-0.665099
 30
0.0
 11
-3.336919
 21
-0.6654
 31
0.0
  0
LINE
  8
0
  6
CONTINUOUS
 62
     7
  5
3D4
 10
-3.336919
 20
-0.6654
 30
0.0
 11
-3.336669
 21
-0.665909
 31
0.0
  0
LINE
  8
0
  6
CONTINUOUS
 62
     7
  5
3D5
 10
-3.336669
 20
-0.665909
 30
0.0
 11
-3.336412
 21
-0.666631
 31
0.0
  0
LINE
  8
0
  6
CONTINUOUS
 62
     7
  5
3D6
 10
-3.336412
 20
-0.666631
 30
0.0
 11
-3.33615
 21
-0.667569
 31
0.0
  0
LINE
  8
0
  6
CONTINUOUS
 62
     7
  5
3D7
 10
-3.33615
 20
-0.667569
 30
0.0
 11
-3.335884
 21
-0.668722
 31
0.0
  0
LINE
  8
0
  6
CONTINUOUS
 62
     7
  5
3D8
 10
-3.335884
 20
-0.668722
 30
0.0
 11
-3.335615
 21
-0.670088
 31
0.0
  0
LINE
  8
0
  6
CONTINUOUS
 62
     7
  5
3D9
 10
-3.335615
 20
-0.670088
 30
0.0
 11
-3.335344
 21
-0.671666
 31
0.0
  0
LINE
  8
0
  6
CONTINUOUS
 62
     7
  5
3DA
 10
-3.335344
 20
-0.671666
 30
0.0
 11
-3.335072
 21
-0.67345
 31
0.0
  0
LINE
  8
0
  6
CONTINUOUS
 62
     7
  5
3DB
 10
-3.335072
 20
-0.67345
 30
0.0
 11
-3.3348
 21
-0.675435
 31
0.0
  0
LINE
  8
0
  6
CONTINUOUS
 62
     7
  5
3DC
 10
-3.3348
 20
-0.675435
 30
0.0
 11
-3.334531
 21
-0.677614
 31
0.0
  0
LINE
  8
0
  6
CONTINUOUS
 62
     7
  5
3DD
 10
-3.334531
 20
-0.677614
 30
0.0
 11
-3.334263
 21
-0.679978
 31
0.0
  0
LINE
  8
0
  6
CONTINUOUS
 62
     7
  5
3DE
 10
-3.334263
 20
-0.679978
 30
0.0
 11
-3.334
 21
-0.682517
 31
0.0
  0
LINE
  8
0
  6
CONTINUOUS
 62
     7
  5
3DF
 10
-3.334
 20
-0.682517
 30
0.0
 11
-3.333743
 21
-0.685218
 31
0.0
  0
LINE
  8
0
  6
CONTINUOUS
 62
     7
  5
3E0
 10
-3.333743
 20
-0.685218
 30
0.0
 11
-3.333492
 21
-0.688066
 31
0.0
  0
LINE
  8
0
  6
CONTINUOUS
 62
     7
  5
3E1
 10
-3.333492
 20
-0.688066
 30
0.0
 11
-3.333249
 21
-0.691047
 31
0.0
  0
LINE
  8
0
  6
CONTINUOUS
 62
     7
  5
3E2
 10
-3.333249
 20
-0.691047
 30
0.0
 11
-3.333015
 21
-0.694143
 31
0.0
  0
LINE
  8
0
  6
CONTINUOUS
 62
     7
  5
3E3
 10
-3.333015
 20
-0.694143
 30
0.0
 11
-3.33279
 21
-0.697349
 31
0.0
  0
LINE
  8
0
  6
CONTINUOUS
 62
     7
  5
3E4
 10
-3.33279
 20
-0.697349
 30
0.0
 11
-3.33257
 21
-0.700726
 31
0.0
  0
LINE
  8
0
  6
CONTINUOUS
 62
     7
  5
3E5
 10
-3.33257
 20
-0.700726
 30
0.0
 11
-3.332357
 21
-0.70428
 31
0.0
  0
LINE
  8
0
  6
CONTINUOUS
 62
     7
  5
3E6
 10
-3.332357
 20
-0.70428
 30
0.0
 11
-3.33215
 21
-0.708
 31
0.0
  0
LINE
  8
0
  6
CONTINUOUS
 62
     7
  5
3E7
 10
-3.33215
 20
-0.708
 30
0.0
 11
-3.331952
 21
-0.711876
 31
0.0
  0
LINE
  8
0
  6
CONTINUOUS
 62
     7
  5
3E8
 10
-3.331952
 20
-0.711876
 30
0.0
 11
-3.331765
 21
-0.715896
 31
0.0
  0
LINE
  8
0
  6
CONTINUOUS
 62
     7
  5
3E9
 10
-3.331765
 20
-0.715896
 30
0.0
 11
-3.331588
 21
-0.720047
 31
0.0
  0
LINE
  8
0
  6
CONTINUOUS
 62
     7
  5
3EA
 10
-3.331588
 20
-0.720047
 30
0.0
 11
-3.331424
 21
-0.724314
 31
0.0
  0
LINE
  8
0
  6
CONTINUOUS
 62
     7
  5
3EB
 10
-3.331424
 20
-0.724314
 30
0.0
 11
-3.331274
 21
-0.728682
 31
0.0
  0
LINE
  8
0
  6
CONTINUOUS
 62
     7
  5
3EC
 10
-3.331274
 20
-0.728682
 30
0.0
 11
-3.331138
 21
-0.733139
 31
0.0
  0
LINE
  8
0
  6
CONTINUOUS
 62
     7
  5
3ED
 10
-3.331138
 20
-0.733139
 30
0.0
 11
-3.331017
 21
-0.737669
 31
0.0
  0
LINE
  8
0
  6
CONTINUOUS
 62
     7
  5
3EE
 10
-3.331017
 20
-0.737669
 30
0.0
 11
-3.330912
 21
-0.742257
 31
0.0
  0
LINE
  8
0
  6
CONTINUOUS
 62
     7
  5
3EF
 10
-3.330912
 20
-0.742257
 30
0.0
 11
-3.330823
 21
-0.746886
 31
0.0
  0
LINE
  8
0
  6
CONTINUOUS
 62
     7
  5
3F0
 10
-3.330823
 20
-0.746886
 30
0.0
 11
-3.33075
 21
-0.751538
 31
0.0
  0
LINE
  8
0
  6
CONTINUOUS
 62
     7
  5
3F1
 10
-3.33075
 20
-0.751538
 30
0.0
 11
-3.330694
 21
-0.756194
 31
0.0
  0
LINE
  8
0
  6
CONTINUOUS
 62
     7
  5
3F2
 10
-3.330694
 20
-0.756194
 30
0.0
 11
-3.330654
 21
-0.760836
 31
0.0
  0
LINE
  8
0
  6
CONTINUOUS
 62
     7
  5
3F3
 10
-3.330654
 20
-0.760836
 30
0.0
 11
-3.33063
 21
-0.765444
 31
0.0
  0
LINE
  8
0
  6
CONTINUOUS
 62
     7
  5
3F4
 10
-3.33063
 20
-0.765444
 30
0.0
 11
-3.330623
 21
-0.77
 31
0.0
  0
LINE
  8
0
  6
CONTINUOUS
 62
     7
  5
3F5
 10
-3.337397
 20
-0.875
 30
0.0
 11
-3.337854
 21
-0.874601
 31
0.0
  0
LINE
  8
0
  6
CONTINUOUS
 62
     7
  5
3F6
 10
-3.337854
 20
-0.874601
 30
0.0
 11
-3.338295
 21
-0.87337
 31
0.0
  0
LINE
  8
0
  6
CONTINUOUS
 62
     7
  5
3F7
 10
-3.338295
 20
-0.87337
 30
0.0
 11
-3.338714
 21
-0.87128
 31
0.0
  0
LINE
  8
0
  6
CONTINUOUS
 62
     7
  5
3F8
 10
-3.338714
 20
-0.87128
 30
0.0
 11
-3.339104
 21
-0.868336
 31
0.0
  0
LINE
  8
0
  6
CONTINUOUS
 62
     7
  5
3F9
 10
-3.339104
 20
-0.868336
 30
0.0
 11
-3.339461
 21
-0.864566
 31
0.0
  0
LINE
  8
0
  6
CONTINUOUS
 62
     7
  5
3FA
 10
-3.339461
 20
-0.864566
 30
0.0
 11
-3.339783
 21
-0.860021
 31
0.0
  0
LINE
  8
0
  6
CONTINUOUS
 62
     7
  5
3FB
 10
-3.339783
 20
-0.860021
 30
0.0
 11
-3.34007
 21
-0.85478
 31
0.0
  0
LINE
  8
0
  6
CONTINUOUS
 62
     7
  5
3FC
 10
-3.34007
 20
-0.85478
 30
0.0
 11
-3.340319
 21
-0.848948
 31
0.0
  0
LINE
  8
0
  6
CONTINUOUS
 62
     7
  5
3FD
 10
-3.340319
 20
-0.848948
 30
0.0
 11
-3.340533
 21
-0.842643
 31
0.0
  0
LINE
  8
0
  6
CONTINUOUS
 62
     7
  5
3FE
 10
-3.340533
 20
-0.842643
 30
0.0
 11
-3.340721
 21
-0.835709
 31
0.0
  0
LINE
  8
0
  6
CONTINUOUS
 62
     7
  5
3FF
 10
-3.340721
 20
-0.835709
 30
0.0
 11
-3.340885
 21
-0.82811
 31
0.0
  0
LINE
  8
0
  6
CONTINUOUS
 62
     7
  5
400
 10
-3.340885
 20
-0.82811
 30
0.0
 11
-3.341023
 21
-0.819938
 31
0.0
  0
LINE
  8
0
  6
CONTINUOUS
 62
     7
  5
401
 10
-3.341023
 20
-0.819938
 30
0.0
 11
-3.341135
 21
-0.811303
 31
0.0
  0
LINE
  8
0
  6
CONTINUOUS
 62
     7
  5
402
 10
-3.341135
 20
-0.811303
 30
0.0
 11
-3.341222
 21
-0.802318
 31
0.0
  0
LINE
  8
0
  6
CONTINUOUS
 62
     7
  5
403
 10
-3.341222
 20
-0.802318
 30
0.0
 11
-3.341286
 21
-0.793103
 31
0.0
  0
LINE
  8
0
  6
CONTINUOUS
 62
     7
  5
404
 10
-3.341286
 20
-0.793103
 30
0.0
 11
-3.341327
 21
-0.783798
 31
0.0
  0
LINE
  8
0
  6
CONTINUOUS
 62
     7
  5
405
 10
-3.341327
 20
-0.783798
 30
0.0
 11
-3.341347
 21
-0.774554
 31
0.0
  0
LINE
  8
0
  6
CONTINUOUS
 62
     7
  5
406
 10
-3.341347
 20
-0.774554
 30
0.0
 11
-3.341347
 21
-0.765446
 31
0.0
  0
LINE
  8
0
  6
CONTINUOUS
 62
     7
  5
407
 10
-3.341347
 20
-0.765446
 30
0.0
 11
-3.341327
 21
-0.756202
 31
0.0
  0
LINE
  8
0
  6
CONTINUOUS
 62
     7
  5
408
 10
-3.341327
 20
-0.756202
 30
0.0
 11
-3.341286
 21
-0.746897
 31
0.0
  0
LINE
  8
0
  6
CONTINUOUS
 62
     7
  5
409
 10
-3.341286
 20
-0.746897
 30
0.0
 11
-3.341222
 21
-0.737682
 31
0.0
  0
LINE
  8
0
  6
CONTINUOUS
 62
     7
  5
40A
 10
-3.341222
 20
-0.737682
 30
0.0
 11
-3.341135
 21
-0.728697
 31
0.0
  0
LINE
  8
0
  6
CONTINUOUS
 62
     7
  5
40B
 10
-3.341135
 20
-0.728697
 30
0.0
 11
-3.341023
 21
-0.720062
 31
0.0
  0
LINE
  8
0
  6
CONTINUOUS
 62
     7
  5
40C
 10
-3.341023
 20
-0.720062
 30
0.0
 11
-3.340885
 21
-0.71189
 31
0.0
  0
LINE
  8
0
  6
CONTINUOUS
 62
     7
  5
40D
 10
-3.340885
 20
-0.71189
 30
0.0
 11
-3.340721
 21
-0.704291
 31
0.0
  0
LINE
  8
0
  6
CONTINUOUS
 62
     7
  5
40E
 10
-3.340721
 20
-0.704291
 30
0.0
 11
-3.340533
 21
-0.697357
 31
0.0
  0
LINE
  8
0
  6
CONTINUOUS
 62
     7
  5
40F
 10
-3.340533
 20
-0.697357
 30
0.0
 11
-3.340319
 21
-0.691052
 31
0.0
  0
LINE
  8
0
  6
CONTINUOUS
 62
     7
  5
410
 10
-3.340319
 20
-0.691052
 30
0.0
 11
-3.34007
 21
-0.68522
 31
0.0
  0
LINE
  8
0
  6
CONTINUOUS
 62
     7
  5
411
 10
-3.34007
 20
-0.68522
 30
0.0
 11
-3.339783
 21
-0.679979
 31
0.0
  0
LINE
  8
0
  6
CONTINUOUS
 62
     7
  5
412
 10
-3.339783
 20
-0.679979
 30
0.0
 11
-3.339461
 21
-0.675434
 31
0.0
  0
LINE
  8
0
  6
CONTINUOUS
 62
     7
  5
413
 10
-3.339461
 20
-0.675434
 30
0.0
 11
-3.339104
 21
-0.671664
 31
0.0
  0
LINE
  8
0
  6
CONTINUOUS
 62
     7
  5
414
 10
-3.339104
 20
-0.671664
 30
0.0
 11
-3.338714
 21
-0.66872
 31
0.0
  0
LINE
  8
0
  6
CONTINUOUS
 62
     7
  5
415
 10
-3.338714
 20
-0.66872
 30
0.0
 11
-3.338295
 21
-0.66663
 31
0.0
  0
LINE
  8
0
  6
CONTINUOUS
 62
     7
  5
416
 10
-3.338295
 20
-0.66663
 30
0.0
 11
-3.337854
 21
-0.665399
 31
0.0
  0
LINE
  8
0
  6
CONTINUOUS
 62
     7
  5
417
 10
-3.337854
 20
-0.665399
 30
0.0
 11
-3.337397
 21
-0.665
 31
0.0
  0
LINE
  8
0
  6
CONTINUOUS
 62
     7
  5
418
 10
-3.330623
 20
-0.77
 30
0.0
 11
-3.33063
 21
-0.774556
 31
0.0
  0
LINE
  8
0
  6
CONTINUOUS
 62
     7
  5
419
 10
-3.33063
 20
-0.774556
 30
0.0
 11
-3.330654
 21
-0.779164
 31
0.0
  0
LINE
  8
0
  6
CONTINUOUS
 62
     7
  5
41A
 10
-3.330654
 20
-0.779164
 30
0.0
 11
-3.330694
 21
-0.783806
 31
0.0
  0
LINE
  8
0
  6
CONTINUOUS
 62
     7
  5
41B
 10
-3.330694
 20
-0.783806
 30
0.0
 11
-3.33075
 21
-0.788462
 31
0.0
  0
LINE
  8
0
  6
CONTINUOUS
 62
     7
  5
41C
 10
-3.33075
 20
-0.788462
 30
0.0
 11
-3.330823
 21
-0.793114
 31
0.0
  0
LINE
  8
0
  6
CONTINUOUS
 62
     7
  5
41D
 10
-3.330823
 20
-0.793114
 30
0.0
 11
-3.330912
 21
-0.797743
 31
0.0
  0
LINE
  8
0
  6
CONTINUOUS
 62
     7
  5
41E
 10
-3.330912
 20
-0.797743
 30
0.0
 11
-3.331017
 21
-0.802331
 31
0.0
  0
LINE
  8
0
  6
CONTINUOUS
 62
     7
  5
41F
 10
-3.331017
 20
-0.802331
 30
0.0
 11
-3.331138
 21
-0.806861
 31
0.0
  0
LINE
  8
0
  6
CONTINUOUS
 62
     7
  5
420
 10
-3.331138
 20
-0.806861
 30
0.0
 11
-3.331274
 21
-0.811318
 31
0.0
  0
LINE
  8
0
  6
CONTINUOUS
 62
     7
  5
421
 10
-3.331274
 20
-0.811318
 30
0.0
 11
-3.331424
 21
-0.815686
 31
0.0
  0
LINE
  8
0
  6
CONTINUOUS
 62
     7
  5
422
 10
-3.331424
 20
-0.815686
 30
0.0
 11
-3.331588
 21
-0.819953
 31
0.0
  0
LINE
  8
0
  6
CONTINUOUS
 62
     7
  5
423
 10
-3.331588
 20
-0.819953
 30
0.0
 11
-3.331765
 21
-0.824104
 31
0.0
  0
LINE
  8
0
  6
CONTINUOUS
 62
     7
  5
424
 10
-3.331765
 20
-0.824104
 30
0.0
 11
-3.331952
 21
-0.828124
 31
0.0
  0
LINE
  8
0
  6
CONTINUOUS
 62
     7
  5
425
 10
-3.331952
 20
-0.828124
 30
0.0
 11
-3.33215
 21
-0.832
 31
0.0
  0
LINE
  8
0
  6
CONTINUOUS
 62
     7
  5
426
 10
-3.33215
 20
-0.832
 30
0.0
 11
-3.332357
 21
-0.83572
 31
0.0
  0
LINE
  8
0
  6
CONTINUOUS
 62
     7
  5
427
 10
-3.332357
 20
-0.83572
 30
0.0
 11
-3.33257
 21
-0.839274
 31
0.0
  0
LINE
  8
0
  6
CONTINUOUS
 62
     7
  5
428
 10
-3.33257
 20
-0.839274
 30
0.0
 11
-3.33279
 21
-0.842651
 31
0.0
  0
LINE
  8
0
  6
CONTINUOUS
 62
     7
  5
429
 10
-3.33279
 20
-0.842651
 30
0.0
 11
-3.333015
 21
-0.845857
 31
0.0
  0
LINE
  8
0
  6
CONTINUOUS
 62
     7
  5
42A
 10
-3.333015
 20
-0.845857
 30
0.0
 11
-3.333249
 21
-0.848953
 31
0.0
  0
LINE
  8
0
  6
CONTINUOUS
 62
     7
  5
42B
 10
-3.333249
 20
-0.848953
 30
0.0
 11
-3.333492
 21
-0.851934
 31
0.0
  0
LINE
  8
0
  6
CONTINUOUS
 62
     7
  5
42C
 10
-3.333492
 20
-0.851934
 30
0.0
 11
-3.333743
 21
-0.854782
 31
0.0
  0
LINE
  8
0
  6
CONTINUOUS
 62
     7
  5
42D
 10
-3.333743
 20
-0.854782
 30
0.0
 11
-3.334
 21
-0.857483
 31
0.0
  0
LINE
  8
0
  6
CONTINUOUS
 62
     7
  5
42E
 10
-3.334
 20
-0.857483
 30
0.0
 11
-3.334263
 21
-0.860022
 31
0.0
  0
LINE
  8
0
  6
CONTINUOUS
 62
     7
  5
42F
 10
-3.334263
 20
-0.860022
 30
0.0
 11
-3.334531
 21
-0.862386
 31
0.0
  0
LINE
  8
0
  6
CONTINUOUS
 62
     7
  5
430
 10
-3.334531
 20
-0.862386
 30
0.0
 11
-3.3348
 21
-0.864565
 31
0.0
  0
LINE
  8
0
  6
CONTINUOUS
 62
     7
  5
431
 10
-3.3348
 20
-0.864565
 30
0.0
 11
-3.335072
 21
-0.86655
 31
0.0
  0
LINE
  8
0
  6
CONTINUOUS
 62
     7
  5
432
 10
-3.335072
 20
-0.86655
 30
0.0
 11
-3.335344
 21
-0.868334
 31
0.0
  0
LINE
  8
0
  6
CONTINUOUS
 62
     7
  5
433
 10
-3.335344
 20
-0.868334
 30
0.0
 11
-3.335615
 21
-0.869912
 31
0.0
  0
LINE
  8
0
  6
CONTINUOUS
 62
     7
  5
434
 10
-3.335615
 20
-0.869912
 30
0.0
 11
-3.335884
 21
-0.871278
 31
0.0
  0
LINE
  8
0
  6
CONTINUOUS
 62
     7
  5
435
 10
-3.335884
 20
-0.871278
 30
0.0
 11
-3.33615
 21
-0.872431
 31
0.0
  0
LINE
  8
0
  6
CONTINUOUS
 62
     7
  5
436
 10
-3.33615
 20
-0.872431
 30
0.0
 11
-3.336412
 21
-0.873369
 31
0.0
  0
LINE
  8
0
  6
CONTINUOUS
 62
     7
  5
437
 10
-3.336412
 20
-0.873369
 30
0.0
 11
-3.336669
 21
-0.874091
 31
0.0
  0
LINE
  8
0
  6
CONTINUOUS
 62
     7
  5
438
 10
-3.336669
 20
-0.874091
 30
0.0
 11
-3.336919
 21
-0.8746
 31
0.0
  0
LINE
  8
0
  6
CONTINUOUS
 62
     7
  5
439
 10
-3.336919
 20
-0.8746
 30
0.0
 11
-3.337162
 21
-0.874901
 31
0.0
  0
LINE
  8
0
  6
CONTINUOUS
 62
     7
  5
43A
 10
-3.337162
 20
-0.874901
 30
0.0
 11
-3.337397
 21
-0.875
 31
0.0
  0
LINE
  8
0
  6
CONTINUOUS
 62
     7
  5
43B
 10
-3.337397
 20
0.855
 30
0.0
 11
-3.337162
 21
0.854901
 31
0.0
  0
LINE
  8
0
  6
CONTINUOUS
 62
     7
  5
43C
 10
-3.337162
 20
0.854901
 30
0.0
 11
-3.336919
 21
0.8546
 31
0.0
  0
LINE
  8
0
  6
CONTINUOUS
 62
     7
  5
43D
 10
-3.336919
 20
0.8546
 30
0.0
 11
-3.336669
 21
0.854091
 31
0.0
  0
LINE
  8
0
  6
CONTINUOUS
 62
     7
  5
43E
 10
-3.336669
 20
0.854091
 30
0.0
 11
-3.336412
 21
0.853369
 31
0.0
  0
LINE
  8
0
  6
CONTINUOUS
 62
     7
  5
43F
 10
-3.336412
 20
0.853369
 30
0.0
 11
-3.33615
 21
0.852431
 31
0.0
  0
LINE
  8
0
  6
CONTINUOUS
 62
     7
  5
440
 10
-3.33615
 20
0.852431
 30
0.0
 11
-3.335884
 21
0.851278
 31
0.0
  0
LINE
  8
0
  6
CONTINUOUS
 62
     7
  5
441
 10
-3.335884
 20
0.851278
 30
0.0
 11
-3.335615
 21
0.849912
 31
0.0
  0
LINE
  8
0
  6
CONTINUOUS
 62
     7
  5
442
 10
-3.335615
 20
0.849912
 30
0.0
 11
-3.335344
 21
0.848334
 31
0.0
  0
LINE
  8
0
  6
CONTINUOUS
 62
     7
  5
443
 10
-3.335344
 20
0.848334
 30
0.0
 11
-3.335072
 21
0.84655
 31
0.0
  0
LINE
  8
0
  6
CONTINUOUS
 62
     7
  5
444
 10
-3.335072
 20
0.84655
 30
0.0
 11
-3.3348
 21
0.844565
 31
0.0
  0
LINE
  8
0
  6
CONTINUOUS
 62
     7
  5
445
 10
-3.3348
 20
0.844565
 30
0.0
 11
-3.334531
 21
0.842386
 31
0.0
  0
LINE
  8
0
  6
CONTINUOUS
 62
     7
  5
446
 10
-3.334531
 20
0.842386
 30
0.0
 11
-3.334263
 21
0.840022
 31
0.0
  0
LINE
  8
0
  6
CONTINUOUS
 62
     7
  5
447
 10
-3.334263
 20
0.840022
 30
0.0
 11
-3.334
 21
0.837483
 31
0.0
  0
LINE
  8
0
  6
CONTINUOUS
 62
     7
  5
448
 10
-3.334
 20
0.837483
 30
0.0
 11
-3.333743
 21
0.834782
 31
0.0
  0
LINE
  8
0
  6
CONTINUOUS
 62
     7
  5
449
 10
-3.333743
 20
0.834782
 30
0.0
 11
-3.333492
 21
0.831934
 31
0.0
  0
LINE
  8
0
  6
CONTINUOUS
 62
     7
  5
44A
 10
-3.333492
 20
0.831934
 30
0.0
 11
-3.333249
 21
0.828953
 31
0.0
  0
LINE
  8
0
  6
CONTINUOUS
 62
     7
  5
44B
 10
-3.333249
 20
0.828953
 30
0.0
 11
-3.333015
 21
0.825857
 31
0.0
  0
LINE
  8
0
  6
CONTINUOUS
 62
     7
  5
44C
 10
-3.333015
 20
0.825857
 30
0.0
 11
-3.33279
 21
0.822651
 31
0.0
  0
LINE
  8
0
  6
CONTINUOUS
 62
     7
  5
44D
 10
-3.33279
 20
0.822651
 30
0.0
 11
-3.33257
 21
0.819274
 31
0.0
  0
LINE
  8
0
  6
CONTINUOUS
 62
     7
  5
44E
 10
-3.33257
 20
0.819274
 30
0.0
 11
-3.332357
 21
0.81572
 31
0.0
  0
LINE
  8
0
  6
CONTINUOUS
 62
     7
  5
44F
 10
-3.332357
 20
0.81572
 30
0.0
 11
-3.33215
 21
0.812
 31
0.0
  0
LINE
  8
0
  6
CONTINUOUS
 62
     7
  5
450
 10
-3.33215
 20
0.812
 30
0.0
 11
-3.331952
 21
0.808124
 31
0.0
  0
LINE
  8
0
  6
CONTINUOUS
 62
     7
  5
451
 10
-3.331952
 20
0.808124
 30
0.0
 11
-3.331765
 21
0.804104
 31
0.0
  0
LINE
  8
0
  6
CONTINUOUS
 62
     7
  5
452
 10
-3.331765
 20
0.804104
 30
0.0
 11
-3.331588
 21
0.799953
 31
0.0
  0
LINE
  8
0
  6
CONTINUOUS
 62
     7
  5
453
 10
-3.331588
 20
0.799953
 30
0.0
 11
-3.331424
 21
0.795686
 31
0.0
  0
LINE
  8
0
  6
CONTINUOUS
 62
     7
  5
454
 10
-3.331424
 20
0.795686
 30
0.0
 11
-3.331274
 21
0.791318
 31
0.0
  0
LINE
  8
0
  6
CONTINUOUS
 62
     7
  5
455
 10
-3.331274
 20
0.791318
 30
0.0
 11
-3.331138
 21
0.786861
 31
0.0
  0
LINE
  8
0
  6
CONTINUOUS
 62
     7
  5
456
 10
-3.331138
 20
0.786861
 30
0.0
 11
-3.331017
 21
0.782331
 31
0.0
  0
LINE
  8
0
  6
CONTINUOUS
 62
     7
  5
457
 10
-3.331017
 20
0.782331
 30
0.0
 11
-3.330912
 21
0.777743
 31
0.0
  0
LINE
  8
0
  6
CONTINUOUS
 62
     7
  5
458
 10
-3.330912
 20
0.777743
 30
0.0
 11
-3.330823
 21
0.773114
 31
0.0
  0
LINE
  8
0
  6
CONTINUOUS
 62
     7
  5
459
 10
-3.330823
 20
0.773114
 30
0.0
 11
-3.33075
 21
0.768462
 31
0.0
  0
LINE
  8
0
  6
CONTINUOUS
 62
     7
  5
45A
 10
-3.33075
 20
0.768462
 30
0.0
 11
-3.330694
 21
0.763806
 31
0.0
  0
LINE
  8
0
  6
CONTINUOUS
 62
     7
  5
45B
 10
-3.330694
 20
0.763806
 30
0.0
 11
-3.330654
 21
0.759164
 31
0.0
  0
LINE
  8
0
  6
CONTINUOUS
 62
     7
  5
45C
 10
-3.330654
 20
0.759164
 30
0.0
 11
-3.33063
 21
0.754556
 31
0.0
  0
LINE
  8
0
  6
CONTINUOUS
 62
     7
  5
45D
 10
-3.33063
 20
0.754556
 30
0.0
 11
-3.330623
 21
0.75
 31
0.0
  0
LINE
  8
0
  6
CONTINUOUS
 62
     7
  5
45E
 10
-3.337397
 20
0.645
 30
0.0
 11
-3.337854
 21
0.645399
 31
0.0
  0
LINE
  8
0
  6
CONTINUOUS
 62
     7
  5
45F
 10
-3.337854
 20
0.645399
 30
0.0
 11
-3.338295
 21
0.64663
 31
0.0
  0
LINE
  8
0
  6
CONTINUOUS
 62
     7
  5
460
 10
-3.338295
 20
0.64663
 30
0.0
 11
-3.338714
 21
0.64872
 31
0.0
  0
LINE
  8
0
  6
CONTINUOUS
 62
     7
  5
461
 10
-3.338714
 20
0.64872
 30
0.0
 11
-3.339104
 21
0.651664
 31
0.0
  0
LINE
  8
0
  6
CONTINUOUS
 62
     7
  5
462
 10
-3.339104
 20
0.651664
 30
0.0
 11
-3.339461
 21
0.655434
 31
0.0
  0
LINE
  8
0
  6
CONTINUOUS
 62
     7
  5
463
 10
-3.339461
 20
0.655434
 30
0.0
 11
-3.339783
 21
0.659979
 31
0.0
  0
LINE
  8
0
  6
CONTINUOUS
 62
     7
  5
464
 10
-3.339783
 20
0.659979
 30
0.0
 11
-3.34007
 21
0.66522
 31
0.0
  0
LINE
  8
0
  6
CONTINUOUS
 62
     7
  5
465
 10
-3.34007
 20
0.66522
 30
0.0
 11
-3.340319
 21
0.671052
 31
0.0
  0
LINE
  8
0
  6
CONTINUOUS
 62
     7
  5
466
 10
-3.340319
 20
0.671052
 30
0.0
 11
-3.340533
 21
0.677357
 31
0.0
  0
LINE
  8
0
  6
CONTINUOUS
 62
     7
  5
467
 10
-3.340533
 20
0.677357
 30
0.0
 11
-3.340721
 21
0.684291
 31
0.0
  0
LINE
  8
0
  6
CONTINUOUS
 62
     7
  5
468
 10
-3.340721
 20
0.684291
 30
0.0
 11
-3.340885
 21
0.69189
 31
0.0
  0
LINE
  8
0
  6
CONTINUOUS
 62
     7
  5
469
 10
-3.340885
 20
0.69189
 30
0.0
 11
-3.341023
 21
0.700062
 31
0.0
  0
LINE
  8
0
  6
CONTINUOUS
 62
     7
  5
46A
 10
-3.341023
 20
0.700062
 30
0.0
 11
-3.341135
 21
0.708697
 31
0.0
  0
LINE
  8
0
  6
CONTINUOUS
 62
     7
  5
46B
 10
-3.341135
 20
0.708697
 30
0.0
 11
-3.341222
 21
0.717682
 31
0.0
  0
LINE
  8
0
  6
CONTINUOUS
 62
     7
  5
46C
 10
-3.341222
 20
0.717682
 30
0.0
 11
-3.341286
 21
0.726897
 31
0.0
  0
LINE
  8
0
  6
CONTINUOUS
 62
     7
  5
46D
 10
-3.341286
 20
0.726897
 30
0.0
 11
-3.341327
 21
0.736202
 31
0.0
  0
LINE
  8
0
  6
CONTINUOUS
 62
     7
  5
46E
 10
-3.341327
 20
0.736202
 30
0.0
 11
-3.341347
 21
0.745446
 31
0.0
  0
LINE
  8
0
  6
CONTINUOUS
 62
     7
  5
46F
 10
-3.341347
 20
0.745446
 30
0.0
 11
-3.341347
 21
0.754554
 31
0.0
  0
LINE
  8
0
  6
CONTINUOUS
 62
     7
  5
470
 10
-3.341347
 20
0.754554
 30
0.0
 11
-3.341327
 21
0.763798
 31
0.0
  0
LINE
  8
0
  6
CONTINUOUS
 62
     7
  5
471
 10
-3.341327
 20
0.763798
 30
0.0
 11
-3.341286
 21
0.773103
 31
0.0
  0
LINE
  8
0
  6
CONTINUOUS
 62
     7
  5
472
 10
-3.341286
 20
0.773103
 30
0.0
 11
-3.341222
 21
0.782318
 31
0.0
  0
LINE
  8
0
  6
CONTINUOUS
 62
     7
  5
473
 10
-3.341222
 20
0.782318
 30
0.0
 11
-3.341135
 21
0.791303
 31
0.0
  0
LINE
  8
0
  6
CONTINUOUS
 62
     7
  5
474
 10
-3.341135
 20
0.791303
 30
0.0
 11
-3.341023
 21
0.799938
 31
0.0
  0
LINE
  8
0
  6
CONTINUOUS
 62
     7
  5
475
 10
-3.341023
 20
0.799938
 30
0.0
 11
-3.340885
 21
0.80811
 31
0.0
  0
LINE
  8
0
  6
CONTINUOUS
 62
     7
  5
476
 10
-3.340885
 20
0.80811
 30
0.0
 11
-3.340721
 21
0.815709
 31
0.0
  0
LINE
  8
0
  6
CONTINUOUS
 62
     7
  5
477
 10
-3.340721
 20
0.815709
 30
0.0
 11
-3.340533
 21
0.822643
 31
0.0
  0
LINE
  8
0
  6
CONTINUOUS
 62
     7
  5
478
 10
-3.340533
 20
0.822643
 30
0.0
 11
-3.340319
 21
0.828948
 31
0.0
  0
LINE
  8
0
  6
CONTINUOUS
 62
     7
  5
479
 10
-3.340319
 20
0.828948
 30
0.0
 11
-3.34007
 21
0.83478
 31
0.0
  0
LINE
  8
0
  6
CONTINUOUS
 62
     7
  5
47A
 10
-3.34007
 20
0.83478
 30
0.0
 11
-3.339783
 21
0.840021
 31
0.0
  0
LINE
  8
0
  6
CONTINUOUS
 62
     7
  5
47B
 10
-3.339783
 20
0.840021
 30
0.0
 11
-3.339461
 21
0.844566
 31
0.0
  0
LINE
  8
0
  6
CONTINUOUS
 62
     7
  5
47C
 10
-3.339461
 20
0.844566
 30
0.0
 11
-3.339104
 21
0.848336
 31
0.0
  0
LINE
  8
0
  6
CONTINUOUS
 62
     7
  5
47D
 10
-3.339104
 20
0.848336
 30
0.0
 11
-3.338714
 21
0.85128
 31
0.0
  0
LINE
  8
0
  6
CONTINUOUS
 62
     7
  5
47E
 10
-3.338714
 20
0.85128
 30
0.0
 11
-3.338295
 21
0.85337
 31
0.0
  0
LINE
  8
0
  6
CONTINUOUS
 62
     7
  5
47F
 10
-3.338295
 20
0.85337
 30
0.0
 11
-3.337854
 21
0.854601
 31
0.0
  0
LINE
  8
0
  6
CONTINUOUS
 62
     7
  5
480
 10
-3.337854
 20
0.854601
 30
0.0
 11
-3.337397
 21
0.855
 31
0.0
  0
LINE
  8
0
  6
CONTINUOUS
 62
     7
  5
481
 10
-3.330623
 20
0.75
 30
0.0
 11
-3.33063
 21
0.745444
 31
0.0
  0
LINE
  8
0
  6
CONTINUOUS
 62
     7
  5
482
 10
-3.33063
 20
0.745444
 30
0.0
 11
-3.330654
 21
0.740836
 31
0.0
  0
LINE
  8
0
  6
CONTINUOUS
 62
     7
  5
483
 10
-3.330654
 20
0.740836
 30
0.0
 11
-3.330694
 21
0.736194
 31
0.0
  0
LINE
  8
0
  6
CONTINUOUS
 62
     7
  5
484
 10
-3.330694
 20
0.736194
 30
0.0
 11
-3.33075
 21
0.731538
 31
0.0
  0
LINE
  8
0
  6
CONTINUOUS
 62
     7
  5
485
 10
-3.33075
 20
0.731538
 30
0.0
 11
-3.330823
 21
0.726886
 31
0.0
  0
LINE
  8
0
  6
CONTINUOUS
 62
     7
  5
486
 10
-3.330823
 20
0.726886
 30
0.0
 11
-3.330912
 21
0.722257
 31
0.0
  0
LINE
  8
0
  6
CONTINUOUS
 62
     7
  5
487
 10
-3.330912
 20
0.722257
 30
0.0
 11
-3.331017
 21
0.717669
 31
0.0
  0
LINE
  8
0
  6
CONTINUOUS
 62
     7
  5
488
 10
-3.331017
 20
0.717669
 30
0.0
 11
-3.331138
 21
0.713139
 31
0.0
  0
LINE
  8
0
  6
CONTINUOUS
 62
     7
  5
489
 10
-3.331138
 20
0.713139
 30
0.0
 11
-3.331274
 21
0.708682
 31
0.0
  0
LINE
  8
0
  6
CONTINUOUS
 62
     7
  5
48A
 10
-3.331274
 20
0.708682
 30
0.0
 11
-3.331424
 21
0.704314
 31
0.0
  0
LINE
  8
0
  6
CONTINUOUS
 62
     7
  5
48B
 10
-3.331424
 20
0.704314
 30
0.0
 11
-3.331588
 21
0.700047
 31
0.0
  0
LINE
  8
0
  6
CONTINUOUS
 62
     7
  5
48C
 10
-3.331588
 20
0.700047
 30
0.0
 11
-3.331765
 21
0.695896
 31
0.0
  0
LINE
  8
0
  6
CONTINUOUS
 62
     7
  5
48D
 10
-3.331765
 20
0.695896
 30
0.0
 11
-3.331952
 21
0.691876
 31
0.0
  0
LINE
  8
0
  6
CONTINUOUS
 62
     7
  5
48E
 10
-3.331952
 20
0.691876
 30
0.0
 11
-3.33215
 21
0.688
 31
0.0
  0
LINE
  8
0
  6
CONTINUOUS
 62
     7
  5
48F
 10
-3.33215
 20
0.688
 30
0.0
 11
-3.332357
 21
0.68428
 31
0.0
  0
LINE
  8
0
  6
CONTINUOUS
 62
     7
  5
490
 10
-3.332357
 20
0.68428
 30
0.0
 11
-3.33257
 21
0.680726
 31
0.0
  0
LINE
  8
0
  6
CONTINUOUS
 62
     7
  5
491
 10
-3.33257
 20
0.680726
 30
0.0
 11
-3.33279
 21
0.677349
 31
0.0
  0
LINE
  8
0
  6
CONTINUOUS
 62
     7
  5
492
 10
-3.33279
 20
0.677349
 30
0.0
 11
-3.333015
 21
0.674143
 31
0.0
  0
LINE
  8
0
  6
CONTINUOUS
 62
     7
  5
493
 10
-3.333015
 20
0.674143
 30
0.0
 11
-3.333249
 21
0.671047
 31
0.0
  0
LINE
  8
0
  6
CONTINUOUS
 62
     7
  5
494
 10
-3.333249
 20
0.671047
 30
0.0
 11
-3.333492
 21
0.668066
 31
0.0
  0
LINE
  8
0
  6
CONTINUOUS
 62
     7
  5
495
 10
-3.333492
 20
0.668066
 30
0.0
 11
-3.333743
 21
0.665218
 31
0.0
  0
LINE
  8
0
  6
CONTINUOUS
 62
     7
  5
496
 10
-3.333743
 20
0.665218
 30
0.0
 11
-3.334
 21
0.662517
 31
0.0
  0
LINE
  8
0
  6
CONTINUOUS
 62
     7
  5
497
 10
-3.334
 20
0.662517
 30
0.0
 11
-3.334263
 21
0.659978
 31
0.0
  0
LINE
  8
0
  6
CONTINUOUS
 62
     7
  5
498
 10
-3.334263
 20
0.659978
 30
0.0
 11
-3.334531
 21
0.657614
 31
0.0
  0
LINE
  8
0
  6
CONTINUOUS
 62
     7
  5
499
 10
-3.334531
 20
0.657614
 30
0.0
 11
-3.3348
 21
0.655435
 31
0.0
  0
LINE
  8
0
  6
CONTINUOUS
 62
     7
  5
49A
 10
-3.3348
 20
0.655435
 30
0.0
 11
-3.335072
 21
0.65345
 31
0.0
  0
LINE
  8
0
  6
CONTINUOUS
 62
     7
  5
49B
 10
-3.335072
 20
0.65345
 30
0.0
 11
-3.335344
 21
0.651666
 31
0.0
  0
LINE
  8
0
  6
CONTINUOUS
 62
     7
  5
49C
 10
-3.335344
 20
0.651666
 30
0.0
 11
-3.335615
 21
0.650088
 31
0.0
  0
LINE
  8
0
  6
CONTINUOUS
 62
     7
  5
49D
 10
-3.335615
 20
0.650088
 30
0.0
 11
-3.335884
 21
0.648722
 31
0.0
  0
LINE
  8
0
  6
CONTINUOUS
 62
     7
  5
49E
 10
-3.335884
 20
0.648722
 30
0.0
 11
-3.33615
 21
0.647569
 31
0.0
  0
LINE
  8
0
  6
CONTINUOUS
 62
     7
  5
49F
 10
-3.33615
 20
0.647569
 30
0.0
 11
-3.336412
 21
0.646631
 31
0.0
  0
LINE
  8
0
  6
CONTINUOUS
 62
     7
  5
4A0
 10
-3.336412
 20
0.646631
 30
0.0
 11
-3.336669
 21
0.645909
 31
0.0
  0
LINE
  8
0
  6
CONTINUOUS
 62
     7
  5
4A1
 10
-3.336669
 20
0.645909
 30
0.0
 11
-3.336919
 21
0.6454
 31
0.0
  0
LINE
  8
0
  6
CONTINUOUS
 62
     7
  5
4A2
 10
-3.336919
 20
0.6454
 30
0.0
 11
-3.337162
 21
0.645099
 31
0.0
  0
LINE
  8
0
  6
CONTINUOUS
 62
     7
  5
4A3
 10
-3.337162
 20
0.645099
 30
0.0
 11
-3.337397
 21
0.645
 31
0.0
  0
LINE
  8
0
  6
CONTINUOUS
 62
     7
  5
4A4
 10
-3.296333
 20
-0.665
 30
0.0
 11
-3.295629
 21
-0.665098
 31
0.0
  0
LINE
  8
0
  6
CONTINUOUS
 62
     7
  5
4A5
 10
-3.295629
 20
-0.665098
 30
0.0
 11
-3.294912
 21
-0.665396
 31
0.0
  0
LINE
  8
0
  6
CONTINUOUS
 62
     7
  5
4A6
 10
-3.294912
 20
-0.665396
 30
0.0
 11
-3.294184
 21
-0.665901
 31
0.0
  0
LINE
  8
0
  6
CONTINUOUS
 62
     7
  5
4A7
 10
-3.294184
 20
-0.665901
 30
0.0
 11
-3.293448
 21
-0.666616
 31
0.0
  0
LINE
  8
0
  6
CONTINUOUS
 62
     7
  5
4A8
 10
-3.293448
 20
-0.666616
 30
0.0
 11
-3.292706
 21
-0.667545
 31
0.0
  0
LINE
  8
0
  6
CONTINUOUS
 62
     7
  5
4A9
 10
-3.292706
 20
-0.667545
 30
0.0
 11
-3.291963
 21
-0.668688
 31
0.0
  0
LINE
  8
0
  6
CONTINUOUS
 62
     7
  5
4AA
 10
-3.291963
 20
-0.668688
 30
0.0
 11
-3.29122
 21
-0.670043
 31
0.0
  0
LINE
  8
0
  6
CONTINUOUS
 62
     7
  5
4AB
 10
-3.29122
 20
-0.670043
 30
0.0
 11
-3.290481
 21
-0.671607
 31
0.0
  0
LINE
  8
0
  6
CONTINUOUS
 62
     7
  5
4AC
 10
-3.290481
 20
-0.671607
 30
0.0
 11
-3.289748
 21
-0.673377
 31
0.0
  0
LINE
  8
0
  6
CONTINUOUS
 62
     7
  5
4AD
 10
-3.289748
 20
-0.673377
 30
0.0
 11
-3.289024
 21
-0.675347
 31
0.0
  0
LINE
  8
0
  6
CONTINUOUS
 62
     7
  5
4AE
 10
-3.289024
 20
-0.675347
 30
0.0
 11
-3.288311
 21
-0.677511
 31
0.0
  0
LINE
  8
0
  6
CONTINUOUS
 62
     7
  5
4AF
 10
-3.288311
 20
-0.677511
 30
0.0
 11
-3.287613
 21
-0.67986
 31
0.0
  0
LINE
  8
0
  6
CONTINUOUS
 62
     7
  5
4B0
 10
-3.287613
 20
-0.67986
 30
0.0
 11
-3.286932
 21
-0.682384
 31
0.0
  0
LINE
  8
0
  6
CONTINUOUS
 62
     7
  5
4B1
 10
-3.286932
 20
-0.682384
 30
0.0
 11
-3.286271
 21
-0.68507
 31
0.0
  0
LINE
  8
0
  6
CONTINUOUS
 62
     7
  5
4B2
 10
-3.286271
 20
-0.68507
 30
0.0
 11
-3.285631
 21
-0.687907
 31
0.0
  0
LINE
  8
0
  6
CONTINUOUS
 62
     7
  5
4B3
 10
-3.285631
 20
-0.687907
 30
0.0
 11
-3.285017
 21
-0.690878
 31
0.0
  0
LINE
  8
0
  6
CONTINUOUS
 62
     7
  5
4B4
 10
-3.285017
 20
-0.690878
 30
0.0
 11
-3.284428
 21
-0.693967
 31
0.0
  0
LINE
  8
0
  6
CONTINUOUS
 62
     7
  5
4B5
 10
-3.284428
 20
-0.693967
 30
0.0
 11
-3.283867
 21
-0.697164
 31
0.0
  0
LINE
  8
0
  6
CONTINUOUS
 62
     7
  5
4B6
 10
-3.283867
 20
-0.697164
 30
0.0
 11
-3.283324
 21
-0.700529
 31
0.0
  0
LINE
  8
0
  6
CONTINUOUS
 62
     7
  5
4B7
 10
-3.283324
 20
-0.700529
 30
0.0
 11
-3.282797
 21
-0.704074
 31
0.0
  0
LINE
  8
0
  6
CONTINUOUS
 62
     7
  5
4B8
 10
-3.282797
 20
-0.704074
 30
0.0
 11
-3.282291
 21
-0.707788
 31
0.0
  0
LINE
  8
0
  6
CONTINUOUS
 62
     7
  5
4B9
 10
-3.282291
 20
-0.707788
 30
0.0
 11
-3.281808
 21
-0.711662
 31
0.0
  0
LINE
  8
0
  6
CONTINUOUS
 62
     7
  5
4BA
 10
-3.281808
 20
-0.711662
 30
0.0
 11
-3.281352
 21
-0.715683
 31
0.0
  0
LINE
  8
0
  6
CONTINUOUS
 62
     7
  5
4BB
 10
-3.281352
 20
-0.715683
 30
0.0
 11
-3.280925
 21
-0.719837
 31
0.0
  0
LINE
  8
0
  6
CONTINUOUS
 62
     7
  5
4BC
 10
-3.280925
 20
-0.719837
 30
0.0
 11
-3.28053
 21
-0.724111
 31
0.0
  0
LINE
  8
0
  6
CONTINUOUS
 62
     7
  5
4BD
 10
-3.28053
 20
-0.724111
 30
0.0
 11
-3.280169
 21
-0.72849
 31
0.0
  0
LINE
  8
0
  6
CONTINUOUS
 62
     7
  5
4BE
 10
-3.280169
 20
-0.72849
 30
0.0
 11
-3.279843
 21
-0.73296
 31
0.0
  0
LINE
  8
0
  6
CONTINUOUS
 62
     7
  5
4BF
 10
-3.279843
 20
-0.73296
 30
0.0
 11
-3.279554
 21
-0.737506
 31
0.0
  0
LINE
  8
0
  6
CONTINUOUS
 62
     7
  5
4C0
 10
-3.279554
 20
-0.737506
 30
0.0
 11
-3.279303
 21
-0.742112
 31
0.0
  0
LINE
  8
0
  6
CONTINUOUS
 62
     7
  5
4C1
 10
-3.279303
 20
-0.742112
 30
0.0
 11
-3.279091
 21
-0.746761
 31
0.0
  0
LINE
  8
0
  6
CONTINUOUS
 62
     7
  5
4C2
 10
-3.279091
 20
-0.746761
 30
0.0
 11
-3.278918
 21
-0.751436
 31
0.0
  0
LINE
  8
0
  6
CONTINUOUS
 62
     7
  5
4C3
 10
-3.278918
 20
-0.751436
 30
0.0
 11
-3.278784
 21
-0.756116
 31
0.0
  0
LINE
  8
0
  6
CONTINUOUS
 62
     7
  5
4C4
 10
-3.278784
 20
-0.756116
 30
0.0
 11
-3.27869
 21
-0.760783
 31
0.0
  0
LINE
  8
0
  6
CONTINUOUS
 62
     7
  5
4C5
 10
-3.27869
 20
-0.760783
 30
0.0
 11
-3.278634
 21
-0.765417
 31
0.0
  0
LINE
  8
0
  6
CONTINUOUS
 62
     7
  5
4C6
 10
-3.278634
 20
-0.765417
 30
0.0
 11
-3.278616
 21
-0.77
 31
0.0
  0
LINE
  8
0
  6
CONTINUOUS
 62
     7
  5
4C7
 10
-3.296333
 20
-0.875
 30
0.0
 11
-3.297731
 21
-0.874605
 31
0.0
  0
LINE
  8
0
  6
CONTINUOUS
 62
     7
  5
4C8
 10
-3.297731
 20
-0.874605
 30
0.0
 11
-3.299127
 21
-0.873387
 31
0.0
  0
LINE
  8
0
  6
CONTINUOUS
 62
     7
  5
4C9
 10
-3.299127
 20
-0.873387
 30
0.0
 11
-3.3005
 21
-0.871317
 31
0.0
  0
LINE
  8
0
  6
CONTINUOUS
 62
     7
  5
4CA
 10
-3.3005
 20
-0.871317
 30
0.0
 11
-3.301829
 21
-0.868398
 31
0.0
  0
LINE
  8
0
  6
CONTINUOUS
 62
     7
  5
4CB
 10
-3.301829
 20
-0.868398
 30
0.0
 11
-3.303096
 21
-0.864656
 31
0.0
  0
LINE
  8
0
  6
CONTINUOUS
 62
     7
  5
4CC
 10
-3.303096
 20
-0.864656
 30
0.0
 11
-3.304287
 21
-0.860139
 31
0.0
  0
LINE
  8
0
  6
CONTINUOUS
 62
     7
  5
4CD
 10
-3.304287
 20
-0.860139
 30
0.0
 11
-3.30539
 21
-0.854922
 31
0.0
  0
LINE
  8
0
  6
CONTINUOUS
 62
     7
  5
4CE
 10
-3.30539
 20
-0.854922
 30
0.0
 11
-3.306394
 21
-0.849108
 31
0.0
  0
LINE
  8
0
  6
CONTINUOUS
 62
     7
  5
4CF
 10
-3.306394
 20
-0.849108
 30
0.0
 11
-3.307291
 21
-0.842813
 31
0.0
  0
LINE
  8
0
  6
CONTINUOUS
 62
     7
  5
4D0
 10
-3.307291
 20
-0.842813
 30
0.0
 11
-3.308109
 21
-0.835893
 31
0.0
  0
LINE
  8
0
  6
CONTINUOUS
 62
     7
  5
4D1
 10
-3.308109
 20
-0.835893
 30
0.0
 11
-3.308848
 21
-0.828297
 31
0.0
  0
LINE
  8
0
  6
CONTINUOUS
 62
     7
  5
4D2
 10
-3.308848
 20
-0.828297
 30
0.0
 11
-3.309496
 21
-0.820118
 31
0.0
  0
LINE
  8
0
  6
CONTINUOUS
 62
     7
  5
4D3
 10
-3.309496
 20
-0.820118
 30
0.0
 11
-3.310042
 21
-0.811465
 31
0.0
  0
LINE
  8
0
  6
CONTINUOUS
 62
     7
  5
4D4
 10
-3.310042
 20
-0.811465
 30
0.0
 11
-3.31048
 21
-0.802453
 31
0.0
  0
LINE
  8
0
  6
CONTINUOUS
 62
     7
  5
4D5
 10
-3.31048
 20
-0.802453
 30
0.0
 11
-3.310806
 21
-0.793205
 31
0.0
  0
LINE
  8
0
  6
CONTINUOUS
 62
     7
  5
4D6
 10
-3.310806
 20
-0.793205
 30
0.0
 11
-3.31102
 21
-0.783862
 31
0.0
  0
LINE
  8
0
  6
CONTINUOUS
 62
     7
  5
4D7
 10
-3.31102
 20
-0.783862
 30
0.0
 11
-3.311125
 21
-0.774575
 31
0.0
  0
LINE
  8
0
  6
CONTINUOUS
 62
     7
  5
4D8
 10
-3.311125
 20
-0.774575
 30
0.0
 11
-3.311125
 21
-0.765425
 31
0.0
  0
LINE
  8
0
  6
CONTINUOUS
 62
     7
  5
4D9
 10
-3.311125
 20
-0.765425
 30
0.0
 11
-3.31102
 21
-0.756138
 31
0.0
  0
LINE
  8
0
  6
CONTINUOUS
 62
     7
  5
4DA
 10
-3.31102
 20
-0.756138
 30
0.0
 11
-3.310806
 21
-0.746795
 31
0.0
  0
LINE
  8
0
  6
CONTINUOUS
 62
     7
  5
4DB
 10
-3.310806
 20
-0.746795
 30
0.0
 11
-3.31048
 21
-0.737547
 31
0.0
  0
LINE
  8
0
  6
CONTINUOUS
 62
     7
  5
4DC
 10
-3.31048
 20
-0.737547
 30
0.0
 11
-3.310042
 21
-0.728535
 31
0.0
  0
LINE
  8
0
  6
CONTINUOUS
 62
     7
  5
4DD
 10
-3.310042
 20
-0.728535
 30
0.0
 11
-3.309496
 21
-0.719882
 31
0.0
  0
LINE
  8
0
  6
CONTINUOUS
 62
     7
  5
4DE
 10
-3.309496
 20
-0.719882
 30
0.0
 11
-3.308848
 21
-0.711703
 31
0.0
  0
LINE
  8
0
  6
CONTINUOUS
 62
     7
  5
4DF
 10
-3.308848
 20
-0.711703
 30
0.0
 11
-3.308109
 21
-0.704107
 31
0.0
  0
LINE
  8
0
  6
CONTINUOUS
 62
     7
  5
4E0
 10
-3.308109
 20
-0.704107
 30
0.0
 11
-3.307291
 21
-0.697187
 31
0.0
  0
LINE
  8
0
  6
CONTINUOUS
 62
     7
  5
4E1
 10
-3.307291
 20
-0.697187
 30
0.0
 11
-3.306394
 21
-0.690892
 31
0.0
  0
LINE
  8
0
  6
CONTINUOUS
 62
     7
  5
4E2
 10
-3.306394
 20
-0.690892
 30
0.0
 11
-3.30539
 21
-0.685078
 31
0.0
  0
LINE
  8
0
  6
CONTINUOUS
 62
     7
  5
4E3
 10
-3.30539
 20
-0.685078
 30
0.0
 11
-3.304287
 21
-0.679861
 31
0.0
  0
LINE
  8
0
  6
CONTINUOUS
 62
     7
  5
4E4
 10
-3.304287
 20
-0.679861
 30
0.0
 11
-3.303096
 21
-0.675344
 31
0.0
  0
LINE
  8
0
  6
CONTINUOUS
 62
     7
  5
4E5
 10
-3.303096
 20
-0.675344
 30
0.0
 11
-3.301829
 21
-0.671602
 31
0.0
  0
LINE
  8
0
  6
CONTINUOUS
 62
     7
  5
4E6
 10
-3.301829
 20
-0.671602
 30
0.0
 11
-3.3005
 21
-0.668683
 31
0.0
  0
LINE
  8
0
  6
CONTINUOUS
 62
     7
  5
4E7
 10
-3.3005
 20
-0.668683
 30
0.0
 11
-3.299127
 21
-0.666613
 31
0.0
  0
LINE
  8
0
  6
CONTINUOUS
 62
     7
  5
4E8
 10
-3.299127
 20
-0.666613
 30
0.0
 11
-3.297731
 21
-0.665395
 31
0.0
  0
LINE
  8
0
  6
CONTINUOUS
 62
     7
  5
4E9
 10
-3.297731
 20
-0.665395
 30
0.0
 11
-3.296333
 21
-0.665
 31
0.0
  0
LINE
  8
0
  6
CONTINUOUS
 62
     7
  5
4EA
 10
-3.278616
 20
-0.77
 30
0.0
 11
-3.278634
 21
-0.774583
 31
0.0
  0
LINE
  8
0
  6
CONTINUOUS
 62
     7
  5
4EB
 10
-3.278634
 20
-0.774583
 30
0.0
 11
-3.27869
 21
-0.779217
 31
0.0
  0
LINE
  8
0
  6
CONTINUOUS
 62
     7
  5
4EC
 10
-3.27869
 20
-0.779217
 30
0.0
 11
-3.278784
 21
-0.783884
 31
0.0
  0
LINE
  8
0
  6
CONTINUOUS
 62
     7
  5
4ED
 10
-3.278784
 20
-0.783884
 30
0.0
 11
-3.278918
 21
-0.788564
 31
0.0
  0
LINE
  8
0
  6
CONTINUOUS
 62
     7
  5
4EE
 10
-3.278918
 20
-0.788564
 30
0.0
 11
-3.279091
 21
-0.793239
 31
0.0
  0
LINE
  8
0
  6
CONTINUOUS
 62
     7
  5
4EF
 10
-3.279091
 20
-0.793239
 30
0.0
 11
-3.279303
 21
-0.797888
 31
0.0
  0
LINE
  8
0
  6
CONTINUOUS
 62
     7
  5
4F0
 10
-3.279303
 20
-0.797888
 30
0.0
 11
-3.279554
 21
-0.802494
 31
0.0
  0
LINE
  8
0
  6
CONTINUOUS
 62
     7
  5
4F1
 10
-3.279554
 20
-0.802494
 30
0.0
 11
-3.279843
 21
-0.80704
 31
0.0
  0
LINE
  8
0
  6
CONTINUOUS
 62
     7
  5
4F2
 10
-3.279843
 20
-0.80704
 30
0.0
 11
-3.280169
 21
-0.81151
 31
0.0
  0
LINE
  8
0
  6
CONTINUOUS
 62
     7
  5
4F3
 10
-3.280169
 20
-0.81151
 30
0.0
 11
-3.28053
 21
-0.815889
 31
0.0
  0
LINE
  8
0
  6
CONTINUOUS
 62
     7
  5
4F4
 10
-3.28053
 20
-0.815889
 30
0.0
 11
-3.280925
 21
-0.820163
 31
0.0
  0
LINE
  8
0
  6
CONTINUOUS
 62
     7
  5
4F5
 10
-3.280925
 20
-0.820163
 30
0.0
 11
-3.281352
 21
-0.824317
 31
0.0
  0
LINE
  8
0
  6
CONTINUOUS
 62
     7
  5
4F6
 10
-3.281352
 20
-0.824317
 30
0.0
 11
-3.281808
 21
-0.828338
 31
0.0
  0
LINE
  8
0
  6
CONTINUOUS
 62
     7
  5
4F7
 10
-3.281808
 20
-0.828338
 30
0.0
 11
-3.282291
 21
-0.832212
 31
0.0
  0
LINE
  8
0
  6
CONTINUOUS
 62
     7
  5
4F8
 10
-3.282291
 20
-0.832212
 30
0.0
 11
-3.282797
 21
-0.835926
 31
0.0
  0
LINE
  8
0
  6
CONTINUOUS
 62
     7
  5
4F9
 10
-3.282797
 20
-0.835926
 30
0.0
 11
-3.283324
 21
-0.839471
 31
0.0
  0
LINE
  8
0
  6
CONTINUOUS
 62
     7
  5
4FA
 10
-3.283324
 20
-0.839471
 30
0.0
 11
-3.283867
 21
-0.842836
 31
0.0
  0
LINE
  8
0
  6
CONTINUOUS
 62
     7
  5
4FB
 10
-3.283867
 20
-0.842836
 30
0.0
 11
-3.284428
 21
-0.846033
 31
0.0
  0
LINE
  8
0
  6
CONTINUOUS
 62
     7
  5
4FC
 10
-3.284428
 20
-0.846033
 30
0.0
 11
-3.285017
 21
-0.849122
 31
0.0
  0
LINE
  8
0
  6
CONTINUOUS
 62
     7
  5
4FD
 10
-3.285017
 20
-0.849122
 30
0.0
 11
-3.285631
 21
-0.852093
 31
0.0
  0
LINE
  8
0
  6
CONTINUOUS
 62
     7
  5
4FE
 10
-3.285631
 20
-0.852093
 30
0.0
 11
-3.286271
 21
-0.85493
 31
0.0
  0
LINE
  8
0
  6
CONTINUOUS
 62
     7
  5
4FF
 10
-3.286271
 20
-0.85493
 30
0.0
 11
-3.286932
 21
-0.857616
 31
0.0
  0
LINE
  8
0
  6
CONTINUOUS
 62
     7
  5
500
 10
-3.286932
 20
-0.857616
 30
0.0
 11
-3.287613
 21
-0.86014
 31
0.0
  0
LINE
  8
0
  6
CONTINUOUS
 62
     7
  5
501
 10
-3.287613
 20
-0.86014
 30
0.0
 11
-3.288311
 21
-0.862489
 31
0.0
  0
LINE
  8
0
  6
CONTINUOUS
 62
     7
  5
502
 10
-3.288311
 20
-0.862489
 30
0.0
 11
-3.289024
 21
-0.864653
 31
0.0
  0
LINE
  8
0
  6
CONTINUOUS
 62
     7
  5
503
 10
-3.289024
 20
-0.864653
 30
0.0
 11
-3.289748
 21
-0.866623
 31
0.0
  0
LINE
  8
0
  6
CONTINUOUS
 62
     7
  5
504
 10
-3.289748
 20
-0.866623
 30
0.0
 11
-3.290481
 21
-0.868393
 31
0.0
  0
LINE
  8
0
  6
CONTINUOUS
 62
     7
  5
505
 10
-3.290481
 20
-0.868393
 30
0.0
 11
-3.29122
 21
-0.869957
 31
0.0
  0
LINE
  8
0
  6
CONTINUOUS
 62
     7
  5
506
 10
-3.29122
 20
-0.869957
 30
0.0
 11
-3.291963
 21
-0.871312
 31
0.0
  0
LINE
  8
0
  6
CONTINUOUS
 62
     7
  5
507
 10
-3.291963
 20
-0.871312
 30
0.0
 11
-3.292706
 21
-0.872455
 31
0.0
  0
LINE
  8
0
  6
CONTINUOUS
 62
     7
  5
508
 10
-3.292706
 20
-0.872455
 30
0.0
 11
-3.293448
 21
-0.873384
 31
0.0
  0
LINE
  8
0
  6
CONTINUOUS
 62
     7
  5
509
 10
-3.293448
 20
-0.873384
 30
0.0
 11
-3.294184
 21
-0.874099
 31
0.0
  0
LINE
  8
0
  6
CONTINUOUS
 62
     7
  5
50A
 10
-3.294184
 20
-0.874099
 30
0.0
 11
-3.294912
 21
-0.874604
 31
0.0
  0
LINE
  8
0
  6
CONTINUOUS
 62
     7
  5
50B
 10
-3.294912
 20
-0.874604
 30
0.0
 11
-3.295629
 21
-0.874902
 31
0.0
  0
LINE
  8
0
  6
CONTINUOUS
 62
     7
  5
50C
 10
-3.295629
 20
-0.874902
 30
0.0
 11
-3.296333
 21
-0.875
 31
0.0
  0
LINE
  8
0
  6
CONTINUOUS
 62
     7
  5
50D
 10
-3.296333
 20
0.855
 30
0.0
 11
-3.295629
 21
0.854902
 31
0.0
  0
LINE
  8
0
  6
CONTINUOUS
 62
     7
  5
50E
 10
-3.295629
 20
0.854902
 30
0.0
 11
-3.294912
 21
0.854604
 31
0.0
  0
LINE
  8
0
  6
CONTINUOUS
 62
     7
  5
50F
 10
-3.294912
 20
0.854604
 30
0.0
 11
-3.294184
 21
0.854099
 31
0.0
  0
LINE
  8
0
  6
CONTINUOUS
 62
     7
  5
510
 10
-3.294184
 20
0.854099
 30
0.0
 11
-3.293448
 21
0.853384
 31
0.0
  0
LINE
  8
0
  6
CONTINUOUS
 62
     7
  5
511
 10
-3.293448
 20
0.853384
 30
0.0
 11
-3.292706
 21
0.852455
 31
0.0
  0
LINE
  8
0
  6
CONTINUOUS
 62
     7
  5
512
 10
-3.292706
 20
0.852455
 30
0.0
 11
-3.291963
 21
0.851312
 31
0.0
  0
LINE
  8
0
  6
CONTINUOUS
 62
     7
  5
513
 10
-3.291963
 20
0.851312
 30
0.0
 11
-3.29122
 21
0.849957
 31
0.0
  0
LINE
  8
0
  6
CONTINUOUS
 62
     7
  5
514
 10
-3.29122
 20
0.849957
 30
0.0
 11
-3.290481
 21
0.848393
 31
0.0
  0
LINE
  8
0
  6
CONTINUOUS
 62
     7
  5
515
 10
-3.290481
 20
0.848393
 30
0.0
 11
-3.289748
 21
0.846623
 31
0.0
  0
LINE
  8
0
  6
CONTINUOUS
 62
     7
  5
516
 10
-3.289748
 20
0.846623
 30
0.0
 11
-3.289024
 21
0.844653
 31
0.0
  0
LINE
  8
0
  6
CONTINUOUS
 62
     7
  5
517
 10
-3.289024
 20
0.844653
 30
0.0
 11
-3.288311
 21
0.842489
 31
0.0
  0
LINE
  8
0
  6
CONTINUOUS
 62
     7
  5
518
 10
-3.288311
 20
0.842489
 30
0.0
 11
-3.287613
 21
0.84014
 31
0.0
  0
LINE
  8
0
  6
CONTINUOUS
 62
     7
  5
519
 10
-3.287613
 20
0.84014
 30
0.0
 11
-3.286932
 21
0.837616
 31
0.0
  0
LINE
  8
0
  6
CONTINUOUS
 62
     7
  5
51A
 10
-3.286932
 20
0.837616
 30
0.0
 11
-3.286271
 21
0.83493
 31
0.0
  0
LINE
  8
0
  6
CONTINUOUS
 62
     7
  5
51B
 10
-3.286271
 20
0.83493
 30
0.0
 11
-3.285631
 21
0.832093
 31
0.0
  0
LINE
  8
0
  6
CONTINUOUS
 62
     7
  5
51C
 10
-3.285631
 20
0.832093
 30
0.0
 11
-3.285017
 21
0.829122
 31
0.0
  0
LINE
  8
0
  6
CONTINUOUS
 62
     7
  5
51D
 10
-3.285017
 20
0.829122
 30
0.0
 11
-3.284428
 21
0.826033
 31
0.0
  0
LINE
  8
0
  6
CONTINUOUS
 62
     7
  5
51E
 10
-3.284428
 20
0.826033
 30
0.0
 11
-3.283867
 21
0.822836
 31
0.0
  0
LINE
  8
0
  6
CONTINUOUS
 62
     7
  5
51F
 10
-3.283867
 20
0.822836
 30
0.0
 11
-3.283324
 21
0.819471
 31
0.0
  0
LINE
  8
0
  6
CONTINUOUS
 62
     7
  5
520
 10
-3.283324
 20
0.819471
 30
0.0
 11
-3.282797
 21
0.815926
 31
0.0
  0
LINE
  8
0
  6
CONTINUOUS
 62
     7
  5
521
 10
-3.282797
 20
0.815926
 30
0.0
 11
-3.282291
 21
0.812212
 31
0.0
  0
LINE
  8
0
  6
CONTINUOUS
 62
     7
  5
522
 10
-3.282291
 20
0.812212
 30
0.0
 11
-3.281808
 21
0.808338
 31
0.0
  0
LINE
  8
0
  6
CONTINUOUS
 62
     7
  5
523
 10
-3.281808
 20
0.808338
 30
0.0
 11
-3.281352
 21
0.804317
 31
0.0
  0
LINE
  8
0
  6
CONTINUOUS
 62
     7
  5
524
 10
-3.281352
 20
0.804317
 30
0.0
 11
-3.280925
 21
0.800163
 31
0.0
  0
LINE
  8
0
  6
CONTINUOUS
 62
     7
  5
525
 10
-3.280925
 20
0.800163
 30
0.0
 11
-3.28053
 21
0.795889
 31
0.0
  0
LINE
  8
0
  6
CONTINUOUS
 62
     7
  5
526
 10
-3.28053
 20
0.795889
 30
0.0
 11
-3.280169
 21
0.79151
 31
0.0
  0
LINE
  8
0
  6
CONTINUOUS
 62
     7
  5
527
 10
-3.280169
 20
0.79151
 30
0.0
 11
-3.279843
 21
0.78704
 31
0.0
  0
LINE
  8
0
  6
CONTINUOUS
 62
     7
  5
528
 10
-3.279843
 20
0.78704
 30
0.0
 11
-3.279554
 21
0.782494
 31
0.0
  0
LINE
  8
0
  6
CONTINUOUS
 62
     7
  5
529
 10
-3.279554
 20
0.782494
 30
0.0
 11
-3.279303
 21
0.777888
 31
0.0
  0
LINE
  8
0
  6
CONTINUOUS
 62
     7
  5
52A
 10
-3.279303
 20
0.777888
 30
0.0
 11
-3.279091
 21
0.773239
 31
0.0
  0
LINE
  8
0
  6
CONTINUOUS
 62
     7
  5
52B
 10
-3.279091
 20
0.773239
 30
0.0
 11
-3.278918
 21
0.768564
 31
0.0
  0
LINE
  8
0
  6
CONTINUOUS
 62
     7
  5
52C
 10
-3.278918
 20
0.768564
 30
0.0
 11
-3.278784
 21
0.763884
 31
0.0
  0
LINE
  8
0
  6
CONTINUOUS
 62
     7
  5
52D
 10
-3.278784
 20
0.763884
 30
0.0
 11
-3.27869
 21
0.759217
 31
0.0
  0
LINE
  8
0
  6
CONTINUOUS
 62
     7
  5
52E
 10
-3.27869
 20
0.759217
 30
0.0
 11
-3.278634
 21
0.754583
 31
0.0
  0
LINE
  8
0
  6
CONTINUOUS
 62
     7
  5
52F
 10
-3.278634
 20
0.754583
 30
0.0
 11
-3.278616
 21
0.75
 31
0.0
  0
LINE
  8
0
  6
CONTINUOUS
 62
     7
  5
530
 10
-3.296333
 20
0.645
 30
0.0
 11
-3.297731
 21
0.645395
 31
0.0
  0
LINE
  8
0
  6
CONTINUOUS
 62
     7
  5
531
 10
-3.297731
 20
0.645395
 30
0.0
 11
-3.299127
 21
0.646613
 31
0.0
  0
LINE
  8
0
  6
CONTINUOUS
 62
     7
  5
532
 10
-3.299127
 20
0.646613
 30
0.0
 11
-3.3005
 21
0.648683
 31
0.0
  0
LINE
  8
0
  6
CONTINUOUS
 62
     7
  5
533
 10
-3.3005
 20
0.648683
 30
0.0
 11
-3.301829
 21
0.651602
 31
0.0
  0
LINE
  8
0
  6
CONTINUOUS
 62
     7
  5
534
 10
-3.301829
 20
0.651602
 30
0.0
 11
-3.303096
 21
0.655344
 31
0.0
  0
LINE
  8
0
  6
CONTINUOUS
 62
     7
  5
535
 10
-3.303096
 20
0.655344
 30
0.0
 11
-3.304287
 21
0.659861
 31
0.0
  0
LINE
  8
0
  6
CONTINUOUS
 62
     7
  5
536
 10
-3.304287
 20
0.659861
 30
0.0
 11
-3.30539
 21
0.665078
 31
0.0
  0
LINE
  8
0
  6
CONTINUOUS
 62
     7
  5
537
 10
-3.30539
 20
0.665078
 30
0.0
 11
-3.306394
 21
0.670892
 31
0.0
  0
LINE
  8
0
  6
CONTINUOUS
 62
     7
  5
538
 10
-3.306394
 20
0.670892
 30
0.0
 11
-3.307291
 21
0.677187
 31
0.0
  0
LINE
  8
0
  6
CONTINUOUS
 62
     7
  5
539
 10
-3.307291
 20
0.677187
 30
0.0
 11
-3.308109
 21
0.684107
 31
0.0
  0
LINE
  8
0
  6
CONTINUOUS
 62
     7
  5
53A
 10
-3.308109
 20
0.684107
 30
0.0
 11
-3.308848
 21
0.691703
 31
0.0
  0
LINE
  8
0
  6
CONTINUOUS
 62
     7
  5
53B
 10
-3.308848
 20
0.691703
 30
0.0
 11
-3.309496
 21
0.699882
 31
0.0
  0
LINE
  8
0
  6
CONTINUOUS
 62
     7
  5
53C
 10
-3.309496
 20
0.699882
 30
0.0
 11
-3.310042
 21
0.708535
 31
0.0
  0
LINE
  8
0
  6
CONTINUOUS
 62
     7
  5
53D
 10
-3.310042
 20
0.708535
 30
0.0
 11
-3.31048
 21
0.717547
 31
0.0
  0
LINE
  8
0
  6
CONTINUOUS
 62
     7
  5
53E
 10
-3.31048
 20
0.717547
 30
0.0
 11
-3.310806
 21
0.726795
 31
0.0
  0
LINE
  8
0
  6
CONTINUOUS
 62
     7
  5
53F
 10
-3.310806
 20
0.726795
 30
0.0
 11
-3.31102
 21
0.736138
 31
0.0
  0
LINE
  8
0
  6
CONTINUOUS
 62
     7
  5
540
 10
-3.31102
 20
0.736138
 30
0.0
 11
-3.311125
 21
0.745425
 31
0.0
  0
LINE
  8
0
  6
CONTINUOUS
 62
     7
  5
541
 10
-3.311125
 20
0.745425
 30
0.0
 11
-3.311125
 21
0.754575
 31
0.0
  0
LINE
  8
0
  6
CONTINUOUS
 62
     7
  5
542
 10
-3.311125
 20
0.754575
 30
0.0
 11
-3.31102
 21
0.763862
 31
0.0
  0
LINE
  8
0
  6
CONTINUOUS
 62
     7
  5
543
 10
-3.31102
 20
0.763862
 30
0.0
 11
-3.310806
 21
0.773205
 31
0.0
  0
LINE
  8
0
  6
CONTINUOUS
 62
     7
  5
544
 10
-3.310806
 20
0.773205
 30
0.0
 11
-3.31048
 21
0.782453
 31
0.0
  0
LINE
  8
0
  6
CONTINUOUS
 62
     7
  5
545
 10
-3.31048
 20
0.782453
 30
0.0
 11
-3.310042
 21
0.791465
 31
0.0
  0
LINE
  8
0
  6
CONTINUOUS
 62
     7
  5
546
 10
-3.310042
 20
0.791465
 30
0.0
 11
-3.309496
 21
0.800118
 31
0.0
  0
LINE
  8
0
  6
CONTINUOUS
 62
     7
  5
547
 10
-3.309496
 20
0.800118
 30
0.0
 11
-3.308848
 21
0.808297
 31
0.0
  0
LINE
  8
0
  6
CONTINUOUS
 62
     7
  5
548
 10
-3.308848
 20
0.808297
 30
0.0
 11
-3.308109
 21
0.815893
 31
0.0
  0
LINE
  8
0
  6
CONTINUOUS
 62
     7
  5
549
 10
-3.308109
 20
0.815893
 30
0.0
 11
-3.307291
 21
0.822813
 31
0.0
  0
LINE
  8
0
  6
CONTINUOUS
 62
     7
  5
54A
 10
-3.307291
 20
0.822813
 30
0.0
 11
-3.306394
 21
0.829108
 31
0.0
  0
LINE
  8
0
  6
CONTINUOUS
 62
     7
  5
54B
 10
-3.306394
 20
0.829108
 30
0.0
 11
-3.30539
 21
0.834922
 31
0.0
  0
LINE
  8
0
  6
CONTINUOUS
 62
     7
  5
54C
 10
-3.30539
 20
0.834922
 30
0.0
 11
-3.304287
 21
0.840139
 31
0.0
  0
LINE
  8
0
  6
CONTINUOUS
 62
     7
  5
54D
 10
-3.304287
 20
0.840139
 30
0.0
 11
-3.303096
 21
0.844656
 31
0.0
  0
LINE
  8
0
  6
CONTINUOUS
 62
     7
  5
54E
 10
-3.303096
 20
0.844656
 30
0.0
 11
-3.301829
 21
0.848398
 31
0.0
  0
LINE
  8
0
  6
CONTINUOUS
 62
     7
  5
54F
 10
-3.301829
 20
0.848398
 30
0.0
 11
-3.3005
 21
0.851317
 31
0.0
  0
LINE
  8
0
  6
CONTINUOUS
 62
     7
  5
550
 10
-3.3005
 20
0.851317
 30
0.0
 11
-3.299127
 21
0.853387
 31
0.0
  0
LINE
  8
0
  6
CONTINUOUS
 62
     7
  5
551
 10
-3.299127
 20
0.853387
 30
0.0
 11
-3.297731
 21
0.854605
 31
0.0
  0
LINE
  8
0
  6
CONTINUOUS
 62
     7
  5
552
 10
-3.297731
 20
0.854605
 30
0.0
 11
-3.296333
 21
0.855
 31
0.0
  0
LINE
  8
0
  6
CONTINUOUS
 62
     7
  5
553
 10
-3.278616
 20
0.75
 30
0.0
 11
-3.278634
 21
0.745417
 31
0.0
  0
LINE
  8
0
  6
CONTINUOUS
 62
     7
  5
554
 10
-3.278634
 20
0.745417
 30
0.0
 11
-3.27869
 21
0.740783
 31
0.0
  0
LINE
  8
0
  6
CONTINUOUS
 62
     7
  5
555
 10
-3.27869
 20
0.740783
 30
0.0
 11
-3.278784
 21
0.736116
 31
0.0
  0
LINE
  8
0
  6
CONTINUOUS
 62
     7
  5
556
 10
-3.278784
 20
0.736116
 30
0.0
 11
-3.278918
 21
0.731436
 31
0.0
  0
LINE
  8
0
  6
CONTINUOUS
 62
     7
  5
557
 10
-3.278918
 20
0.731436
 30
0.0
 11
-3.279091
 21
0.726761
 31
0.0
  0
LINE
  8
0
  6
CONTINUOUS
 62
     7
  5
558
 10
-3.279091
 20
0.726761
 30
0.0
 11
-3.279303
 21
0.722112
 31
0.0
  0
LINE
  8
0
  6
CONTINUOUS
 62
     7
  5
559
 10
-3.279303
 20
0.722112
 30
0.0
 11
-3.279554
 21
0.717506
 31
0.0
  0
LINE
  8
0
  6
CONTINUOUS
 62
     7
  5
55A
 10
-3.279554
 20
0.717506
 30
0.0
 11
-3.279843
 21
0.71296
 31
0.0
  0
LINE
  8
0
  6
CONTINUOUS
 62
     7
  5
55B
 10
-3.279843
 20
0.71296
 30
0.0
 11
-3.280169
 21
0.70849
 31
0.0
  0
LINE
  8
0
  6
CONTINUOUS
 62
     7
  5
55C
 10
-3.280169
 20
0.70849
 30
0.0
 11
-3.28053
 21
0.704111
 31
0.0
  0
LINE
  8
0
  6
CONTINUOUS
 62
     7
  5
55D
 10
-3.28053
 20
0.704111
 30
0.0
 11
-3.280925
 21
0.699837
 31
0.0
  0
LINE
  8
0
  6
CONTINUOUS
 62
     7
  5
55E
 10
-3.280925
 20
0.699837
 30
0.0
 11
-3.281352
 21
0.695683
 31
0.0
  0
LINE
  8
0
  6
CONTINUOUS
 62
     7
  5
55F
 10
-3.281352
 20
0.695683
 30
0.0
 11
-3.281808
 21
0.691662
 31
0.0
  0
LINE
  8
0
  6
CONTINUOUS
 62
     7
  5
560
 10
-3.281808
 20
0.691662
 30
0.0
 11
-3.282291
 21
0.687788
 31
0.0
  0
LINE
  8
0
  6
CONTINUOUS
 62
     7
  5
561
 10
-3.282291
 20
0.687788
 30
0.0
 11
-3.282797
 21
0.684074
 31
0.0
  0
LINE
  8
0
  6
CONTINUOUS
 62
     7
  5
562
 10
-3.282797
 20
0.684074
 30
0.0
 11
-3.283324
 21
0.680529
 31
0.0
  0
LINE
  8
0
  6
CONTINUOUS
 62
     7
  5
563
 10
-3.283324
 20
0.680529
 30
0.0
 11
-3.283867
 21
0.677164
 31
0.0
  0
LINE
  8
0
  6
CONTINUOUS
 62
     7
  5
564
 10
-3.283867
 20
0.677164
 30
0.0
 11
-3.284428
 21
0.673967
 31
0.0
  0
LINE
  8
0
  6
CONTINUOUS
 62
     7
  5
565
 10
-3.284428
 20
0.673967
 30
0.0
 11
-3.285017
 21
0.670878
 31
0.0
  0
LINE
  8
0
  6
CONTINUOUS
 62
     7
  5
566
 10
-3.285017
 20
0.670878
 30
0.0
 11
-3.285631
 21
0.667907
 31
0.0
  0
LINE
  8
0
  6
CONTINUOUS
 62
     7
  5
567
 10
-3.285631
 20
0.667907
 30
0.0
 11
-3.286271
 21
0.66507
 31
0.0
  0
LINE
  8
0
  6
CONTINUOUS
 62
     7
  5
568
 10
-3.286271
 20
0.66507
 30
0.0
 11
-3.286932
 21
0.662384
 31
0.0
  0
LINE
  8
0
  6
CONTINUOUS
 62
     7
  5
569
 10
-3.286932
 20
0.662384
 30
0.0
 11
-3.287613
 21
0.65986
 31
0.0
  0
LINE
  8
0
  6
CONTINUOUS
 62
     7
  5
56A
 10
-3.287613
 20
0.65986
 30
0.0
 11
-3.288311
 21
0.657511
 31
0.0
  0
LINE
  8
0
  6
CONTINUOUS
 62
     7
  5
56B
 10
-3.288311
 20
0.657511
 30
0.0
 11
-3.289024
 21
0.655347
 31
0.0
  0
LINE
  8
0
  6
CONTINUOUS
 62
     7
  5
56C
 10
-3.289024
 20
0.655347
 30
0.0
 11
-3.289748
 21
0.653377
 31
0.0
  0
LINE
  8
0
  6
CONTINUOUS
 62
     7
  5
56D
 10
-3.289748
 20
0.653377
 30
0.0
 11
-3.290481
 21
0.651607
 31
0.0
  0
LINE
  8
0
  6
CONTINUOUS
 62
     7
  5
56E
 10
-3.290481
 20
0.651607
 30
0.0
 11
-3.29122
 21
0.650043
 31
0.0
  0
LINE
  8
0
  6
CONTINUOUS
 62
     7
  5
56F
 10
-3.29122
 20
0.650043
 30
0.0
 11
-3.291963
 21
0.648688
 31
0.0
  0
LINE
  8
0
  6
CONTINUOUS
 62
     7
  5
570
 10
-3.291963
 20
0.648688
 30
0.0
 11
-3.292706
 21
0.647545
 31
0.0
  0
LINE
  8
0
  6
CONTINUOUS
 62
     7
  5
571
 10
-3.292706
 20
0.647545
 30
0.0
 11
-3.293448
 21
0.646616
 31
0.0
  0
LINE
  8
0
  6
CONTINUOUS
 62
     7
  5
572
 10
-3.293448
 20
0.646616
 30
0.0
 11
-3.294184
 21
0.645901
 31
0.0
  0
LINE
  8
0
  6
CONTINUOUS
 62
     7
  5
573
 10
-3.294184
 20
0.645901
 30
0.0
 11
-3.294912
 21
0.645396
 31
0.0
  0
LINE
  8
0
  6
CONTINUOUS
 62
     7
  5
574
 10
-3.294912
 20
0.645396
 30
0.0
 11
-3.295629
 21
0.645098
 31
0.0
  0
LINE
  8
0
  6
CONTINUOUS
 62
     7
  5
575
 10
-3.295629
 20
0.645098
 30
0.0
 11
-3.296333
 21
0.645
 31
0.0
  0
LINE
  8
0
  6
CONTINUOUS
 62
     7
  5
576
 10
-2.738744
 20
-1.1156
 30
0.0
 11
-2.737759
 21
-1.115749
 31
0.0
  0
LINE
  8
0
  6
CONTINUOUS
 62
     7
  5
577
 10
-2.737759
 20
-1.115749
 30
0.0
 11
-2.73675
 21
-1.116205
 31
0.0
  0
LINE
  8
0
  6
CONTINUOUS
 62
     7
  5
578
 10
-2.73675
 20
-1.116205
 30
0.0
 11
-2.735721
 21
-1.116976
 31
0.0
  0
LINE
  8
0
  6
CONTINUOUS
 62
     7
  5
579
 10
-2.735721
 20
-1.116976
 30
0.0
 11
-2.734675
 21
-1.118069
 31
0.0
  0
LINE
  8
0
  6
CONTINUOUS
 62
     7
  5
57A
 10
-2.734675
 20
-1.118069
 30
0.0
 11
-2.733618
 21
-1.119487
 31
0.0
  0
LINE
  8
0
  6
CONTINUOUS
 62
     7
  5
57B
 10
-2.733618
 20
-1.119487
 30
0.0
 11
-2.732552
 21
-1.121231
 31
0.0
  0
LINE
  8
0
  6
CONTINUOUS
 62
     7
  5
57C
 10
-2.732552
 20
-1.121231
 30
0.0
 11
-2.731482
 21
-1.123299
 31
0.0
  0
LINE
  8
0
  6
CONTINUOUS
 62
     7
  5
57D
 10
-2.731482
 20
-1.123299
 30
0.0
 11
-2.730414
 21
-1.125687
 31
0.0
  0
LINE
  8
0
  6
CONTINUOUS
 62
     7
  5
57E
 10
-2.730414
 20
-1.125687
 30
0.0
 11
-2.729349
 21
-1.128388
 31
0.0
  0
LINE
  8
0
  6
CONTINUOUS
 62
     7
  5
57F
 10
-2.729349
 20
-1.128388
 30
0.0
 11
-2.728294
 21
-1.131393
 31
0.0
  0
LINE
  8
0
  6
CONTINUOUS
 62
     7
  5
580
 10
-2.728294
 20
-1.131393
 30
0.0
 11
-2.727251
 21
-1.134694
 31
0.0
  0
LINE
  8
0
  6
CONTINUOUS
 62
     7
  5
581
 10
-2.727251
 20
-1.134694
 30
0.0
 11
-2.726226
 21
-1.138276
 31
0.0
  0
LINE
  8
0
  6
CONTINUOUS
 62
     7
  5
582
 10
-2.726226
 20
-1.138276
 30
0.0
 11
-2.725222
 21
-1.142125
 31
0.0
  0
LINE
  8
0
  6
CONTINUOUS
 62
     7
  5
583
 10
-2.725222
 20
-1.142125
 30
0.0
 11
-2.724243
 21
-1.146222
 31
0.0
  0
LINE
  8
0
  6
CONTINUOUS
 62
     7
  5
584
 10
-2.724243
 20
-1.146222
 30
0.0
 11
-2.723295
 21
-1.150546
 31
0.0
  0
LINE
  8
0
  6
CONTINUOUS
 62
     7
  5
585
 10
-2.723295
 20
-1.150546
 30
0.0
 11
-2.72238
 21
-1.155074
 31
0.0
  0
LINE
  8
0
  6
CONTINUOUS
 62
     7
  5
586
 10
-2.72238
 20
-1.155074
 30
0.0
 11
-2.721502
 21
-1.159781
 31
0.0
  0
LINE
  8
0
  6
CONTINUOUS
 62
     7
  5
587
 10
-2.721502
 20
-1.159781
 30
0.0
 11
-2.720662
 21
-1.164654
 31
0.0
  0
LINE
  8
0
  6
CONTINUOUS
 62
     7
  5
588
 10
-2.720662
 20
-1.164654
 30
0.0
 11
-2.719846
 21
-1.169783
 31
0.0
  0
LINE
  8
0
  6
CONTINUOUS
 62
     7
  5
589
 10
-2.719846
 20
-1.169783
 30
0.0
 11
-2.719053
 21
-1.175184
 31
0.0
  0
LINE
  8
0
  6
CONTINUOUS
 62
     7
  5
58A
 10
-2.719053
 20
-1.175184
 30
0.0
 11
-2.71829
 21
-1.180844
 31
0.0
  0
LINE
  8
0
  6
CONTINUOUS
 62
     7
  5
58B
 10
-2.71829
 20
-1.180844
 30
0.0
 11
-2.717561
 21
-1.186746
 31
0.0
  0
LINE
  8
0
  6
CONTINUOUS
 62
     7
  5
58C
 10
-2.717561
 20
-1.186746
 30
0.0
 11
-2.71687
 21
-1.192872
 31
0.0
  0
LINE
  8
0
  6
CONTINUOUS
 62
     7
  5
58D
 10
-2.71687
 20
-1.192872
 30
0.0
 11
-2.716223
 21
-1.199201
 31
0.0
  0
LINE
  8
0
  6
CONTINUOUS
 62
     7
  5
58E
 10
-2.716223
 20
-1.199201
 30
0.0
 11
-2.715623
 21
-1.205711
 31
0.0
  0
LINE
  8
0
  6
CONTINUOUS
 62
     7
  5
58F
 10
-2.715623
 20
-1.205711
 30
0.0
 11
-2.715073
 21
-1.212381
 31
0.0
  0
LINE
  8
0
  6
CONTINUOUS
 62
     7
  5
590
 10
-2.715073
 20
-1.212381
 30
0.0
 11
-2.714576
 21
-1.219188
 31
0.0
  0
LINE
  8
0
  6
CONTINUOUS
 62
     7
  5
591
 10
-2.714576
 20
-1.219188
 30
0.0
 11
-2.714135
 21
-1.226112
 31
0.0
  0
LINE
  8
0
  6
CONTINUOUS
 62
     7
  5
592
 10
-2.714135
 20
-1.226112
 30
0.0
 11
-2.713751
 21
-1.233127
 31
0.0
  0
LINE
  8
0
  6
CONTINUOUS
 62
     7
  5
593
 10
-2.713751
 20
-1.233127
 30
0.0
 11
-2.713426
 21
-1.240209
 31
0.0
  0
LINE
  8
0
  6
CONTINUOUS
 62
     7
  5
594
 10
-2.713426
 20
-1.240209
 30
0.0
 11
-2.713162
 21
-1.247328
 31
0.0
  0
LINE
  8
0
  6
CONTINUOUS
 62
     7
  5
595
 10
-2.713162
 20
-1.247328
 30
0.0
 11
-2.712957
 21
-1.254455
 31
0.0
  0
LINE
  8
0
  6
CONTINUOUS
 62
     7
  5
596
 10
-2.712957
 20
-1.254455
 30
0.0
 11
-2.712812
 21
-1.261563
 31
0.0
  0
LINE
  8
0
  6
CONTINUOUS
 62
     7
  5
597
 10
-2.712812
 20
-1.261563
 30
0.0
 11
-2.712727
 21
-1.26862
 31
0.0
  0
LINE
  8
0
  6
CONTINUOUS
 62
     7
  5
598
 10
-2.712727
 20
-1.26862
 30
0.0
 11
-2.712699
 21
-1.2756
 31
0.0
  0
LINE
  8
0
  6
CONTINUOUS
 62
     7
  5
599
 10
-2.738744
 20
-1.4356
 30
0.0
 11
-2.740684
 21
-1.434997
 31
0.0
  0
LINE
  8
0
  6
CONTINUOUS
 62
     7
  5
59A
 10
-2.740684
 20
-1.434997
 30
0.0
 11
-2.742602
 21
-1.433138
 31
0.0
  0
LINE
  8
0
  6
CONTINUOUS
 62
     7
  5
59B
 10
-2.742602
 20
-1.433138
 30
0.0
 11
-2.744466
 21
-1.429979
 31
0.0
  0
LINE
  8
0
  6
CONTINUOUS
 62
     7
  5
59C
 10
-2.744466
 20
-1.429979
 30
0.0
 11
-2.74625
 21
-1.425522
 31
0.0
  0
LINE
  8
0
  6
CONTINUOUS
 62
     7
  5
59D
 10
-2.74625
 20
-1.425522
 30
0.0
 11
-2.747931
 21
-1.41981
 31
0.0
  0
LINE
  8
0
  6
CONTINUOUS
 62
     7
  5
59E
 10
-2.747931
 20
-1.41981
 30
0.0
 11
-2.749492
 21
-1.412917
 31
0.0
  0
LINE
  8
0
  6
CONTINUOUS
 62
     7
  5
59F
 10
-2.749492
 20
-1.412917
 30
0.0
 11
-2.75092
 21
-1.404958
 31
0.0
  0
LINE
  8
0
  6
CONTINUOUS
 62
     7
  5
5A0
 10
-2.75092
 20
-1.404958
 30
0.0
 11
-2.752204
 21
-1.396091
 31
0.0
  0
LINE
  8
0
  6
CONTINUOUS
 62
     7
  5
5A1
 10
-2.752204
 20
-1.396091
 30
0.0
 11
-2.753339
 21
-1.386495
 31
0.0
  0
LINE
  8
0
  6
CONTINUOUS
 62
     7
  5
5A2
 10
-2.753339
 20
-1.386495
 30
0.0
 11
-2.754364
 21
-1.37594
 31
0.0
  0
LINE
  8
0
  6
CONTINUOUS
 62
     7
  5
5A3
 10
-2.754364
 20
-1.37594
 30
0.0
 11
-2.755282
 21
-1.36436
 31
0.0
  0
LINE
  8
0
  6
CONTINUOUS
 62
     7
  5
5A4
 10
-2.755282
 20
-1.36436
 30
0.0
 11
-2.756078
 21
-1.351896
 31
0.0
  0
LINE
  8
0
  6
CONTINUOUS
 62
     7
  5
5A5
 10
-2.756078
 20
-1.351896
 30
0.0
 11
-2.756743
 21
-1.338717
 31
0.0
  0
LINE
  8
0
  6
CONTINUOUS
 62
     7
  5
5A6
 10
-2.756743
 20
-1.338717
 30
0.0
 11
-2.757272
 21
-1.324995
 31
0.0
  0
LINE
  8
0
  6
CONTINUOUS
 62
     7
  5
5A7
 10
-2.757272
 20
-1.324995
 30
0.0
 11
-2.757665
 21
-1.310917
 31
0.0
  0
LINE
  8
0
  6
CONTINUOUS
 62
     7
  5
5A8
 10
-2.757665
 20
-1.310917
 30
0.0
 11
-2.757921
 21
-1.296696
 31
0.0
  0
LINE
  8
0
  6
CONTINUOUS
 62
     7
  5
5A9
 10
-2.757921
 20
-1.296696
 30
0.0
 11
-2.758046
 21
-1.282563
 31
0.0
  0
LINE
  8
0
  6
CONTINUOUS
 62
     7
  5
5AA
 10
-2.758046
 20
-1.282563
 30
0.0
 11
-2.758046
 21
-1.268637
 31
0.0
  0
LINE
  8
0
  6
CONTINUOUS
 62
     7
  5
5AB
 10
-2.758046
 20
-1.268637
 30
0.0
 11
-2.757921
 21
-1.254502
 31
0.0
  0
LINE
  8
0
  6
CONTINUOUS
 62
     7
  5
5AC
 10
-2.757921
 20
-1.254502
 30
0.0
 11
-2.757665
 21
-1.24028
 31
0.0
  0
LINE
  8
0
  6
CONTINUOUS
 62
     7
  5
5AD
 10
-2.757665
 20
-1.24028
 30
0.0
 11
-2.757272
 21
-1.226199
 31
0.0
  0
LINE
  8
0
  6
CONTINUOUS
 62
     7
  5
5AE
 10
-2.757272
 20
-1.226199
 30
0.0
 11
-2.756742
 21
-1.212476
 31
0.0
  0
LINE
  8
0
  6
CONTINUOUS
 62
     7
  5
5AF
 10
-2.756742
 20
-1.212476
 30
0.0
 11
-2.756077
 21
-1.199296
 31
0.0
  0
LINE
  8
0
  6
CONTINUOUS
 62
     7
  5
5B0
 10
-2.756077
 20
-1.199296
 30
0.0
 11
-2.755281
 21
-1.186833
 31
0.0
  0
LINE
  8
0
  6
CONTINUOUS
 62
     7
  5
5B1
 10
-2.755281
 20
-1.186833
 30
0.0
 11
-2.754364
 21
-1.175255
 31
0.0
  0
LINE
  8
0
  6
CONTINUOUS
 62
     7
  5
5B2
 10
-2.754364
 20
-1.175255
 30
0.0
 11
-2.753339
 21
-1.164703
 31
0.0
  0
LINE
  8
0
  6
CONTINUOUS
 62
     7
  5
5B3
 10
-2.753339
 20
-1.164703
 30
0.0
 11
-2.752203
 21
-1.155105
 31
0.0
  0
LINE
  8
0
  6
CONTINUOUS
 62
     7
  5
5B4
 10
-2.752203
 20
-1.155105
 30
0.0
 11
-2.750919
 21
-1.146237
 31
0.0
  0
LINE
  8
0
  6
CONTINUOUS
 62
     7
  5
5B5
 10
-2.750919
 20
-1.146237
 30
0.0
 11
-2.749491
 21
-1.138278
 31
0.0
  0
LINE
  8
0
  6
CONTINUOUS
 62
     7
  5
5B6
 10
-2.749491
 20
-1.138278
 30
0.0
 11
-2.74793
 21
-1.131386
 31
0.0
  0
LINE
  8
0
  6
CONTINUOUS
 62
     7
  5
5B7
 10
-2.74793
 20
-1.131386
 30
0.0
 11
-2.746249
 21
-1.125676
 31
0.0
  0
LINE
  8
0
  6
CONTINUOUS
 62
     7
  5
5B8
 10
-2.746249
 20
-1.125676
 30
0.0
 11
-2.744466
 21
-1.12122
 31
0.0
  0
LINE
  8
0
  6
CONTINUOUS
 62
     7
  5
5B9
 10
-2.744466
 20
-1.12122
 30
0.0
 11
-2.742601
 21
-1.118062
 31
0.0
  0
LINE
  8
0
  6
CONTINUOUS
 62
     7
  5
5BA
 10
-2.742601
 20
-1.118062
 30
0.0
 11
-2.740683
 21
-1.116202
 31
0.0
  0
LINE
  8
0
  6
CONTINUOUS
 62
     7
  5
5BB
 10
-2.740683
 20
-1.116202
 30
0.0
 11
-2.738744
 21
-1.1156
 31
0.0
  0
LINE
  8
0
  6
CONTINUOUS
 62
     7
  5
5BC
 10
-2.712699
 20
-1.2756
 30
0.0
 11
-2.712727
 21
-1.28258
 31
0.0
  0
LINE
  8
0
  6
CONTINUOUS
 62
     7
  5
5BD
 10
-2.712727
 20
-1.28258
 30
0.0
 11
-2.712812
 21
-1.289636
 31
0.0
  0
LINE
  8
0
  6
CONTINUOUS
 62
     7
  5
5BE
 10
-2.712812
 20
-1.289636
 30
0.0
 11
-2.712957
 21
-1.296742
 31
0.0
  0
LINE
  8
0
  6
CONTINUOUS
 62
     7
  5
5BF
 10
-2.712957
 20
-1.296742
 30
0.0
 11
-2.713161
 21
-1.303868
 31
0.0
  0
LINE
  8
0
  6
CONTINUOUS
 62
     7
  5
5C0
 10
-2.713161
 20
-1.303868
 30
0.0
 11
-2.713426
 21
-1.310985
 31
0.0
  0
LINE
  8
0
  6
CONTINUOUS
 62
     7
  5
5C1
 10
-2.713426
 20
-1.310985
 30
0.0
 11
-2.713751
 21
-1.318065
 31
0.0
  0
LINE
  8
0
  6
CONTINUOUS
 62
     7
  5
5C2
 10
-2.713751
 20
-1.318065
 30
0.0
 11
-2.714134
 21
-1.325078
 31
0.0
  0
LINE
  8
0
  6
CONTINUOUS
 62
     7
  5
5C3
 10
-2.714134
 20
-1.325078
 30
0.0
 11
-2.714575
 21
-1.332
 31
0.0
  0
LINE
  8
0
  6
CONTINUOUS
 62
     7
  5
5C4
 10
-2.714575
 20
-1.332
 30
0.0
 11
-2.715072
 21
-1.338807
 31
0.0
  0
LINE
  8
0
  6
CONTINUOUS
 62
     7
  5
5C5
 10
-2.715072
 20
-1.338807
 30
0.0
 11
-2.715621
 21
-1.345475
 31
0.0
  0
LINE
  8
0
  6
CONTINUOUS
 62
     7
  5
5C6
 10
-2.715621
 20
-1.345475
 30
0.0
 11
-2.716221
 21
-1.351985
 31
0.0
  0
LINE
  8
0
  6
CONTINUOUS
 62
     7
  5
5C7
 10
-2.716221
 20
-1.351985
 30
0.0
 11
-2.716869
 21
-1.358314
 31
0.0
  0
LINE
  8
0
  6
CONTINUOUS
 62
     7
  5
5C8
 10
-2.716869
 20
-1.358314
 30
0.0
 11
-2.717559
 21
-1.36444
 31
0.0
  0
LINE
  8
0
  6
CONTINUOUS
 62
     7
  5
5C9
 10
-2.717559
 20
-1.36444
 30
0.0
 11
-2.718288
 21
-1.370344
 31
0.0
  0
LINE
  8
0
  6
CONTINUOUS
 62
     7
  5
5CA
 10
-2.718288
 20
-1.370344
 30
0.0
 11
-2.719052
 21
-1.376006
 31
0.0
  0
LINE
  8
0
  6
CONTINUOUS
 62
     7
  5
5CB
 10
-2.719052
 20
-1.376006
 30
0.0
 11
-2.719845
 21
-1.38141
 31
0.0
  0
LINE
  8
0
  6
CONTINUOUS
 62
     7
  5
5CC
 10
-2.719845
 20
-1.38141
 30
0.0
 11
-2.720662
 21
-1.386543
 31
0.0
  0
LINE
  8
0
  6
CONTINUOUS
 62
     7
  5
5CD
 10
-2.720662
 20
-1.386543
 30
0.0
 11
-2.721501
 21
-1.391415
 31
0.0
  0
LINE
  8
0
  6
CONTINUOUS
 62
     7
  5
5CE
 10
-2.721501
 20
-1.391415
 30
0.0
 11
-2.722378
 21
-1.39612
 31
0.0
  0
LINE
  8
0
  6
CONTINUOUS
 62
     7
  5
5CF
 10
-2.722378
 20
-1.39612
 30
0.0
 11
-2.723293
 21
-1.400646
 31
0.0
  0
LINE
  8
0
  6
CONTINUOUS
 62
     7
  5
5D0
 10
-2.723293
 20
-1.400646
 30
0.0
 11
-2.724241
 21
-1.404969
 31
0.0
  0
LINE
  8
0
  6
CONTINUOUS
 62
     7
  5
5D1
 10
-2.724241
 20
-1.404969
 30
0.0
 11
-2.72522
 21
-1.409066
 31
0.0
  0
LINE
  8
0
  6
CONTINUOUS
 62
     7
  5
5D2
 10
-2.72522
 20
-1.409066
 30
0.0
 11
-2.726224
 21
-1.412915
 31
0.0
  0
LINE
  8
0
  6
CONTINUOUS
 62
     7
  5
5D3
 10
-2.726224
 20
-1.412915
 30
0.0
 11
-2.727249
 21
-1.416498
 31
0.0
  0
LINE
  8
0
  6
CONTINUOUS
 62
     7
  5
5D4
 10
-2.727249
 20
-1.416498
 30
0.0
 11
-2.728292
 21
-1.4198
 31
0.0
  0
LINE
  8
0
  6
CONTINUOUS
 62
     7
  5
5D5
 10
-2.728292
 20
-1.4198
 30
0.0
 11
-2.729347
 21
-1.422807
 31
0.0
  0
LINE
  8
0
  6
CONTINUOUS
 62
     7
  5
5D6
 10
-2.729347
 20
-1.422807
 30
0.0
 11
-2.730412
 21
-1.425509
 31
0.0
  0
LINE
  8
0
  6
CONTINUOUS
 62
     7
  5
5D7
 10
-2.730412
 20
-1.425509
 30
0.0
 11
-2.731481
 21
-1.427898
 31
0.0
  0
LINE
  8
0
  6
CONTINUOUS
 62
     7
  5
5D8
 10
-2.731481
 20
-1.427898
 30
0.0
 11
-2.732551
 21
-1.429967
 31
0.0
  0
LINE
  8
0
  6
CONTINUOUS
 62
     7
  5
5D9
 10
-2.732551
 20
-1.429967
 30
0.0
 11
-2.733617
 21
-1.431712
 31
0.0
  0
LINE
  8
0
  6
CONTINUOUS
 62
     7
  5
5DA
 10
-2.733617
 20
-1.431712
 30
0.0
 11
-2.734675
 21
-1.433131
 31
0.0
  0
LINE
  8
0
  6
CONTINUOUS
 62
     7
  5
5DB
 10
-2.734675
 20
-1.433131
 30
0.0
 11
-2.735721
 21
-1.434224
 31
0.0
  0
LINE
  8
0
  6
CONTINUOUS
 62
     7
  5
5DC
 10
-2.735721
 20
-1.434224
 30
0.0
 11
-2.73675
 21
-1.434995
 31
0.0
  0
LINE
  8
0
  6
CONTINUOUS
 62
     7
  5
5DD
 10
-2.73675
 20
-1.434995
 30
0.0
 11
-2.737759
 21
-1.435451
 31
0.0
  0
LINE
  8
0
  6
CONTINUOUS
 62
     7
  5
5DE
 10
-2.737759
 20
-1.435451
 30
0.0
 11
-2.738744
 21
-1.4356
 31
0.0
  0
LINE
  8
0
  6
CONTINUOUS
 62
     7
  5
5DF
 10
-2.738744
 20
1.4356
 30
0.0
 11
-2.737759
 21
1.435451
 31
0.0
  0
LINE
  8
0
  6
CONTINUOUS
 62
     7
  5
5E0
 10
-2.737759
 20
1.435451
 30
0.0
 11
-2.73675
 21
1.434995
 31
0.0
  0
LINE
  8
0
  6
CONTINUOUS
 62
     7
  5
5E1
 10
-2.73675
 20
1.434995
 30
0.0
 11
-2.735721
 21
1.434224
 31
0.0
  0
LINE
  8
0
  6
CONTINUOUS
 62
     7
  5
5E2
 10
-2.735721
 20
1.434224
 30
0.0
 11
-2.734675
 21
1.433131
 31
0.0
  0
LINE
  8
0
  6
CONTINUOUS
 62
     7
  5
5E3
 10
-2.734675
 20
1.433131
 30
0.0
 11
-2.733618
 21
1.431713
 31
0.0
  0
LINE
  8
0
  6
CONTINUOUS
 62
     7
  5
5E4
 10
-2.733618
 20
1.431713
 30
0.0
 11
-2.732552
 21
1.429969
 31
0.0
  0
LINE
  8
0
  6
CONTINUOUS
 62
     7
  5
5E5
 10
-2.732552
 20
1.429969
 30
0.0
 11
-2.731482
 21
1.427901
 31
0.0
  0
LINE
  8
0
  6
CONTINUOUS
 62
     7
  5
5E6
 10
-2.731482
 20
1.427901
 30
0.0
 11
-2.730414
 21
1.425513
 31
0.0
  0
LINE
  8
0
  6
CONTINUOUS
 62
     7
  5
5E7
 10
-2.730414
 20
1.425513
 30
0.0
 11
-2.729349
 21
1.422812
 31
0.0
  0
LINE
  8
0
  6
CONTINUOUS
 62
     7
  5
5E8
 10
-2.729349
 20
1.422812
 30
0.0
 11
-2.728294
 21
1.419807
 31
0.0
  0
LINE
  8
0
  6
CONTINUOUS
 62
     7
  5
5E9
 10
-2.728294
 20
1.419807
 30
0.0
 11
-2.727251
 21
1.416506
 31
0.0
  0
LINE
  8
0
  6
CONTINUOUS
 62
     7
  5
5EA
 10
-2.727251
 20
1.416506
 30
0.0
 11
-2.726226
 21
1.412924
 31
0.0
  0
LINE
  8
0
  6
CONTINUOUS
 62
     7
  5
5EB
 10
-2.726226
 20
1.412924
 30
0.0
 11
-2.725222
 21
1.409075
 31
0.0
  0
LINE
  8
0
  6
CONTINUOUS
 62
     7
  5
5EC
 10
-2.725222
 20
1.409075
 30
0.0
 11
-2.724243
 21
1.404978
 31
0.0
  0
LINE
  8
0
  6
CONTINUOUS
 62
     7
  5
5ED
 10
-2.724243
 20
1.404978
 30
0.0
 11
-2.723295
 21
1.400654
 31
0.0
  0
LINE
  8
0
  6
CONTINUOUS
 62
     7
  5
5EE
 10
-2.723295
 20
1.400654
 30
0.0
 11
-2.72238
 21
1.396126
 31
0.0
  0
LINE
  8
0
  6
CONTINUOUS
 62
     7
  5
5EF
 10
-2.72238
 20
1.396126
 30
0.0
 11
-2.721502
 21
1.391419
 31
0.0
  0
LINE
  8
0
  6
CONTINUOUS
 62
     7
  5
5F0
 10
-2.721502
 20
1.391419
 30
0.0
 11
-2.720662
 21
1.386546
 31
0.0
  0
LINE
  8
0
  6
CONTINUOUS
 62
     7
  5
5F1
 10
-2.720662
 20
1.386546
 30
0.0
 11
-2.719846
 21
1.381417
 31
0.0
  0
LINE
  8
0
  6
CONTINUOUS
 62
     7
  5
5F2
 10
-2.719846
 20
1.381417
 30
0.0
 11
-2.719053
 21
1.376016
 31
0.0
  0
LINE
  8
0
  6
CONTINUOUS
 62
     7
  5
5F3
 10
-2.719053
 20
1.376016
 30
0.0
 11
-2.71829
 21
1.370356
 31
0.0
  0
LINE
  8
0
  6
CONTINUOUS
 62
     7
  5
5F4
 10
-2.71829
 20
1.370356
 30
0.0
 11
-2.717561
 21
1.364454
 31
0.0
  0
LINE
  8
0
  6
CONTINUOUS
 62
     7
  5
5F5
 10
-2.717561
 20
1.364454
 30
0.0
 11
-2.71687
 21
1.358328
 31
0.0
  0
LINE
  8
0
  6
CONTINUOUS
 62
     7
  5
5F6
 10
-2.71687
 20
1.358328
 30
0.0
 11
-2.716223
 21
1.351999
 31
0.0
  0
LINE
  8
0
  6
CONTINUOUS
 62
     7
  5
5F7
 10
-2.716223
 20
1.351999
 30
0.0
 11
-2.715623
 21
1.345489
 31
0.0
  0
LINE
  8
0
  6
CONTINUOUS
 62
     7
  5
5F8
 10
-2.715623
 20
1.345489
 30
0.0
 11
-2.715073
 21
1.338819
 31
0.0
  0
LINE
  8
0
  6
CONTINUOUS
 62
     7
  5
5F9
 10
-2.715073
 20
1.338819
 30
0.0
 11
-2.714576
 21
1.332012
 31
0.0
  0
LINE
  8
0
  6
CONTINUOUS
 62
     7
  5
5FA
 10
-2.714576
 20
1.332012
 30
0.0
 11
-2.714135
 21
1.325088
 31
0.0
  0
LINE
  8
0
  6
CONTINUOUS
 62
     7
  5
5FB
 10
-2.714135
 20
1.325088
 30
0.0
 11
-2.713751
 21
1.318073
 31
0.0
  0
LINE
  8
0
  6
CONTINUOUS
 62
     7
  5
5FC
 10
-2.713751
 20
1.318073
 30
0.0
 11
-2.713426
 21
1.310991
 31
0.0
  0
LINE
  8
0
  6
CONTINUOUS
 62
     7
  5
5FD
 10
-2.713426
 20
1.310991
 30
0.0
 11
-2.713162
 21
1.303872
 31
0.0
  0
LINE
  8
0
  6
CONTINUOUS
 62
     7
  5
5FE
 10
-2.713162
 20
1.303872
 30
0.0
 11
-2.712957
 21
1.296745
 31
0.0
  0
LINE
  8
0
  6
CONTINUOUS
 62
     7
  5
5FF
 10
-2.712957
 20
1.296745
 30
0.0
 11
-2.712812
 21
1.289637
 31
0.0
  0
LINE
  8
0
  6
CONTINUOUS
 62
     7
  5
600
 10
-2.712812
 20
1.289637
 30
0.0
 11
-2.712727
 21
1.28258
 31
0.0
  0
LINE
  8
0
  6
CONTINUOUS
 62
     7
  5
601
 10
-2.712727
 20
1.28258
 30
0.0
 11
-2.712699
 21
1.2756
 31
0.0
  0
LINE
  8
0
  6
CONTINUOUS
 62
     7
  5
602
 10
-2.738744
 20
1.1156
 30
0.0
 11
-2.740683
 21
1.116202
 31
0.0
  0
LINE
  8
0
  6
CONTINUOUS
 62
     7
  5
603
 10
-2.740683
 20
1.116202
 30
0.0
 11
-2.742601
 21
1.118062
 31
0.0
  0
LINE
  8
0
  6
CONTINUOUS
 62
     7
  5
604
 10
-2.742601
 20
1.118062
 30
0.0
 11
-2.744466
 21
1.12122
 31
0.0
  0
LINE
  8
0
  6
CONTINUOUS
 62
     7
  5
605
 10
-2.744466
 20
1.12122
 30
0.0
 11
-2.746249
 21
1.125676
 31
0.0
  0
LINE
  8
0
  6
CONTINUOUS
 62
     7
  5
606
 10
-2.746249
 20
1.125676
 30
0.0
 11
-2.74793
 21
1.131386
 31
0.0
  0
LINE
  8
0
  6
CONTINUOUS
 62
     7
  5
607
 10
-2.74793
 20
1.131386
 30
0.0
 11
-2.749491
 21
1.138278
 31
0.0
  0
LINE
  8
0
  6
CONTINUOUS
 62
     7
  5
608
 10
-2.749491
 20
1.138278
 30
0.0
 11
-2.750919
 21
1.146237
 31
0.0
  0
LINE
  8
0
  6
CONTINUOUS
 62
     7
  5
609
 10
-2.750919
 20
1.146237
 30
0.0
 11
-2.752203
 21
1.155105
 31
0.0
  0
LINE
  8
0
  6
CONTINUOUS
 62
     7
  5
60A
 10
-2.752203
 20
1.155105
 30
0.0
 11
-2.753339
 21
1.164703
 31
0.0
  0
LINE
  8
0
  6
CONTINUOUS
 62
     7
  5
60B
 10
-2.753339
 20
1.164703
 30
0.0
 11
-2.754364
 21
1.175255
 31
0.0
  0
LINE
  8
0
  6
CONTINUOUS
 62
     7
  5
60C
 10
-2.754364
 20
1.175255
 30
0.0
 11
-2.755281
 21
1.186833
 31
0.0
  0
LINE
  8
0
  6
CONTINUOUS
 62
     7
  5
60D
 10
-2.755281
 20
1.186833
 30
0.0
 11
-2.756077
 21
1.199296
 31
0.0
  0
LINE
  8
0
  6
CONTINUOUS
 62
     7
  5
60E
 10
-2.756077
 20
1.199296
 30
0.0
 11
-2.756742
 21
1.212476
 31
0.0
  0
LINE
  8
0
  6
CONTINUOUS
 62
     7
  5
60F
 10
-2.756742
 20
1.212476
 30
0.0
 11
-2.757272
 21
1.226199
 31
0.0
  0
LINE
  8
0
  6
CONTINUOUS
 62
     7
  5
610
 10
-2.757272
 20
1.226199
 30
0.0
 11
-2.757665
 21
1.24028
 31
0.0
  0
LINE
  8
0
  6
CONTINUOUS
 62
     7
  5
611
 10
-2.757665
 20
1.24028
 30
0.0
 11
-2.757921
 21
1.254502
 31
0.0
  0
LINE
  8
0
  6
CONTINUOUS
 62
     7
  5
612
 10
-2.757921
 20
1.254502
 30
0.0
 11
-2.758046
 21
1.268637
 31
0.0
  0
LINE
  8
0
  6
CONTINUOUS
 62
     7
  5
613
 10
-2.758046
 20
1.268637
 30
0.0
 11
-2.758046
 21
1.282563
 31
0.0
  0
LINE
  8
0
  6
CONTINUOUS
 62
     7
  5
614
 10
-2.758046
 20
1.282563
 30
0.0
 11
-2.757921
 21
1.296698
 31
0.0
  0
LINE
  8
0
  6
CONTINUOUS
 62
     7
  5
615
 10
-2.757921
 20
1.296698
 30
0.0
 11
-2.757665
 21
1.31092
 31
0.0
  0
LINE
  8
0
  6
CONTINUOUS
 62
     7
  5
616
 10
-2.757665
 20
1.31092
 30
0.0
 11
-2.757272
 21
1.325001
 31
0.0
  0
LINE
  8
0
  6
CONTINUOUS
 62
     7
  5
617
 10
-2.757272
 20
1.325001
 30
0.0
 11
-2.756742
 21
1.338724
 31
0.0
  0
LINE
  8
0
  6
CONTINUOUS
 62
     7
  5
618
 10
-2.756742
 20
1.338724
 30
0.0
 11
-2.756077
 21
1.351904
 31
0.0
  0
LINE
  8
0
  6
CONTINUOUS
 62
     7
  5
619
 10
-2.756077
 20
1.351904
 30
0.0
 11
-2.755281
 21
1.364367
 31
0.0
  0
LINE
  8
0
  6
CONTINUOUS
 62
     7
  5
61A
 10
-2.755281
 20
1.364367
 30
0.0
 11
-2.754364
 21
1.375945
 31
0.0
  0
LINE
  8
0
  6
CONTINUOUS
 62
     7
  5
61B
 10
-2.754364
 20
1.375945
 30
0.0
 11
-2.753339
 21
1.386497
 31
0.0
  0
LINE
  8
0
  6
CONTINUOUS
 62
     7
  5
61C
 10
-2.753339
 20
1.386497
 30
0.0
 11
-2.752203
 21
1.396095
 31
0.0
  0
LINE
  8
0
  6
CONTINUOUS
 62
     7
  5
61D
 10
-2.752203
 20
1.396095
 30
0.0
 11
-2.750919
 21
1.404963
 31
0.0
  0
LINE
  8
0
  6
CONTINUOUS
 62
     7
  5
61E
 10
-2.750919
 20
1.404963
 30
0.0
 11
-2.749491
 21
1.412922
 31
0.0
  0
LINE
  8
0
  6
CONTINUOUS
 62
     7
  5
61F
 10
-2.749491
 20
1.412922
 30
0.0
 11
-2.74793
 21
1.419814
 31
0.0
  0
LINE
  8
0
  6
CONTINUOUS
 62
     7
  5
620
 10
-2.74793
 20
1.419814
 30
0.0
 11
-2.746249
 21
1.425524
 31
0.0
  0
LINE
  8
0
  6
CONTINUOUS
 62
     7
  5
621
 10
-2.746249
 20
1.425524
 30
0.0
 11
-2.744466
 21
1.42998
 31
0.0
  0
LINE
  8
0
  6
CONTINUOUS
 62
     7
  5
622
 10
-2.744466
 20
1.42998
 30
0.0
 11
-2.742601
 21
1.433138
 31
0.0
  0
LINE
  8
0
  6
CONTINUOUS
 62
     7
  5
623
 10
-2.742601
 20
1.433138
 30
0.0
 11
-2.740683
 21
1.434998
 31
0.0
  0
LINE
  8
0
  6
CONTINUOUS
 62
     7
  5
624
 10
-2.740683
 20
1.434998
 30
0.0
 11
-2.738744
 21
1.4356
 31
0.0
  0
LINE
  8
0
  6
CONTINUOUS
 62
     7
  5
625
 10
-2.712699
 20
1.2756
 30
0.0
 11
-2.712727
 21
1.26862
 31
0.0
  0
LINE
  8
0
  6
CONTINUOUS
 62
     7
  5
626
 10
-2.712727
 20
1.26862
 30
0.0
 11
-2.712812
 21
1.261563
 31
0.0
  0
LINE
  8
0
  6
CONTINUOUS
 62
     7
  5
627
 10
-2.712812
 20
1.261563
 30
0.0
 11
-2.712957
 21
1.254455
 31
0.0
  0
LINE
  8
0
  6
CONTINUOUS
 62
     7
  5
628
 10
-2.712957
 20
1.254455
 30
0.0
 11
-2.713162
 21
1.247328
 31
0.0
  0
LINE
  8
0
  6
CONTINUOUS
 62
     7
  5
629
 10
-2.713162
 20
1.247328
 30
0.0
 11
-2.713426
 21
1.240209
 31
0.0
  0
LINE
  8
0
  6
CONTINUOUS
 62
     7
  5
62A
 10
-2.713426
 20
1.240209
 30
0.0
 11
-2.713751
 21
1.233127
 31
0.0
  0
LINE
  8
0
  6
CONTINUOUS
 62
     7
  5
62B
 10
-2.713751
 20
1.233127
 30
0.0
 11
-2.714135
 21
1.226112
 31
0.0
  0
LINE
  8
0
  6
CONTINUOUS
 62
     7
  5
62C
 10
-2.714135
 20
1.226112
 30
0.0
 11
-2.714576
 21
1.219188
 31
0.0
  0
LINE
  8
0
  6
CONTINUOUS
 62
     7
  5
62D
 10
-2.714576
 20
1.219188
 30
0.0
 11
-2.715073
 21
1.212381
 31
0.0
  0
LINE
  8
0
  6
CONTINUOUS
 62
     7
  5
62E
 10
-2.715073
 20
1.212381
 30
0.0
 11
-2.715623
 21
1.205711
 31
0.0
  0
LINE
  8
0
  6
CONTINUOUS
 62
     7
  5
62F
 10
-2.715623
 20
1.205711
 30
0.0
 11
-2.716223
 21
1.199201
 31
0.0
  0
LINE
  8
0
  6
CONTINUOUS
 62
     7
  5
630
 10
-2.716223
 20
1.199201
 30
0.0
 11
-2.71687
 21
1.192872
 31
0.0
  0
LINE
  8
0
  6
CONTINUOUS
 62
     7
  5
631
 10
-2.71687
 20
1.192872
 30
0.0
 11
-2.717561
 21
1.186746
 31
0.0
  0
LINE
  8
0
  6
CONTINUOUS
 62
     7
  5
632
 10
-2.717561
 20
1.186746
 30
0.0
 11
-2.71829
 21
1.180844
 31
0.0
  0
LINE
  8
0
  6
CONTINUOUS
 62
     7
  5
633
 10
-2.71829
 20
1.180844
 30
0.0
 11
-2.719053
 21
1.175184
 31
0.0
  0
LINE
  8
0
  6
CONTINUOUS
 62
     7
  5
634
 10
-2.719053
 20
1.175184
 30
0.0
 11
-2.719846
 21
1.169783
 31
0.0
  0
LINE
  8
0
  6
CONTINUOUS
 62
     7
  5
635
 10
-2.719846
 20
1.169783
 30
0.0
 11
-2.720662
 21
1.164654
 31
0.0
  0
LINE
  8
0
  6
CONTINUOUS
 62
     7
  5
636
 10
-2.720662
 20
1.164654
 30
0.0
 11
-2.721502
 21
1.159781
 31
0.0
  0
LINE
  8
0
  6
CONTINUOUS
 62
     7
  5
637
 10
-2.721502
 20
1.159781
 30
0.0
 11
-2.72238
 21
1.155074
 31
0.0
  0
LINE
  8
0
  6
CONTINUOUS
 62
     7
  5
638
 10
-2.72238
 20
1.155074
 30
0.0
 11
-2.723295
 21
1.150546
 31
0.0
  0
LINE
  8
0
  6
CONTINUOUS
 62
     7
  5
639
 10
-2.723295
 20
1.150546
 30
0.0
 11
-2.724243
 21
1.146222
 31
0.0
  0
LINE
  8
0
  6
CONTINUOUS
 62
     7
  5
63A
 10
-2.724243
 20
1.146222
 30
0.0
 11
-2.725222
 21
1.142125
 31
0.0
  0
LINE
  8
0
  6
CONTINUOUS
 62
     7
  5
63B
 10
-2.725222
 20
1.142125
 30
0.0
 11
-2.726226
 21
1.138276
 31
0.0
  0
LINE
  8
0
  6
CONTINUOUS
 62
     7
  5
63C
 10
-2.726226
 20
1.138276
 30
0.0
 11
-2.727251
 21
1.134694
 31
0.0
  0
LINE
  8
0
  6
CONTINUOUS
 62
     7
  5
63D
 10
-2.727251
 20
1.134694
 30
0.0
 11
-2.728294
 21
1.131393
 31
0.0
  0
LINE
  8
0
  6
CONTINUOUS
 62
     7
  5
63E
 10
-2.728294
 20
1.131393
 30
0.0
 11
-2.729349
 21
1.128388
 31
0.0
  0
LINE
  8
0
  6
CONTINUOUS
 62
     7
  5
63F
 10
-2.729349
 20
1.128388
 30
0.0
 11
-2.730414
 21
1.125687
 31
0.0
  0
LINE
  8
0
  6
CONTINUOUS
 62
     7
  5
640
 10
-2.730414
 20
1.125687
 30
0.0
 11
-2.731482
 21
1.123299
 31
0.0
  0
LINE
  8
0
  6
CONTINUOUS
 62
     7
  5
641
 10
-2.731482
 20
1.123299
 30
0.0
 11
-2.732552
 21
1.121231
 31
0.0
  0
LINE
  8
0
  6
CONTINUOUS
 62
     7
  5
642
 10
-2.732552
 20
1.121231
 30
0.0
 11
-2.733618
 21
1.119487
 31
0.0
  0
LINE
  8
0
  6
CONTINUOUS
 62
     7
  5
643
 10
-2.733618
 20
1.119487
 30
0.0
 11
-2.734675
 21
1.118069
 31
0.0
  0
LINE
  8
0
  6
CONTINUOUS
 62
     7
  5
644
 10
-2.734675
 20
1.118069
 30
0.0
 11
-2.735721
 21
1.116976
 31
0.0
  0
LINE
  8
0
  6
CONTINUOUS
 62
     7
  5
645
 10
-2.735721
 20
1.116976
 30
0.0
 11
-2.73675
 21
1.116205
 31
0.0
  0
LINE
  8
0
  6
CONTINUOUS
 62
     7
  5
646
 10
-2.73675
 20
1.116205
 30
0.0
 11
-2.737759
 21
1.115749
 31
0.0
  0
LINE
  8
0
  6
CONTINUOUS
 62
     7
  5
647
 10
-2.737759
 20
1.115749
 30
0.0
 11
-2.738744
 21
1.1156
 31
0.0
  0
LINE
  8
0
  6
CONTINUOUS
 62
     7
  5
648
 10
-2.7775
 20
-1.4356
 30
0.0
 11
-2.777475
 21
-1.43499
 31
0.0
  0
LINE
  8
0
  6
CONTINUOUS
 62
     7
  5
649
 10
-2.777475
 20
-1.43499
 30
0.0
 11
-2.777399
 21
-1.433111
 31
0.0
  0
LINE
  8
0
  6
CONTINUOUS
 62
     7
  5
64A
 10
-2.777399
 20
-1.433111
 30
0.0
 11
-2.777273
 21
-1.429923
 31
0.0
  0
LINE
  8
0
  6
CONTINUOUS
 62
     7
  5
64B
 10
-2.777273
 20
-1.429923
 30
0.0
 11
-2.777098
 21
-1.425431
 31
0.0
  0
LINE
  8
0
  6
CONTINUOUS
 62
     7
  5
64C
 10
-2.777098
 20
-1.425431
 30
0.0
 11
-2.776883
 21
-1.419682
 31
0.0
  0
LINE
  8
0
  6
CONTINUOUS
 62
     7
  5
64D
 10
-2.776883
 20
-1.419682
 30
0.0
 11
-2.776634
 21
-1.412752
 31
0.0
  0
LINE
  8
0
  6
CONTINUOUS
 62
     7
  5
64E
 10
-2.776634
 20
-1.412752
 30
0.0
 11
-2.776363
 21
-1.404762
 31
0.0
  0
LINE
  8
0
  6
CONTINUOUS
 62
     7
  5
64F
 10
-2.776363
 20
-1.404762
 30
0.0
 11
-2.77608
 21
-1.395875
 31
0.0
  0
LINE
  8
0
  6
CONTINUOUS
 62
     7
  5
650
 10
-2.77608
 20
-1.395875
 30
0.0
 11
-2.775797
 21
-1.386267
 31
0.0
  0
LINE
  8
0
  6
CONTINUOUS
 62
     7
  5
651
 10
-2.775797
 20
-1.386267
 30
0.0
 11
-2.775513
 21
-1.375701
 31
0.0
  0
LINE
  8
0
  6
CONTINUOUS
 62
     7
  5
652
 10
-2.775513
 20
-1.375701
 30
0.0
 11
-2.775235
 21
-1.364123
 31
0.0
  0
LINE
  8
0
  6
CONTINUOUS
 62
     7
  5
653
 10
-2.775235
 20
-1.364123
 30
0.0
 11
-2.774973
 21
-1.351673
 31
0.0
  0
LINE
  8
0
  6
CONTINUOUS
 62
     7
  5
654
 10
-2.774973
 20
-1.351673
 30
0.0
 11
-2.77474
 21
-1.338518
 31
0.0
  0
LINE
  8
0
  6
CONTINUOUS
 62
     7
  5
655
 10
-2.77474
 20
-1.338518
 30
0.0
 11
-2.774544
 21
-1.32483
 31
0.0
  0
LINE
  8
0
  6
CONTINUOUS
 62
     7
  5
656
 10
-2.774544
 20
-1.32483
 30
0.0
 11
-2.774393
 21
-1.310793
 31
0.0
  0
LINE
  8
0
  6
CONTINUOUS
 62
     7
  5
657
 10
-2.774393
 20
-1.310793
 30
0.0
 11
-2.774291
 21
-1.29662
 31
0.0
  0
LINE
  8
0
  6
CONTINUOUS
 62
     7
  5
658
 10
-2.774291
 20
-1.29662
 30
0.0
 11
-2.774241
 21
-1.282537
 31
0.0
  0
LINE
  8
0
  6
CONTINUOUS
 62
     7
  5
659
 10
-2.774241
 20
-1.282537
 30
0.0
 11
-2.774241
 21
-1.268663
 31
0.0
  0
LINE
  8
0
  6
CONTINUOUS
 62
     7
  5
65A
 10
-2.774241
 20
-1.268663
 30
0.0
 11
-2.774291
 21
-1.25458
 31
0.0
  0
LINE
  8
0
  6
CONTINUOUS
 62
     7
  5
65B
 10
-2.774291
 20
-1.25458
 30
0.0
 11
-2.774393
 21
-1.240407
 31
0.0
  0
LINE
  8
0
  6
CONTINUOUS
 62
     7
  5
65C
 10
-2.774393
 20
-1.240407
 30
0.0
 11
-2.774544
 21
-1.22637
 31
0.0
  0
LINE
  8
0
  6
CONTINUOUS
 62
     7
  5
65D
 10
-2.774544
 20
-1.22637
 30
0.0
 11
-2.77474
 21
-1.212682
 31
0.0
  0
LINE
  8
0
  6
CONTINUOUS
 62
     7
  5
65E
 10
-2.77474
 20
-1.212682
 30
0.0
 11
-2.774973
 21
-1.199527
 31
0.0
  0
LINE
  8
0
  6
CONTINUOUS
 62
     7
  5
65F
 10
-2.774973
 20
-1.199527
 30
0.0
 11
-2.775235
 21
-1.187077
 31
0.0
  0
LINE
  8
0
  6
CONTINUOUS
 62
     7
  5
660
 10
-2.775235
 20
-1.187077
 30
0.0
 11
-2.775513
 21
-1.175499
 31
0.0
  0
LINE
  8
0
  6
CONTINUOUS
 62
     7
  5
661
 10
-2.775513
 20
-1.175499
 30
0.0
 11
-2.775797
 21
-1.164933
 31
0.0
  0
LINE
  8
0
  6
CONTINUOUS
 62
     7
  5
662
 10
-2.775797
 20
-1.164933
 30
0.0
 11
-2.77608
 21
-1.155325
 31
0.0
  0
LINE
  8
0
  6
CONTINUOUS
 62
     7
  5
663
 10
-2.77608
 20
-1.155325
 30
0.0
 11
-2.776363
 21
-1.146438
 31
0.0
  0
LINE
  8
0
  6
CONTINUOUS
 62
     7
  5
664
 10
-2.776363
 20
-1.146438
 30
0.0
 11
-2.776634
 21
-1.138448
 31
0.0
  0
LINE
  8
0
  6
CONTINUOUS
 62
     7
  5
665
 10
-2.776634
 20
-1.138448
 30
0.0
 11
-2.776883
 21
-1.131518
 31
0.0
  0
LINE
  8
0
  6
CONTINUOUS
 62
     7
  5
666
 10
-2.776883
 20
-1.131518
 30
0.0
 11
-2.777098
 21
-1.125769
 31
0.0
  0
LINE
  8
0
  6
CONTINUOUS
 62
     7
  5
667
 10
-2.777098
 20
-1.125769
 30
0.0
 11
-2.777273
 21
-1.121277
 31
0.0
  0
LINE
  8
0
  6
CONTINUOUS
 62
     7
  5
668
 10
-2.777273
 20
-1.121277
 30
0.0
 11
-2.777399
 21
-1.118089
 31
0.0
  0
LINE
  8
0
  6
CONTINUOUS
 62
     7
  5
669
 10
-2.777399
 20
-1.118089
 30
0.0
 11
-2.777475
 21
-1.11621
 31
0.0
  0
LINE
  8
0
  6
CONTINUOUS
 62
     7
  5
66A
 10
-2.777475
 20
-1.11621
 30
0.0
 11
-2.7775
 21
-1.1156
 31
0.0
  0
LINE
  8
0
  6
CONTINUOUS
 62
     7
  5
66B
 10
-2.7775
 20
-1.1156
 30
0.0
 11
-2.777475
 21
-1.11621
 31
0.0
  0
LINE
  8
0
  6
CONTINUOUS
 62
     7
  5
66C
 10
-2.777475
 20
-1.11621
 30
0.0
 11
-2.777399
 21
-1.118089
 31
0.0
  0
LINE
  8
0
  6
CONTINUOUS
 62
     7
  5
66D
 10
-2.777399
 20
-1.118089
 30
0.0
 11
-2.777273
 21
-1.121277
 31
0.0
  0
LINE
  8
0
  6
CONTINUOUS
 62
     7
  5
66E
 10
-2.777273
 20
-1.121277
 30
0.0
 11
-2.777098
 21
-1.125769
 31
0.0
  0
LINE
  8
0
  6
CONTINUOUS
 62
     7
  5
66F
 10
-2.777098
 20
-1.125769
 30
0.0
 11
-2.776883
 21
-1.131518
 31
0.0
  0
LINE
  8
0
  6
CONTINUOUS
 62
     7
  5
670
 10
-2.776883
 20
-1.131518
 30
0.0
 11
-2.776634
 21
-1.138448
 31
0.0
  0
LINE
  8
0
  6
CONTINUOUS
 62
     7
  5
671
 10
-2.776634
 20
-1.138448
 30
0.0
 11
-2.776363
 21
-1.146438
 31
0.0
  0
LINE
  8
0
  6
CONTINUOUS
 62
     7
  5
672
 10
-2.776363
 20
-1.146438
 30
0.0
 11
-2.77608
 21
-1.155325
 31
0.0
  0
LINE
  8
0
  6
CONTINUOUS
 62
     7
  5
673
 10
-2.77608
 20
-1.155325
 30
0.0
 11
-2.775797
 21
-1.164933
 31
0.0
  0
LINE
  8
0
  6
CONTINUOUS
 62
     7
  5
674
 10
-2.775797
 20
-1.164933
 30
0.0
 11
-2.775513
 21
-1.175499
 31
0.0
  0
LINE
  8
0
  6
CONTINUOUS
 62
     7
  5
675
 10
-2.775513
 20
-1.175499
 30
0.0
 11
-2.775235
 21
-1.187077
 31
0.0
  0
LINE
  8
0
  6
CONTINUOUS
 62
     7
  5
676
 10
-2.775235
 20
-1.187077
 30
0.0
 11
-2.774973
 21
-1.199527
 31
0.0
  0
LINE
  8
0
  6
CONTINUOUS
 62
     7
  5
677
 10
-2.774973
 20
-1.199527
 30
0.0
 11
-2.77474
 21
-1.212682
 31
0.0
  0
LINE
  8
0
  6
CONTINUOUS
 62
     7
  5
678
 10
-2.77474
 20
-1.212682
 30
0.0
 11
-2.774544
 21
-1.22637
 31
0.0
  0
LINE
  8
0
  6
CONTINUOUS
 62
     7
  5
679
 10
-2.774544
 20
-1.22637
 30
0.0
 11
-2.774393
 21
-1.240407
 31
0.0
  0
LINE
  8
0
  6
CONTINUOUS
 62
     7
  5
67A
 10
-2.774393
 20
-1.240407
 30
0.0
 11
-2.774291
 21
-1.25458
 31
0.0
  0
LINE
  8
0
  6
CONTINUOUS
 62
     7
  5
67B
 10
-2.774291
 20
-1.25458
 30
0.0
 11
-2.774241
 21
-1.268663
 31
0.0
  0
LINE
  8
0
  6
CONTINUOUS
 62
     7
  5
67C
 10
-2.774241
 20
-1.268663
 30
0.0
 11
-2.774241
 21
-1.282537
 31
0.0
  0
LINE
  8
0
  6
CONTINUOUS
 62
     7
  5
67D
 10
-2.774241
 20
-1.282537
 30
0.0
 11
-2.774291
 21
-1.29662
 31
0.0
  0
LINE
  8
0
  6
CONTINUOUS
 62
     7
  5
67E
 10
-2.774291
 20
-1.29662
 30
0.0
 11
-2.774393
 21
-1.310793
 31
0.0
  0
LINE
  8
0
  6
CONTINUOUS
 62
     7
  5
67F
 10
-2.774393
 20
-1.310793
 30
0.0
 11
-2.774544
 21
-1.32483
 31
0.0
  0
LINE
  8
0
  6
CONTINUOUS
 62
     7
  5
680
 10
-2.774544
 20
-1.32483
 30
0.0
 11
-2.77474
 21
-1.338518
 31
0.0
  0
LINE
  8
0
  6
CONTINUOUS
 62
     7
  5
681
 10
-2.77474
 20
-1.338518
 30
0.0
 11
-2.774973
 21
-1.351673
 31
0.0
  0
LINE
  8
0
  6
CONTINUOUS
 62
     7
  5
682
 10
-2.774973
 20
-1.351673
 30
0.0
 11
-2.775235
 21
-1.364123
 31
0.0
  0
LINE
  8
0
  6
CONTINUOUS
 62
     7
  5
683
 10
-2.775235
 20
-1.364123
 30
0.0
 11
-2.775513
 21
-1.375701
 31
0.0
  0
LINE
  8
0
  6
CONTINUOUS
 62
     7
  5
684
 10
-2.775513
 20
-1.375701
 30
0.0
 11
-2.775797
 21
-1.386267
 31
0.0
  0
LINE
  8
0
  6
CONTINUOUS
 62
     7
  5
685
 10
-2.775797
 20
-1.386267
 30
0.0
 11
-2.77608
 21
-1.395875
 31
0.0
  0
LINE
  8
0
  6
CONTINUOUS
 62
     7
  5
686
 10
-2.77608
 20
-1.395875
 30
0.0
 11
-2.776363
 21
-1.404762
 31
0.0
  0
LINE
  8
0
  6
CONTINUOUS
 62
     7
  5
687
 10
-2.776363
 20
-1.404762
 30
0.0
 11
-2.776634
 21
-1.412752
 31
0.0
  0
LINE
  8
0
  6
CONTINUOUS
 62
     7
  5
688
 10
-2.776634
 20
-1.412752
 30
0.0
 11
-2.776883
 21
-1.419682
 31
0.0
  0
LINE
  8
0
  6
CONTINUOUS
 62
     7
  5
689
 10
-2.776883
 20
-1.419682
 30
0.0
 11
-2.777098
 21
-1.425431
 31
0.0
  0
LINE
  8
0
  6
CONTINUOUS
 62
     7
  5
68A
 10
-2.777098
 20
-1.425431
 30
0.0
 11
-2.777273
 21
-1.429923
 31
0.0
  0
LINE
  8
0
  6
CONTINUOUS
 62
     7
  5
68B
 10
-2.777273
 20
-1.429923
 30
0.0
 11
-2.777399
 21
-1.433111
 31
0.0
  0
LINE
  8
0
  6
CONTINUOUS
 62
     7
  5
68C
 10
-2.777399
 20
-1.433111
 30
0.0
 11
-2.777475
 21
-1.43499
 31
0.0
  0
LINE
  8
0
  6
CONTINUOUS
 62
     7
  5
68D
 10
-2.777475
 20
-1.43499
 30
0.0
 11
-2.7775
 21
-1.4356
 31
0.0
  0
LINE
  8
0
  6
CONTINUOUS
 62
     7
  5
68E
 10
-2.7775
 20
1.1156
 30
0.0
 11
-2.777475
 21
1.11621
 31
0.0
  0
LINE
  8
0
  6
CONTINUOUS
 62
     7
  5
68F
 10
-2.777475
 20
1.11621
 30
0.0
 11
-2.777399
 21
1.118089
 31
0.0
  0
LINE
  8
0
  6
CONTINUOUS
 62
     7
  5
690
 10
-2.777399
 20
1.118089
 30
0.0
 11
-2.777273
 21
1.121277
 31
0.0
  0
LINE
  8
0
  6
CONTINUOUS
 62
     7
  5
691
 10
-2.777273
 20
1.121277
 30
0.0
 11
-2.777098
 21
1.125769
 31
0.0
  0
LINE
  8
0
  6
CONTINUOUS
 62
     7
  5
692
 10
-2.777098
 20
1.125769
 30
0.0
 11
-2.776883
 21
1.131518
 31
0.0
  0
LINE
  8
0
  6
CONTINUOUS
 62
     7
  5
693
 10
-2.776883
 20
1.131518
 30
0.0
 11
-2.776634
 21
1.138448
 31
0.0
  0
LINE
  8
0
  6
CONTINUOUS
 62
     7
  5
694
 10
-2.776634
 20
1.138448
 30
0.0
 11
-2.776363
 21
1.146438
 31
0.0
  0
LINE
  8
0
  6
CONTINUOUS
 62
     7
  5
695
 10
-2.776363
 20
1.146438
 30
0.0
 11
-2.77608
 21
1.155325
 31
0.0
  0
LINE
  8
0
  6
CONTINUOUS
 62
     7
  5
696
 10
-2.77608
 20
1.155325
 30
0.0
 11
-2.775797
 21
1.164933
 31
0.0
  0
LINE
  8
0
  6
CONTINUOUS
 62
     7
  5
697
 10
-2.775797
 20
1.164933
 30
0.0
 11
-2.775513
 21
1.175499
 31
0.0
  0
LINE
  8
0
  6
CONTINUOUS
 62
     7
  5
698
 10
-2.775513
 20
1.175499
 30
0.0
 11
-2.775235
 21
1.187077
 31
0.0
  0
LINE
  8
0
  6
CONTINUOUS
 62
     7
  5
699
 10
-2.775235
 20
1.187077
 30
0.0
 11
-2.774973
 21
1.199527
 31
0.0
  0
LINE
  8
0
  6
CONTINUOUS
 62
     7
  5
69A
 10
-2.774973
 20
1.199527
 30
0.0
 11
-2.77474
 21
1.212682
 31
0.0
  0
LINE
  8
0
  6
CONTINUOUS
 62
     7
  5
69B
 10
-2.77474
 20
1.212682
 30
0.0
 11
-2.774544
 21
1.22637
 31
0.0
  0
LINE
  8
0
  6
CONTINUOUS
 62
     7
  5
69C
 10
-2.774544
 20
1.22637
 30
0.0
 11
-2.774393
 21
1.240407
 31
0.0
  0
LINE
  8
0
  6
CONTINUOUS
 62
     7
  5
69D
 10
-2.774393
 20
1.240407
 30
0.0
 11
-2.774291
 21
1.25458
 31
0.0
  0
LINE
  8
0
  6
CONTINUOUS
 62
     7
  5
69E
 10
-2.774291
 20
1.25458
 30
0.0
 11
-2.774241
 21
1.268663
 31
0.0
  0
LINE
  8
0
  6
CONTINUOUS
 62
     7
  5
69F
 10
-2.774241
 20
1.268663
 30
0.0
 11
-2.774241
 21
1.282537
 31
0.0
  0
LINE
  8
0
  6
CONTINUOUS
 62
     7
  5
6A0
 10
-2.774241
 20
1.282537
 30
0.0
 11
-2.774291
 21
1.29662
 31
0.0
  0
LINE
  8
0
  6
CONTINUOUS
 62
     7
  5
6A1
 10
-2.774291
 20
1.29662
 30
0.0
 11
-2.774393
 21
1.310793
 31
0.0
  0
LINE
  8
0
  6
CONTINUOUS
 62
     7
  5
6A2
 10
-2.774393
 20
1.310793
 30
0.0
 11
-2.774544
 21
1.32483
 31
0.0
  0
LINE
  8
0
  6
CONTINUOUS
 62
     7
  5
6A3
 10
-2.774544
 20
1.32483
 30
0.0
 11
-2.77474
 21
1.338518
 31
0.0
  0
LINE
  8
0
  6
CONTINUOUS
 62
     7
  5
6A4
 10
-2.77474
 20
1.338518
 30
0.0
 11
-2.774973
 21
1.351673
 31
0.0
  0
LINE
  8
0
  6
CONTINUOUS
 62
     7
  5
6A5
 10
-2.774973
 20
1.351673
 30
0.0
 11
-2.775235
 21
1.364123
 31
0.0
  0
LINE
  8
0
  6
CONTINUOUS
 62
     7
  5
6A6
 10
-2.775235
 20
1.364123
 30
0.0
 11
-2.775513
 21
1.375701
 31
0.0
  0
LINE
  8
0
  6
CONTINUOUS
 62
     7
  5
6A7
 10
-2.775513
 20
1.375701
 30
0.0
 11
-2.775797
 21
1.386267
 31
0.0
  0
LINE
  8
0
  6
CONTINUOUS
 62
     7
  5
6A8
 10
-2.775797
 20
1.386267
 30
0.0
 11
-2.77608
 21
1.395875
 31
0.0
  0
LINE
  8
0
  6
CONTINUOUS
 62
     7
  5
6A9
 10
-2.77608
 20
1.395875
 30
0.0
 11
-2.776363
 21
1.404762
 31
0.0
  0
LINE
  8
0
  6
CONTINUOUS
 62
     7
  5
6AA
 10
-2.776363
 20
1.404762
 30
0.0
 11
-2.776634
 21
1.412752
 31
0.0
  0
LINE
  8
0
  6
CONTINUOUS
 62
     7
  5
6AB
 10
-2.776634
 20
1.412752
 30
0.0
 11
-2.776883
 21
1.419682
 31
0.0
  0
LINE
  8
0
  6
CONTINUOUS
 62
     7
  5
6AC
 10
-2.776883
 20
1.419682
 30
0.0
 11
-2.777098
 21
1.425431
 31
0.0
  0
LINE
  8
0
  6
CONTINUOUS
 62
     7
  5
6AD
 10
-2.777098
 20
1.425431
 30
0.0
 11
-2.777273
 21
1.429923
 31
0.0
  0
LINE
  8
0
  6
CONTINUOUS
 62
     7
  5
6AE
 10
-2.777273
 20
1.429923
 30
0.0
 11
-2.777399
 21
1.433111
 31
0.0
  0
LINE
  8
0
  6
CONTINUOUS
 62
     7
  5
6AF
 10
-2.777399
 20
1.433111
 30
0.0
 11
-2.777475
 21
1.43499
 31
0.0
  0
LINE
  8
0
  6
CONTINUOUS
 62
     7
  5
6B0
 10
-2.777475
 20
1.43499
 30
0.0
 11
-2.7775
 21
1.4356
 31
0.0
  0
LINE
  8
0
  6
CONTINUOUS
 62
     7
  5
6B1
 10
-2.7775
 20
1.4356
 30
0.0
 11
-2.777475
 21
1.43499
 31
0.0
  0
LINE
  8
0
  6
CONTINUOUS
 62
     7
  5
6B2
 10
-2.777475
 20
1.43499
 30
0.0
 11
-2.777399
 21
1.433111
 31
0.0
  0
LINE
  8
0
  6
CONTINUOUS
 62
     7
  5
6B3
 10
-2.777399
 20
1.433111
 30
0.0
 11
-2.777273
 21
1.429923
 31
0.0
  0
LINE
  8
0
  6
CONTINUOUS
 62
     7
  5
6B4
 10
-2.777273
 20
1.429923
 30
0.0
 11
-2.777098
 21
1.425431
 31
0.0
  0
LINE
  8
0
  6
CONTINUOUS
 62
     7
  5
6B5
 10
-2.777098
 20
1.425431
 30
0.0
 11
-2.776883
 21
1.419682
 31
0.0
  0
LINE
  8
0
  6
CONTINUOUS
 62
     7
  5
6B6
 10
-2.776883
 20
1.419682
 30
0.0
 11
-2.776634
 21
1.412752
 31
0.0
  0
LINE
  8
0
  6
CONTINUOUS
 62
     7
  5
6B7
 10
-2.776634
 20
1.412752
 30
0.0
 11
-2.776363
 21
1.404762
 31
0.0
  0
LINE
  8
0
  6
CONTINUOUS
 62
     7
  5
6B8
 10
-2.776363
 20
1.404762
 30
0.0
 11
-2.77608
 21
1.395875
 31
0.0
  0
LINE
  8
0
  6
CONTINUOUS
 62
     7
  5
6B9
 10
-2.77608
 20
1.395875
 30
0.0
 11
-2.775797
 21
1.386267
 31
0.0
  0
LINE
  8
0
  6
CONTINUOUS
 62
     7
  5
6BA
 10
-2.775797
 20
1.386267
 30
0.0
 11
-2.775513
 21
1.375701
 31
0.0
  0
LINE
  8
0
  6
CONTINUOUS
 62
     7
  5
6BB
 10
-2.775513
 20
1.375701
 30
0.0
 11
-2.775235
 21
1.364123
 31
0.0
  0
LINE
  8
0
  6
CONTINUOUS
 62
     7
  5
6BC
 10
-2.775235
 20
1.364123
 30
0.0
 11
-2.774973
 21
1.351673
 31
0.0
  0
LINE
  8
0
  6
CONTINUOUS
 62
     7
  5
6BD
 10
-2.774973
 20
1.351673
 30
0.0
 11
-2.77474
 21
1.338518
 31
0.0
  0
LINE
  8
0
  6
CONTINUOUS
 62
     7
  5
6BE
 10
-2.77474
 20
1.338518
 30
0.0
 11
-2.774544
 21
1.32483
 31
0.0
  0
LINE
  8
0
  6
CONTINUOUS
 62
     7
  5
6BF
 10
-2.774544
 20
1.32483
 30
0.0
 11
-2.774393
 21
1.310793
 31
0.0
  0
LINE
  8
0
  6
CONTINUOUS
 62
     7
  5
6C0
 10
-2.774393
 20
1.310793
 30
0.0
 11
-2.774291
 21
1.29662
 31
0.0
  0
LINE
  8
0
  6
CONTINUOUS
 62
     7
  5
6C1
 10
-2.774291
 20
1.29662
 30
0.0
 11
-2.774241
 21
1.282537
 31
0.0
  0
LINE
  8
0
  6
CONTINUOUS
 62
     7
  5
6C2
 10
-2.774241
 20
1.282537
 30
0.0
 11
-2.774241
 21
1.268663
 31
0.0
  0
LINE
  8
0
  6
CONTINUOUS
 62
     7
  5
6C3
 10
-2.774241
 20
1.268663
 30
0.0
 11
-2.774291
 21
1.25458
 31
0.0
  0
LINE
  8
0
  6
CONTINUOUS
 62
     7
  5
6C4
 10
-2.774291
 20
1.25458
 30
0.0
 11
-2.774393
 21
1.240407
 31
0.0
  0
LINE
  8
0
  6
CONTINUOUS
 62
     7
  5
6C5
 10
-2.774393
 20
1.240407
 30
0.0
 11
-2.774544
 21
1.22637
 31
0.0
  0
LINE
  8
0
  6
CONTINUOUS
 62
     7
  5
6C6
 10
-2.774544
 20
1.22637
 30
0.0
 11
-2.77474
 21
1.212682
 31
0.0
  0
LINE
  8
0
  6
CONTINUOUS
 62
     7
  5
6C7
 10
-2.77474
 20
1.212682
 30
0.0
 11
-2.774973
 21
1.199527
 31
0.0
  0
LINE
  8
0
  6
CONTINUOUS
 62
     7
  5
6C8
 10
-2.774973
 20
1.199527
 30
0.0
 11
-2.775235
 21
1.187077
 31
0.0
  0
LINE
  8
0
  6
CONTINUOUS
 62
     7
  5
6C9
 10
-2.775235
 20
1.187077
 30
0.0
 11
-2.775513
 21
1.175499
 31
0.0
  0
LINE
  8
0
  6
CONTINUOUS
 62
     7
  5
6CA
 10
-2.775513
 20
1.175499
 30
0.0
 11
-2.775797
 21
1.164933
 31
0.0
  0
LINE
  8
0
  6
CONTINUOUS
 62
     7
  5
6CB
 10
-2.775797
 20
1.164933
 30
0.0
 11
-2.77608
 21
1.155325
 31
0.0
  0
LINE
  8
0
  6
CONTINUOUS
 62
     7
  5
6CC
 10
-2.77608
 20
1.155325
 30
0.0
 11
-2.776363
 21
1.146438
 31
0.0
  0
LINE
  8
0
  6
CONTINUOUS
 62
     7
  5
6CD
 10
-2.776363
 20
1.146438
 30
0.0
 11
-2.776634
 21
1.138448
 31
0.0
  0
LINE
  8
0
  6
CONTINUOUS
 62
     7
  5
6CE
 10
-2.776634
 20
1.138448
 30
0.0
 11
-2.776883
 21
1.131518
 31
0.0
  0
LINE
  8
0
  6
CONTINUOUS
 62
     7
  5
6CF
 10
-2.776883
 20
1.131518
 30
0.0
 11
-2.777098
 21
1.125769
 31
0.0
  0
LINE
  8
0
  6
CONTINUOUS
 62
     7
  5
6D0
 10
-2.777098
 20
1.125769
 30
0.0
 11
-2.777273
 21
1.121277
 31
0.0
  0
LINE
  8
0
  6
CONTINUOUS
 62
     7
  5
6D1
 10
-2.777273
 20
1.121277
 30
0.0
 11
-2.777399
 21
1.118089
 31
0.0
  0
LINE
  8
0
  6
CONTINUOUS
 62
     7
  5
6D2
 10
-2.777399
 20
1.118089
 30
0.0
 11
-2.777475
 21
1.11621
 31
0.0
  0
LINE
  8
0
  6
CONTINUOUS
 62
     7
  5
6D3
 10
-2.777475
 20
1.11621
 30
0.0
 11
-2.7775
 21
1.1156
 31
0.0
  0
LINE
  8
0
  6
CONTINUOUS
 62
     7
  5
6D4
 10
-3.3425
 20
-1.01575
 30
0.0
 11
-3.2425
 21
-1.01575
 31
0.0
  0
LINE
  8
0
  6
CONTINUOUS
 62
     7
  5
6D5
 10
-3.2425
 20
1.01575
 30
0.0
 11
-3.3425
 21
1.01575
 31
0.0
  0
LINE
  8
0
  6
CONTINUOUS
 62
     7
  5
6D6
 10
-2.7775
 20
-1.67
 30
0.0
 11
-2.6775
 21
-1.67
 31
0.0
  0
LINE
  8
0
  6
CONTINUOUS
 62
     7
  5
6D7
 10
-3.5555
 20
0.5773
 30
0.0
 11
-3.5555
 21
0.3858
 31
0.0
  0
LINE
  8
0
  6
CONTINUOUS
 62
     7
  5
6D8
 10
-3.5555
 20
0.3858
 30
0.0
 11
-3.5555
 21
0.059
 31
0.0
  0
LINE
  8
0
  6
CONTINUOUS
 62
     7
  5
6D9
 10
-3.5555
 20
0.059
 30
0.0
 11
-3.5555
 21
-0.5773
 31
0.0
  0
LINE
  8
0
  6
CONTINUOUS
 62
     7
  5
6DA
 10
-3.3425
 20
-0.5773
 30
0.0
 11
-3.5555
 21
-0.5773
 31
0.0
  0
LINE
  8
0
  6
CONTINUOUS
 62
     7
  5
6DB
 10
-3.5555
 20
0.5773
 30
0.0
 11
-3.3425
 21
0.5773
 31
0.0
  0
LINE
  8
0
  6
CONTINUOUS
 62
     7
  5
6DC
 10
-3.6555
 20
0.3858
 30
0.0
 11
-3.5555
 21
0.3858
 31
0.0
  0
LINE
  8
0
  6
CONTINUOUS
 62
     7
  5
6DD
 10
-3.5555
 20
0.5773
 30
0.0
 11
-3.6555
 21
0.5773
 31
0.0
  0
LINE
  8
0
  6
CONTINUOUS
 62
     7
  5
6DE
 10
-3.5555
 20
0.059
 30
0.0
 11
-3.6555
 21
0.059
 31
0.0
  0
LINE
  8
0
  6
CONTINUOUS
 62
     7
  5
6DF
 10
-3.6555
 20
-0.5773
 30
0.0
 11
-3.5555
 21
-0.5773
 31
0.0
  0
LINE
  8
0
  6
CONTINUOUS
 62
     7
  5
6E0
 10
-0.2756
 20
-1.515
 30
0.0
 11
0.0
 21
-1.515
 31
0.0
  0
LINE
  8
0
  6
CONTINUOUS
 62
     7
  5
6E1
 10
-3.3425
 20
-0.5783
 30
0.0
 11
-3.3425
 21
-1.01575
 31
0.0
  0
LINE
  8
0
  6
CONTINUOUS
 62
     7
  5
6E2
 10
-3.3425
 20
1.01575
 30
0.0
 11
-3.3425
 21
0.5783
 31
0.0
  0
LINE
  8
0
  6
CONTINUOUS
 62
     7
  5
6E3
 10
-2.7775
 20
-1.01575
 30
0.0
 11
-2.7775
 21
-1.1156
 31
0.0
  0
LINE
  8
0
  6
CONTINUOUS
 62
     7
  5
6E4
 10
-2.7775
 20
-1.4356
 30
0.0
 11
-2.7775
 21
-1.67
 31
0.0
  0
LINE
  8
0
  6
CONTINUOUS
 62
     7
  5
6E5
 10
-2.7775
 20
1.67
 30
0.0
 11
-2.7775
 21
1.4356
 31
0.0
  0
LINE
  8
0
  6
CONTINUOUS
 62
     7
  5
6E6
 10
-2.7775
 20
1.1156
 30
0.0
 11
-2.7775
 21
1.01575
 31
0.0
  0
LINE
  8
0
  6
CONTINUOUS
 62
     7
  5
6E7
 10
-3.6355
 20
0.3858
 30
0.0
 11
-3.6355
 21
0.059
 31
0.0
  0
LINE
  8
0
  6
CONTINUOUS
 62
     7
  5
6E8
 10
-3.6555
 20
0.5773
 30
0.0
 11
-3.6555
 21
0.3858
 31
0.0
  0
LINE
  8
0
  6
CONTINUOUS
 62
     7
  5
6E9
 10
-3.6555
 20
0.059
 30
0.0
 11
-3.6555
 21
-0.5773
 31
0.0
  0
LINE
  8
0
  6
CONTINUOUS
 62
     3
  5
6EA
 10
-0.2756
 20
1.18
 30
0.0
 11
0.0
 21
1.18
 31
0.0
  0
LINE
  8
0
  6
CONTINUOUS
 62
     3
  5
6EB
 10
-0.2756
 20
1.38
 30
0.0
 11
0.0
 21
1.38
 31
0.0
  0
LINE
  8
0
  6
CONTINUOUS
 62
     3
  5
6EC
 10
-0.2756
 20
-1.18
 30
0.0
 11
0.0
 21
-1.18
 31
0.0
  0
LINE
  8
0
  6
CONTINUOUS
 62
     3
  5
6ED
 10
-0.2756
 20
-1.38
 30
0.0
 11
0.0
 21
-1.38
 31
0.0
  0
ENDSEC
  0
EOF
