  0
SECTION
  2
HEADER
  9
$ACADVER
  1
AC1009
  9
$DWGCODEPAGE
  3
ansi_1250
  9
$INSBASE
 10
0.0
 20
0.0
 30
0.0
  9
$EXTMIN
 10
-3.922
 20
-5.0665
 30
0.0
  9
$EXTMAX
 10
5.6858
 20
3.6555
 30
0.0
  9
$LIMMIN
 10
0.0
 20
0.0
  9
$LIMMAX
 10
0.0
 20
0.0
  9
$ORTHOMODE
 70
     0
  9
$REGENMODE
 70
     1
  9
$FILLMODE
 70
     1
  9
$QTEXTMODE
 70
     0
  9
$MIRRTEXT
 70
     1
  9
$DRAGMODE
 70
     2
  9
$LTSCALE
 40
1.0
  9
$OSMODE
 70
     0
  9
$ATTMODE
 70
     1
  9
$TEXTSIZE
 40
0.2
  9
$TRACEWID
 40
0.05
  9
$TEXTSTYLE
  7
STANDARD
  9
$CLAYER
  8
0
  9
$CELTYPE
  6
CONTINUOUS
  9
$CECOLOR
 62
   256
  9
$DIMSCALE
 40
1.0
  9
$DIMASZ
 40
0.18
  9
$DIMEXO
 40
0.0625
  9
$DIMDLI
 40
0.38
  9
$DIMRND
 40
0.0
  9
$DIMDLE
 40
0.0
  9
$DIMEXE
 40
0.18
  9
$DIMTP
 40
0.0
  9
$DIMTM
 40
0.0
  9
$DIMTXT
 40
0.18
  9
$DIMCEN
 40
0.09
  9
$DIMTSZ
 40
0.0
  9
$DIMTOL
 70
     0
  9
$DIMLIM
 70
     0
  9
$DIMTIH
 70
     1
  9
$DIMTOH
 70
     1
  9
$DIMSE1
 70
     0
  9
$DIMSE2
 70
     0
  9
$DIMTAD
 70
     0
  9
$DIMZIN
 70
     0
  9
$DIMBLK
  1

  9
$DIMASO
 70
     1
  9
$DIMSHO
 70
     1
  9
$DIMPOST
  1

  9
$DIMAPOST
  1

  9
$DIMALT
 70
     0
  9
$DIMALTD
 70
     2
  9
$DIMALTF
 40
25.4
  9
$DIMLFAC
 40
1.0
  9
$DIMTOFL
 70
     0
  9
$DIMTVP
 40
0.0
  9
$DIMTIX
 70
     0
  9
$DIMSOXD
 70
     0
  9
$DIMSAH
 70
     0
  9
$DIMBLK1
  1

  9
$DIMBLK2
  1

  9
$DIMSTYLE
  2
STANDARD
  9
$DIMCLRD
 70
     0
  9
$DIMCLRE
 70
     0
  9
$DIMCLRT
 70
     0
  9
$DIMTFAC
 40
1.0
  9
$DIMGAP
 40
0.09
  9
$LUNITS
 70
     2
  9
$LUPREC
 70
     4
  9
$AXISMODE
 70
     0
  9
$AXISUNIT
 10
0.0
 20
0.0
  9
$SKETCHINC
 40
0.1
  9
$FILLETRAD
 40
0.0
  9
$AUNITS
 70
     0
  9
$AUPREC
 70
     0
  9
$MENU
  1
acad
  9
$ELEVATION
 40
0.0
  9
$PELEVATION
 40
0.0
  9
$THICKNESS
 40
0.0
  9
$LIMCHECK
 70
     0
  9
$BLIPMODE
 70
     1
  9
$CHAMFERA
 40
0.0
  9
$CHAMFERB
 40
0.0
  9
$SKPOLY
 70
     0
  9
$TDCREATE
 40
0.000000000
  9
$TDUPDATE
 40
0.000000000
  9
$TDINDWG
 40
0.0000000000
  9
$TDUSRTIMER
 40
0.0000000000
  9
$USRTIMER
 70
     1
  9
$ANGBASE
 50
0.0
  9
$ANGDIR
 70
     0
  9
$PDMODE
 70
     0
  9
$PDSIZE
 40
0.0
  9
$PLINEWID
 40
0.0
  9
$COORDS
 70
     0
  9
$SPLFRAME
 70
     0
  9
$SPLINETYPE
 70
     6
  9
$SPLINESEGS
 70
     8
  9
$ATTDIA
 70
     0
  9
$ATTREQ
 70
     1
  9
$HANDLING
 70
     1
  9
$HANDSEED
  5
287
  9
$SURFTAB1
 70
     6
  9
$SURFTAB2
 70
     6
  9
$SURFTYPE
 70
     6
  9
$SURFU
 70
     6
  9
$SURFV
 70
     6
  9
$UCSNAME
  2

  9
$UCSORG
 10
0.0
 20
0.0
 30
0.0
  9
$UCSXDIR
 10
1.0
 20
0.0
 30
0.0
  9
$UCSYDIR
 10
0.0
 20
1.0
 30
0.0
  9
$PUCSNAME
  2

  9
$PUCSORG
 10
0.0
 20
0.0
 30
0.0
  9
$PUCSXDIR
 10
1.0
 20
0.0
 30
0.0
  9
$PUCSYDIR
 10
0.0
 20
1.0
 30
0.0
  9
$USERI1
 70
     0
  9
$USERI2
 70
     0
  9
$USERI3
 70
     0
  9
$USERI4
 70
     0
  9
$USERI5
 70
     0
  9
$USERR1
 40
0.0
  9
$USERR2
 40
0.0
  9
$USERR3
 40
0.0
  9
$USERR4
 40
0.0
  9
$USERR5
 40
0.0
  9
$WORLDVIEW
 70
     1
  9
$SHADEDGE
 70
     3
  9
$SHADEDIF
 70
    70
  9
$TILEMODE
 70
     1
  9
$MAXACTVP
 70
    16
  9
$PINSBASE
 10
0.0
 20
0.0
 30
0.0
  9
$PLIMCHECK
 70
     0
  9
$PEXTMIN
 10
1.000000E+20
 20
1.000000E+20
 30
1.000000E+20
  9
$PEXTMAX
 10
-1.000000E+20
 20
-1.000000E+20
 30
-1.000000E+20
  9
$PLIMMIN
 10
0.0
 20
0.0
  9
$PLIMMAX
 10
12.0
 20
9.0
  9
$UNITMODE
 70
     0
  9
$VISRETAIN
 70
     0
  9
$PLINEGEN
 70
     1
  9
$PSLTSCALE
 70
     0
  9
$TREEDEPTH
 70
  3020
  0
ENDSEC
  0
SECTION
  2
TABLES
  0
TABLE
  2
VPORT
 70
     1
  0
VPORT
  2
*ACTIVE
 70
     0
 10
0.0
 20
0.0
 11
1.0
 21
1.0
 12
6.591288
 22
4.579184
 13
0.0
 23
0.0
 14
1.0
 24
1.0
 15
0.0
 25
0.0
 16
0.0
 26
0.0
 36
1.0
 17
0.0
 27
0.0
 37
0.0
 40
9.158369
 41
0.688564
 42
50.0
 43
0.0
 44
0.0
 50
0.0
 51
0.0
 71
     0
 72
   100
 73
     1
 74
     1
 75
     0
 76
     0
 77
     0
 78
     0
  0
ENDTAB
  0
TABLE
  2
LTYPE
 70
     5
  0
LTYPE
  2
CONTINUOUS
 70
    64
  3
Solid line
 72
    65
 73
     0
 40
0.0
  0
LTYPE
  2
CENTER
 70
    64
  3
Center ____ _ ____ _ ____ _ ____ _ ____ _ ____
 72
    65
 73
     4
 40
50.8
 49
31.75
 49
-6.35
 49
6.35
 49
-6.35
  0
LTYPE
  2
HIDDEN
 70
    64
  3
Hidden __ __ __ __ __ __ __ __ __ __ __ __ __ __
 72
    65
 73
     2
 40
9.525
 49
6.35
 49
-3.175
  0
LTYPE
  2
CENTER2
 70
    64
  3
Center (.5x) ___ _ ___ _ ___ _ ___ _ ___ _ ___
 72
    65
 73
     4
 40
28.575
 49
19.05
 49
-3.175
 49
3.175
 49
-3.175
  0
LTYPE
  2
HIDDEN2
 70
    64
  3
Hidden (.5x) _ _ _ _ _ _ _ _ _ _ _ _ _ _ _ _ _
 72
    65
 73
     2
 40
4.7625
 49
3.175
 49
-1.5875
  0
ENDTAB
  0
TABLE
  2
LAYER
 70
     1
  0
LAYER
  2
0
 70
     0
 62
     7
  6
CONTINUOUS
  0
ENDTAB
  0
TABLE
  2
STYLE
 70
     1
  0
STYLE
  2
STANDARD
 70
     0
 40
0.0
 41
1.0
 50
0.0
 71
     0
 42
0.0
  3
txt
  4

  0
ENDTAB
  0
TABLE
  2
VIEW
 70
     0
  0
ENDTAB
  0
TABLE
  2
UCS
 70
     0
  0
ENDTAB
  0
TABLE
  2
APPID
 70
     1
  0
APPID
  2
ACAD
 70
     0
  0
ENDTAB
  0
TABLE
  2
DIMSTYLE
 70
     1
  0
DIMSTYLE
  2
STANDARD
 70
     0
  3

  4

  5

  6

  7

 40
1.0
 41
0.18
 42
0.0625
 43
0.38
 44
0.18
 45
0.0
 46
0.0
 47
0.0
 48
0.0
 71
     0
 72
     0
 73
     1
 74
     1
 75
     0
 76
     0
 77
     0
 78
     0
140
0.18
141
0.09
142
0.0
143
25.4
144
1.0
145
0.0
146
1.0
147
0.09
170
     0
171
     2
172
     0
173
     0
174
     0
175
     0
176
     0
177
     0
178
     0
  0
ENDTAB
  0
ENDSEC
  0
SECTION
  2
BLOCKS
  0
ENDSEC
  0
SECTION
  2
ENTITIES
  0
LINE
  8
0
  6
CONTINUOUS
 62
     7
  5
173
 10
0.88
 20
3.2425
 30
0.0
 11
0.88
 21
3.3425
 31
0.0
  0
LINE
  8
0
  6
CONTINUOUS
 62
     7
  5
174
 10
0.88
 20
2.6775
 30
0.0
 11
0.88
 21
3.2425
 31
0.0
  0
LINE
  8
0
  6
CONTINUOUS
 62
     7
  5
175
 10
0.88
 20
1.787266
 30
0.0
 11
0.88
 21
2.6775
 31
0.0
  0
LINE
  8
0
  6
CONTINUOUS
 62
     7
  5
176
 10
0.88
 20
1.787266
 30
0.0
 11
0.88
 21
1.4616
 31
0.0
  0
LINE
  8
0
  6
CONTINUOUS
 62
     7
  5
177
 10
0.251969
 20
1.888
 30
0.0
 11
0.200751
 21
1.888
 31
0.0
  0
LINE
  8
0
  6
CONTINUOUS
 62
     7
  5
178
 10
-0.006893
 20
1.888
 30
0.0
 11
-0.251969
 21
1.888
 31
0.0
  0
LINE
  8
0
  6
CONTINUOUS
 62
     7
  5
179
 10
0.489537
 20
1.4606
 30
0.0
 11
0.152692
 21
1.4606
 31
0.0
  0
LINE
  8
0
  6
CONTINUOUS
 62
     7
  5
17A
 10
-0.061644
 20
1.4606
 30
0.0
 11
-0.398489
 21
1.4606
 31
0.0
  0
LINE
  8
0
  6
CONTINUOUS
 62
     7
  5
17B
 10
-0.612825
 20
1.4606
 30
0.0
 11
-0.879
 21
1.4606
 31
0.0
  0
LINE
  8
0
  6
CONTINUOUS
 62
     7
  5
17C
 10
0.810988
 20
1.4606
 30
0.0
 11
0.751933
 21
1.4606
 31
0.0
  0
LINE
  8
0
  6
CONTINUOUS
 62
     7
  5
17D
 10
0.879
 20
1.4606
 30
0.0
 11
0.87398
 21
1.4606
 31
0.0
  0
LINE
  8
0
  6
CONTINUOUS
 62
     7
  5
17E
 10
-0.88
 20
1.787266
 30
0.0
 11
-0.570978
 21
1.787266
 31
0.0
  0
LINE
  8
0
  6
CONTINUOUS
 62
     7
  5
17F
 10
-0.88
 20
1.4616
 30
0.0
 11
-0.88
 21
1.787266
 31
0.0
  0
LINE
  8
0
  6
CONTINUOUS
 62
     7
  5
180
 10
-0.879
 20
1.4616
 30
0.0
 11
-0.88
 21
1.4616
 31
0.0
  0
LINE
  8
0
  6
CONTINUOUS
 62
     7
  5
181
 10
-0.879
 20
1.4606
 30
0.0
 11
-0.879
 21
1.4616
 31
0.0
  0
LINE
  8
0
  6
CONTINUOUS
 62
     7
  5
182
 10
0.200751
 20
1.787266
 30
0.0
 11
0.531384
 21
1.787266
 31
0.0
  0
LINE
  8
0
  6
CONTINUOUS
 62
     7
  5
183
 10
-0.35043
 20
1.787266
 30
0.0
 11
-0.019797
 21
1.787266
 31
0.0
  0
LINE
  8
0
  6
CONTINUOUS
 62
     7
  5
184
 10
-0.298031
 20
1.888
 30
0.0
 11
-0.35043
 21
1.888
 31
0.0
  0
LINE
  8
0
  6
CONTINUOUS
 62
     7
  5
185
 10
-0.558074
 20
1.888
 30
0.0
 11
-0.801969
 21
1.888
 31
0.0
  0
LINE
  8
0
  6
CONTINUOUS
 62
     7
  5
186
 10
0.88
 20
0.0
 30
0.0
 11
0.88
 21
0.2756
 31
0.0
  0
LINE
  8
0
  6
CONTINUOUS
 62
     7
  5
187
 10
-0.88
 20
0.2756
 30
0.0
 11
-0.73
 21
0.2756
 31
0.0
  0
LINE
  8
0
  6
CONTINUOUS
 62
     7
  5
188
 10
-0.65
 20
0.2756
 30
0.0
 11
-0.73
 21
0.2756
 31
0.0
  0
LINE
  8
0
  6
CONTINUOUS
 62
     7
  5
189
 10
-0.65
 20
0.2756
 30
0.0
 11
-0.534473
 21
0.2756
 31
0.0
  0
LINE
  8
0
  6
CONTINUOUS
 62
     7
  5
18A
 10
0.88
 20
0.2756
 30
0.0
 11
-0.534473
 21
0.2756
 31
0.0
  0
LINE
  8
0
  6
CONTINUOUS
 62
     7
  5
18B
 10
-0.88
 20
1.4616
 30
0.0
 11
-0.88
 21
1.4252
 31
0.0
  0
LINE
  8
0
  6
CONTINUOUS
 62
     7
  5
18C
 10
0.88
 20
1.4252
 30
0.0
 11
0.88
 21
1.4616
 31
0.0
  0
LINE
  8
0
  6
CONTINUOUS
 62
     7
  5
18D
 10
-0.61736
 20
1.4252
 30
0.0
 11
-0.88
 21
1.4252
 31
0.0
  0
LINE
  8
0
  6
CONTINUOUS
 62
     7
  5
18E
 10
-0.066179
 20
1.4252
 30
0.0
 11
-0.403024
 21
1.4252
 31
0.0
  0
LINE
  8
0
  6
CONTINUOUS
 62
     7
  5
18F
 10
0.485002
 20
1.4252
 30
0.0
 11
0.148157
 21
1.4252
 31
0.0
  0
LINE
  8
0
  6
CONTINUOUS
 62
     7
  5
190
 10
0.810988
 20
1.4252
 30
0.0
 11
0.751933
 21
1.4252
 31
0.0
  0
LINE
  8
0
  6
CONTINUOUS
 62
     7
  5
191
 10
0.88
 20
1.4252
 30
0.0
 11
0.87398
 21
1.4252
 31
0.0
  0
LINE
  8
0
  6
CONTINUOUS
 62
     7
  5
192
 10
0.88
 20
1.173196
 30
0.0
 11
0.88
 21
1.4252
 31
0.0
  0
LINE
  8
0
  6
CONTINUOUS
 62
     7
  5
193
 10
-0.88
 20
1.4252
 30
0.0
 11
-0.88
 21
1.173196
 31
0.0
  0
LINE
  8
0
  6
CONTINUOUS
 62
     7
  5
194
 10
-0.8
 20
0.2756
 30
0.0
 11
-0.8
 21
0.612172
 31
0.0
  0
LINE
  8
0
  6
CONTINUOUS
 62
     7
  5
195
 10
0.8
 20
0.2756
 30
0.0
 11
0.8
 21
0.612172
 31
0.0
  0
LINE
  8
0
  6
CONTINUOUS
 62
     7
  5
196
 10
-0.55
 20
0.2756
 30
0.0
 11
-0.55
 21
0.612172
 31
0.0
  0
LINE
  8
0
  6
CONTINUOUS
 62
     7
  5
197
 10
0.55
 20
0.2756
 30
0.0
 11
0.55
 21
0.612172
 31
0.0
  0
LINE
  8
0
  6
CONTINUOUS
 62
     7
  5
198
 10
-0.534473
 20
0.0
 30
0.0
 11
-0.534473
 21
0.2756
 31
0.0
  0
LINE
  8
0
  6
CONTINUOUS
 62
     7
  5
199
 10
0.88
 20
0.0
 30
0.0
 11
-0.534473
 21
0.0
 31
0.0
  0
LINE
  8
0
  6
CONTINUOUS
 62
     7
  5
19A
 10
-0.534473
 20
0.0
 30
0.0
 11
-0.65
 21
0.0
 31
0.0
  0
LINE
  8
0
  6
CONTINUOUS
 62
     7
  5
19B
 10
-0.73
 20
0.0
 30
0.0
 11
-0.65
 21
0.0
 31
0.0
  0
LINE
  8
0
  6
CONTINUOUS
 62
     7
  5
19C
 10
-0.73
 20
0.0
 30
0.0
 11
-0.88
 21
0.0
 31
0.0
  0
LINE
  8
0
  6
CONTINUOUS
 62
     7
  5
19D
 10
-0.88
 20
0.2756
 30
0.0
 11
-0.88
 21
0.0
 31
0.0
  0
LINE
  8
0
  6
CONTINUOUS
 62
     7
  5
19E
 10
0.0
 20
3.3425
 30
0.0
 11
-0.88
 21
3.3425
 31
0.0
  0
LINE
  8
0
  6
CONTINUOUS
 62
     7
  5
19F
 10
0.88
 20
3.3425
 30
0.0
 11
0.0
 21
3.3425
 31
0.0
  0
LINE
  8
0
  6
CONTINUOUS
 62
     7
  5
1A0
 10
0.879
 20
1.4616
 30
0.0
 11
0.879
 21
1.4606
 31
0.0
  0
LINE
  8
0
  6
CONTINUOUS
 62
     7
  5
1A1
 10
0.88
 20
1.4616
 30
0.0
 11
0.879
 21
1.4616
 31
0.0
  0
LINE
  8
0
  6
CONTINUOUS
 62
     7
  5
1A2
 10
0.87398
 20
1.787266
 30
0.0
 11
0.88
 21
1.787266
 31
0.0
  0
LINE
  8
0
  6
CONTINUOUS
 62
     7
  5
1A3
 10
0.751932
 20
1.787266
 30
0.0
 11
0.810988
 21
1.787266
 31
0.0
  0
LINE
  8
0
  6
CONTINUOUS
 62
     7
  5
1A4
 10
-0.88
 20
2.6775
 30
0.0
 11
-0.88
 21
1.787266
 31
0.0
  0
LINE
  8
0
  6
CONTINUOUS
 62
     7
  5
1A5
 10
-0.88
 20
3.2425
 30
0.0
 11
-0.88
 21
2.6775
 31
0.0
  0
LINE
  8
0
  6
CONTINUOUS
 62
     7
  5
1A6
 10
-0.88
 20
3.3425
 30
0.0
 11
-0.88
 21
3.2425
 31
0.0
  0
LINE
  8
0
  6
CONTINUOUS
 62
     7
  5
1A7
 10
-0.35
 20
3.0581
 30
0.0
 11
-0.05
 21
3.0581
 31
0.0
  0
LINE
  8
0
  6
CONTINUOUS
 62
     7
  5
1A8
 10
-0.35
 20
2.8831
 30
0.0
 11
-0.35
 21
3.0581
 31
0.0
  0
LINE
  8
0
  6
CONTINUOUS
 62
     7
  5
1A9
 10
-0.05
 20
2.8831
 30
0.0
 11
-0.35
 21
2.8831
 31
0.0
  0
LINE
  8
0
  6
CONTINUOUS
 62
     7
  5
1AA
 10
-0.05
 20
3.0581
 30
0.0
 11
-0.05
 21
2.8831
 31
0.0
  0
LINE
  8
0
  6
CONTINUOUS
 62
     7
  5
1AB
 10
0.05
 20
3.0581
 30
0.0
 11
0.35
 21
3.0581
 31
0.0
  0
LINE
  8
0
  6
CONTINUOUS
 62
     7
  5
1AC
 10
0.05
 20
2.8831
 30
0.0
 11
0.05
 21
3.0581
 31
0.0
  0
LINE
  8
0
  6
CONTINUOUS
 62
     7
  5
1AD
 10
0.35
 20
2.8831
 30
0.0
 11
0.05
 21
2.8831
 31
0.0
  0
LINE
  8
0
  6
CONTINUOUS
 62
     7
  5
1AE
 10
0.35
 20
3.0581
 30
0.0
 11
0.35
 21
2.8831
 31
0.0
  0
LINE
  8
0
  6
CONTINUOUS
 62
     7
  5
1AF
 10
0.45
 20
3.0581
 30
0.0
 11
0.75
 21
3.0581
 31
0.0
  0
LINE
  8
0
  6
CONTINUOUS
 62
     7
  5
1B0
 10
0.45
 20
2.8831
 30
0.0
 11
0.45
 21
3.0581
 31
0.0
  0
LINE
  8
0
  6
CONTINUOUS
 62
     7
  5
1B1
 10
0.75
 20
2.8831
 30
0.0
 11
0.45
 21
2.8831
 31
0.0
  0
LINE
  8
0
  6
CONTINUOUS
 62
     7
  5
1B2
 10
0.75
 20
3.0581
 30
0.0
 11
0.75
 21
2.8831
 31
0.0
  0
LINE
  8
0
  6
CONTINUOUS
 62
     7
  5
1B3
 10
0.298031
 20
2.188
 30
0.0
 11
0.801969
 21
2.188
 31
0.0
  0
LINE
  8
0
  6
CONTINUOUS
 62
     7
  5
1B4
 10
0.298031
 20
1.888
 30
0.0
 11
0.298031
 21
2.188
 31
0.0
  0
LINE
  8
0
  6
CONTINUOUS
 62
     7
  5
1B5
 10
0.801969
 20
1.888
 30
0.0
 11
0.751932
 21
1.888
 31
0.0
  0
LINE
  8
0
  6
CONTINUOUS
 62
     7
  5
1B6
 10
0.544288
 20
1.888
 30
0.0
 11
0.298031
 21
1.888
 31
0.0
  0
LINE
  8
0
  6
CONTINUOUS
 62
     7
  5
1B7
 10
0.801969
 20
2.188
 30
0.0
 11
0.801969
 21
1.888
 31
0.0
  0
LINE
  8
0
  6
CONTINUOUS
 62
     7
  5
1B8
 10
-0.251969
 20
2.188
 30
0.0
 11
0.251969
 21
2.188
 31
0.0
  0
LINE
  8
0
  6
CONTINUOUS
 62
     7
  5
1B9
 10
-0.251969
 20
1.888
 30
0.0
 11
-0.251969
 21
2.188
 31
0.0
  0
LINE
  8
0
  6
CONTINUOUS
 62
     7
  5
1BA
 10
0.251969
 20
2.188
 30
0.0
 11
0.251969
 21
1.888
 31
0.0
  0
LINE
  8
0
  6
CONTINUOUS
 62
     7
  5
1BB
 10
-0.801969
 20
2.188
 30
0.0
 11
-0.298031
 21
2.188
 31
0.0
  0
LINE
  8
0
  6
CONTINUOUS
 62
     7
  5
1BC
 10
-0.801969
 20
1.888
 30
0.0
 11
-0.801969
 21
2.188
 31
0.0
  0
LINE
  8
0
  6
CONTINUOUS
 62
     7
  5
1BD
 10
-0.298031
 20
2.188
 30
0.0
 11
-0.298031
 21
1.888
 31
0.0
  0
ARC
  8
0
  6
CONTINUOUS
 62
     7
  5
1BE
 10
0.0
 20
-0.5795
 30
0.0
 40
3.922
 50
77.033853
 51
102.966147
  0
ARC
  8
0
  6
CONTINUOUS
 62
     7
  5
1BF
 10
0.0
 20
-1.1445
 30
0.0
 40
3.922
 50
77.033853
 51
102.966147
  0
LINE
  8
0
  6
CONTINUOUS
 62
     7
  5
1C0
 10
-0.879
 20
3.5555
 30
0.0
 11
-0.879
 21
3.3425
 31
0.0
  0
LINE
  8
0
  6
CONTINUOUS
 62
     7
  5
1C1
 10
0.879
 20
3.3425
 30
0.0
 11
0.879
 21
3.5555
 31
0.0
  0
ARC
  8
0
  6
CONTINUOUS
 62
     7
  5
1C2
 10
0.0
 20
-0.257705
 30
0.0
 40
3.913205
 50
77.019227
 51
102.980773
  0
ARC
  8
0
  6
CONTINUOUS
 62
     7
  5
1C3
 10
-0.843189
 20
2.328708
 30
0.0
 40
0.047244
 50
141.18434
 51
180.0
  0
LINE
  8
0
  6
CONTINUOUS
 62
     7
  5
1C4
 10
-0.890433
 20
1.249968
 30
0.0
 11
-0.890433
 21
2.328708
 31
0.0
  0
ARC
  8
0
  6
CONTINUOUS
 62
     7
  5
1C5
 10
-0.843189
 20
1.249968
 30
0.0
 40
0.047244
 50
180.0
 51
218.81566
  0
LINE
  8
0
  6
CONTINUOUS
 62
     7
  5
1C6
 10
0.8838
 20
1.202724
 30
0.0
 11
0.88
 21
1.202724
 31
0.0
  0
LINE
  8
0
  6
CONTINUOUS
 62
     7
  5
1C7
 10
2.645
 20
2.328708
 30
0.0
 11
2.645
 21
1.903333
 31
0.0
  0
ARC
  8
0
  6
CONTINUOUS
 62
     7
  5
1C8
 10
2.597756
 20
2.328708
 30
0.0
 40
0.047244
 50
0.0
 51
12.941305
  0
LINE
  8
0
  6
CONTINUOUS
 62
     7
  5
1C9
 10
0.8838
 20
2.375952
 30
0.0
 11
0.88
 21
2.375952
 31
0.0
  0
LINE
  8
0
  6
CONTINUOUS
 62
     7
  5
1CA
 10
0.751932
 20
2.043274
 30
0.0
 11
0.751932
 21
1.246928
 31
0.0
  0
LINE
  8
0
  6
CONTINUOUS
 62
     7
  5
1CB
 10
0.176648
 20
1.647605
 30
0.0
 11
0.115874
 21
1.173196
 31
0.0
  0
LINE
  8
0
  6
CONTINUOUS
 62
     7
  5
1CC
 10
0.200751
 20
1.647605
 30
0.0
 11
0.176648
 21
1.647605
 31
0.0
  0
LINE
  8
0
  6
CONTINUOUS
 62
     7
  5
1CD
 10
0.200751
 20
2.043274
 30
0.0
 11
0.200751
 21
1.647605
 31
0.0
  0
LINE
  8
0
  6
CONTINUOUS
 62
     7
  5
1CE
 10
-0.374534
 20
1.647605
 30
0.0
 11
-0.435307
 21
1.173196
 31
0.0
  0
LINE
  8
0
  6
CONTINUOUS
 62
     7
  5
1CF
 10
-0.35043
 20
1.647605
 30
0.0
 11
-0.374534
 21
1.647605
 31
0.0
  0
LINE
  8
0
  6
CONTINUOUS
 62
     7
  5
1D0
 10
-0.35043
 20
2.043274
 30
0.0
 11
-0.35043
 21
1.647605
 31
0.0
  0
LINE
  8
0
  6
CONTINUOUS
 62
     7
  5
1D1
 10
0.8838
 20
1.4616
 30
0.0
 11
0.8838
 21
1.787266
 31
0.0
  0
LINE
  8
0
  6
CONTINUOUS
 62
     7
  5
1D2
 10
0.8838
 20
2.6775
 30
0.0
 11
0.8838
 21
1.787266
 31
0.0
  0
LINE
  8
0
  6
CONTINUOUS
 62
     7
  5
1D3
 10
0.8838
 20
3.2425
 30
0.0
 11
0.8838
 21
2.6775
 31
0.0
  0
LINE
  8
0
  6
CONTINUOUS
 62
     7
  5
1D4
 10
0.8838
 20
3.3425
 30
0.0
 11
0.8838
 21
3.2425
 31
0.0
  0
LINE
  8
0
  6
CONTINUOUS
 62
     7
  5
1D5
 10
2.6438
 20
3.2425
 30
0.0
 11
2.6438
 21
3.3425
 31
0.0
  0
LINE
  8
0
  6
CONTINUOUS
 62
     7
  5
1D6
 10
2.6438
 20
2.6775
 30
0.0
 11
2.6438
 21
3.2425
 31
0.0
  0
LINE
  8
0
  6
CONTINUOUS
 62
     7
  5
1D7
 10
2.6438
 20
1.903333
 30
0.0
 11
2.6438
 21
2.6775
 31
0.0
  0
LINE
  8
0
  6
CONTINUOUS
 62
     7
  5
1D8
 10
2.015769
 20
1.888
 30
0.0
 11
1.972405
 21
1.888
 31
0.0
  0
LINE
  8
0
  6
CONTINUOUS
 62
     7
  5
1D9
 10
1.764761
 20
1.888
 30
0.0
 11
1.511831
 21
1.888
 31
0.0
  0
LINE
  8
0
  6
CONTINUOUS
 62
     7
  5
1DA
 10
2.261191
 20
1.4606
 30
0.0
 11
1.924345
 21
1.4606
 31
0.0
  0
LINE
  8
0
  6
CONTINUOUS
 62
     7
  5
1DB
 10
1.710009
 20
1.4606
 30
0.0
 11
1.373164
 21
1.4606
 31
0.0
  0
LINE
  8
0
  6
CONTINUOUS
 62
     7
  5
1DC
 10
1.158828
 20
1.4606
 30
0.0
 11
0.8848
 21
1.4606
 31
0.0
  0
LINE
  8
0
  6
CONTINUOUS
 62
     7
  5
1DD
 10
2.582641
 20
1.4606
 30
0.0
 11
2.523586
 21
1.4606
 31
0.0
  0
LINE
  8
0
  6
CONTINUOUS
 62
     7
  5
1DE
 10
0.8838
 20
1.787266
 30
0.0
 11
1.200675
 21
1.787266
 31
0.0
  0
LINE
  8
0
  6
CONTINUOUS
 62
     7
  5
1DF
 10
0.8848
 20
1.4606
 30
0.0
 11
0.8848
 21
1.4616
 31
0.0
  0
LINE
  8
0
  6
CONTINUOUS
 62
     7
  5
1E0
 10
1.972405
 20
1.787266
 30
0.0
 11
2.303037
 21
1.787266
 31
0.0
  0
LINE
  8
0
  6
CONTINUOUS
 62
     7
  5
1E1
 10
1.421224
 20
1.787266
 30
0.0
 11
1.751856
 21
1.787266
 31
0.0
  0
LINE
  8
0
  6
CONTINUOUS
 62
     7
  5
1E2
 10
1.465769
 20
1.888
 30
0.0
 11
1.421224
 21
1.888
 31
0.0
  0
LINE
  8
0
  6
CONTINUOUS
 62
     7
  5
1E3
 10
1.21358
 20
1.888
 30
0.0
 11
0.961831
 21
1.888
 31
0.0
  0
LINE
  8
0
  6
CONTINUOUS
 62
     7
  5
1E4
 10
2.6438
 20
0.0
 30
0.0
 11
2.6438
 21
0.2756
 31
0.0
  0
LINE
  8
0
  6
CONTINUOUS
 62
     7
  5
1E5
 10
0.8838
 20
0.2756
 30
0.0
 11
1.0338
 21
0.2756
 31
0.0
  0
LINE
  8
0
  6
CONTINUOUS
 62
     7
  5
1E6
 10
1.1138
 20
0.2756
 30
0.0
 11
1.0338
 21
0.2756
 31
0.0
  0
LINE
  8
0
  6
CONTINUOUS
 62
     7
  5
1E7
 10
1.1138
 20
0.2756
 30
0.0
 11
1.229327
 21
0.2756
 31
0.0
  0
LINE
  8
0
  6
CONTINUOUS
 62
     7
  5
1E8
 10
2.6438
 20
0.2756
 30
0.0
 11
1.229327
 21
0.2756
 31
0.0
  0
LINE
  8
0
  6
CONTINUOUS
 62
     7
  5
1E9
 10
0.8838
 20
1.4616
 30
0.0
 11
0.8838
 21
1.4252
 31
0.0
  0
LINE
  8
0
  6
CONTINUOUS
 62
     7
  5
1EA
 10
1.154294
 20
1.4252
 30
0.0
 11
0.8838
 21
1.4252
 31
0.0
  0
LINE
  8
0
  6
CONTINUOUS
 62
     7
  5
1EB
 10
1.705475
 20
1.4252
 30
0.0
 11
1.368629
 21
1.4252
 31
0.0
  0
LINE
  8
0
  6
CONTINUOUS
 62
     7
  5
1EC
 10
2.256656
 20
1.4252
 30
0.0
 11
1.91981
 21
1.4252
 31
0.0
  0
LINE
  8
0
  6
CONTINUOUS
 62
     7
  5
1ED
 10
2.582641
 20
1.4252
 30
0.0
 11
2.523586
 21
1.4252
 31
0.0
  0
LINE
  8
0
  6
CONTINUOUS
 62
     7
  5
1EE
 10
0.8838
 20
1.4252
 30
0.0
 11
0.8838
 21
1.173196
 31
0.0
  0
LINE
  8
0
  6
CONTINUOUS
 62
     7
  5
1EF
 10
0.9638
 20
0.2756
 30
0.0
 11
0.9638
 21
0.612172
 31
0.0
  0
LINE
  8
0
  6
CONTINUOUS
 62
     7
  5
1F0
 10
2.5638
 20
0.2756
 30
0.0
 11
2.5638
 21
0.612172
 31
0.0
  0
LINE
  8
0
  6
CONTINUOUS
 62
     7
  5
1F1
 10
1.2138
 20
0.2756
 30
0.0
 11
1.2138
 21
0.612172
 31
0.0
  0
LINE
  8
0
  6
CONTINUOUS
 62
     7
  5
1F2
 10
2.3138
 20
0.2756
 30
0.0
 11
2.3138
 21
0.612172
 31
0.0
  0
LINE
  8
0
  6
CONTINUOUS
 62
     7
  5
1F3
 10
1.229327
 20
0.0
 30
0.0
 11
1.229327
 21
0.2756
 31
0.0
  0
LINE
  8
0
  6
CONTINUOUS
 62
     7
  5
1F4
 10
2.6438
 20
0.0
 30
0.0
 11
1.229327
 21
0.0
 31
0.0
  0
LINE
  8
0
  6
CONTINUOUS
 62
     7
  5
1F5
 10
1.229327
 20
0.0
 30
0.0
 11
1.1138
 21
0.0
 31
0.0
  0
LINE
  8
0
  6
CONTINUOUS
 62
     7
  5
1F6
 10
1.0338
 20
0.0
 30
0.0
 11
1.1138
 21
0.0
 31
0.0
  0
LINE
  8
0
  6
CONTINUOUS
 62
     7
  5
1F7
 10
1.0338
 20
0.0
 30
0.0
 11
0.8838
 21
0.0
 31
0.0
  0
LINE
  8
0
  6
CONTINUOUS
 62
     7
  5
1F8
 10
0.8838
 20
0.2756
 30
0.0
 11
0.8838
 21
0.0
 31
0.0
  0
LINE
  8
0
  6
CONTINUOUS
 62
     7
  5
1F9
 10
1.7638
 20
3.3425
 30
0.0
 11
0.8838
 21
3.3425
 31
0.0
  0
LINE
  8
0
  6
CONTINUOUS
 62
     7
  5
1FA
 10
2.6438
 20
3.3425
 30
0.0
 11
1.7638
 21
3.3425
 31
0.0
  0
LINE
  8
0
  6
CONTINUOUS
 62
     7
  5
1FB
 10
2.523586
 20
1.787266
 30
0.0
 11
2.582641
 21
1.787266
 31
0.0
  0
LINE
  8
0
  6
CONTINUOUS
 62
     7
  5
1FC
 10
1.4138
 20
3.0581
 30
0.0
 11
1.7138
 21
3.0581
 31
0.0
  0
LINE
  8
0
  6
CONTINUOUS
 62
     7
  5
1FD
 10
1.4138
 20
2.8831
 30
0.0
 11
1.4138
 21
3.0581
 31
0.0
  0
LINE
  8
0
  6
CONTINUOUS
 62
     7
  5
1FE
 10
1.7138
 20
2.8831
 30
0.0
 11
1.4138
 21
2.8831
 31
0.0
  0
LINE
  8
0
  6
CONTINUOUS
 62
     7
  5
1FF
 10
1.7138
 20
3.0581
 30
0.0
 11
1.7138
 21
2.8831
 31
0.0
  0
LINE
  8
0
  6
CONTINUOUS
 62
     7
  5
200
 10
1.8138
 20
3.0581
 30
0.0
 11
2.1138
 21
3.0581
 31
0.0
  0
LINE
  8
0
  6
CONTINUOUS
 62
     7
  5
201
 10
1.8138
 20
2.8831
 30
0.0
 11
1.8138
 21
3.0581
 31
0.0
  0
LINE
  8
0
  6
CONTINUOUS
 62
     7
  5
202
 10
2.1138
 20
2.8831
 30
0.0
 11
1.8138
 21
2.8831
 31
0.0
  0
LINE
  8
0
  6
CONTINUOUS
 62
     7
  5
203
 10
2.1138
 20
3.0581
 30
0.0
 11
2.1138
 21
2.8831
 31
0.0
  0
LINE
  8
0
  6
CONTINUOUS
 62
     7
  5
204
 10
2.2138
 20
3.0581
 30
0.0
 11
2.5138
 21
3.0581
 31
0.0
  0
LINE
  8
0
  6
CONTINUOUS
 62
     7
  5
205
 10
2.2138
 20
2.8831
 30
0.0
 11
2.2138
 21
3.0581
 31
0.0
  0
LINE
  8
0
  6
CONTINUOUS
 62
     7
  5
206
 10
2.5138
 20
2.8831
 30
0.0
 11
2.2138
 21
2.8831
 31
0.0
  0
LINE
  8
0
  6
CONTINUOUS
 62
     7
  5
207
 10
2.5138
 20
3.0581
 30
0.0
 11
2.5138
 21
2.8831
 31
0.0
  0
LINE
  8
0
  6
CONTINUOUS
 62
     7
  5
208
 10
2.061831
 20
2.188
 30
0.0
 11
2.565769
 21
2.188
 31
0.0
  0
LINE
  8
0
  6
CONTINUOUS
 62
     7
  5
209
 10
2.061831
 20
1.888
 30
0.0
 11
2.061831
 21
2.188
 31
0.0
  0
LINE
  8
0
  6
CONTINUOUS
 62
     7
  5
20A
 10
2.565769
 20
1.888
 30
0.0
 11
2.523586
 21
1.888
 31
0.0
  0
LINE
  8
0
  6
CONTINUOUS
 62
     7
  5
20B
 10
2.315942
 20
1.888
 30
0.0
 11
2.061831
 21
1.888
 31
0.0
  0
LINE
  8
0
  6
CONTINUOUS
 62
     7
  5
20C
 10
2.565769
 20
2.188
 30
0.0
 11
2.565769
 21
1.888
 31
0.0
  0
LINE
  8
0
  6
CONTINUOUS
 62
     7
  5
20D
 10
1.511831
 20
2.188
 30
0.0
 11
2.015769
 21
2.188
 31
0.0
  0
LINE
  8
0
  6
CONTINUOUS
 62
     7
  5
20E
 10
1.511831
 20
1.888
 30
0.0
 11
1.511831
 21
2.188
 31
0.0
  0
LINE
  8
0
  6
CONTINUOUS
 62
     7
  5
20F
 10
2.015769
 20
2.188
 30
0.0
 11
2.015769
 21
1.888
 31
0.0
  0
LINE
  8
0
  6
CONTINUOUS
 62
     7
  5
210
 10
0.961831
 20
2.188
 30
0.0
 11
1.465769
 21
2.188
 31
0.0
  0
LINE
  8
0
  6
CONTINUOUS
 62
     7
  5
211
 10
0.961831
 20
1.888
 30
0.0
 11
0.961831
 21
2.188
 31
0.0
  0
LINE
  8
0
  6
CONTINUOUS
 62
     7
  5
212
 10
1.465769
 20
2.188
 30
0.0
 11
1.465769
 21
1.888
 31
0.0
  0
ARC
  8
0
  6
CONTINUOUS
 62
     7
  5
213
 10
1.7638
 20
-0.5795
 30
0.0
 40
3.922
 50
77.033853
 51
102.966147
  0
ARC
  8
0
  6
CONTINUOUS
 62
     7
  5
214
 10
1.7638
 20
-1.1445
 30
0.0
 40
3.922
 50
77.033853
 51
102.966147
  0
LINE
  8
0
  6
CONTINUOUS
 62
     7
  5
215
 10
1.94275
 20
3.5125
 30
0.0
 11
1.94275
 21
3.5025
 31
0.0
  0
LINE
  8
0
  6
CONTINUOUS
 62
     7
  5
216
 10
2.11205
 20
3.5125
 30
0.0
 11
1.94275
 21
3.5125
 31
0.0
  0
LINE
  8
0
  6
CONTINUOUS
 62
     7
  5
217
 10
2.11205
 20
3.5025
 30
0.0
 11
2.11205
 21
3.5125
 31
0.0
  0
LINE
  8
0
  6
CONTINUOUS
 62
     7
  5
218
 10
1.41555
 20
3.5125
 30
0.0
 11
1.41555
 21
3.5025
 31
0.0
  0
LINE
  8
0
  6
CONTINUOUS
 62
     7
  5
219
 10
1.58485
 20
3.5025
 30
0.0
 11
1.58485
 21
3.5125
 31
0.0
  0
LINE
  8
0
  6
CONTINUOUS
 62
     7
  5
21A
 10
1.58485
 20
3.5125
 30
0.0
 11
1.41555
 21
3.5125
 31
0.0
  0
LINE
  8
0
  6
CONTINUOUS
 62
     7
  5
21B
 10
2.19685
 20
3.4725
 30
0.0
 11
2.12205
 21
3.4725
 31
0.0
  0
LINE
  8
0
  6
CONTINUOUS
 62
     7
  5
21C
 10
2.12205
 20
3.4025
 30
0.0
 11
2.19685
 21
3.4025
 31
0.0
  0
LINE
  8
0
  6
CONTINUOUS
 62
     7
  5
21D
 10
1.33075
 20
3.4025
 30
0.0
 11
1.40555
 21
3.4025
 31
0.0
  0
LINE
  8
0
  6
CONTINUOUS
 62
     7
  5
21E
 10
2.19685
 20
3.4025
 30
0.0
 11
2.19685
 21
3.4725
 31
0.0
  0
LINE
  8
0
  6
CONTINUOUS
 62
     7
  5
21F
 10
1.40555
 20
3.4725
 30
0.0
 11
1.33075
 21
3.4725
 31
0.0
  0
LINE
  8
0
  6
CONTINUOUS
 62
     7
  5
220
 10
1.33075
 20
3.4725
 30
0.0
 11
1.33075
 21
3.4025
 31
0.0
  0
LINE
  8
0
  6
CONTINUOUS
 62
     7
  5
221
 10
1.40555
 20
3.5025
 30
0.0
 11
1.40555
 21
3.3425
 31
0.0
  0
LINE
  8
0
  6
CONTINUOUS
 62
     7
  5
222
 10
2.12205
 20
3.3425
 30
0.0
 11
2.12205
 21
3.5025
 31
0.0
  0
LINE
  8
0
  6
CONTINUOUS
 62
     7
  5
223
 10
2.12205
 20
3.5025
 30
0.0
 11
1.40555
 21
3.5025
 31
0.0
  0
LINE
  8
0
  6
CONTINUOUS
 62
     7
  5
224
 10
2.2087
 20
3.3575
 30
0.0
 11
2.12205
 21
3.3575
 31
0.0
  0
LINE
  8
0
  6
CONTINUOUS
 62
     7
  5
225
 10
1.40555
 20
3.3575
 30
0.0
 11
1.3189
 21
3.3575
 31
0.0
  0
LINE
  8
0
  6
CONTINUOUS
 62
     7
  5
226
 10
2.2087
 20
3.3425
 30
0.0
 11
2.2087
 21
3.3575
 31
0.0
  0
LINE
  8
0
  6
CONTINUOUS
 62
     7
  5
227
 10
2.1339
 20
3.3725
 30
0.0
 11
2.12205
 21
3.3725
 31
0.0
  0
LINE
  8
0
  6
CONTINUOUS
 62
     7
  5
228
 10
2.1339
 20
3.3575
 30
0.0
 11
2.1339
 21
3.3725
 31
0.0
  0
LINE
  8
0
  6
CONTINUOUS
 62
     7
  5
229
 10
1.40555
 20
3.3725
 30
0.0
 11
1.3937
 21
3.3725
 31
0.0
  0
LINE
  8
0
  6
CONTINUOUS
 62
     7
  5
22A
 10
1.3937
 20
3.3725
 30
0.0
 11
1.3937
 21
3.3575
 31
0.0
  0
LINE
  8
0
  6
CONTINUOUS
 62
     7
  5
22B
 10
1.3189
 20
3.3575
 30
0.0
 11
1.3189
 21
3.3425
 31
0.0
  0
LINE
  8
0
  6
CONTINUOUS
 62
     7
  5
22C
 10
2.523586
 20
2.043274
 30
0.0
 11
2.523586
 21
1.246928
 31
0.0
  0
LINE
  8
0
  6
CONTINUOUS
 62
     7
  5
22D
 10
1.948301
 20
1.647605
 30
0.0
 11
1.887528
 21
1.173196
 31
0.0
  0
LINE
  8
0
  6
CONTINUOUS
 62
     7
  5
22E
 10
1.972405
 20
1.647605
 30
0.0
 11
1.948301
 21
1.647605
 31
0.0
  0
LINE
  8
0
  6
CONTINUOUS
 62
     7
  5
22F
 10
1.972405
 20
2.043274
 30
0.0
 11
1.972405
 21
1.647605
 31
0.0
  0
LINE
  8
0
  6
CONTINUOUS
 62
     7
  5
230
 10
1.39712
 20
1.647605
 30
0.0
 11
1.336347
 21
1.173196
 31
0.0
  0
LINE
  8
0
  6
CONTINUOUS
 62
     7
  5
231
 10
1.421224
 20
1.647605
 30
0.0
 11
1.39712
 21
1.647605
 31
0.0
  0
LINE
  8
0
  6
CONTINUOUS
 62
     7
  5
232
 10
1.421224
 20
2.043274
 30
0.0
 11
1.421224
 21
1.647605
 31
0.0
  0
LINE
  8
0
  6
CONTINUOUS
 62
     7
  5
233
 10
2.523586
 20
1.272059
 30
0.0
 11
2.582641
 21
1.272059
 31
0.0
  0
LINE
  8
0
  6
CONTINUOUS
 62
     7
  5
234
 10
2.523586
 20
1.246928
 30
0.0
 11
2.582641
 21
1.246928
 31
0.0
  0
LINE
  8
0
  6
CONTINUOUS
 62
     7
  5
235
 10
2.582641
 20
1.826184
 30
0.0
 11
2.582641
 21
1.29959
 31
0.0
  0
LINE
  8
0
  6
CONTINUOUS
 62
     7
  5
236
 10
2.582641
 20
1.903333
 30
0.0
 11
2.582641
 21
1.826184
 31
0.0
  0
LINE
  8
0
  6
CONTINUOUS
 62
     7
  5
237
 10
2.582641
 20
1.29959
 30
0.0
 11
2.582641
 21
1.246928
 31
0.0
  0
LINE
  8
0
  6
CONTINUOUS
 62
     7
  5
238
 10
2.582641
 20
1.903333
 30
0.0
 11
2.645633
 21
1.903333
 31
0.0
  0
LINE
  8
0
  6
CONTINUOUS
 62
     7
  5
239
 10
2.645633
 20
1.826184
 30
0.0
 11
2.645633
 21
1.903333
 31
0.0
  0
LINE
  8
0
  6
CONTINUOUS
 62
     7
  5
23A
 10
2.645633
 20
1.29959
 30
0.0
 11
2.645633
 21
1.826184
 31
0.0
  0
LINE
  8
0
  6
CONTINUOUS
 62
     7
  5
23B
 10
2.582641
 20
1.246928
 30
0.0
 11
2.645633
 21
1.246928
 31
0.0
  0
LINE
  8
0
  6
CONTINUOUS
 62
     7
  5
23C
 10
2.645633
 20
1.246928
 30
0.0
 11
2.645633
 21
1.29959
 31
0.0
  0
LINE
  8
0
  6
CONTINUOUS
 62
     7
  5
23D
 10
0.751933
 20
1.272059
 30
0.0
 11
0.810988
 21
1.272059
 31
0.0
  0
LINE
  8
0
  6
CONTINUOUS
 62
     7
  5
23E
 10
0.751933
 20
1.246928
 30
0.0
 11
0.810988
 21
1.246928
 31
0.0
  0
LINE
  8
0
  6
CONTINUOUS
 62
     7
  5
23F
 10
0.810988
 20
1.826184
 30
0.0
 11
0.810988
 21
1.29959
 31
0.0
  0
LINE
  8
0
  6
CONTINUOUS
 62
     7
  5
240
 10
0.810988
 20
1.903333
 30
0.0
 11
0.810988
 21
1.826184
 31
0.0
  0
LINE
  8
0
  6
CONTINUOUS
 62
     7
  5
241
 10
0.810988
 20
1.29959
 30
0.0
 11
0.810988
 21
1.246928
 31
0.0
  0
LINE
  8
0
  6
CONTINUOUS
 62
     7
  5
242
 10
0.810988
 20
1.903333
 30
0.0
 11
0.87398
 21
1.903333
 31
0.0
  0
LINE
  8
0
  6
CONTINUOUS
 62
     7
  5
243
 10
0.87398
 20
1.826184
 30
0.0
 11
0.87398
 21
1.903333
 31
0.0
  0
LINE
  8
0
  6
CONTINUOUS
 62
     7
  5
244
 10
0.87398
 20
1.29959
 30
0.0
 11
0.87398
 21
1.826184
 31
0.0
  0
LINE
  8
0
  6
CONTINUOUS
 62
     7
  5
245
 10
0.810988
 20
1.246928
 30
0.0
 11
0.87398
 21
1.246928
 31
0.0
  0
LINE
  8
0
  6
CONTINUOUS
 62
     7
  5
246
 10
0.87398
 20
1.246928
 30
0.0
 11
0.87398
 21
1.29959
 31
0.0
  0
LINE
  8
0
  6
CONTINUOUS
 62
     7
  5
247
 10
0.87398
 20
1.173196
 30
0.0
 11
0.87398
 21
1.246928
 31
0.0
  0
LINE
  8
0
  6
CONTINUOUS
 62
     7
  5
248
 10
-0.8898
 20
0.612172
 30
0.0
 11
-0.8898
 21
1.173196
 31
0.0
  0
LINE
  8
0
  6
CONTINUOUS
 62
     7
  5
249
 10
-0.8898
 20
1.173196
 30
0.0
 11
-0.701615
 21
1.173196
 31
0.0
  0
ARC
  8
0
  6
CONTINUOUS
 62
     7
  5
24A
 10
-0.701615
 20
1.232251
 30
0.0
 40
0.059055
 50
270.0
 51
352.7
  0
LINE
  8
0
  6
CONTINUOUS
 62
     7
  5
24B
 10
-0.643039
 20
1.224747
 30
0.0
 11
-0.541004
 21
2.021251
 31
0.0
  0
ARC
  8
0
  6
CONTINUOUS
 62
     7
  5
24C
 10
-0.482428
 20
2.013747
 30
0.0
 40
0.059055
 50
103.385626
 51
172.7
  0
LINE
  8
0
  6
CONTINUOUS
 62
     7
  5
24D
 10
-0.496099
 20
2.071198
 30
0.0
 11
-0.496099
 21
2.021621
 31
0.0
  0
LINE
  8
0
  6
CONTINUOUS
 62
     7
  5
24E
 10
-0.496099
 20
2.021621
 30
0.0
 11
-0.397674
 21
2.021621
 31
0.0
  0
LINE
  8
0
  6
CONTINUOUS
 62
     7
  5
24F
 10
-0.397674
 20
2.021621
 30
0.0
 11
-0.397674
 21
2.072802
 31
0.0
  0
LINE
  8
0
  6
CONTINUOUS
 62
     7
  5
250
 10
-0.397674
 20
2.072802
 30
0.0
 11
-0.379957
 21
2.072802
 31
0.0
  0
ARC
  8
0
  6
CONTINUOUS
 62
     7
  5
251
 10
-0.379957
 20
2.043274
 30
0.0
 40
0.029528
 50
0.0
 51
90.0
  0
LINE
  8
0
  6
CONTINUOUS
 62
     7
  5
252
 10
-0.435307
 20
1.173196
 30
0.0
 11
-0.150434
 21
1.173196
 31
0.0
  0
ARC
  8
0
  6
CONTINUOUS
 62
     7
  5
253
 10
-0.150434
 20
1.232251
 30
0.0
 40
0.059055
 50
270.0
 51
352.7
  0
LINE
  8
0
  6
CONTINUOUS
 62
     7
  5
254
 10
-0.091858
 20
1.224747
 30
0.0
 11
0.010177
 21
2.021251
 31
0.0
  0
ARC
  8
0
  6
CONTINUOUS
 62
     7
  5
255
 10
0.068753
 20
2.013747
 30
0.0
 40
0.059055
 50
103.385626
 51
172.7
  0
LINE
  8
0
  6
CONTINUOUS
 62
     7
  5
256
 10
0.055082
 20
2.071198
 30
0.0
 11
0.055082
 21
2.021621
 31
0.0
  0
LINE
  8
0
  6
CONTINUOUS
 62
     7
  5
257
 10
0.055082
 20
2.021621
 30
0.0
 11
0.153507
 21
2.021621
 31
0.0
  0
LINE
  8
0
  6
CONTINUOUS
 62
     7
  5
258
 10
0.153507
 20
2.021621
 30
0.0
 11
0.153507
 21
2.072802
 31
0.0
  0
LINE
  8
0
  6
CONTINUOUS
 62
     7
  5
259
 10
0.153507
 20
2.072802
 30
0.0
 11
0.171224
 21
2.072802
 31
0.0
  0
ARC
  8
0
  6
CONTINUOUS
 62
     7
  5
25A
 10
0.171224
 20
2.043274
 30
0.0
 40
0.029528
 50
0.0
 51
90.0
  0
LINE
  8
0
  6
CONTINUOUS
 62
     7
  5
25B
 10
0.115874
 20
1.173196
 30
0.0
 11
0.400747
 21
1.173196
 31
0.0
  0
ARC
  8
0
  6
CONTINUOUS
 62
     7
  5
25C
 10
0.400747
 20
1.232251
 30
0.0
 40
0.059055
 50
270.0
 51
352.7
  0
LINE
  8
0
  6
CONTINUOUS
 62
     7
  5
25D
 10
0.459324
 20
1.224747
 30
0.0
 11
0.561358
 21
2.021251
 31
0.0
  0
ARC
  8
0
  6
CONTINUOUS
 62
     7
  5
25E
 10
0.619934
 20
2.013747
 30
0.0
 40
0.059055
 50
103.385626
 51
172.7
  0
LINE
  8
0
  6
CONTINUOUS
 62
     7
  5
25F
 10
0.606263
 20
2.071198
 30
0.0
 11
0.606263
 21
2.021621
 31
0.0
  0
LINE
  8
0
  6
CONTINUOUS
 62
     7
  5
260
 10
0.606263
 20
2.021621
 30
0.0
 11
0.704688
 21
2.021621
 31
0.0
  0
LINE
  8
0
  6
CONTINUOUS
 62
     7
  5
261
 10
0.704688
 20
2.021621
 30
0.0
 11
0.704688
 21
2.072802
 31
0.0
  0
LINE
  8
0
  6
CONTINUOUS
 62
     7
  5
262
 10
0.704688
 20
2.072802
 30
0.0
 11
0.722405
 21
2.072802
 31
0.0
  0
ARC
  8
0
  6
CONTINUOUS
 62
     7
  5
263
 10
0.722405
 20
2.043274
 30
0.0
 40
0.029528
 50
0.0
 51
90.0
  0
LINE
  8
0
  6
CONTINUOUS
 62
     7
  5
264
 10
0.87398
 20
1.173196
 30
0.0
 11
1.070038
 21
1.173196
 31
0.0
  0
ARC
  8
0
  6
CONTINUOUS
 62
     7
  5
265
 10
1.070038
 20
1.232251
 30
0.0
 40
0.059055
 50
270.0
 51
352.7
  0
LINE
  8
0
  6
CONTINUOUS
 62
     7
  5
266
 10
1.128615
 20
1.224747
 30
0.0
 11
1.230649
 21
2.021251
 31
0.0
  0
ARC
  8
0
  6
CONTINUOUS
 62
     7
  5
267
 10
1.289226
 20
2.013747
 30
0.0
 40
0.059055
 50
103.385626
 51
172.7
  0
LINE
  8
0
  6
CONTINUOUS
 62
     7
  5
268
 10
1.275554
 20
2.071198
 30
0.0
 11
1.275554
 21
2.021621
 31
0.0
  0
LINE
  8
0
  6
CONTINUOUS
 62
     7
  5
269
 10
1.275554
 20
2.021621
 30
0.0
 11
1.37398
 21
2.021621
 31
0.0
  0
LINE
  8
0
  6
CONTINUOUS
 62
     7
  5
26A
 10
1.37398
 20
2.021621
 30
0.0
 11
1.37398
 21
2.072802
 31
0.0
  0
LINE
  8
0
  6
CONTINUOUS
 62
     7
  5
26B
 10
1.37398
 20
2.072802
 30
0.0
 11
1.391696
 21
2.072802
 31
0.0
  0
ARC
  8
0
  6
CONTINUOUS
 62
     7
  5
26C
 10
1.391696
 20
2.043274
 30
0.0
 40
0.029528
 50
0.0
 51
90.0
  0
LINE
  8
0
  6
CONTINUOUS
 62
     7
  5
26D
 10
1.336347
 20
1.173196
 30
0.0
 11
1.62122
 21
1.173196
 31
0.0
  0
ARC
  8
0
  6
CONTINUOUS
 62
     7
  5
26E
 10
1.62122
 20
1.232251
 30
0.0
 40
0.059055
 50
270.0
 51
352.7
  0
LINE
  8
0
  6
CONTINUOUS
 62
     7
  5
26F
 10
1.679796
 20
1.224747
 30
0.0
 11
1.78183
 21
2.021251
 31
0.0
  0
ARC
  8
0
  6
CONTINUOUS
 62
     7
  5
270
 10
1.840407
 20
2.013747
 30
0.0
 40
0.059055
 50
103.385626
 51
172.7
  0
LINE
  8
0
  6
CONTINUOUS
 62
     7
  5
271
 10
1.826735
 20
2.071198
 30
0.0
 11
1.826735
 21
2.021621
 31
0.0
  0
LINE
  8
0
  6
CONTINUOUS
 62
     7
  5
272
 10
1.826735
 20
2.021621
 30
0.0
 11
1.925161
 21
2.021621
 31
0.0
  0
LINE
  8
0
  6
CONTINUOUS
 62
     7
  5
273
 10
1.925161
 20
2.021621
 30
0.0
 11
1.925161
 21
2.072802
 31
0.0
  0
LINE
  8
0
  6
CONTINUOUS
 62
     7
  5
274
 10
1.925161
 20
2.072802
 30
0.0
 11
1.942877
 21
2.072802
 31
0.0
  0
ARC
  8
0
  6
CONTINUOUS
 62
     7
  5
275
 10
1.942877
 20
2.043274
 30
0.0
 40
0.029528
 50
0.0
 51
90.0
  0
LINE
  8
0
  6
CONTINUOUS
 62
     7
  5
276
 10
1.887528
 20
1.173196
 30
0.0
 11
2.172401
 21
1.173196
 31
0.0
  0
ARC
  8
0
  6
CONTINUOUS
 62
     7
  5
277
 10
2.172401
 20
1.232251
 30
0.0
 40
0.059055
 50
270.0
 51
352.7
  0
LINE
  8
0
  6
CONTINUOUS
 62
     7
  5
278
 10
2.230977
 20
1.224747
 30
0.0
 11
2.333012
 21
2.021251
 31
0.0
  0
ARC
  8
0
  6
CONTINUOUS
 62
     7
  5
279
 10
2.391588
 20
2.013747
 30
0.0
 40
0.059055
 50
103.385626
 51
172.7
  0
LINE
  8
0
  6
CONTINUOUS
 62
     7
  5
27A
 10
2.377917
 20
2.071198
 30
0.0
 11
2.377917
 21
2.021621
 31
0.0
  0
LINE
  8
0
  6
CONTINUOUS
 62
     7
  5
27B
 10
2.377917
 20
2.021621
 30
0.0
 11
2.476342
 21
2.021621
 31
0.0
  0
LINE
  8
0
  6
CONTINUOUS
 62
     7
  5
27C
 10
2.476342
 20
2.021621
 30
0.0
 11
2.476342
 21
2.072802
 31
0.0
  0
LINE
  8
0
  6
CONTINUOUS
 62
     7
  5
27D
 10
2.476342
 20
2.072802
 30
0.0
 11
2.494058
 21
2.072802
 31
0.0
  0
ARC
  8
0
  6
CONTINUOUS
 62
     7
  5
27E
 10
2.494058
 20
2.043274
 30
0.0
 40
0.029528
 50
0.0
 51
90.0
  0
LINE
  8
0
  6
CONTINUOUS
 62
     7
  5
27F
 10
2.645633
 20
1.246928
 30
0.0
 11
2.645633
 21
0.612172
 31
0.0
  0
LINE
  8
0
  6
CONTINUOUS
 62
     7
  5
280
 10
2.645633
 20
0.612172
 30
0.0
 11
-0.8898
 21
0.612172
 31
0.0
  0
LINE
  8
0
  6
CONTINUOUS
 62
     3
  5
281
 10
0.69
 20
0.0
 30
0.0
 11
0.69
 21
0.2756
 31
0.0
  0
LINE
  8
0
  6
CONTINUOUS
 62
     3
  5
282
 10
-0.69
 20
0.0
 30
0.0
 11
-0.69
 21
0.2756
 31
0.0
  0
LINE
  8
0
  6
CONTINUOUS
 62
     3
  5
283
 10
2.4538
 20
0.0
 30
0.0
 11
2.4538
 21
0.2756
 31
0.0
  0
LINE
  8
0
  6
CONTINUOUS
 62
     3
  5
284
 10
1.0738
 20
0.0
 30
0.0
 11
1.0738
 21
0.2756
 31
0.0
  0
ENDSEC
  0
EOF
