  0
SECTION
  2
HEADER
  9
$ACADVER
  1
AC1009
  9
$DWGCODEPAGE
  3
ansi_1250
  9
$INSBASE
 10
0.0
 20
0.0
 30
0.0
  9
$EXTMIN
 10
-0.890433
 20
-1.83469
 30
0.0
  9
$EXTMAX
 10
2.645633
 20
1.874024
 30
0.0
  9
$LIMMIN
 10
0.0
 20
0.0
  9
$LIMMAX
 10
0.0
 20
0.0
  9
$ORTHOMODE
 70
     0
  9
$REGENMODE
 70
     1
  9
$FILLMODE
 70
     1
  9
$QTEXTMODE
 70
     0
  9
$MIRRTEXT
 70
     1
  9
$DRAGMODE
 70
     2
  9
$LTSCALE
 40
1.0
  9
$OSMODE
 70
     0
  9
$ATTMODE
 70
     1
  9
$TEXTSIZE
 40
0.2
  9
$TRACEWID
 40
0.05
  9
$TEXTSTYLE
  7
STANDARD
  9
$CLAYER
  8
0
  9
$CELTYPE
  6
CONTINUOUS
  9
$CECOLOR
 62
   256
  9
$DIMSCALE
 40
1.0
  9
$DIMASZ
 40
0.18
  9
$DIMEXO
 40
0.0625
  9
$DIMDLI
 40
0.38
  9
$DIMRND
 40
0.0
  9
$DIMDLE
 40
0.0
  9
$DIMEXE
 40
0.18
  9
$DIMTP
 40
0.0
  9
$DIMTM
 40
0.0
  9
$DIMTXT
 40
0.18
  9
$DIMCEN
 40
0.09
  9
$DIMTSZ
 40
0.0
  9
$DIMTOL
 70
     0
  9
$DIMLIM
 70
     0
  9
$DIMTIH
 70
     1
  9
$DIMTOH
 70
     1
  9
$DIMSE1
 70
     0
  9
$DIMSE2
 70
     0
  9
$DIMTAD
 70
     0
  9
$DIMZIN
 70
     0
  9
$DIMBLK
  1

  9
$DIMASO
 70
     1
  9
$DIMSHO
 70
     1
  9
$DIMPOST
  1

  9
$DIMAPOST
  1

  9
$DIMALT
 70
     0
  9
$DIMALTD
 70
     2
  9
$DIMALTF
 40
25.4
  9
$DIMLFAC
 40
1.0
  9
$DIMTOFL
 70
     0
  9
$DIMTVP
 40
0.0
  9
$DIMTIX
 70
     0
  9
$DIMSOXD
 70
     0
  9
$DIMSAH
 70
     0
  9
$DIMBLK1
  1

  9
$DIMBLK2
  1

  9
$DIMSTYLE
  2
STANDARD
  9
$DIMCLRD
 70
     0
  9
$DIMCLRE
 70
     0
  9
$DIMCLRT
 70
     0
  9
$DIMTFAC
 40
1.0
  9
$DIMGAP
 40
0.09
  9
$LUNITS
 70
     2
  9
$LUPREC
 70
     4
  9
$AXISMODE
 70
     0
  9
$AXISUNIT
 10
0.0
 20
0.0
  9
$SKETCHINC
 40
0.1
  9
$FILLETRAD
 40
0.0
  9
$AUNITS
 70
     0
  9
$AUPREC
 70
     0
  9
$MENU
  1
acad
  9
$ELEVATION
 40
0.0
  9
$PELEVATION
 40
0.0
  9
$THICKNESS
 40
0.0
  9
$LIMCHECK
 70
     0
  9
$BLIPMODE
 70
     1
  9
$CHAMFERA
 40
0.0
  9
$CHAMFERB
 40
0.0
  9
$SKPOLY
 70
     0
  9
$TDCREATE
 40
0.000000000
  9
$TDUPDATE
 40
0.000000000
  9
$TDINDWG
 40
0.0000000000
  9
$TDUSRTIMER
 40
0.0000000000
  9
$USRTIMER
 70
     1
  9
$ANGBASE
 50
0.0
  9
$ANGDIR
 70
     0
  9
$PDMODE
 70
     0
  9
$PDSIZE
 40
0.0
  9
$PLINEWID
 40
0.0
  9
$COORDS
 70
     0
  9
$SPLFRAME
 70
     0
  9
$SPLINETYPE
 70
     6
  9
$SPLINESEGS
 70
     8
  9
$ATTDIA
 70
     0
  9
$ATTREQ
 70
     1
  9
$HANDLING
 70
     1
  9
$HANDSEED
  5
AD9
  9
$SURFTAB1
 70
     6
  9
$SURFTAB2
 70
     6
  9
$SURFTYPE
 70
     6
  9
$SURFU
 70
     6
  9
$SURFV
 70
     6
  9
$UCSNAME
  2

  9
$UCSORG
 10
0.0
 20
0.0
 30
0.0
  9
$UCSXDIR
 10
1.0
 20
0.0
 30
0.0
  9
$UCSYDIR
 10
0.0
 20
1.0
 30
0.0
  9
$PUCSNAME
  2

  9
$PUCSORG
 10
0.0
 20
0.0
 30
0.0
  9
$PUCSXDIR
 10
1.0
 20
0.0
 30
0.0
  9
$PUCSYDIR
 10
0.0
 20
1.0
 30
0.0
  9
$USERI1
 70
     0
  9
$USERI2
 70
     0
  9
$USERI3
 70
     0
  9
$USERI4
 70
     0
  9
$USERI5
 70
     0
  9
$USERR1
 40
0.0
  9
$USERR2
 40
0.0
  9
$USERR3
 40
0.0
  9
$USERR4
 40
0.0
  9
$USERR5
 40
0.0
  9
$WORLDVIEW
 70
     1
  9
$SHADEDGE
 70
     3
  9
$SHADEDIF
 70
    70
  9
$TILEMODE
 70
     1
  9
$MAXACTVP
 70
    16
  9
$PINSBASE
 10
0.0
 20
0.0
 30
0.0
  9
$PLIMCHECK
 70
     0
  9
$PEXTMIN
 10
1.000000E+20
 20
1.000000E+20
 30
1.000000E+20
  9
$PEXTMAX
 10
-1.000000E+20
 20
-1.000000E+20
 30
-1.000000E+20
  9
$PLIMMIN
 10
0.0
 20
0.0
  9
$PLIMMAX
 10
12.0
 20
9.0
  9
$UNITMODE
 70
     0
  9
$VISRETAIN
 70
     0
  9
$PLINEGEN
 70
     1
  9
$PSLTSCALE
 70
     0
  9
$TREEDEPTH
 70
  3020
  0
ENDSEC
  0
SECTION
  2
TABLES
  0
TABLE
  2
VPORT
 70
     1
  0
VPORT
  2
*ACTIVE
 70
     0
 10
0.0
 20
0.0
 11
1.0
 21
1.0
 12
6.591288
 22
4.579184
 13
0.0
 23
0.0
 14
1.0
 24
1.0
 15
0.0
 25
0.0
 16
0.0
 26
0.0
 36
1.0
 17
0.0
 27
0.0
 37
0.0
 40
9.158369
 41
0.688564
 42
50.0
 43
0.0
 44
0.0
 50
0.0
 51
0.0
 71
     0
 72
   100
 73
     1
 74
     1
 75
     0
 76
     0
 77
     0
 78
     0
  0
ENDTAB
  0
TABLE
  2
LTYPE
 70
     5
  0
LTYPE
  2
CONTINUOUS
 70
    64
  3
Solid line
 72
    65
 73
     0
 40
0.0
  0
LTYPE
  2
CENTER
 70
    64
  3
Center ____ _ ____ _ ____ _ ____ _ ____ _ ____
 72
    65
 73
     4
 40
50.8
 49
31.75
 49
-6.35
 49
6.35
 49
-6.35
  0
LTYPE
  2
HIDDEN
 70
    64
  3
Hidden __ __ __ __ __ __ __ __ __ __ __ __ __ __
 72
    65
 73
     2
 40
9.525
 49
6.35
 49
-3.175
  0
LTYPE
  2
CENTER2
 70
    64
  3
Center (.5x) ___ _ ___ _ ___ _ ___ _ ___ _ ___
 72
    65
 73
     4
 40
28.575
 49
19.05
 49
-3.175
 49
3.175
 49
-3.175
  0
LTYPE
  2
HIDDEN2
 70
    64
  3
Hidden (.5x) _ _ _ _ _ _ _ _ _ _ _ _ _ _ _ _ _
 72
    65
 73
     2
 40
4.7625
 49
3.175
 49
-1.5875
  0
ENDTAB
  0
TABLE
  2
LAYER
 70
     1
  0
LAYER
  2
0
 70
     0
 62
     7
  6
CONTINUOUS
  0
ENDTAB
  0
TABLE
  2
STYLE
 70
     1
  0
STYLE
  2
STANDARD
 70
     0
 40
0.0
 41
1.0
 50
0.0
 71
     0
 42
0.0
  3
txt
  4

  0
ENDTAB
  0
TABLE
  2
VIEW
 70
     0
  0
ENDTAB
  0
TABLE
  2
UCS
 70
     0
  0
ENDTAB
  0
TABLE
  2
APPID
 70
     1
  0
APPID
  2
ACAD
 70
     0
  0
ENDTAB
  0
TABLE
  2
DIMSTYLE
 70
     1
  0
DIMSTYLE
  2
STANDARD
 70
     0
  3

  4

  5

  6

  7

 40
1.0
 41
0.18
 42
0.0625
 43
0.38
 44
0.18
 45
0.0
 46
0.0
 47
0.0
 48
0.0
 71
     0
 72
     0
 73
     1
 74
     1
 75
     0
 76
     0
 77
     0
 78
     0
140
0.18
141
0.09
142
0.0
143
25.4
144
1.0
145
0.0
146
1.0
147
0.09
170
     0
171
     2
172
     0
173
     0
174
     0
175
     0
176
     0
177
     0
178
     0
  0
ENDTAB
  0
ENDSEC
  0
SECTION
  2
BLOCKS
  0
ENDSEC
  0
SECTION
  2
ENTITIES
  0
LINE
  8
0
  6
CONTINUOUS
 62
     7
  5
59C
 10
0.88
 20
1.67
 30
0.0
 11
0.88
 21
1.01575
 31
0.0
  0
LINE
  8
0
  6
CONTINUOUS
 62
     7
  5
59D
 10
0.88
 20
1.01575
 30
0.0
 11
0.88
 21
0.5783
 31
0.0
  0
LINE
  8
0
  6
CONTINUOUS
 62
     7
  5
59E
 10
0.88
 20
0.5783
 30
0.0
 11
0.88
 21
-0.5783
 31
0.0
  0
LINE
  8
0
  6
CONTINUOUS
 62
     7
  5
59F
 10
0.88
 20
-0.5783
 30
0.0
 11
0.88
 21
-1.01575
 31
0.0
  0
LINE
  8
0
  6
CONTINUOUS
 62
     7
  5
5A0
 10
0.88
 20
-1.01575
 30
0.0
 11
0.88
 21
-1.67
 31
0.0
  0
LINE
  8
0
  6
CONTINUOUS
 62
     7
  5
5A1
 10
0.88
 20
1.67
 30
0.0
 11
-0.88
 21
1.67
 31
0.0
  0
LINE
  8
0
  6
CONTINUOUS
 62
     7
  5
5A2
 10
0.0
 20
0.5783
 30
0.0
 11
0.88
 21
0.5783
 31
0.0
  0
LINE
  8
0
  6
CONTINUOUS
 62
     7
  5
5A3
 10
-0.88
 20
0.5783
 30
0.0
 11
0.0
 21
0.5783
 31
0.0
  0
LINE
  8
0
  6
CONTINUOUS
 62
     7
  5
5A4
 10
-0.88
 20
-0.5783
 30
0.0
 11
-0.88
 21
0.5783
 31
0.0
  0
LINE
  8
0
  6
CONTINUOUS
 62
     7
  5
5A5
 10
0.0
 20
-0.5783
 30
0.0
 11
-0.88
 21
-0.5783
 31
0.0
  0
LINE
  8
0
  6
CONTINUOUS
 62
     7
  5
5A6
 10
0.88
 20
-0.5783
 30
0.0
 11
0.0
 21
-0.5783
 31
0.0
  0
LINE
  8
0
  6
CONTINUOUS
 62
     7
  5
5A7
 10
-0.88
 20
-1.01575
 30
0.0
 11
-0.88
 21
-1.67
 31
0.0
  0
LINE
  8
0
  6
CONTINUOUS
 62
     7
  5
5A8
 10
-0.88
 20
-0.5783
 30
0.0
 11
-0.88
 21
-1.01575
 31
0.0
  0
LINE
  8
0
  6
CONTINUOUS
 62
     7
  5
5A9
 10
-0.88
 20
1.01575
 30
0.0
 11
-0.88
 21
0.5783
 31
0.0
  0
LINE
  8
0
  6
CONTINUOUS
 62
     7
  5
5AA
 10
-0.88
 20
1.67
 30
0.0
 11
-0.88
 21
1.01575
 31
0.0
  0
LINE
  8
0
  6
CONTINUOUS
 62
     7
  5
5AB
 10
-0.095
 20
-0.77
 30
0.0
 11
-0.096635
 21
-0.788458
 31
0.0
  0
LINE
  8
0
  6
CONTINUOUS
 62
     7
  5
5AC
 10
-0.096635
 20
-0.788458
 30
0.0
 11
-0.101682
 21
-0.806858
 31
0.0
  0
LINE
  8
0
  6
CONTINUOUS
 62
     7
  5
5AD
 10
-0.101682
 20
-0.806858
 30
0.0
 11
-0.110012
 21
-0.824104
 31
0.0
  0
LINE
  8
0
  6
CONTINUOUS
 62
     7
  5
5AE
 10
-0.110012
 20
-0.824104
 30
0.0
 11
-0.1211
 21
-0.83928
 31
0.0
  0
LINE
  8
0
  6
CONTINUOUS
 62
     7
  5
5AF
 10
-0.1211
 20
-0.83928
 30
0.0
 11
-0.134352
 21
-0.851947
 31
0.0
  0
LINE
  8
0
  6
CONTINUOUS
 62
     7
  5
5B0
 10
-0.134352
 20
-0.851947
 30
0.0
 11
-0.150132
 21
-0.862402
 31
0.0
  0
LINE
  8
0
  6
CONTINUOUS
 62
     7
  5
5B1
 10
-0.150132
 20
-0.862402
 30
0.0
 11
-0.167752
 21
-0.869925
 31
0.0
  0
LINE
  8
0
  6
CONTINUOUS
 62
     7
  5
5B2
 10
-0.167752
 20
-0.869925
 30
0.0
 11
-0.186261
 21
-0.874097
 31
0.0
  0
LINE
  8
0
  6
CONTINUOUS
 62
     7
  5
5B3
 10
-0.186261
 20
-0.874097
 30
0.0
 11
-0.204596
 21
-0.874899
 31
0.0
  0
LINE
  8
0
  6
CONTINUOUS
 62
     7
  5
5B4
 10
-0.204596
 20
-0.874899
 30
0.0
 11
-0.223124
 21
-0.872422
 31
0.0
  0
LINE
  8
0
  6
CONTINUOUS
 62
     7
  5
5B5
 10
-0.223124
 20
-0.872422
 30
0.0
 11
-0.241302
 21
-0.866536
 31
0.0
  0
LINE
  8
0
  6
CONTINUOUS
 62
     7
  5
5B6
 10
-0.241302
 20
-0.866536
 30
0.0
 11
-0.258092
 21
-0.857466
 31
0.0
  0
LINE
  8
0
  6
CONTINUOUS
 62
     7
  5
5B7
 10
-0.258092
 20
-0.857466
 30
0.0
 11
-0.272617
 21
-0.84584
 31
0.0
  0
LINE
  8
0
  6
CONTINUOUS
 62
     7
  5
5B8
 10
-0.272617
 20
-0.84584
 30
0.0
 11
-0.284752
 21
-0.831984
 31
0.0
  0
LINE
  8
0
  6
CONTINUOUS
 62
     7
  5
5B9
 10
-0.284752
 20
-0.831984
 30
0.0
 11
-0.294546
 21
-0.815674
 31
0.0
  0
LINE
  8
0
  6
CONTINUOUS
 62
     7
  5
5BA
 10
-0.294546
 20
-0.815674
 30
0.0
 11
-0.301271
 21
-0.797735
 31
0.0
  0
LINE
  8
0
  6
CONTINUOUS
 62
     7
  5
5BB
 10
-0.301271
 20
-0.797735
 30
0.0
 11
-0.3046
 21
-0.779162
 31
0.0
  0
LINE
  8
0
  6
CONTINUOUS
 62
     7
  5
5BC
 10
-0.3046
 20
-0.779162
 30
0.0
 11
-0.3046
 21
-0.760838
 31
0.0
  0
LINE
  8
0
  6
CONTINUOUS
 62
     7
  5
5BD
 10
-0.3046
 20
-0.760838
 30
0.0
 11
-0.301271
 21
-0.742265
 31
0.0
  0
LINE
  8
0
  6
CONTINUOUS
 62
     7
  5
5BE
 10
-0.301271
 20
-0.742265
 30
0.0
 11
-0.294546
 21
-0.724326
 31
0.0
  0
LINE
  8
0
  6
CONTINUOUS
 62
     7
  5
5BF
 10
-0.294546
 20
-0.724326
 30
0.0
 11
-0.284752
 21
-0.708016
 31
0.0
  0
LINE
  8
0
  6
CONTINUOUS
 62
     7
  5
5C0
 10
-0.284752
 20
-0.708016
 30
0.0
 11
-0.272617
 21
-0.69416
 31
0.0
  0
LINE
  8
0
  6
CONTINUOUS
 62
     7
  5
5C1
 10
-0.272617
 20
-0.69416
 30
0.0
 11
-0.258092
 21
-0.682534
 31
0.0
  0
LINE
  8
0
  6
CONTINUOUS
 62
     7
  5
5C2
 10
-0.258092
 20
-0.682534
 30
0.0
 11
-0.241302
 21
-0.673464
 31
0.0
  0
LINE
  8
0
  6
CONTINUOUS
 62
     7
  5
5C3
 10
-0.241302
 20
-0.673464
 30
0.0
 11
-0.223124
 21
-0.667578
 31
0.0
  0
LINE
  8
0
  6
CONTINUOUS
 62
     7
  5
5C4
 10
-0.223124
 20
-0.667578
 30
0.0
 11
-0.204596
 21
-0.665101
 31
0.0
  0
LINE
  8
0
  6
CONTINUOUS
 62
     7
  5
5C5
 10
-0.204596
 20
-0.665101
 30
0.0
 11
-0.186261
 21
-0.665903
 31
0.0
  0
LINE
  8
0
  6
CONTINUOUS
 62
     7
  5
5C6
 10
-0.186261
 20
-0.665903
 30
0.0
 11
-0.167752
 21
-0.670075
 31
0.0
  0
LINE
  8
0
  6
CONTINUOUS
 62
     7
  5
5C7
 10
-0.167752
 20
-0.670075
 30
0.0
 11
-0.150132
 21
-0.677598
 31
0.0
  0
LINE
  8
0
  6
CONTINUOUS
 62
     7
  5
5C8
 10
-0.150132
 20
-0.677598
 30
0.0
 11
-0.134352
 21
-0.688053
 31
0.0
  0
LINE
  8
0
  6
CONTINUOUS
 62
     7
  5
5C9
 10
-0.134352
 20
-0.688053
 30
0.0
 11
-0.1211
 21
-0.70072
 31
0.0
  0
LINE
  8
0
  6
CONTINUOUS
 62
     7
  5
5CA
 10
-0.1211
 20
-0.70072
 30
0.0
 11
-0.110012
 21
-0.715896
 31
0.0
  0
LINE
  8
0
  6
CONTINUOUS
 62
     7
  5
5CB
 10
-0.110012
 20
-0.715896
 30
0.0
 11
-0.101682
 21
-0.733142
 31
0.0
  0
LINE
  8
0
  6
CONTINUOUS
 62
     7
  5
5CC
 10
-0.101682
 20
-0.733142
 30
0.0
 11
-0.096635
 21
-0.751542
 31
0.0
  0
LINE
  8
0
  6
CONTINUOUS
 62
     7
  5
5CD
 10
-0.096635
 20
-0.751542
 30
0.0
 11
-0.095
 21
-0.77
 31
0.0
  0
LINE
  8
0
  6
CONTINUOUS
 62
     7
  5
5CE
 10
-0.095
 20
0.75
 30
0.0
 11
-0.096635
 21
0.731542
 31
0.0
  0
LINE
  8
0
  6
CONTINUOUS
 62
     7
  5
5CF
 10
-0.096635
 20
0.731542
 30
0.0
 11
-0.101682
 21
0.713142
 31
0.0
  0
LINE
  8
0
  6
CONTINUOUS
 62
     7
  5
5D0
 10
-0.101682
 20
0.713142
 30
0.0
 11
-0.110012
 21
0.695896
 31
0.0
  0
LINE
  8
0
  6
CONTINUOUS
 62
     7
  5
5D1
 10
-0.110012
 20
0.695896
 30
0.0
 11
-0.1211
 21
0.68072
 31
0.0
  0
LINE
  8
0
  6
CONTINUOUS
 62
     7
  5
5D2
 10
-0.1211
 20
0.68072
 30
0.0
 11
-0.134352
 21
0.668053
 31
0.0
  0
LINE
  8
0
  6
CONTINUOUS
 62
     7
  5
5D3
 10
-0.134352
 20
0.668053
 30
0.0
 11
-0.150132
 21
0.657598
 31
0.0
  0
LINE
  8
0
  6
CONTINUOUS
 62
     7
  5
5D4
 10
-0.150132
 20
0.657598
 30
0.0
 11
-0.167752
 21
0.650075
 31
0.0
  0
LINE
  8
0
  6
CONTINUOUS
 62
     7
  5
5D5
 10
-0.167752
 20
0.650075
 30
0.0
 11
-0.186261
 21
0.645903
 31
0.0
  0
LINE
  8
0
  6
CONTINUOUS
 62
     7
  5
5D6
 10
-0.186261
 20
0.645903
 30
0.0
 11
-0.204596
 21
0.645101
 31
0.0
  0
LINE
  8
0
  6
CONTINUOUS
 62
     7
  5
5D7
 10
-0.204596
 20
0.645101
 30
0.0
 11
-0.223124
 21
0.647578
 31
0.0
  0
LINE
  8
0
  6
CONTINUOUS
 62
     7
  5
5D8
 10
-0.223124
 20
0.647578
 30
0.0
 11
-0.241302
 21
0.653464
 31
0.0
  0
LINE
  8
0
  6
CONTINUOUS
 62
     7
  5
5D9
 10
-0.241302
 20
0.653464
 30
0.0
 11
-0.258092
 21
0.662534
 31
0.0
  0
LINE
  8
0
  6
CONTINUOUS
 62
     7
  5
5DA
 10
-0.258092
 20
0.662534
 30
0.0
 11
-0.272617
 21
0.67416
 31
0.0
  0
LINE
  8
0
  6
CONTINUOUS
 62
     7
  5
5DB
 10
-0.272617
 20
0.67416
 30
0.0
 11
-0.284752
 21
0.688016
 31
0.0
  0
LINE
  8
0
  6
CONTINUOUS
 62
     7
  5
5DC
 10
-0.284752
 20
0.688016
 30
0.0
 11
-0.294546
 21
0.704326
 31
0.0
  0
LINE
  8
0
  6
CONTINUOUS
 62
     7
  5
5DD
 10
-0.294546
 20
0.704326
 30
0.0
 11
-0.301271
 21
0.722265
 31
0.0
  0
LINE
  8
0
  6
CONTINUOUS
 62
     7
  5
5DE
 10
-0.301271
 20
0.722265
 30
0.0
 11
-0.3046
 21
0.740838
 31
0.0
  0
LINE
  8
0
  6
CONTINUOUS
 62
     7
  5
5DF
 10
-0.3046
 20
0.740838
 30
0.0
 11
-0.3046
 21
0.759162
 31
0.0
  0
LINE
  8
0
  6
CONTINUOUS
 62
     7
  5
5E0
 10
-0.3046
 20
0.759162
 30
0.0
 11
-0.301271
 21
0.777735
 31
0.0
  0
LINE
  8
0
  6
CONTINUOUS
 62
     7
  5
5E1
 10
-0.301271
 20
0.777735
 30
0.0
 11
-0.294546
 21
0.795674
 31
0.0
  0
LINE
  8
0
  6
CONTINUOUS
 62
     7
  5
5E2
 10
-0.294546
 20
0.795674
 30
0.0
 11
-0.284752
 21
0.811984
 31
0.0
  0
LINE
  8
0
  6
CONTINUOUS
 62
     7
  5
5E3
 10
-0.284752
 20
0.811984
 30
0.0
 11
-0.272617
 21
0.82584
 31
0.0
  0
LINE
  8
0
  6
CONTINUOUS
 62
     7
  5
5E4
 10
-0.272617
 20
0.82584
 30
0.0
 11
-0.258092
 21
0.837466
 31
0.0
  0
LINE
  8
0
  6
CONTINUOUS
 62
     7
  5
5E5
 10
-0.258092
 20
0.837466
 30
0.0
 11
-0.241302
 21
0.846536
 31
0.0
  0
LINE
  8
0
  6
CONTINUOUS
 62
     7
  5
5E6
 10
-0.241302
 20
0.846536
 30
0.0
 11
-0.223124
 21
0.852422
 31
0.0
  0
LINE
  8
0
  6
CONTINUOUS
 62
     7
  5
5E7
 10
-0.223124
 20
0.852422
 30
0.0
 11
-0.204596
 21
0.854899
 31
0.0
  0
LINE
  8
0
  6
CONTINUOUS
 62
     7
  5
5E8
 10
-0.204596
 20
0.854899
 30
0.0
 11
-0.186261
 21
0.854097
 31
0.0
  0
LINE
  8
0
  6
CONTINUOUS
 62
     7
  5
5E9
 10
-0.186261
 20
0.854097
 30
0.0
 11
-0.167752
 21
0.849925
 31
0.0
  0
LINE
  8
0
  6
CONTINUOUS
 62
     7
  5
5EA
 10
-0.167752
 20
0.849925
 30
0.0
 11
-0.150132
 21
0.842402
 31
0.0
  0
LINE
  8
0
  6
CONTINUOUS
 62
     7
  5
5EB
 10
-0.150132
 20
0.842402
 30
0.0
 11
-0.134352
 21
0.831947
 31
0.0
  0
LINE
  8
0
  6
CONTINUOUS
 62
     7
  5
5EC
 10
-0.134352
 20
0.831947
 30
0.0
 11
-0.1211
 21
0.81928
 31
0.0
  0
LINE
  8
0
  6
CONTINUOUS
 62
     7
  5
5ED
 10
-0.1211
 20
0.81928
 30
0.0
 11
-0.110012
 21
0.804104
 31
0.0
  0
LINE
  8
0
  6
CONTINUOUS
 62
     7
  5
5EE
 10
-0.110012
 20
0.804104
 30
0.0
 11
-0.101682
 21
0.786858
 31
0.0
  0
LINE
  8
0
  6
CONTINUOUS
 62
     7
  5
5EF
 10
-0.101682
 20
0.786858
 30
0.0
 11
-0.096635
 21
0.768458
 31
0.0
  0
LINE
  8
0
  6
CONTINUOUS
 62
     7
  5
5F0
 10
-0.096635
 20
0.768458
 30
0.0
 11
-0.095
 21
0.75
 31
0.0
  0
LINE
  8
0
  6
CONTINUOUS
 62
     7
  5
5F1
 10
0.305
 20
-0.77
 30
0.0
 11
0.303365
 21
-0.788456
 31
0.0
  0
LINE
  8
0
  6
CONTINUOUS
 62
     7
  5
5F2
 10
0.303365
 20
-0.788456
 30
0.0
 11
0.298321
 21
-0.806851
 31
0.0
  0
LINE
  8
0
  6
CONTINUOUS
 62
     7
  5
5F3
 10
0.298321
 20
-0.806851
 30
0.0
 11
0.289996
 21
-0.824089
 31
0.0
  0
LINE
  8
0
  6
CONTINUOUS
 62
     7
  5
5F4
 10
0.289996
 20
-0.824089
 30
0.0
 11
0.27892
 21
-0.839257
 31
0.0
  0
LINE
  8
0
  6
CONTINUOUS
 62
     7
  5
5F5
 10
0.27892
 20
-0.839257
 30
0.0
 11
0.265686
 21
-0.851917
 31
0.0
  0
LINE
  8
0
  6
CONTINUOUS
 62
     7
  5
5F6
 10
0.265686
 20
-0.851917
 30
0.0
 11
0.249928
 21
-0.86237
 31
0.0
  0
LINE
  8
0
  6
CONTINUOUS
 62
     7
  5
5F7
 10
0.249928
 20
-0.86237
 30
0.0
 11
0.232328
 21
-0.8699
 31
0.0
  0
LINE
  8
0
  6
CONTINUOUS
 62
     7
  5
5F8
 10
0.232328
 20
-0.8699
 30
0.0
 11
0.213831
 21
-0.874085
 31
0.0
  0
LINE
  8
0
  6
CONTINUOUS
 62
     7
  5
5F9
 10
0.213831
 20
-0.874085
 30
0.0
 11
0.195498
 21
-0.874903
 31
0.0
  0
LINE
  8
0
  6
CONTINUOUS
 62
     7
  5
5FA
 10
0.195498
 20
-0.874903
 30
0.0
 11
0.176963
 21
-0.872442
 31
0.0
  0
LINE
  8
0
  6
CONTINUOUS
 62
     7
  5
5FB
 10
0.176963
 20
-0.872442
 30
0.0
 11
0.158768
 21
-0.866566
 31
0.0
  0
LINE
  8
0
  6
CONTINUOUS
 62
     7
  5
5FC
 10
0.158768
 20
-0.866566
 30
0.0
 11
0.141957
 21
-0.857499
 31
0.0
  0
LINE
  8
0
  6
CONTINUOUS
 62
     7
  5
5FD
 10
0.141957
 20
-0.857499
 30
0.0
 11
0.127411
 21
-0.845867
 31
0.0
  0
LINE
  8
0
  6
CONTINUOUS
 62
     7
  5
5FE
 10
0.127411
 20
-0.845867
 30
0.0
 11
0.115262
 21
-0.832003
 31
0.0
  0
LINE
  8
0
  6
CONTINUOUS
 62
     7
  5
5FF
 10
0.115262
 20
-0.832003
 30
0.0
 11
0.105459
 21
-0.815684
 31
0.0
  0
LINE
  8
0
  6
CONTINUOUS
 62
     7
  5
600
 10
0.105459
 20
-0.815684
 30
0.0
 11
0.09873
 21
-0.797739
 31
0.0
  0
LINE
  8
0
  6
CONTINUOUS
 62
     7
  5
601
 10
0.09873
 20
-0.797739
 30
0.0
 11
0.0954
 21
-0.779162
 31
0.0
  0
LINE
  8
0
  6
CONTINUOUS
 62
     7
  5
602
 10
0.0954
 20
-0.779162
 30
0.0
 11
0.0954
 21
-0.760838
 31
0.0
  0
LINE
  8
0
  6
CONTINUOUS
 62
     7
  5
603
 10
0.0954
 20
-0.760838
 30
0.0
 11
0.09873
 21
-0.742261
 31
0.0
  0
LINE
  8
0
  6
CONTINUOUS
 62
     7
  5
604
 10
0.09873
 20
-0.742261
 30
0.0
 11
0.105459
 21
-0.724316
 31
0.0
  0
LINE
  8
0
  6
CONTINUOUS
 62
     7
  5
605
 10
0.105459
 20
-0.724316
 30
0.0
 11
0.115262
 21
-0.707997
 31
0.0
  0
LINE
  8
0
  6
CONTINUOUS
 62
     7
  5
606
 10
0.115262
 20
-0.707997
 30
0.0
 11
0.127411
 21
-0.694133
 31
0.0
  0
LINE
  8
0
  6
CONTINUOUS
 62
     7
  5
607
 10
0.127411
 20
-0.694133
 30
0.0
 11
0.141957
 21
-0.682501
 31
0.0
  0
LINE
  8
0
  6
CONTINUOUS
 62
     7
  5
608
 10
0.141957
 20
-0.682501
 30
0.0
 11
0.158768
 21
-0.673434
 31
0.0
  0
LINE
  8
0
  6
CONTINUOUS
 62
     7
  5
609
 10
0.158768
 20
-0.673434
 30
0.0
 11
0.176963
 21
-0.667558
 31
0.0
  0
LINE
  8
0
  6
CONTINUOUS
 62
     7
  5
60A
 10
0.176963
 20
-0.667558
 30
0.0
 11
0.195498
 21
-0.665097
 31
0.0
  0
LINE
  8
0
  6
CONTINUOUS
 62
     7
  5
60B
 10
0.195498
 20
-0.665097
 30
0.0
 11
0.213831
 21
-0.665915
 31
0.0
  0
LINE
  8
0
  6
CONTINUOUS
 62
     7
  5
60C
 10
0.213831
 20
-0.665915
 30
0.0
 11
0.232328
 21
-0.6701
 31
0.0
  0
LINE
  8
0
  6
CONTINUOUS
 62
     7
  5
60D
 10
0.232328
 20
-0.6701
 30
0.0
 11
0.249928
 21
-0.67763
 31
0.0
  0
LINE
  8
0
  6
CONTINUOUS
 62
     7
  5
60E
 10
0.249928
 20
-0.67763
 30
0.0
 11
0.265686
 21
-0.688083
 31
0.0
  0
LINE
  8
0
  6
CONTINUOUS
 62
     7
  5
60F
 10
0.265686
 20
-0.688083
 30
0.0
 11
0.27892
 21
-0.700743
 31
0.0
  0
LINE
  8
0
  6
CONTINUOUS
 62
     7
  5
610
 10
0.27892
 20
-0.700743
 30
0.0
 11
0.289996
 21
-0.715911
 31
0.0
  0
LINE
  8
0
  6
CONTINUOUS
 62
     7
  5
611
 10
0.289996
 20
-0.715911
 30
0.0
 11
0.298321
 21
-0.733149
 31
0.0
  0
LINE
  8
0
  6
CONTINUOUS
 62
     7
  5
612
 10
0.298321
 20
-0.733149
 30
0.0
 11
0.303365
 21
-0.751544
 31
0.0
  0
LINE
  8
0
  6
CONTINUOUS
 62
     7
  5
613
 10
0.303365
 20
-0.751544
 30
0.0
 11
0.305
 21
-0.77
 31
0.0
  0
LINE
  8
0
  6
CONTINUOUS
 62
     7
  5
614
 10
0.305
 20
0.75
 30
0.0
 11
0.303365
 21
0.731544
 31
0.0
  0
LINE
  8
0
  6
CONTINUOUS
 62
     7
  5
615
 10
0.303365
 20
0.731544
 30
0.0
 11
0.298321
 21
0.713149
 31
0.0
  0
LINE
  8
0
  6
CONTINUOUS
 62
     7
  5
616
 10
0.298321
 20
0.713149
 30
0.0
 11
0.289996
 21
0.695911
 31
0.0
  0
LINE
  8
0
  6
CONTINUOUS
 62
     7
  5
617
 10
0.289996
 20
0.695911
 30
0.0
 11
0.27892
 21
0.680743
 31
0.0
  0
LINE
  8
0
  6
CONTINUOUS
 62
     7
  5
618
 10
0.27892
 20
0.680743
 30
0.0
 11
0.265686
 21
0.668083
 31
0.0
  0
LINE
  8
0
  6
CONTINUOUS
 62
     7
  5
619
 10
0.265686
 20
0.668083
 30
0.0
 11
0.249928
 21
0.65763
 31
0.0
  0
LINE
  8
0
  6
CONTINUOUS
 62
     7
  5
61A
 10
0.249928
 20
0.65763
 30
0.0
 11
0.232328
 21
0.6501
 31
0.0
  0
LINE
  8
0
  6
CONTINUOUS
 62
     7
  5
61B
 10
0.232328
 20
0.6501
 30
0.0
 11
0.213831
 21
0.645915
 31
0.0
  0
LINE
  8
0
  6
CONTINUOUS
 62
     7
  5
61C
 10
0.213831
 20
0.645915
 30
0.0
 11
0.195498
 21
0.645097
 31
0.0
  0
LINE
  8
0
  6
CONTINUOUS
 62
     7
  5
61D
 10
0.195498
 20
0.645097
 30
0.0
 11
0.176963
 21
0.647558
 31
0.0
  0
LINE
  8
0
  6
CONTINUOUS
 62
     7
  5
61E
 10
0.176963
 20
0.647558
 30
0.0
 11
0.158768
 21
0.653434
 31
0.0
  0
LINE
  8
0
  6
CONTINUOUS
 62
     7
  5
61F
 10
0.158768
 20
0.653434
 30
0.0
 11
0.141957
 21
0.662501
 31
0.0
  0
LINE
  8
0
  6
CONTINUOUS
 62
     7
  5
620
 10
0.141957
 20
0.662501
 30
0.0
 11
0.127411
 21
0.674133
 31
0.0
  0
LINE
  8
0
  6
CONTINUOUS
 62
     7
  5
621
 10
0.127411
 20
0.674133
 30
0.0
 11
0.115262
 21
0.687997
 31
0.0
  0
LINE
  8
0
  6
CONTINUOUS
 62
     7
  5
622
 10
0.115262
 20
0.687997
 30
0.0
 11
0.105459
 21
0.704316
 31
0.0
  0
LINE
  8
0
  6
CONTINUOUS
 62
     7
  5
623
 10
0.105459
 20
0.704316
 30
0.0
 11
0.09873
 21
0.722261
 31
0.0
  0
LINE
  8
0
  6
CONTINUOUS
 62
     7
  5
624
 10
0.09873
 20
0.722261
 30
0.0
 11
0.0954
 21
0.740838
 31
0.0
  0
LINE
  8
0
  6
CONTINUOUS
 62
     7
  5
625
 10
0.0954
 20
0.740838
 30
0.0
 11
0.0954
 21
0.759162
 31
0.0
  0
LINE
  8
0
  6
CONTINUOUS
 62
     7
  5
626
 10
0.0954
 20
0.759162
 30
0.0
 11
0.09873
 21
0.777739
 31
0.0
  0
LINE
  8
0
  6
CONTINUOUS
 62
     7
  5
627
 10
0.09873
 20
0.777739
 30
0.0
 11
0.105459
 21
0.795684
 31
0.0
  0
LINE
  8
0
  6
CONTINUOUS
 62
     7
  5
628
 10
0.105459
 20
0.795684
 30
0.0
 11
0.115262
 21
0.812003
 31
0.0
  0
LINE
  8
0
  6
CONTINUOUS
 62
     7
  5
629
 10
0.115262
 20
0.812003
 30
0.0
 11
0.127411
 21
0.825867
 31
0.0
  0
LINE
  8
0
  6
CONTINUOUS
 62
     7
  5
62A
 10
0.127411
 20
0.825867
 30
0.0
 11
0.141957
 21
0.837499
 31
0.0
  0
LINE
  8
0
  6
CONTINUOUS
 62
     7
  5
62B
 10
0.141957
 20
0.837499
 30
0.0
 11
0.158768
 21
0.846566
 31
0.0
  0
LINE
  8
0
  6
CONTINUOUS
 62
     7
  5
62C
 10
0.158768
 20
0.846566
 30
0.0
 11
0.176963
 21
0.852442
 31
0.0
  0
LINE
  8
0
  6
CONTINUOUS
 62
     7
  5
62D
 10
0.176963
 20
0.852442
 30
0.0
 11
0.195498
 21
0.854903
 31
0.0
  0
LINE
  8
0
  6
CONTINUOUS
 62
     7
  5
62E
 10
0.195498
 20
0.854903
 30
0.0
 11
0.213831
 21
0.854085
 31
0.0
  0
LINE
  8
0
  6
CONTINUOUS
 62
     7
  5
62F
 10
0.213831
 20
0.854085
 30
0.0
 11
0.232328
 21
0.8499
 31
0.0
  0
LINE
  8
0
  6
CONTINUOUS
 62
     7
  5
630
 10
0.232328
 20
0.8499
 30
0.0
 11
0.249928
 21
0.84237
 31
0.0
  0
LINE
  8
0
  6
CONTINUOUS
 62
     7
  5
631
 10
0.249928
 20
0.84237
 30
0.0
 11
0.265686
 21
0.831917
 31
0.0
  0
LINE
  8
0
  6
CONTINUOUS
 62
     7
  5
632
 10
0.265686
 20
0.831917
 30
0.0
 11
0.27892
 21
0.819257
 31
0.0
  0
LINE
  8
0
  6
CONTINUOUS
 62
     7
  5
633
 10
0.27892
 20
0.819257
 30
0.0
 11
0.289996
 21
0.804089
 31
0.0
  0
LINE
  8
0
  6
CONTINUOUS
 62
     7
  5
634
 10
0.289996
 20
0.804089
 30
0.0
 11
0.298321
 21
0.786851
 31
0.0
  0
LINE
  8
0
  6
CONTINUOUS
 62
     7
  5
635
 10
0.298321
 20
0.786851
 30
0.0
 11
0.303365
 21
0.768456
 31
0.0
  0
LINE
  8
0
  6
CONTINUOUS
 62
     7
  5
636
 10
0.303365
 20
0.768456
 30
0.0
 11
0.305
 21
0.75
 31
0.0
  0
LINE
  8
0
  6
CONTINUOUS
 62
     7
  5
637
 10
0.705
 20
-0.77
 30
0.0
 11
0.703349
 21
-0.788547
 31
0.0
  0
LINE
  8
0
  6
CONTINUOUS
 62
     7
  5
638
 10
0.703349
 20
-0.788547
 30
0.0
 11
0.698262
 21
-0.807008
 31
0.0
  0
LINE
  8
0
  6
CONTINUOUS
 62
     7
  5
639
 10
0.698262
 20
-0.807008
 30
0.0
 11
0.689886
 21
-0.824273
 31
0.0
  0
LINE
  8
0
  6
CONTINUOUS
 62
     7
  5
63A
 10
0.689886
 20
-0.824273
 30
0.0
 11
0.678777
 21
-0.839421
 31
0.0
  0
LINE
  8
0
  6
CONTINUOUS
 62
     7
  5
63B
 10
0.678777
 20
-0.839421
 30
0.0
 11
0.665531
 21
-0.852041
 31
0.0
  0
LINE
  8
0
  6
CONTINUOUS
 62
     7
  5
63C
 10
0.665531
 20
-0.852041
 30
0.0
 11
0.649798
 21
-0.86244
 31
0.0
  0
LINE
  8
0
  6
CONTINUOUS
 62
     7
  5
63D
 10
0.649798
 20
-0.86244
 30
0.0
 11
0.632263
 21
-0.86992
 31
0.0
  0
LINE
  8
0
  6
CONTINUOUS
 62
     7
  5
63E
 10
0.632263
 20
-0.86992
 30
0.0
 11
0.613857
 21
-0.874082
 31
0.0
  0
LINE
  8
0
  6
CONTINUOUS
 62
     7
  5
63F
 10
0.613857
 20
-0.874082
 30
0.0
 11
0.595618
 21
-0.874909
 31
0.0
  0
LINE
  8
0
  6
CONTINUOUS
 62
     7
  5
640
 10
0.595618
 20
-0.874909
 30
0.0
 11
0.577167
 21
-0.872487
 31
0.0
  0
LINE
  8
0
  6
CONTINUOUS
 62
     7
  5
641
 10
0.577167
 20
-0.872487
 30
0.0
 11
0.559017
 21
-0.866672
 31
0.0
  0
LINE
  8
0
  6
CONTINUOUS
 62
     7
  5
642
 10
0.559017
 20
-0.866672
 30
0.0
 11
0.542208
 21
-0.857665
 31
0.0
  0
LINE
  8
0
  6
CONTINUOUS
 62
     7
  5
643
 10
0.542208
 20
-0.857665
 30
0.0
 11
0.527619
 21
-0.846066
 31
0.0
  0
LINE
  8
0
  6
CONTINUOUS
 62
     7
  5
644
 10
0.527619
 20
-0.846066
 30
0.0
 11
0.515422
 21
-0.832222
 31
0.0
  0
LINE
  8
0
  6
CONTINUOUS
 62
     7
  5
645
 10
0.515422
 20
-0.832222
 30
0.0
 11
0.505555
 21
-0.815882
 31
0.0
  0
LINE
  8
0
  6
CONTINUOUS
 62
     7
  5
646
 10
0.505555
 20
-0.815882
 30
0.0
 11
0.498768
 21
-0.797875
 31
0.0
  0
LINE
  8
0
  6
CONTINUOUS
 62
     7
  5
647
 10
0.498768
 20
-0.797875
 30
0.0
 11
0.495405
 21
-0.77921
 31
0.0
  0
LINE
  8
0
  6
CONTINUOUS
 62
     7
  5
648
 10
0.495405
 20
-0.77921
 30
0.0
 11
0.495405
 21
-0.76079
 31
0.0
  0
LINE
  8
0
  6
CONTINUOUS
 62
     7
  5
649
 10
0.495405
 20
-0.76079
 30
0.0
 11
0.498768
 21
-0.742125
 31
0.0
  0
LINE
  8
0
  6
CONTINUOUS
 62
     7
  5
64A
 10
0.498768
 20
-0.742125
 30
0.0
 11
0.505555
 21
-0.724118
 31
0.0
  0
LINE
  8
0
  6
CONTINUOUS
 62
     7
  5
64B
 10
0.505555
 20
-0.724118
 30
0.0
 11
0.515422
 21
-0.707778
 31
0.0
  0
LINE
  8
0
  6
CONTINUOUS
 62
     7
  5
64C
 10
0.515422
 20
-0.707778
 30
0.0
 11
0.527619
 21
-0.693934
 31
0.0
  0
LINE
  8
0
  6
CONTINUOUS
 62
     7
  5
64D
 10
0.527619
 20
-0.693934
 30
0.0
 11
0.542208
 21
-0.682335
 31
0.0
  0
LINE
  8
0
  6
CONTINUOUS
 62
     7
  5
64E
 10
0.542208
 20
-0.682335
 30
0.0
 11
0.559017
 21
-0.673328
 31
0.0
  0
LINE
  8
0
  6
CONTINUOUS
 62
     7
  5
64F
 10
0.559017
 20
-0.673328
 30
0.0
 11
0.577167
 21
-0.667513
 31
0.0
  0
LINE
  8
0
  6
CONTINUOUS
 62
     7
  5
650
 10
0.577167
 20
-0.667513
 30
0.0
 11
0.595618
 21
-0.665091
 31
0.0
  0
LINE
  8
0
  6
CONTINUOUS
 62
     7
  5
651
 10
0.595618
 20
-0.665091
 30
0.0
 11
0.613857
 21
-0.665918
 31
0.0
  0
LINE
  8
0
  6
CONTINUOUS
 62
     7
  5
652
 10
0.613857
 20
-0.665918
 30
0.0
 11
0.632263
 21
-0.67008
 31
0.0
  0
LINE
  8
0
  6
CONTINUOUS
 62
     7
  5
653
 10
0.632263
 20
-0.67008
 30
0.0
 11
0.649798
 21
-0.67756
 31
0.0
  0
LINE
  8
0
  6
CONTINUOUS
 62
     7
  5
654
 10
0.649798
 20
-0.67756
 30
0.0
 11
0.665531
 21
-0.687959
 31
0.0
  0
LINE
  8
0
  6
CONTINUOUS
 62
     7
  5
655
 10
0.665531
 20
-0.687959
 30
0.0
 11
0.678777
 21
-0.700579
 31
0.0
  0
LINE
  8
0
  6
CONTINUOUS
 62
     7
  5
656
 10
0.678777
 20
-0.700579
 30
0.0
 11
0.689886
 21
-0.715727
 31
0.0
  0
LINE
  8
0
  6
CONTINUOUS
 62
     7
  5
657
 10
0.689886
 20
-0.715727
 30
0.0
 11
0.698262
 21
-0.732992
 31
0.0
  0
LINE
  8
0
  6
CONTINUOUS
 62
     7
  5
658
 10
0.698262
 20
-0.732992
 30
0.0
 11
0.703349
 21
-0.751453
 31
0.0
  0
LINE
  8
0
  6
CONTINUOUS
 62
     7
  5
659
 10
0.703349
 20
-0.751453
 30
0.0
 11
0.705
 21
-0.77
 31
0.0
  0
LINE
  8
0
  6
CONTINUOUS
 62
     7
  5
65A
 10
0.705
 20
0.75
 30
0.0
 11
0.703349
 21
0.731453
 31
0.0
  0
LINE
  8
0
  6
CONTINUOUS
 62
     7
  5
65B
 10
0.703349
 20
0.731453
 30
0.0
 11
0.698262
 21
0.712992
 31
0.0
  0
LINE
  8
0
  6
CONTINUOUS
 62
     7
  5
65C
 10
0.698262
 20
0.712992
 30
0.0
 11
0.689886
 21
0.695727
 31
0.0
  0
LINE
  8
0
  6
CONTINUOUS
 62
     7
  5
65D
 10
0.689886
 20
0.695727
 30
0.0
 11
0.678777
 21
0.680579
 31
0.0
  0
LINE
  8
0
  6
CONTINUOUS
 62
     7
  5
65E
 10
0.678777
 20
0.680579
 30
0.0
 11
0.665531
 21
0.667959
 31
0.0
  0
LINE
  8
0
  6
CONTINUOUS
 62
     7
  5
65F
 10
0.665531
 20
0.667959
 30
0.0
 11
0.649798
 21
0.65756
 31
0.0
  0
LINE
  8
0
  6
CONTINUOUS
 62
     7
  5
660
 10
0.649798
 20
0.65756
 30
0.0
 11
0.632263
 21
0.65008
 31
0.0
  0
LINE
  8
0
  6
CONTINUOUS
 62
     7
  5
661
 10
0.632263
 20
0.65008
 30
0.0
 11
0.613857
 21
0.645918
 31
0.0
  0
LINE
  8
0
  6
CONTINUOUS
 62
     7
  5
662
 10
0.613857
 20
0.645918
 30
0.0
 11
0.595618
 21
0.645091
 31
0.0
  0
LINE
  8
0
  6
CONTINUOUS
 62
     7
  5
663
 10
0.595618
 20
0.645091
 30
0.0
 11
0.577167
 21
0.647513
 31
0.0
  0
LINE
  8
0
  6
CONTINUOUS
 62
     7
  5
664
 10
0.577167
 20
0.647513
 30
0.0
 11
0.559017
 21
0.653328
 31
0.0
  0
LINE
  8
0
  6
CONTINUOUS
 62
     7
  5
665
 10
0.559017
 20
0.653328
 30
0.0
 11
0.542208
 21
0.662335
 31
0.0
  0
LINE
  8
0
  6
CONTINUOUS
 62
     7
  5
666
 10
0.542208
 20
0.662335
 30
0.0
 11
0.527619
 21
0.673934
 31
0.0
  0
LINE
  8
0
  6
CONTINUOUS
 62
     7
  5
667
 10
0.527619
 20
0.673934
 30
0.0
 11
0.515422
 21
0.687778
 31
0.0
  0
LINE
  8
0
  6
CONTINUOUS
 62
     7
  5
668
 10
0.515422
 20
0.687778
 30
0.0
 11
0.505555
 21
0.704118
 31
0.0
  0
LINE
  8
0
  6
CONTINUOUS
 62
     7
  5
669
 10
0.505555
 20
0.704118
 30
0.0
 11
0.498768
 21
0.722125
 31
0.0
  0
LINE
  8
0
  6
CONTINUOUS
 62
     7
  5
66A
 10
0.498768
 20
0.722125
 30
0.0
 11
0.495405
 21
0.74079
 31
0.0
  0
LINE
  8
0
  6
CONTINUOUS
 62
     7
  5
66B
 10
0.495405
 20
0.74079
 30
0.0
 11
0.495405
 21
0.75921
 31
0.0
  0
LINE
  8
0
  6
CONTINUOUS
 62
     7
  5
66C
 10
0.495405
 20
0.75921
 30
0.0
 11
0.498768
 21
0.777875
 31
0.0
  0
LINE
  8
0
  6
CONTINUOUS
 62
     7
  5
66D
 10
0.498768
 20
0.777875
 30
0.0
 11
0.505555
 21
0.795882
 31
0.0
  0
LINE
  8
0
  6
CONTINUOUS
 62
     7
  5
66E
 10
0.505555
 20
0.795882
 30
0.0
 11
0.515422
 21
0.812222
 31
0.0
  0
LINE
  8
0
  6
CONTINUOUS
 62
     7
  5
66F
 10
0.515422
 20
0.812222
 30
0.0
 11
0.527619
 21
0.826066
 31
0.0
  0
LINE
  8
0
  6
CONTINUOUS
 62
     7
  5
670
 10
0.527619
 20
0.826066
 30
0.0
 11
0.542208
 21
0.837665
 31
0.0
  0
LINE
  8
0
  6
CONTINUOUS
 62
     7
  5
671
 10
0.542208
 20
0.837665
 30
0.0
 11
0.559017
 21
0.846672
 31
0.0
  0
LINE
  8
0
  6
CONTINUOUS
 62
     7
  5
672
 10
0.559017
 20
0.846672
 30
0.0
 11
0.577167
 21
0.852487
 31
0.0
  0
LINE
  8
0
  6
CONTINUOUS
 62
     7
  5
673
 10
0.577167
 20
0.852487
 30
0.0
 11
0.595618
 21
0.854909
 31
0.0
  0
LINE
  8
0
  6
CONTINUOUS
 62
     7
  5
674
 10
0.595618
 20
0.854909
 30
0.0
 11
0.613857
 21
0.854082
 31
0.0
  0
LINE
  8
0
  6
CONTINUOUS
 62
     7
  5
675
 10
0.613857
 20
0.854082
 30
0.0
 11
0.632263
 21
0.84992
 31
0.0
  0
LINE
  8
0
  6
CONTINUOUS
 62
     7
  5
676
 10
0.632263
 20
0.84992
 30
0.0
 11
0.649798
 21
0.84244
 31
0.0
  0
LINE
  8
0
  6
CONTINUOUS
 62
     7
  5
677
 10
0.649798
 20
0.84244
 30
0.0
 11
0.665531
 21
0.832041
 31
0.0
  0
LINE
  8
0
  6
CONTINUOUS
 62
     7
  5
678
 10
0.665531
 20
0.832041
 30
0.0
 11
0.678777
 21
0.819421
 31
0.0
  0
LINE
  8
0
  6
CONTINUOUS
 62
     7
  5
679
 10
0.678777
 20
0.819421
 30
0.0
 11
0.689886
 21
0.804273
 31
0.0
  0
LINE
  8
0
  6
CONTINUOUS
 62
     7
  5
67A
 10
0.689886
 20
0.804273
 30
0.0
 11
0.698262
 21
0.787008
 31
0.0
  0
LINE
  8
0
  6
CONTINUOUS
 62
     7
  5
67B
 10
0.698262
 20
0.787008
 30
0.0
 11
0.703349
 21
0.768547
 31
0.0
  0
LINE
  8
0
  6
CONTINUOUS
 62
     7
  5
67C
 10
0.703349
 20
0.768547
 30
0.0
 11
0.705
 21
0.75
 31
0.0
  0
LINE
  8
0
  6
CONTINUOUS
 62
     7
  5
67D
 10
0.71
 20
-1.2756
 30
0.0
 11
0.70749
 21
-1.303832
 31
0.0
  0
LINE
  8
0
  6
CONTINUOUS
 62
     7
  5
67E
 10
0.70749
 20
-1.303832
 30
0.0
 11
0.699756
 21
-1.331931
 31
0.0
  0
LINE
  8
0
  6
CONTINUOUS
 62
     7
  5
67F
 10
0.699756
 20
-1.331931
 30
0.0
 11
0.687018
 21
-1.35822
 31
0.0
  0
LINE
  8
0
  6
CONTINUOUS
 62
     7
  5
680
 10
0.687018
 20
-1.35822
 30
0.0
 11
0.670111
 21
-1.381304
 31
0.0
  0
LINE
  8
0
  6
CONTINUOUS
 62
     7
  5
681
 10
0.670111
 20
-1.381304
 30
0.0
 11
0.649956
 21
-1.400535
 31
0.0
  0
LINE
  8
0
  6
CONTINUOUS
 62
     7
  5
682
 10
0.649956
 20
-1.400535
 30
0.0
 11
0.626006
 21
-1.416394
 31
0.0
  0
LINE
  8
0
  6
CONTINUOUS
 62
     7
  5
683
 10
0.626006
 20
-1.416394
 30
0.0
 11
0.599289
 21
-1.427819
 31
0.0
  0
LINE
  8
0
  6
CONTINUOUS
 62
     7
  5
684
 10
0.599289
 20
-1.427819
 30
0.0
 11
0.571224
 21
-1.434186
 31
0.0
  0
LINE
  8
0
  6
CONTINUOUS
 62
     7
  5
685
 10
0.571224
 20
-1.434186
 30
0.0
 11
0.543402
 21
-1.435464
 31
0.0
  0
LINE
  8
0
  6
CONTINUOUS
 62
     7
  5
686
 10
0.543402
 20
-1.435464
 30
0.0
 11
0.515251
 21
-1.431781
 31
0.0
  0
LINE
  8
0
  6
CONTINUOUS
 62
     7
  5
687
 10
0.515251
 20
-1.431781
 30
0.0
 11
0.487559
 21
-1.422913
 31
0.0
  0
LINE
  8
0
  6
CONTINUOUS
 62
     7
  5
688
 10
0.487559
 20
-1.422913
 30
0.0
 11
0.461917
 21
-1.409172
 31
0.0
  0
LINE
  8
0
  6
CONTINUOUS
 62
     7
  5
689
 10
0.461917
 20
-1.409172
 30
0.0
 11
0.439681
 21
-1.391486
 31
0.0
  0
LINE
  8
0
  6
CONTINUOUS
 62
     7
  5
68A
 10
0.439681
 20
-1.391486
 30
0.0
 11
0.421088
 21
-1.370372
 31
0.0
  0
LINE
  8
0
  6
CONTINUOUS
 62
     7
  5
68B
 10
0.421088
 20
-1.370372
 30
0.0
 11
0.406061
 21
-1.345468
 31
0.0
  0
LINE
  8
0
  6
CONTINUOUS
 62
     7
  5
68C
 10
0.406061
 20
-1.345468
 30
0.0
 11
0.395732
 21
-1.318041
 31
0.0
  0
LINE
  8
0
  6
CONTINUOUS
 62
     7
  5
68D
 10
0.395732
 20
-1.318041
 30
0.0
 11
0.390616
 21
-1.289622
 31
0.0
  0
LINE
  8
0
  6
CONTINUOUS
 62
     7
  5
68E
 10
0.390616
 20
-1.289622
 30
0.0
 11
0.390616
 21
-1.261578
 31
0.0
  0
LINE
  8
0
  6
CONTINUOUS
 62
     7
  5
68F
 10
0.390616
 20
-1.261578
 30
0.0
 11
0.395733
 21
-1.233155
 31
0.0
  0
LINE
  8
0
  6
CONTINUOUS
 62
     7
  5
690
 10
0.395733
 20
-1.233155
 30
0.0
 11
0.406065
 21
-1.205724
 31
0.0
  0
LINE
  8
0
  6
CONTINUOUS
 62
     7
  5
691
 10
0.406065
 20
-1.205724
 30
0.0
 11
0.421093
 21
-1.180822
 31
0.0
  0
LINE
  8
0
  6
CONTINUOUS
 62
     7
  5
692
 10
0.421093
 20
-1.180822
 30
0.0
 11
0.439682
 21
-1.159712
 31
0.0
  0
LINE
  8
0
  6
CONTINUOUS
 62
     7
  5
693
 10
0.439682
 20
-1.159712
 30
0.0
 11
0.461925
 21
-1.142023
 31
0.0
  0
LINE
  8
0
  6
CONTINUOUS
 62
     7
  5
694
 10
0.461925
 20
-1.142023
 30
0.0
 11
0.487565
 21
-1.128284
 31
0.0
  0
LINE
  8
0
  6
CONTINUOUS
 62
     7
  5
695
 10
0.487565
 20
-1.128284
 30
0.0
 11
0.515254
 21
-1.119418
 31
0.0
  0
LINE
  8
0
  6
CONTINUOUS
 62
     7
  5
696
 10
0.515254
 20
-1.119418
 30
0.0
 11
0.543402
 21
-1.115736
 31
0.0
  0
LINE
  8
0
  6
CONTINUOUS
 62
     7
  5
697
 10
0.543402
 20
-1.115736
 30
0.0
 11
0.571221
 21
-1.117013
 31
0.0
  0
LINE
  8
0
  6
CONTINUOUS
 62
     7
  5
698
 10
0.571221
 20
-1.117013
 30
0.0
 11
0.599279
 21
-1.123378
 31
0.0
  0
LINE
  8
0
  6
CONTINUOUS
 62
     7
  5
699
 10
0.599279
 20
-1.123378
 30
0.0
 11
0.625992
 21
-1.134798
 31
0.0
  0
LINE
  8
0
  6
CONTINUOUS
 62
     7
  5
69A
 10
0.625992
 20
-1.134798
 30
0.0
 11
0.649946
 21
-1.150657
 31
0.0
  0
LINE
  8
0
  6
CONTINUOUS
 62
     7
  5
69B
 10
0.649946
 20
-1.150657
 30
0.0
 11
0.670105
 21
-1.169889
 31
0.0
  0
LINE
  8
0
  6
CONTINUOUS
 62
     7
  5
69C
 10
0.670105
 20
-1.169889
 30
0.0
 11
0.68701
 21
-1.192966
 31
0.0
  0
LINE
  8
0
  6
CONTINUOUS
 62
     7
  5
69D
 10
0.68701
 20
-1.192966
 30
0.0
 11
0.699751
 21
-1.219257
 31
0.0
  0
LINE
  8
0
  6
CONTINUOUS
 62
     7
  5
69E
 10
0.699751
 20
-1.219257
 30
0.0
 11
0.707489
 21
-1.247363
 31
0.0
  0
LINE
  8
0
  6
CONTINUOUS
 62
     7
  5
69F
 10
0.707489
 20
-1.247363
 30
0.0
 11
0.71
 21
-1.2756
 31
0.0
  0
LINE
  8
0
  6
CONTINUOUS
 62
     7
  5
6A0
 10
0.71
 20
1.2756
 30
0.0
 11
0.707489
 21
1.247363
 31
0.0
  0
LINE
  8
0
  6
CONTINUOUS
 62
     7
  5
6A1
 10
0.707489
 20
1.247363
 30
0.0
 11
0.699751
 21
1.219257
 31
0.0
  0
LINE
  8
0
  6
CONTINUOUS
 62
     7
  5
6A2
 10
0.699751
 20
1.219257
 30
0.0
 11
0.68701
 21
1.192966
 31
0.0
  0
LINE
  8
0
  6
CONTINUOUS
 62
     7
  5
6A3
 10
0.68701
 20
1.192966
 30
0.0
 11
0.670105
 21
1.169889
 31
0.0
  0
LINE
  8
0
  6
CONTINUOUS
 62
     7
  5
6A4
 10
0.670105
 20
1.169889
 30
0.0
 11
0.649946
 21
1.150657
 31
0.0
  0
LINE
  8
0
  6
CONTINUOUS
 62
     7
  5
6A5
 10
0.649946
 20
1.150657
 30
0.0
 11
0.625992
 21
1.134798
 31
0.0
  0
LINE
  8
0
  6
CONTINUOUS
 62
     7
  5
6A6
 10
0.625992
 20
1.134798
 30
0.0
 11
0.599279
 21
1.123378
 31
0.0
  0
LINE
  8
0
  6
CONTINUOUS
 62
     7
  5
6A7
 10
0.599279
 20
1.123378
 30
0.0
 11
0.571221
 21
1.117013
 31
0.0
  0
LINE
  8
0
  6
CONTINUOUS
 62
     7
  5
6A8
 10
0.571221
 20
1.117013
 30
0.0
 11
0.543402
 21
1.115736
 31
0.0
  0
LINE
  8
0
  6
CONTINUOUS
 62
     7
  5
6A9
 10
0.543402
 20
1.115736
 30
0.0
 11
0.515254
 21
1.119418
 31
0.0
  0
LINE
  8
0
  6
CONTINUOUS
 62
     7
  5
6AA
 10
0.515254
 20
1.119418
 30
0.0
 11
0.487565
 21
1.128284
 31
0.0
  0
LINE
  8
0
  6
CONTINUOUS
 62
     7
  5
6AB
 10
0.487565
 20
1.128284
 30
0.0
 11
0.461925
 21
1.142023
 31
0.0
  0
LINE
  8
0
  6
CONTINUOUS
 62
     7
  5
6AC
 10
0.461925
 20
1.142023
 30
0.0
 11
0.439682
 21
1.159712
 31
0.0
  0
LINE
  8
0
  6
CONTINUOUS
 62
     7
  5
6AD
 10
0.439682
 20
1.159712
 30
0.0
 11
0.421093
 21
1.180822
 31
0.0
  0
LINE
  8
0
  6
CONTINUOUS
 62
     7
  5
6AE
 10
0.421093
 20
1.180822
 30
0.0
 11
0.406065
 21
1.205724
 31
0.0
  0
LINE
  8
0
  6
CONTINUOUS
 62
     7
  5
6AF
 10
0.406065
 20
1.205724
 30
0.0
 11
0.395733
 21
1.233155
 31
0.0
  0
LINE
  8
0
  6
CONTINUOUS
 62
     7
  5
6B0
 10
0.395733
 20
1.233155
 30
0.0
 11
0.390616
 21
1.261577
 31
0.0
  0
LINE
  8
0
  6
CONTINUOUS
 62
     7
  5
6B1
 10
0.390616
 20
1.261577
 30
0.0
 11
0.390616
 21
1.289623
 31
0.0
  0
LINE
  8
0
  6
CONTINUOUS
 62
     7
  5
6B2
 10
0.390616
 20
1.289623
 30
0.0
 11
0.395733
 21
1.318045
 31
0.0
  0
LINE
  8
0
  6
CONTINUOUS
 62
     7
  5
6B3
 10
0.395733
 20
1.318045
 30
0.0
 11
0.406065
 21
1.345476
 31
0.0
  0
LINE
  8
0
  6
CONTINUOUS
 62
     7
  5
6B4
 10
0.406065
 20
1.345476
 30
0.0
 11
0.421093
 21
1.370378
 31
0.0
  0
LINE
  8
0
  6
CONTINUOUS
 62
     7
  5
6B5
 10
0.421093
 20
1.370378
 30
0.0
 11
0.439682
 21
1.391488
 31
0.0
  0
LINE
  8
0
  6
CONTINUOUS
 62
     7
  5
6B6
 10
0.439682
 20
1.391488
 30
0.0
 11
0.461925
 21
1.409177
 31
0.0
  0
LINE
  8
0
  6
CONTINUOUS
 62
     7
  5
6B7
 10
0.461925
 20
1.409177
 30
0.0
 11
0.487565
 21
1.422916
 31
0.0
  0
LINE
  8
0
  6
CONTINUOUS
 62
     7
  5
6B8
 10
0.487565
 20
1.422916
 30
0.0
 11
0.515254
 21
1.431782
 31
0.0
  0
LINE
  8
0
  6
CONTINUOUS
 62
     7
  5
6B9
 10
0.515254
 20
1.431782
 30
0.0
 11
0.543402
 21
1.435464
 31
0.0
  0
LINE
  8
0
  6
CONTINUOUS
 62
     7
  5
6BA
 10
0.543402
 20
1.435464
 30
0.0
 11
0.571221
 21
1.434187
 31
0.0
  0
LINE
  8
0
  6
CONTINUOUS
 62
     7
  5
6BB
 10
0.571221
 20
1.434187
 30
0.0
 11
0.599279
 21
1.427822
 31
0.0
  0
LINE
  8
0
  6
CONTINUOUS
 62
     7
  5
6BC
 10
0.599279
 20
1.427822
 30
0.0
 11
0.625992
 21
1.416402
 31
0.0
  0
LINE
  8
0
  6
CONTINUOUS
 62
     7
  5
6BD
 10
0.625992
 20
1.416402
 30
0.0
 11
0.649946
 21
1.400543
 31
0.0
  0
LINE
  8
0
  6
CONTINUOUS
 62
     7
  5
6BE
 10
0.649946
 20
1.400543
 30
0.0
 11
0.670105
 21
1.381311
 31
0.0
  0
LINE
  8
0
  6
CONTINUOUS
 62
     7
  5
6BF
 10
0.670105
 20
1.381311
 30
0.0
 11
0.68701
 21
1.358234
 31
0.0
  0
LINE
  8
0
  6
CONTINUOUS
 62
     7
  5
6C0
 10
0.68701
 20
1.358234
 30
0.0
 11
0.699751
 21
1.331943
 31
0.0
  0
LINE
  8
0
  6
CONTINUOUS
 62
     7
  5
6C1
 10
0.699751
 20
1.331943
 30
0.0
 11
0.707489
 21
1.303837
 31
0.0
  0
LINE
  8
0
  6
CONTINUOUS
 62
     7
  5
6C2
 10
0.707489
 20
1.303837
 30
0.0
 11
0.71
 21
1.2756
 31
0.0
  0
LINE
  8
0
  6
CONTINUOUS
 62
     7
  5
6C3
 10
0.0
 20
-1.4356
 30
0.0
 11
-0.013953
 21
-1.43499
 31
0.0
  0
LINE
  8
0
  6
CONTINUOUS
 62
     7
  5
6C4
 10
-0.013953
 20
-1.43499
 30
0.0
 11
-0.028109
 21
-1.433111
 31
0.0
  0
LINE
  8
0
  6
CONTINUOUS
 62
     7
  5
6C5
 10
-0.028109
 20
-1.433111
 30
0.0
 11
-0.042242
 21
-1.429923
 31
0.0
  0
LINE
  8
0
  6
CONTINUOUS
 62
     7
  5
6C6
 10
-0.042242
 20
-1.429923
 30
0.0
 11
-0.05613
 21
-1.425431
 31
0.0
  0
LINE
  8
0
  6
CONTINUOUS
 62
     7
  5
6C7
 10
-0.05613
 20
-1.425431
 30
0.0
 11
-0.069573
 21
-1.419682
 31
0.0
  0
LINE
  8
0
  6
CONTINUOUS
 62
     7
  5
6C8
 10
-0.069573
 20
-1.419682
 30
0.0
 11
-0.082397
 21
-1.412752
 31
0.0
  0
LINE
  8
0
  6
CONTINUOUS
 62
     7
  5
6C9
 10
-0.082397
 20
-1.412752
 30
0.0
 11
-0.09443
 21
-1.404762
 31
0.0
  0
LINE
  8
0
  6
CONTINUOUS
 62
     7
  5
6CA
 10
-0.09443
 20
-1.404762
 30
0.0
 11
-0.105518
 21
-1.395875
 31
0.0
  0
LINE
  8
0
  6
CONTINUOUS
 62
     7
  5
6CB
 10
-0.105518
 20
-1.395875
 30
0.0
 11
-0.115555
 21
-1.386267
 31
0.0
  0
LINE
  8
0
  6
CONTINUOUS
 62
     7
  5
6CC
 10
-0.115555
 20
-1.386267
 30
0.0
 11
-0.124819
 21
-1.375701
 31
0.0
  0
LINE
  8
0
  6
CONTINUOUS
 62
     7
  5
6CD
 10
-0.124819
 20
-1.375701
 30
0.0
 11
-0.133281
 21
-1.364123
 31
0.0
  0
LINE
  8
0
  6
CONTINUOUS
 62
     7
  5
6CE
 10
-0.133281
 20
-1.364123
 30
0.0
 11
-0.140758
 21
-1.351673
 31
0.0
  0
LINE
  8
0
  6
CONTINUOUS
 62
     7
  5
6CF
 10
-0.140758
 20
-1.351673
 30
0.0
 11
-0.14711
 21
-1.338518
 31
0.0
  0
LINE
  8
0
  6
CONTINUOUS
 62
     7
  5
6D0
 10
-0.14711
 20
-1.338518
 30
0.0
 11
-0.152238
 21
-1.32483
 31
0.0
  0
LINE
  8
0
  6
CONTINUOUS
 62
     7
  5
6D1
 10
-0.152238
 20
-1.32483
 30
0.0
 11
-0.156082
 21
-1.310793
 31
0.0
  0
LINE
  8
0
  6
CONTINUOUS
 62
     7
  5
6D2
 10
-0.156082
 20
-1.310793
 30
0.0
 11
-0.158613
 21
-1.29662
 31
0.0
  0
LINE
  8
0
  6
CONTINUOUS
 62
     7
  5
6D3
 10
-0.158613
 20
-1.29662
 30
0.0
 11
-0.15985
 21
-1.282537
 31
0.0
  0
LINE
  8
0
  6
CONTINUOUS
 62
     7
  5
6D4
 10
-0.15985
 20
-1.282537
 30
0.0
 11
-0.15985
 21
-1.268663
 31
0.0
  0
LINE
  8
0
  6
CONTINUOUS
 62
     7
  5
6D5
 10
-0.15985
 20
-1.268663
 30
0.0
 11
-0.158613
 21
-1.25458
 31
0.0
  0
LINE
  8
0
  6
CONTINUOUS
 62
     7
  5
6D6
 10
-0.158613
 20
-1.25458
 30
0.0
 11
-0.156082
 21
-1.240407
 31
0.0
  0
LINE
  8
0
  6
CONTINUOUS
 62
     7
  5
6D7
 10
-0.156082
 20
-1.240407
 30
0.0
 11
-0.152238
 21
-1.22637
 31
0.0
  0
LINE
  8
0
  6
CONTINUOUS
 62
     7
  5
6D8
 10
-0.152238
 20
-1.22637
 30
0.0
 11
-0.14711
 21
-1.212682
 31
0.0
  0
LINE
  8
0
  6
CONTINUOUS
 62
     7
  5
6D9
 10
-0.14711
 20
-1.212682
 30
0.0
 11
-0.140758
 21
-1.199527
 31
0.0
  0
LINE
  8
0
  6
CONTINUOUS
 62
     7
  5
6DA
 10
-0.140758
 20
-1.199527
 30
0.0
 11
-0.133281
 21
-1.187077
 31
0.0
  0
LINE
  8
0
  6
CONTINUOUS
 62
     7
  5
6DB
 10
-0.133281
 20
-1.187077
 30
0.0
 11
-0.124819
 21
-1.175499
 31
0.0
  0
LINE
  8
0
  6
CONTINUOUS
 62
     7
  5
6DC
 10
-0.124819
 20
-1.175499
 30
0.0
 11
-0.115555
 21
-1.164933
 31
0.0
  0
LINE
  8
0
  6
CONTINUOUS
 62
     7
  5
6DD
 10
-0.115555
 20
-1.164933
 30
0.0
 11
-0.105518
 21
-1.155325
 31
0.0
  0
LINE
  8
0
  6
CONTINUOUS
 62
     7
  5
6DE
 10
-0.105518
 20
-1.155325
 30
0.0
 11
-0.09443
 21
-1.146438
 31
0.0
  0
LINE
  8
0
  6
CONTINUOUS
 62
     7
  5
6DF
 10
-0.09443
 20
-1.146438
 30
0.0
 11
-0.082397
 21
-1.138448
 31
0.0
  0
LINE
  8
0
  6
CONTINUOUS
 62
     7
  5
6E0
 10
-0.082397
 20
-1.138448
 30
0.0
 11
-0.069573
 21
-1.131518
 31
0.0
  0
LINE
  8
0
  6
CONTINUOUS
 62
     7
  5
6E1
 10
-0.069573
 20
-1.131518
 30
0.0
 11
-0.05613
 21
-1.125769
 31
0.0
  0
LINE
  8
0
  6
CONTINUOUS
 62
     7
  5
6E2
 10
-0.05613
 20
-1.125769
 30
0.0
 11
-0.042242
 21
-1.121277
 31
0.0
  0
LINE
  8
0
  6
CONTINUOUS
 62
     7
  5
6E3
 10
-0.042242
 20
-1.121277
 30
0.0
 11
-0.028109
 21
-1.118089
 31
0.0
  0
LINE
  8
0
  6
CONTINUOUS
 62
     7
  5
6E4
 10
-0.028109
 20
-1.118089
 30
0.0
 11
-0.013953
 21
-1.11621
 31
0.0
  0
LINE
  8
0
  6
CONTINUOUS
 62
     7
  5
6E5
 10
-0.013953
 20
-1.11621
 30
0.0
 11
0.0
 21
-1.1156
 31
0.0
  0
LINE
  8
0
  6
CONTINUOUS
 62
     7
  5
6E6
 10
0.0
 20
-1.1156
 30
0.0
 11
0.013953
 21
-1.11621
 31
0.0
  0
LINE
  8
0
  6
CONTINUOUS
 62
     7
  5
6E7
 10
0.013953
 20
-1.11621
 30
0.0
 11
0.028109
 21
-1.118089
 31
0.0
  0
LINE
  8
0
  6
CONTINUOUS
 62
     7
  5
6E8
 10
0.028109
 20
-1.118089
 30
0.0
 11
0.042242
 21
-1.121277
 31
0.0
  0
LINE
  8
0
  6
CONTINUOUS
 62
     7
  5
6E9
 10
0.042242
 20
-1.121277
 30
0.0
 11
0.05613
 21
-1.125769
 31
0.0
  0
LINE
  8
0
  6
CONTINUOUS
 62
     7
  5
6EA
 10
0.05613
 20
-1.125769
 30
0.0
 11
0.069573
 21
-1.131518
 31
0.0
  0
LINE
  8
0
  6
CONTINUOUS
 62
     7
  5
6EB
 10
0.069573
 20
-1.131518
 30
0.0
 11
0.082397
 21
-1.138448
 31
0.0
  0
LINE
  8
0
  6
CONTINUOUS
 62
     7
  5
6EC
 10
0.082397
 20
-1.138448
 30
0.0
 11
0.09443
 21
-1.146438
 31
0.0
  0
LINE
  8
0
  6
CONTINUOUS
 62
     7
  5
6ED
 10
0.09443
 20
-1.146438
 30
0.0
 11
0.105518
 21
-1.155325
 31
0.0
  0
LINE
  8
0
  6
CONTINUOUS
 62
     7
  5
6EE
 10
0.105518
 20
-1.155325
 30
0.0
 11
0.115555
 21
-1.164933
 31
0.0
  0
LINE
  8
0
  6
CONTINUOUS
 62
     7
  5
6EF
 10
0.115555
 20
-1.164933
 30
0.0
 11
0.124819
 21
-1.175499
 31
0.0
  0
LINE
  8
0
  6
CONTINUOUS
 62
     7
  5
6F0
 10
0.124819
 20
-1.175499
 30
0.0
 11
0.133281
 21
-1.187077
 31
0.0
  0
LINE
  8
0
  6
CONTINUOUS
 62
     7
  5
6F1
 10
0.133281
 20
-1.187077
 30
0.0
 11
0.140758
 21
-1.199527
 31
0.0
  0
LINE
  8
0
  6
CONTINUOUS
 62
     7
  5
6F2
 10
0.140758
 20
-1.199527
 30
0.0
 11
0.14711
 21
-1.212682
 31
0.0
  0
LINE
  8
0
  6
CONTINUOUS
 62
     7
  5
6F3
 10
0.14711
 20
-1.212682
 30
0.0
 11
0.152238
 21
-1.22637
 31
0.0
  0
LINE
  8
0
  6
CONTINUOUS
 62
     7
  5
6F4
 10
0.152238
 20
-1.22637
 30
0.0
 11
0.156082
 21
-1.240407
 31
0.0
  0
LINE
  8
0
  6
CONTINUOUS
 62
     7
  5
6F5
 10
0.156082
 20
-1.240407
 30
0.0
 11
0.158613
 21
-1.25458
 31
0.0
  0
LINE
  8
0
  6
CONTINUOUS
 62
     7
  5
6F6
 10
0.158613
 20
-1.25458
 30
0.0
 11
0.15985
 21
-1.268663
 31
0.0
  0
LINE
  8
0
  6
CONTINUOUS
 62
     7
  5
6F7
 10
0.15985
 20
-1.268663
 30
0.0
 11
0.15985
 21
-1.282537
 31
0.0
  0
LINE
  8
0
  6
CONTINUOUS
 62
     7
  5
6F8
 10
0.15985
 20
-1.282537
 30
0.0
 11
0.158613
 21
-1.29662
 31
0.0
  0
LINE
  8
0
  6
CONTINUOUS
 62
     7
  5
6F9
 10
0.158613
 20
-1.29662
 30
0.0
 11
0.156082
 21
-1.310793
 31
0.0
  0
LINE
  8
0
  6
CONTINUOUS
 62
     7
  5
6FA
 10
0.156082
 20
-1.310793
 30
0.0
 11
0.152238
 21
-1.32483
 31
0.0
  0
LINE
  8
0
  6
CONTINUOUS
 62
     7
  5
6FB
 10
0.152238
 20
-1.32483
 30
0.0
 11
0.14711
 21
-1.338518
 31
0.0
  0
LINE
  8
0
  6
CONTINUOUS
 62
     7
  5
6FC
 10
0.14711
 20
-1.338518
 30
0.0
 11
0.140758
 21
-1.351673
 31
0.0
  0
LINE
  8
0
  6
CONTINUOUS
 62
     7
  5
6FD
 10
0.140758
 20
-1.351673
 30
0.0
 11
0.133281
 21
-1.364123
 31
0.0
  0
LINE
  8
0
  6
CONTINUOUS
 62
     7
  5
6FE
 10
0.133281
 20
-1.364123
 30
0.0
 11
0.124819
 21
-1.375701
 31
0.0
  0
LINE
  8
0
  6
CONTINUOUS
 62
     7
  5
6FF
 10
0.124819
 20
-1.375701
 30
0.0
 11
0.115555
 21
-1.386267
 31
0.0
  0
LINE
  8
0
  6
CONTINUOUS
 62
     7
  5
700
 10
0.115555
 20
-1.386267
 30
0.0
 11
0.105518
 21
-1.395875
 31
0.0
  0
LINE
  8
0
  6
CONTINUOUS
 62
     7
  5
701
 10
0.105518
 20
-1.395875
 30
0.0
 11
0.09443
 21
-1.404762
 31
0.0
  0
LINE
  8
0
  6
CONTINUOUS
 62
     7
  5
702
 10
0.09443
 20
-1.404762
 30
0.0
 11
0.082397
 21
-1.412752
 31
0.0
  0
LINE
  8
0
  6
CONTINUOUS
 62
     7
  5
703
 10
0.082397
 20
-1.412752
 30
0.0
 11
0.069573
 21
-1.419682
 31
0.0
  0
LINE
  8
0
  6
CONTINUOUS
 62
     7
  5
704
 10
0.069573
 20
-1.419682
 30
0.0
 11
0.05613
 21
-1.425431
 31
0.0
  0
LINE
  8
0
  6
CONTINUOUS
 62
     7
  5
705
 10
0.05613
 20
-1.425431
 30
0.0
 11
0.042242
 21
-1.429923
 31
0.0
  0
LINE
  8
0
  6
CONTINUOUS
 62
     7
  5
706
 10
0.042242
 20
-1.429923
 30
0.0
 11
0.028109
 21
-1.433111
 31
0.0
  0
LINE
  8
0
  6
CONTINUOUS
 62
     7
  5
707
 10
0.028109
 20
-1.433111
 30
0.0
 11
0.013953
 21
-1.43499
 31
0.0
  0
LINE
  8
0
  6
CONTINUOUS
 62
     7
  5
708
 10
0.013953
 20
-1.43499
 30
0.0
 11
0.0
 21
-1.4356
 31
0.0
  0
LINE
  8
0
  6
CONTINUOUS
 62
     7
  5
709
 10
0.0
 20
1.1156
 30
0.0
 11
-0.013953
 21
1.11621
 31
0.0
  0
LINE
  8
0
  6
CONTINUOUS
 62
     7
  5
70A
 10
-0.013953
 20
1.11621
 30
0.0
 11
-0.028109
 21
1.118089
 31
0.0
  0
LINE
  8
0
  6
CONTINUOUS
 62
     7
  5
70B
 10
-0.028109
 20
1.118089
 30
0.0
 11
-0.042242
 21
1.121277
 31
0.0
  0
LINE
  8
0
  6
CONTINUOUS
 62
     7
  5
70C
 10
-0.042242
 20
1.121277
 30
0.0
 11
-0.05613
 21
1.125769
 31
0.0
  0
LINE
  8
0
  6
CONTINUOUS
 62
     7
  5
70D
 10
-0.05613
 20
1.125769
 30
0.0
 11
-0.069573
 21
1.131518
 31
0.0
  0
LINE
  8
0
  6
CONTINUOUS
 62
     7
  5
70E
 10
-0.069573
 20
1.131518
 30
0.0
 11
-0.082397
 21
1.138448
 31
0.0
  0
LINE
  8
0
  6
CONTINUOUS
 62
     7
  5
70F
 10
-0.082397
 20
1.138448
 30
0.0
 11
-0.09443
 21
1.146438
 31
0.0
  0
LINE
  8
0
  6
CONTINUOUS
 62
     7
  5
710
 10
-0.09443
 20
1.146438
 30
0.0
 11
-0.105518
 21
1.155325
 31
0.0
  0
LINE
  8
0
  6
CONTINUOUS
 62
     7
  5
711
 10
-0.105518
 20
1.155325
 30
0.0
 11
-0.115555
 21
1.164933
 31
0.0
  0
LINE
  8
0
  6
CONTINUOUS
 62
     7
  5
712
 10
-0.115555
 20
1.164933
 30
0.0
 11
-0.124819
 21
1.175499
 31
0.0
  0
LINE
  8
0
  6
CONTINUOUS
 62
     7
  5
713
 10
-0.124819
 20
1.175499
 30
0.0
 11
-0.133281
 21
1.187077
 31
0.0
  0
LINE
  8
0
  6
CONTINUOUS
 62
     7
  5
714
 10
-0.133281
 20
1.187077
 30
0.0
 11
-0.140758
 21
1.199527
 31
0.0
  0
LINE
  8
0
  6
CONTINUOUS
 62
     7
  5
715
 10
-0.140758
 20
1.199527
 30
0.0
 11
-0.14711
 21
1.212682
 31
0.0
  0
LINE
  8
0
  6
CONTINUOUS
 62
     7
  5
716
 10
-0.14711
 20
1.212682
 30
0.0
 11
-0.152238
 21
1.22637
 31
0.0
  0
LINE
  8
0
  6
CONTINUOUS
 62
     7
  5
717
 10
-0.152238
 20
1.22637
 30
0.0
 11
-0.156082
 21
1.240407
 31
0.0
  0
LINE
  8
0
  6
CONTINUOUS
 62
     7
  5
718
 10
-0.156082
 20
1.240407
 30
0.0
 11
-0.158613
 21
1.25458
 31
0.0
  0
LINE
  8
0
  6
CONTINUOUS
 62
     7
  5
719
 10
-0.158613
 20
1.25458
 30
0.0
 11
-0.15985
 21
1.268663
 31
0.0
  0
LINE
  8
0
  6
CONTINUOUS
 62
     7
  5
71A
 10
-0.15985
 20
1.268663
 30
0.0
 11
-0.15985
 21
1.282537
 31
0.0
  0
LINE
  8
0
  6
CONTINUOUS
 62
     7
  5
71B
 10
-0.15985
 20
1.282537
 30
0.0
 11
-0.158613
 21
1.29662
 31
0.0
  0
LINE
  8
0
  6
CONTINUOUS
 62
     7
  5
71C
 10
-0.158613
 20
1.29662
 30
0.0
 11
-0.156082
 21
1.310793
 31
0.0
  0
LINE
  8
0
  6
CONTINUOUS
 62
     7
  5
71D
 10
-0.156082
 20
1.310793
 30
0.0
 11
-0.152238
 21
1.32483
 31
0.0
  0
LINE
  8
0
  6
CONTINUOUS
 62
     7
  5
71E
 10
-0.152238
 20
1.32483
 30
0.0
 11
-0.14711
 21
1.338518
 31
0.0
  0
LINE
  8
0
  6
CONTINUOUS
 62
     7
  5
71F
 10
-0.14711
 20
1.338518
 30
0.0
 11
-0.140758
 21
1.351673
 31
0.0
  0
LINE
  8
0
  6
CONTINUOUS
 62
     7
  5
720
 10
-0.140758
 20
1.351673
 30
0.0
 11
-0.133281
 21
1.364123
 31
0.0
  0
LINE
  8
0
  6
CONTINUOUS
 62
     7
  5
721
 10
-0.133281
 20
1.364123
 30
0.0
 11
-0.124819
 21
1.375701
 31
0.0
  0
LINE
  8
0
  6
CONTINUOUS
 62
     7
  5
722
 10
-0.124819
 20
1.375701
 30
0.0
 11
-0.115555
 21
1.386267
 31
0.0
  0
LINE
  8
0
  6
CONTINUOUS
 62
     7
  5
723
 10
-0.115555
 20
1.386267
 30
0.0
 11
-0.105518
 21
1.395875
 31
0.0
  0
LINE
  8
0
  6
CONTINUOUS
 62
     7
  5
724
 10
-0.105518
 20
1.395875
 30
0.0
 11
-0.09443
 21
1.404762
 31
0.0
  0
LINE
  8
0
  6
CONTINUOUS
 62
     7
  5
725
 10
-0.09443
 20
1.404762
 30
0.0
 11
-0.082397
 21
1.412752
 31
0.0
  0
LINE
  8
0
  6
CONTINUOUS
 62
     7
  5
726
 10
-0.082397
 20
1.412752
 30
0.0
 11
-0.069573
 21
1.419682
 31
0.0
  0
LINE
  8
0
  6
CONTINUOUS
 62
     7
  5
727
 10
-0.069573
 20
1.419682
 30
0.0
 11
-0.05613
 21
1.425431
 31
0.0
  0
LINE
  8
0
  6
CONTINUOUS
 62
     7
  5
728
 10
-0.05613
 20
1.425431
 30
0.0
 11
-0.042242
 21
1.429923
 31
0.0
  0
LINE
  8
0
  6
CONTINUOUS
 62
     7
  5
729
 10
-0.042242
 20
1.429923
 30
0.0
 11
-0.028109
 21
1.433111
 31
0.0
  0
LINE
  8
0
  6
CONTINUOUS
 62
     7
  5
72A
 10
-0.028109
 20
1.433111
 30
0.0
 11
-0.013953
 21
1.43499
 31
0.0
  0
LINE
  8
0
  6
CONTINUOUS
 62
     7
  5
72B
 10
-0.013953
 20
1.43499
 30
0.0
 11
0.0
 21
1.4356
 31
0.0
  0
LINE
  8
0
  6
CONTINUOUS
 62
     7
  5
72C
 10
0.0
 20
1.4356
 30
0.0
 11
0.013953
 21
1.43499
 31
0.0
  0
LINE
  8
0
  6
CONTINUOUS
 62
     7
  5
72D
 10
0.013953
 20
1.43499
 30
0.0
 11
0.028109
 21
1.433111
 31
0.0
  0
LINE
  8
0
  6
CONTINUOUS
 62
     7
  5
72E
 10
0.028109
 20
1.433111
 30
0.0
 11
0.042242
 21
1.429923
 31
0.0
  0
LINE
  8
0
  6
CONTINUOUS
 62
     7
  5
72F
 10
0.042242
 20
1.429923
 30
0.0
 11
0.05613
 21
1.425431
 31
0.0
  0
LINE
  8
0
  6
CONTINUOUS
 62
     7
  5
730
 10
0.05613
 20
1.425431
 30
0.0
 11
0.069573
 21
1.419682
 31
0.0
  0
LINE
  8
0
  6
CONTINUOUS
 62
     7
  5
731
 10
0.069573
 20
1.419682
 30
0.0
 11
0.082397
 21
1.412752
 31
0.0
  0
LINE
  8
0
  6
CONTINUOUS
 62
     7
  5
732
 10
0.082397
 20
1.412752
 30
0.0
 11
0.09443
 21
1.404762
 31
0.0
  0
LINE
  8
0
  6
CONTINUOUS
 62
     7
  5
733
 10
0.09443
 20
1.404762
 30
0.0
 11
0.105518
 21
1.395875
 31
0.0
  0
LINE
  8
0
  6
CONTINUOUS
 62
     7
  5
734
 10
0.105518
 20
1.395875
 30
0.0
 11
0.115555
 21
1.386267
 31
0.0
  0
LINE
  8
0
  6
CONTINUOUS
 62
     7
  5
735
 10
0.115555
 20
1.386267
 30
0.0
 11
0.124819
 21
1.375701
 31
0.0
  0
LINE
  8
0
  6
CONTINUOUS
 62
     7
  5
736
 10
0.124819
 20
1.375701
 30
0.0
 11
0.133281
 21
1.364123
 31
0.0
  0
LINE
  8
0
  6
CONTINUOUS
 62
     7
  5
737
 10
0.133281
 20
1.364123
 30
0.0
 11
0.140758
 21
1.351673
 31
0.0
  0
LINE
  8
0
  6
CONTINUOUS
 62
     7
  5
738
 10
0.140758
 20
1.351673
 30
0.0
 11
0.14711
 21
1.338518
 31
0.0
  0
LINE
  8
0
  6
CONTINUOUS
 62
     7
  5
739
 10
0.14711
 20
1.338518
 30
0.0
 11
0.152238
 21
1.32483
 31
0.0
  0
LINE
  8
0
  6
CONTINUOUS
 62
     7
  5
73A
 10
0.152238
 20
1.32483
 30
0.0
 11
0.156082
 21
1.310793
 31
0.0
  0
LINE
  8
0
  6
CONTINUOUS
 62
     7
  5
73B
 10
0.156082
 20
1.310793
 30
0.0
 11
0.158613
 21
1.29662
 31
0.0
  0
LINE
  8
0
  6
CONTINUOUS
 62
     7
  5
73C
 10
0.158613
 20
1.29662
 30
0.0
 11
0.15985
 21
1.282537
 31
0.0
  0
LINE
  8
0
  6
CONTINUOUS
 62
     7
  5
73D
 10
0.15985
 20
1.282537
 30
0.0
 11
0.15985
 21
1.268663
 31
0.0
  0
LINE
  8
0
  6
CONTINUOUS
 62
     7
  5
73E
 10
0.15985
 20
1.268663
 30
0.0
 11
0.158613
 21
1.25458
 31
0.0
  0
LINE
  8
0
  6
CONTINUOUS
 62
     7
  5
73F
 10
0.158613
 20
1.25458
 30
0.0
 11
0.156082
 21
1.240407
 31
0.0
  0
LINE
  8
0
  6
CONTINUOUS
 62
     7
  5
740
 10
0.156082
 20
1.240407
 30
0.0
 11
0.152238
 21
1.22637
 31
0.0
  0
LINE
  8
0
  6
CONTINUOUS
 62
     7
  5
741
 10
0.152238
 20
1.22637
 30
0.0
 11
0.14711
 21
1.212682
 31
0.0
  0
LINE
  8
0
  6
CONTINUOUS
 62
     7
  5
742
 10
0.14711
 20
1.212682
 30
0.0
 11
0.140758
 21
1.199527
 31
0.0
  0
LINE
  8
0
  6
CONTINUOUS
 62
     7
  5
743
 10
0.140758
 20
1.199527
 30
0.0
 11
0.133281
 21
1.187077
 31
0.0
  0
LINE
  8
0
  6
CONTINUOUS
 62
     7
  5
744
 10
0.133281
 20
1.187077
 30
0.0
 11
0.124819
 21
1.175499
 31
0.0
  0
LINE
  8
0
  6
CONTINUOUS
 62
     7
  5
745
 10
0.124819
 20
1.175499
 30
0.0
 11
0.115555
 21
1.164933
 31
0.0
  0
LINE
  8
0
  6
CONTINUOUS
 62
     7
  5
746
 10
0.115555
 20
1.164933
 30
0.0
 11
0.105518
 21
1.155325
 31
0.0
  0
LINE
  8
0
  6
CONTINUOUS
 62
     7
  5
747
 10
0.105518
 20
1.155325
 30
0.0
 11
0.09443
 21
1.146438
 31
0.0
  0
LINE
  8
0
  6
CONTINUOUS
 62
     7
  5
748
 10
0.09443
 20
1.146438
 30
0.0
 11
0.082397
 21
1.138448
 31
0.0
  0
LINE
  8
0
  6
CONTINUOUS
 62
     7
  5
749
 10
0.082397
 20
1.138448
 30
0.0
 11
0.069573
 21
1.131518
 31
0.0
  0
LINE
  8
0
  6
CONTINUOUS
 62
     7
  5
74A
 10
0.069573
 20
1.131518
 30
0.0
 11
0.05613
 21
1.125769
 31
0.0
  0
LINE
  8
0
  6
CONTINUOUS
 62
     7
  5
74B
 10
0.05613
 20
1.125769
 30
0.0
 11
0.042242
 21
1.121277
 31
0.0
  0
LINE
  8
0
  6
CONTINUOUS
 62
     7
  5
74C
 10
0.042242
 20
1.121277
 30
0.0
 11
0.028109
 21
1.118089
 31
0.0
  0
LINE
  8
0
  6
CONTINUOUS
 62
     7
  5
74D
 10
0.028109
 20
1.118089
 30
0.0
 11
0.013953
 21
1.11621
 31
0.0
  0
LINE
  8
0
  6
CONTINUOUS
 62
     7
  5
74E
 10
0.013953
 20
1.11621
 30
0.0
 11
0.0
 21
1.1156
 31
0.0
  0
LINE
  8
0
  6
CONTINUOUS
 62
     7
  5
74F
 10
-0.39
 20
-1.2756
 30
0.0
 11
-0.392513
 21
-1.303846
 31
0.0
  0
LINE
  8
0
  6
CONTINUOUS
 62
     7
  5
750
 10
-0.392513
 20
-1.303846
 30
0.0
 11
-0.400263
 21
-1.331982
 31
0.0
  0
LINE
  8
0
  6
CONTINUOUS
 62
     7
  5
751
 10
-0.400263
 20
-1.331982
 30
0.0
 11
-0.413044
 21
-1.358323
 31
0.0
  0
LINE
  8
0
  6
CONTINUOUS
 62
     7
  5
752
 10
-0.413044
 20
-1.358323
 30
0.0
 11
-0.430026
 21
-1.381459
 31
0.0
  0
LINE
  8
0
  6
CONTINUOUS
 62
     7
  5
753
 10
-0.430026
 20
-1.381459
 30
0.0
 11
-0.450298
 21
-1.400738
 31
0.0
  0
LINE
  8
0
  6
CONTINUOUS
 62
     7
  5
754
 10
-0.450298
 20
-1.400738
 30
0.0
 11
-0.474393
 21
-1.416609
 31
0.0
  0
LINE
  8
0
  6
CONTINUOUS
 62
     7
  5
755
 10
-0.474393
 20
-1.416609
 30
0.0
 11
-0.50124
 21
-1.427989
 31
0.0
  0
LINE
  8
0
  6
CONTINUOUS
 62
     7
  5
756
 10
-0.50124
 20
-1.427989
 30
0.0
 11
-0.52938
 21
-1.434266
 31
0.0
  0
LINE
  8
0
  6
CONTINUOUS
 62
     7
  5
757
 10
-0.52938
 20
-1.434266
 30
0.0
 11
-0.557208
 21
-1.435438
 31
0.0
  0
LINE
  8
0
  6
CONTINUOUS
 62
     7
  5
758
 10
-0.557208
 20
-1.435438
 30
0.0
 11
-0.585324
 21
-1.431652
 31
0.0
  0
LINE
  8
0
  6
CONTINUOUS
 62
     7
  5
759
 10
-0.585324
 20
-1.431652
 30
0.0
 11
-0.61291
 21
-1.422713
 31
0.0
  0
LINE
  8
0
  6
CONTINUOUS
 62
     7
  5
75A
 10
-0.61291
 20
-1.422713
 30
0.0
 11
-0.638409
 21
-1.408956
 31
0.0
  0
LINE
  8
0
  6
CONTINUOUS
 62
     7
  5
75B
 10
-0.638409
 20
-1.408956
 30
0.0
 11
-0.660507
 21
-1.391307
 31
0.0
  0
LINE
  8
0
  6
CONTINUOUS
 62
     7
  5
75C
 10
-0.660507
 20
-1.391307
 30
0.0
 11
-0.679007
 21
-1.370242
 31
0.0
  0
LINE
  8
0
  6
CONTINUOUS
 62
     7
  5
75D
 10
-0.679007
 20
-1.370242
 30
0.0
 11
-0.693976
 21
-1.345392
 31
0.0
  0
LINE
  8
0
  6
CONTINUOUS
 62
     7
  5
75E
 10
-0.693976
 20
-1.345392
 30
0.0
 11
-0.704277
 21
-1.318011
 31
0.0
  0
LINE
  8
0
  6
CONTINUOUS
 62
     7
  5
75F
 10
-0.704277
 20
-1.318011
 30
0.0
 11
-0.709385
 21
-1.289618
 31
0.0
  0
LINE
  8
0
  6
CONTINUOUS
 62
     7
  5
760
 10
-0.709385
 20
-1.289618
 30
0.0
 11
-0.709385
 21
-1.261581
 31
0.0
  0
LINE
  8
0
  6
CONTINUOUS
 62
     7
  5
761
 10
-0.709385
 20
-1.261581
 30
0.0
 11
-0.704274
 21
-1.233181
 31
0.0
  0
LINE
  8
0
  6
CONTINUOUS
 62
     7
  5
762
 10
-0.704274
 20
-1.233181
 30
0.0
 11
-0.693969
 21
-1.205794
 31
0.0
  0
LINE
  8
0
  6
CONTINUOUS
 62
     7
  5
763
 10
-0.693969
 20
-1.205794
 30
0.0
 11
-0.678999
 21
-1.180946
 31
0.0
  0
LINE
  8
0
  6
CONTINUOUS
 62
     7
  5
764
 10
-0.678999
 20
-1.180946
 30
0.0
 11
-0.660504
 21
-1.15989
 31
0.0
  0
LINE
  8
0
  6
CONTINUOUS
 62
     7
  5
765
 10
-0.660504
 20
-1.15989
 30
0.0
 11
-0.638396
 21
-1.142235
 31
0.0
  0
LINE
  8
0
  6
CONTINUOUS
 62
     7
  5
766
 10
-0.638396
 20
-1.142235
 30
0.0
 11
-0.612897
 21
-1.128481
 31
0.0
  0
LINE
  8
0
  6
CONTINUOUS
 62
     7
  5
767
 10
-0.612897
 20
-1.128481
 30
0.0
 11
-0.585318
 21
-1.119547
 31
0.0
  0
LINE
  8
0
  6
CONTINUOUS
 62
     7
  5
768
 10
-0.585318
 20
-1.119547
 30
0.0
 11
-0.557208
 21
-1.115762
 31
0.0
  0
LINE
  8
0
  6
CONTINUOUS
 62
     7
  5
769
 10
-0.557208
 20
-1.115762
 30
0.0
 11
-0.529382
 21
-1.116934
 31
0.0
  0
LINE
  8
0
  6
CONTINUOUS
 62
     7
  5
76A
 10
-0.529382
 20
-1.116934
 30
0.0
 11
-0.501245
 21
-1.123209
 31
0.0
  0
LINE
  8
0
  6
CONTINUOUS
 62
     7
  5
76B
 10
-0.501245
 20
-1.123209
 30
0.0
 11
-0.474401
 21
-1.134587
 31
0.0
  0
LINE
  8
0
  6
CONTINUOUS
 62
     7
  5
76C
 10
-0.474401
 20
-1.134587
 30
0.0
 11
-0.450304
 21
-1.150457
 31
0.0
  0
LINE
  8
0
  6
CONTINUOUS
 62
     7
  5
76D
 10
-0.450304
 20
-1.150457
 30
0.0
 11
-0.430029
 21
-1.169737
 31
0.0
  0
LINE
  8
0
  6
CONTINUOUS
 62
     7
  5
76E
 10
-0.430029
 20
-1.169737
 30
0.0
 11
-0.413049
 21
-1.19287
 31
0.0
  0
LINE
  8
0
  6
CONTINUOUS
 62
     7
  5
76F
 10
-0.413049
 20
-1.19287
 30
0.0
 11
-0.400266
 21
-1.219212
 31
0.0
  0
LINE
  8
0
  6
CONTINUOUS
 62
     7
  5
770
 10
-0.400266
 20
-1.219212
 30
0.0
 11
-0.392513
 21
-1.247352
 31
0.0
  0
LINE
  8
0
  6
CONTINUOUS
 62
     7
  5
771
 10
-0.392513
 20
-1.247352
 30
0.0
 11
-0.39
 21
-1.2756
 31
0.0
  0
LINE
  8
0
  6
CONTINUOUS
 62
     7
  5
772
 10
-0.39
 20
1.2756
 30
0.0
 11
-0.392513
 21
1.247352
 31
0.0
  0
LINE
  8
0
  6
CONTINUOUS
 62
     7
  5
773
 10
-0.392513
 20
1.247352
 30
0.0
 11
-0.400266
 21
1.219212
 31
0.0
  0
LINE
  8
0
  6
CONTINUOUS
 62
     7
  5
774
 10
-0.400266
 20
1.219212
 30
0.0
 11
-0.413049
 21
1.19287
 31
0.0
  0
LINE
  8
0
  6
CONTINUOUS
 62
     7
  5
775
 10
-0.413049
 20
1.19287
 30
0.0
 11
-0.430029
 21
1.169737
 31
0.0
  0
LINE
  8
0
  6
CONTINUOUS
 62
     7
  5
776
 10
-0.430029
 20
1.169737
 30
0.0
 11
-0.450304
 21
1.150457
 31
0.0
  0
LINE
  8
0
  6
CONTINUOUS
 62
     7
  5
777
 10
-0.450304
 20
1.150457
 30
0.0
 11
-0.474401
 21
1.134587
 31
0.0
  0
LINE
  8
0
  6
CONTINUOUS
 62
     7
  5
778
 10
-0.474401
 20
1.134587
 30
0.0
 11
-0.501245
 21
1.123209
 31
0.0
  0
LINE
  8
0
  6
CONTINUOUS
 62
     7
  5
779
 10
-0.501245
 20
1.123209
 30
0.0
 11
-0.529382
 21
1.116934
 31
0.0
  0
LINE
  8
0
  6
CONTINUOUS
 62
     7
  5
77A
 10
-0.529382
 20
1.116934
 30
0.0
 11
-0.557208
 21
1.115762
 31
0.0
  0
LINE
  8
0
  6
CONTINUOUS
 62
     7
  5
77B
 10
-0.557208
 20
1.115762
 30
0.0
 11
-0.585318
 21
1.119547
 31
0.0
  0
LINE
  8
0
  6
CONTINUOUS
 62
     7
  5
77C
 10
-0.585318
 20
1.119547
 30
0.0
 11
-0.612897
 21
1.128481
 31
0.0
  0
LINE
  8
0
  6
CONTINUOUS
 62
     7
  5
77D
 10
-0.612897
 20
1.128481
 30
0.0
 11
-0.638396
 21
1.142235
 31
0.0
  0
LINE
  8
0
  6
CONTINUOUS
 62
     7
  5
77E
 10
-0.638396
 20
1.142235
 30
0.0
 11
-0.660504
 21
1.15989
 31
0.0
  0
LINE
  8
0
  6
CONTINUOUS
 62
     7
  5
77F
 10
-0.660504
 20
1.15989
 30
0.0
 11
-0.678998
 21
1.180946
 31
0.0
  0
LINE
  8
0
  6
CONTINUOUS
 62
     7
  5
780
 10
-0.678998
 20
1.180946
 30
0.0
 11
-0.693969
 21
1.205794
 31
0.0
  0
LINE
  8
0
  6
CONTINUOUS
 62
     7
  5
781
 10
-0.693969
 20
1.205794
 30
0.0
 11
-0.704274
 21
1.233181
 31
0.0
  0
LINE
  8
0
  6
CONTINUOUS
 62
     7
  5
782
 10
-0.704274
 20
1.233181
 30
0.0
 11
-0.709385
 21
1.26158
 31
0.0
  0
LINE
  8
0
  6
CONTINUOUS
 62
     7
  5
783
 10
-0.709385
 20
1.26158
 30
0.0
 11
-0.709385
 21
1.28962
 31
0.0
  0
LINE
  8
0
  6
CONTINUOUS
 62
     7
  5
784
 10
-0.709385
 20
1.28962
 30
0.0
 11
-0.704274
 21
1.318019
 31
0.0
  0
LINE
  8
0
  6
CONTINUOUS
 62
     7
  5
785
 10
-0.704274
 20
1.318019
 30
0.0
 11
-0.693969
 21
1.345406
 31
0.0
  0
LINE
  8
0
  6
CONTINUOUS
 62
     7
  5
786
 10
-0.693969
 20
1.345406
 30
0.0
 11
-0.678998
 21
1.370254
 31
0.0
  0
LINE
  8
0
  6
CONTINUOUS
 62
     7
  5
787
 10
-0.678998
 20
1.370254
 30
0.0
 11
-0.660504
 21
1.39131
 31
0.0
  0
LINE
  8
0
  6
CONTINUOUS
 62
     7
  5
788
 10
-0.660504
 20
1.39131
 30
0.0
 11
-0.638396
 21
1.408965
 31
0.0
  0
LINE
  8
0
  6
CONTINUOUS
 62
     7
  5
789
 10
-0.638396
 20
1.408965
 30
0.0
 11
-0.612897
 21
1.422719
 31
0.0
  0
LINE
  8
0
  6
CONTINUOUS
 62
     7
  5
78A
 10
-0.612897
 20
1.422719
 30
0.0
 11
-0.585318
 21
1.431653
 31
0.0
  0
LINE
  8
0
  6
CONTINUOUS
 62
     7
  5
78B
 10
-0.585318
 20
1.431653
 30
0.0
 11
-0.557208
 21
1.435438
 31
0.0
  0
LINE
  8
0
  6
CONTINUOUS
 62
     7
  5
78C
 10
-0.557208
 20
1.435438
 30
0.0
 11
-0.529382
 21
1.434266
 31
0.0
  0
LINE
  8
0
  6
CONTINUOUS
 62
     7
  5
78D
 10
-0.529382
 20
1.434266
 30
0.0
 11
-0.501245
 21
1.427991
 31
0.0
  0
LINE
  8
0
  6
CONTINUOUS
 62
     7
  5
78E
 10
-0.501245
 20
1.427991
 30
0.0
 11
-0.474401
 21
1.416613
 31
0.0
  0
LINE
  8
0
  6
CONTINUOUS
 62
     7
  5
78F
 10
-0.474401
 20
1.416613
 30
0.0
 11
-0.450304
 21
1.400743
 31
0.0
  0
LINE
  8
0
  6
CONTINUOUS
 62
     7
  5
790
 10
-0.450304
 20
1.400743
 30
0.0
 11
-0.430029
 21
1.381463
 31
0.0
  0
LINE
  8
0
  6
CONTINUOUS
 62
     7
  5
791
 10
-0.430029
 20
1.381463
 30
0.0
 11
-0.413049
 21
1.35833
 31
0.0
  0
LINE
  8
0
  6
CONTINUOUS
 62
     7
  5
792
 10
-0.413049
 20
1.35833
 30
0.0
 11
-0.400266
 21
1.331988
 31
0.0
  0
LINE
  8
0
  6
CONTINUOUS
 62
     7
  5
793
 10
-0.400266
 20
1.331988
 30
0.0
 11
-0.392513
 21
1.303848
 31
0.0
  0
LINE
  8
0
  6
CONTINUOUS
 62
     7
  5
794
 10
-0.392513
 20
1.303848
 30
0.0
 11
-0.39
 21
1.2756
 31
0.0
  0
LINE
  8
0
  6
CONTINUOUS
 62
     7
  5
795
 10
-0.88
 20
-1.01575
 30
0.0
 11
0.88
 21
-1.01575
 31
0.0
  0
LINE
  8
0
  6
CONTINUOUS
 62
     7
  5
796
 10
0.88
 20
1.01575
 30
0.0
 11
-0.88
 21
1.01575
 31
0.0
  0
LINE
  8
0
  6
CONTINUOUS
 62
     7
  5
797
 10
-0.88
 20
-1.67
 30
0.0
 11
0.88
 21
-1.67
 31
0.0
  0
LINE
  8
0
  6
CONTINUOUS
 62
     7
  5
798
 10
-0.879
 20
0.5773
 30
0.0
 11
-0.879
 21
-0.5773
 31
0.0
  0
LINE
  8
0
  6
CONTINUOUS
 62
     7
  5
799
 10
0.879
 20
0.5773
 30
0.0
 11
0.879
 21
0.3858
 31
0.0
  0
LINE
  8
0
  6
CONTINUOUS
 62
     7
  5
79A
 10
0.879
 20
0.3858
 30
0.0
 11
0.879
 21
0.059
 31
0.0
  0
LINE
  8
0
  6
CONTINUOUS
 62
     7
  5
79B
 10
0.879
 20
0.059
 30
0.0
 11
0.879
 21
-0.5773
 31
0.0
  0
LINE
  8
0
  6
CONTINUOUS
 62
     7
  5
79C
 10
-0.7245
 20
0.059
 30
0.0
 11
-0.7245
 21
0.3858
 31
0.0
  0
LINE
  8
0
  6
CONTINUOUS
 62
     7
  5
79D
 10
-0.7245
 20
0.3858
 30
0.0
 11
0.879
 21
0.3858
 31
0.0
  0
LINE
  8
0
  6
CONTINUOUS
 62
     7
  5
79E
 10
0.879
 20
0.5773
 30
0.0
 11
-0.879
 21
0.5773
 31
0.0
  0
LINE
  8
0
  6
CONTINUOUS
 62
     7
  5
79F
 10
0.879
 20
0.059
 30
0.0
 11
-0.7245
 21
0.059
 31
0.0
  0
LINE
  8
0
  6
CONTINUOUS
 62
     7
  5
7A0
 10
-0.879
 20
-0.5773
 30
0.0
 11
0.879
 21
-0.5773
 31
0.0
  0
LINE
  8
0
  6
CONTINUOUS
 62
     7
  5
7A1
 10
-0.890433
 20
1.6693
 30
0.0
 11
-0.88
 21
1.6693
 31
0.0
  0
LINE
  8
0
  6
CONTINUOUS
 62
     7
  5
7A2
 10
2.6438
 20
1.6693
 30
0.0
 11
2.645
 21
1.6693
 31
0.0
  0
LINE
  8
0
  6
CONTINUOUS
 62
     7
  5
7A3
 10
0.8838
 20
1.6693
 30
0.0
 11
0.88
 21
1.6693
 31
0.0
  0
LINE
  8
0
  6
CONTINUOUS
 62
     7
  5
7A4
 10
-0.843189
 20
1.822843
 30
0.0
 11
-0.890433
 21
1.822843
 31
0.0
  0
LINE
  8
0
  6
CONTINUOUS
 62
     7
  5
7A5
 10
-0.890433
 20
1.6693
 30
0.0
 11
-0.890433
 21
1.822843
 31
0.0
  0
LINE
  8
0
  6
CONTINUOUS
 62
     7
  5
7A6
 10
-0.209331
 20
1.822843
 30
0.0
 11
-0.843189
 21
1.822843
 31
0.0
  0
LINE
  8
0
  6
CONTINUOUS
 62
     7
  5
7A7
 10
-0.209331
 20
1.67
 30
0.0
 11
-0.209331
 21
1.874024
 31
0.0
  0
LINE
  8
0
  6
CONTINUOUS
 62
     7
  5
7A8
 10
-0.169961
 20
1.67
 30
0.0
 11
-0.169961
 21
1.874024
 31
0.0
  0
LINE
  8
0
  6
CONTINUOUS
 62
     7
  5
7A9
 10
-0.169961
 20
1.874024
 30
0.0
 11
-0.209331
 21
1.874024
 31
0.0
  0
LINE
  8
0
  6
CONTINUOUS
 62
     7
  5
7AA
 10
0.751932
 20
-1.67
 30
0.0
 11
0.751932
 21
-1.712643
 31
0.0
  0
LINE
  8
0
  6
CONTINUOUS
 62
     7
  5
7AB
 10
0.200751
 20
-1.67
 30
0.0
 11
0.200751
 21
-1.712643
 31
0.0
  0
LINE
  8
0
  6
CONTINUOUS
 62
     7
  5
7AC
 10
-0.35043
 20
-1.67
 30
0.0
 11
-0.35043
 21
-1.712643
 31
0.0
  0
LINE
  8
0
  6
CONTINUOUS
 62
     7
  5
7AD
 10
0.8838
 20
-1.01575
 30
0.0
 11
0.8838
 21
-1.67
 31
0.0
  0
LINE
  8
0
  6
CONTINUOUS
 62
     7
  5
7AE
 10
0.8838
 20
-0.5783
 30
0.0
 11
0.8838
 21
-1.01575
 31
0.0
  0
LINE
  8
0
  6
CONTINUOUS
 62
     7
  5
7AF
 10
0.8838
 20
-0.5783
 30
0.0
 11
0.8838
 21
0.5783
 31
0.0
  0
LINE
  8
0
  6
CONTINUOUS
 62
     7
  5
7B0
 10
0.8838
 20
1.01575
 30
0.0
 11
0.8838
 21
0.5783
 31
0.0
  0
LINE
  8
0
  6
CONTINUOUS
 62
     7
  5
7B1
 10
0.8838
 20
1.67
 30
0.0
 11
0.8838
 21
1.01575
 31
0.0
  0
LINE
  8
0
  6
CONTINUOUS
 62
     7
  5
7B2
 10
2.6438
 20
1.67
 30
0.0
 11
2.6438
 21
1.01575
 31
0.0
  0
LINE
  8
0
  6
CONTINUOUS
 62
     7
  5
7B3
 10
2.6438
 20
1.01575
 30
0.0
 11
2.6438
 21
0.5783
 31
0.0
  0
LINE
  8
0
  6
CONTINUOUS
 62
     7
  5
7B4
 10
2.6438
 20
0.5783
 30
0.0
 11
2.6438
 21
-0.5783
 31
0.0
  0
LINE
  8
0
  6
CONTINUOUS
 62
     7
  5
7B5
 10
2.6438
 20
-0.5783
 30
0.0
 11
2.6438
 21
-1.01575
 31
0.0
  0
LINE
  8
0
  6
CONTINUOUS
 62
     7
  5
7B6
 10
2.6438
 20
-1.01575
 30
0.0
 11
2.6438
 21
-1.67
 31
0.0
  0
LINE
  8
0
  6
CONTINUOUS
 62
     7
  5
7B7
 10
2.11025
 20
0.5783
 30
0.0
 11
2.6438
 21
0.5783
 31
0.0
  0
LINE
  8
0
  6
CONTINUOUS
 62
     7
  5
7B8
 10
1.7638
 20
0.5783
 30
0.0
 11
1.8819
 21
0.5783
 31
0.0
  0
LINE
  8
0
  6
CONTINUOUS
 62
     7
  5
7B9
 10
1.6457
 20
0.5783
 30
0.0
 11
1.7638
 21
0.5783
 31
0.0
  0
LINE
  8
0
  6
CONTINUOUS
 62
     7
  5
7BA
 10
0.8838
 20
0.5783
 30
0.0
 11
1.41735
 21
0.5783
 31
0.0
  0
LINE
  8
0
  6
CONTINUOUS
 62
     7
  5
7BB
 10
1.7638
 20
-0.5783
 30
0.0
 11
0.8838
 21
-0.5783
 31
0.0
  0
LINE
  8
0
  6
CONTINUOUS
 62
     7
  5
7BC
 10
2.6438
 20
-0.5783
 30
0.0
 11
1.7638
 21
-0.5783
 31
0.0
  0
LINE
  8
0
  6
CONTINUOUS
 62
     7
  5
7BD
 10
1.3189
 20
-0.15845
 30
0.0
 11
0.9961
 21
-0.15845
 31
0.0
  0
LINE
  8
0
  6
CONTINUOUS
 62
     7
  5
7BE
 10
0.9961
 20
-0.15845
 30
0.0
 11
0.9961
 21
0.15845
 31
0.0
  0
LINE
  8
0
  6
CONTINUOUS
 62
     7
  5
7BF
 10
0.9961
 20
0.15845
 30
0.0
 11
1.3189
 21
0.15845
 31
0.0
  0
LINE
  8
0
  6
CONTINUOUS
 62
     7
  5
7C0
 10
2.2087
 20
0.15845
 30
0.0
 11
2.5315
 21
0.15845
 31
0.0
  0
LINE
  8
0
  6
CONTINUOUS
 62
     7
  5
7C1
 10
2.5315
 20
0.15845
 30
0.0
 11
2.5315
 21
-0.15845
 31
0.0
  0
LINE
  8
0
  6
CONTINUOUS
 62
     7
  5
7C2
 10
2.5315
 20
-0.15845
 30
0.0
 11
2.2087
 21
-0.15845
 31
0.0
  0
LINE
  8
0
  6
CONTINUOUS
 62
     7
  5
7C3
 10
2.6438
 20
1.67
 30
0.0
 11
0.8838
 21
1.67
 31
0.0
  0
LINE
  8
0
  6
CONTINUOUS
 62
     7
  5
7C4
 10
1.6688
 20
-0.77
 30
0.0
 11
1.667165
 21
-0.788458
 31
0.0
  0
LINE
  8
0
  6
CONTINUOUS
 62
     7
  5
7C5
 10
1.667165
 20
-0.788458
 30
0.0
 11
1.662118
 21
-0.806858
 31
0.0
  0
LINE
  8
0
  6
CONTINUOUS
 62
     7
  5
7C6
 10
1.662118
 20
-0.806858
 30
0.0
 11
1.653788
 21
-0.824104
 31
0.0
  0
LINE
  8
0
  6
CONTINUOUS
 62
     7
  5
7C7
 10
1.653788
 20
-0.824104
 30
0.0
 11
1.6427
 21
-0.83928
 31
0.0
  0
LINE
  8
0
  6
CONTINUOUS
 62
     7
  5
7C8
 10
1.6427
 20
-0.83928
 30
0.0
 11
1.629448
 21
-0.851947
 31
0.0
  0
LINE
  8
0
  6
CONTINUOUS
 62
     7
  5
7C9
 10
1.629448
 20
-0.851947
 30
0.0
 11
1.613668
 21
-0.862402
 31
0.0
  0
LINE
  8
0
  6
CONTINUOUS
 62
     7
  5
7CA
 10
1.613668
 20
-0.862402
 30
0.0
 11
1.596048
 21
-0.869925
 31
0.0
  0
LINE
  8
0
  6
CONTINUOUS
 62
     7
  5
7CB
 10
1.596048
 20
-0.869925
 30
0.0
 11
1.577539
 21
-0.874097
 31
0.0
  0
LINE
  8
0
  6
CONTINUOUS
 62
     7
  5
7CC
 10
1.577539
 20
-0.874097
 30
0.0
 11
1.559204
 21
-0.874899
 31
0.0
  0
LINE
  8
0
  6
CONTINUOUS
 62
     7
  5
7CD
 10
1.559204
 20
-0.874899
 30
0.0
 11
1.540676
 21
-0.872422
 31
0.0
  0
LINE
  8
0
  6
CONTINUOUS
 62
     7
  5
7CE
 10
1.540676
 20
-0.872422
 30
0.0
 11
1.522498
 21
-0.866536
 31
0.0
  0
LINE
  8
0
  6
CONTINUOUS
 62
     7
  5
7CF
 10
1.522498
 20
-0.866536
 30
0.0
 11
1.505708
 21
-0.857466
 31
0.0
  0
LINE
  8
0
  6
CONTINUOUS
 62
     7
  5
7D0
 10
1.505708
 20
-0.857466
 30
0.0
 11
1.491183
 21
-0.84584
 31
0.0
  0
LINE
  8
0
  6
CONTINUOUS
 62
     7
  5
7D1
 10
1.491183
 20
-0.84584
 30
0.0
 11
1.479048
 21
-0.831984
 31
0.0
  0
LINE
  8
0
  6
CONTINUOUS
 62
     7
  5
7D2
 10
1.479048
 20
-0.831984
 30
0.0
 11
1.469254
 21
-0.815674
 31
0.0
  0
LINE
  8
0
  6
CONTINUOUS
 62
     7
  5
7D3
 10
1.469254
 20
-0.815674
 30
0.0
 11
1.462529
 21
-0.797735
 31
0.0
  0
LINE
  8
0
  6
CONTINUOUS
 62
     7
  5
7D4
 10
1.462529
 20
-0.797735
 30
0.0
 11
1.4592
 21
-0.779162
 31
0.0
  0
LINE
  8
0
  6
CONTINUOUS
 62
     7
  5
7D5
 10
1.4592
 20
-0.779162
 30
0.0
 11
1.4592
 21
-0.760838
 31
0.0
  0
LINE
  8
0
  6
CONTINUOUS
 62
     7
  5
7D6
 10
1.4592
 20
-0.760838
 30
0.0
 11
1.462529
 21
-0.742265
 31
0.0
  0
LINE
  8
0
  6
CONTINUOUS
 62
     7
  5
7D7
 10
1.462529
 20
-0.742265
 30
0.0
 11
1.469254
 21
-0.724326
 31
0.0
  0
LINE
  8
0
  6
CONTINUOUS
 62
     7
  5
7D8
 10
1.469254
 20
-0.724326
 30
0.0
 11
1.479048
 21
-0.708016
 31
0.0
  0
LINE
  8
0
  6
CONTINUOUS
 62
     7
  5
7D9
 10
1.479048
 20
-0.708016
 30
0.0
 11
1.491183
 21
-0.69416
 31
0.0
  0
LINE
  8
0
  6
CONTINUOUS
 62
     7
  5
7DA
 10
1.491183
 20
-0.69416
 30
0.0
 11
1.505708
 21
-0.682534
 31
0.0
  0
LINE
  8
0
  6
CONTINUOUS
 62
     7
  5
7DB
 10
1.505708
 20
-0.682534
 30
0.0
 11
1.522498
 21
-0.673464
 31
0.0
  0
LINE
  8
0
  6
CONTINUOUS
 62
     7
  5
7DC
 10
1.522498
 20
-0.673464
 30
0.0
 11
1.540676
 21
-0.667578
 31
0.0
  0
LINE
  8
0
  6
CONTINUOUS
 62
     7
  5
7DD
 10
1.540676
 20
-0.667578
 30
0.0
 11
1.559204
 21
-0.665101
 31
0.0
  0
LINE
  8
0
  6
CONTINUOUS
 62
     7
  5
7DE
 10
1.559204
 20
-0.665101
 30
0.0
 11
1.577539
 21
-0.665903
 31
0.0
  0
LINE
  8
0
  6
CONTINUOUS
 62
     7
  5
7DF
 10
1.577539
 20
-0.665903
 30
0.0
 11
1.596048
 21
-0.670075
 31
0.0
  0
LINE
  8
0
  6
CONTINUOUS
 62
     7
  5
7E0
 10
1.596048
 20
-0.670075
 30
0.0
 11
1.613668
 21
-0.677598
 31
0.0
  0
LINE
  8
0
  6
CONTINUOUS
 62
     7
  5
7E1
 10
1.613668
 20
-0.677598
 30
0.0
 11
1.629448
 21
-0.688053
 31
0.0
  0
LINE
  8
0
  6
CONTINUOUS
 62
     7
  5
7E2
 10
1.629448
 20
-0.688053
 30
0.0
 11
1.6427
 21
-0.70072
 31
0.0
  0
LINE
  8
0
  6
CONTINUOUS
 62
     7
  5
7E3
 10
1.6427
 20
-0.70072
 30
0.0
 11
1.653788
 21
-0.715896
 31
0.0
  0
LINE
  8
0
  6
CONTINUOUS
 62
     7
  5
7E4
 10
1.653788
 20
-0.715896
 30
0.0
 11
1.662118
 21
-0.733142
 31
0.0
  0
LINE
  8
0
  6
CONTINUOUS
 62
     7
  5
7E5
 10
1.662118
 20
-0.733142
 30
0.0
 11
1.667165
 21
-0.751542
 31
0.0
  0
LINE
  8
0
  6
CONTINUOUS
 62
     7
  5
7E6
 10
1.667165
 20
-0.751542
 30
0.0
 11
1.6688
 21
-0.77
 31
0.0
  0
LINE
  8
0
  6
CONTINUOUS
 62
     7
  5
7E7
 10
1.666597
 20
0.771396
 30
0.0
 11
1.666723
 21
0.77078
 31
0.0
  0
LINE
  8
0
  6
CONTINUOUS
 62
     7
  5
7E8
 10
1.666723
 20
0.77078
 30
0.0
 11
1.666846
 21
0.770165
 31
0.0
  0
LINE
  8
0
  6
CONTINUOUS
 62
     7
  5
7E9
 10
1.666846
 20
0.770165
 30
0.0
 11
1.666964
 21
0.769549
 31
0.0
  0
LINE
  8
0
  6
CONTINUOUS
 62
     7
  5
7EA
 10
1.666964
 20
0.769549
 30
0.0
 11
1.667079
 21
0.768933
 31
0.0
  0
LINE
  8
0
  6
CONTINUOUS
 62
     7
  5
7EB
 10
1.667079
 20
0.768933
 30
0.0
 11
1.66719
 21
0.768317
 31
0.0
  0
LINE
  8
0
  6
CONTINUOUS
 62
     7
  5
7EC
 10
1.66719
 20
0.768317
 30
0.0
 11
1.667297
 21
0.7677
 31
0.0
  0
LINE
  8
0
  6
CONTINUOUS
 62
     7
  5
7ED
 10
1.667297
 20
0.7677
 30
0.0
 11
1.667401
 21
0.767084
 31
0.0
  0
LINE
  8
0
  6
CONTINUOUS
 62
     7
  5
7EE
 10
1.667401
 20
0.767084
 30
0.0
 11
1.667501
 21
0.766468
 31
0.0
  0
LINE
  8
0
  6
CONTINUOUS
 62
     7
  5
7EF
 10
1.667501
 20
0.766468
 30
0.0
 11
1.667597
 21
0.765852
 31
0.0
  0
LINE
  8
0
  6
CONTINUOUS
 62
     7
  5
7F0
 10
1.667597
 20
0.765852
 30
0.0
 11
1.667689
 21
0.765236
 31
0.0
  0
LINE
  8
0
  6
CONTINUOUS
 62
     7
  5
7F1
 10
1.667689
 20
0.765236
 30
0.0
 11
1.667777
 21
0.76462
 31
0.0
  0
LINE
  8
0
  6
CONTINUOUS
 62
     7
  5
7F2
 10
1.667777
 20
0.76462
 30
0.0
 11
1.667862
 21
0.764004
 31
0.0
  0
LINE
  8
0
  6
CONTINUOUS
 62
     7
  5
7F3
 10
1.667862
 20
0.764004
 30
0.0
 11
1.667943
 21
0.763389
 31
0.0
  0
LINE
  8
0
  6
CONTINUOUS
 62
     7
  5
7F4
 10
1.667943
 20
0.763389
 30
0.0
 11
1.66802
 21
0.762774
 31
0.0
  0
LINE
  8
0
  6
CONTINUOUS
 62
     7
  5
7F5
 10
1.66802
 20
0.762774
 30
0.0
 11
1.668094
 21
0.762159
 31
0.0
  0
LINE
  8
0
  6
CONTINUOUS
 62
     7
  5
7F6
 10
1.668094
 20
0.762159
 30
0.0
 11
1.668163
 21
0.761545
 31
0.0
  0
LINE
  8
0
  6
CONTINUOUS
 62
     7
  5
7F7
 10
1.668163
 20
0.761545
 30
0.0
 11
1.66823
 21
0.760931
 31
0.0
  0
LINE
  8
0
  6
CONTINUOUS
 62
     7
  5
7F8
 10
1.66823
 20
0.760931
 30
0.0
 11
1.668292
 21
0.760317
 31
0.0
  0
LINE
  8
0
  6
CONTINUOUS
 62
     7
  5
7F9
 10
1.668292
 20
0.760317
 30
0.0
 11
1.668351
 21
0.759704
 31
0.0
  0
LINE
  8
0
  6
CONTINUOUS
 62
     7
  5
7FA
 10
1.668351
 20
0.759704
 30
0.0
 11
1.668406
 21
0.759092
 31
0.0
  0
LINE
  8
0
  6
CONTINUOUS
 62
     7
  5
7FB
 10
1.668406
 20
0.759092
 30
0.0
 11
1.668457
 21
0.75848
 31
0.0
  0
LINE
  8
0
  6
CONTINUOUS
 62
     7
  5
7FC
 10
1.668457
 20
0.75848
 30
0.0
 11
1.668505
 21
0.757869
 31
0.0
  0
LINE
  8
0
  6
CONTINUOUS
 62
     7
  5
7FD
 10
1.668505
 20
0.757869
 30
0.0
 11
1.668549
 21
0.757258
 31
0.0
  0
LINE
  8
0
  6
CONTINUOUS
 62
     7
  5
7FE
 10
1.668549
 20
0.757258
 30
0.0
 11
1.668589
 21
0.756648
 31
0.0
  0
LINE
  8
0
  6
CONTINUOUS
 62
     7
  5
7FF
 10
1.668589
 20
0.756648
 30
0.0
 11
1.668626
 21
0.756039
 31
0.0
  0
LINE
  8
0
  6
CONTINUOUS
 62
     7
  5
800
 10
1.668626
 20
0.756039
 30
0.0
 11
1.668659
 21
0.755431
 31
0.0
  0
LINE
  8
0
  6
CONTINUOUS
 62
     7
  5
801
 10
1.668659
 20
0.755431
 30
0.0
 11
1.668689
 21
0.754824
 31
0.0
  0
LINE
  8
0
  6
CONTINUOUS
 62
     7
  5
802
 10
1.668689
 20
0.754824
 30
0.0
 11
1.668715
 21
0.754217
 31
0.0
  0
LINE
  8
0
  6
CONTINUOUS
 62
     7
  5
803
 10
1.668715
 20
0.754217
 30
0.0
 11
1.668738
 21
0.753612
 31
0.0
  0
LINE
  8
0
  6
CONTINUOUS
 62
     7
  5
804
 10
1.668738
 20
0.753612
 30
0.0
 11
1.668757
 21
0.753007
 31
0.0
  0
LINE
  8
0
  6
CONTINUOUS
 62
     7
  5
805
 10
1.668757
 20
0.753007
 30
0.0
 11
1.668772
 21
0.752403
 31
0.0
  0
LINE
  8
0
  6
CONTINUOUS
 62
     7
  5
806
 10
1.668772
 20
0.752403
 30
0.0
 11
1.668785
 21
0.751801
 31
0.0
  0
LINE
  8
0
  6
CONTINUOUS
 62
     7
  5
807
 10
1.668785
 20
0.751801
 30
0.0
 11
1.668793
 21
0.751199
 31
0.0
  0
LINE
  8
0
  6
CONTINUOUS
 62
     7
  5
808
 10
1.668793
 20
0.751199
 30
0.0
 11
1.668798
 21
0.750599
 31
0.0
  0
LINE
  8
0
  6
CONTINUOUS
 62
     7
  5
809
 10
1.668798
 20
0.750599
 30
0.0
 11
1.6688
 21
0.75
 31
0.0
  0
LINE
  8
0
  6
CONTINUOUS
 62
     7
  5
80A
 10
1.491937
 20
0.826556
 30
0.0
 11
1.495211
 21
0.829502
 31
0.0
  0
LINE
  8
0
  6
CONTINUOUS
 62
     7
  5
80B
 10
1.495211
 20
0.829502
 30
0.0
 11
1.498645
 21
0.832339
 31
0.0
  0
LINE
  8
0
  6
CONTINUOUS
 62
     7
  5
80C
 10
1.498645
 20
0.832339
 30
0.0
 11
1.502229
 21
0.835053
 31
0.0
  0
LINE
  8
0
  6
CONTINUOUS
 62
     7
  5
80D
 10
1.502229
 20
0.835053
 30
0.0
 11
1.505956
 21
0.83763
 31
0.0
  0
LINE
  8
0
  6
CONTINUOUS
 62
     7
  5
80E
 10
1.505956
 20
0.83763
 30
0.0
 11
1.509812
 21
0.840057
 31
0.0
  0
LINE
  8
0
  6
CONTINUOUS
 62
     7
  5
80F
 10
1.509812
 20
0.840057
 30
0.0
 11
1.513788
 21
0.842324
 31
0.0
  0
LINE
  8
0
  6
CONTINUOUS
 62
     7
  5
810
 10
1.513788
 20
0.842324
 30
0.0
 11
1.517869
 21
0.844421
 31
0.0
  0
LINE
  8
0
  6
CONTINUOUS
 62
     7
  5
811
 10
1.517869
 20
0.844421
 30
0.0
 11
1.522045
 21
0.846341
 31
0.0
  0
LINE
  8
0
  6
CONTINUOUS
 62
     7
  5
812
 10
1.522045
 20
0.846341
 30
0.0
 11
1.526302
 21
0.848076
 31
0.0
  0
LINE
  8
0
  6
CONTINUOUS
 62
     7
  5
813
 10
1.526302
 20
0.848076
 30
0.0
 11
1.530628
 21
0.849622
 31
0.0
  0
LINE
  8
0
  6
CONTINUOUS
 62
     7
  5
814
 10
1.530628
 20
0.849622
 30
0.0
 11
1.53501
 21
0.850976
 31
0.0
  0
LINE
  8
0
  6
CONTINUOUS
 62
     7
  5
815
 10
1.53501
 20
0.850976
 30
0.0
 11
1.539433
 21
0.852133
 31
0.0
  0
LINE
  8
0
  6
CONTINUOUS
 62
     7
  5
816
 10
1.539433
 20
0.852133
 30
0.0
 11
1.543881
 21
0.853093
 31
0.0
  0
LINE
  8
0
  6
CONTINUOUS
 62
     7
  5
817
 10
1.543881
 20
0.853093
 30
0.0
 11
1.548338
 21
0.853855
 31
0.0
  0
LINE
  8
0
  6
CONTINUOUS
 62
     7
  5
818
 10
1.548338
 20
0.853855
 30
0.0
 11
1.552788
 21
0.854421
 31
0.0
  0
LINE
  8
0
  6
CONTINUOUS
 62
     7
  5
819
 10
1.552788
 20
0.854421
 30
0.0
 11
1.557214
 21
0.854793
 31
0.0
  0
LINE
  8
0
  6
CONTINUOUS
 62
     7
  5
81A
 10
1.557214
 20
0.854793
 30
0.0
 11
1.5616
 21
0.854977
 31
0.0
  0
LINE
  8
0
  6
CONTINUOUS
 62
     7
  5
81B
 10
1.5616
 20
0.854977
 30
0.0
 11
1.565946
 21
0.854978
 31
0.0
  0
LINE
  8
0
  6
CONTINUOUS
 62
     7
  5
81C
 10
1.565946
 20
0.854978
 30
0.0
 11
1.570332
 21
0.854797
 31
0.0
  0
LINE
  8
0
  6
CONTINUOUS
 62
     7
  5
81D
 10
1.570332
 20
0.854797
 30
0.0
 11
1.574759
 21
0.854427
 31
0.0
  0
LINE
  8
0
  6
CONTINUOUS
 62
     7
  5
81E
 10
1.574759
 20
0.854427
 30
0.0
 11
1.57921
 21
0.853863
 31
0.0
  0
LINE
  8
0
  6
CONTINUOUS
 62
     7
  5
81F
 10
1.57921
 20
0.853863
 30
0.0
 11
1.583669
 21
0.853103
 31
0.0
  0
LINE
  8
0
  6
CONTINUOUS
 62
     7
  5
820
 10
1.583669
 20
0.853103
 30
0.0
 11
1.58812
 21
0.852145
 31
0.0
  0
LINE
  8
0
  6
CONTINUOUS
 62
     7
  5
821
 10
1.58812
 20
0.852145
 30
0.0
 11
1.592546
 21
0.850988
 31
0.0
  0
LINE
  8
0
  6
CONTINUOUS
 62
     7
  5
822
 10
1.592546
 20
0.850988
 30
0.0
 11
1.596932
 21
0.849636
 31
0.0
  0
LINE
  8
0
  6
CONTINUOUS
 62
     7
  5
823
 10
1.596932
 20
0.849636
 30
0.0
 11
1.601262
 21
0.84809
 31
0.0
  0
LINE
  8
0
  6
CONTINUOUS
 62
     7
  5
824
 10
1.601262
 20
0.84809
 30
0.0
 11
1.605523
 21
0.846354
 31
0.0
  0
LINE
  8
0
  6
CONTINUOUS
 62
     7
  5
825
 10
1.605523
 20
0.846354
 30
0.0
 11
1.609703
 21
0.844435
 31
0.0
  0
LINE
  8
0
  6
CONTINUOUS
 62
     7
  5
826
 10
1.609703
 20
0.844435
 30
0.0
 11
1.613789
 21
0.842337
 31
0.0
  0
LINE
  8
0
  6
CONTINUOUS
 62
     7
  5
827
 10
1.613789
 20
0.842337
 30
0.0
 11
1.617769
 21
0.840069
 31
0.0
  0
LINE
  8
0
  6
CONTINUOUS
 62
     7
  5
828
 10
1.617769
 20
0.840069
 30
0.0
 11
1.62163
 21
0.83764
 31
0.0
  0
LINE
  8
0
  6
CONTINUOUS
 62
     7
  5
829
 10
1.62163
 20
0.83764
 30
0.0
 11
1.62536
 21
0.835061
 31
0.0
  0
LINE
  8
0
  6
CONTINUOUS
 62
     7
  5
82A
 10
1.62536
 20
0.835061
 30
0.0
 11
1.628948
 21
0.832345
 31
0.0
  0
LINE
  8
0
  6
CONTINUOUS
 62
     7
  5
82B
 10
1.628948
 20
0.832345
 30
0.0
 11
1.632385
 21
0.829505
 31
0.0
  0
LINE
  8
0
  6
CONTINUOUS
 62
     7
  5
82C
 10
1.632385
 20
0.829505
 30
0.0
 11
1.635662
 21
0.826556
 31
0.0
  0
LINE
  8
0
  6
CONTINUOUS
 62
     7
  5
82D
 10
1.6688
 20
0.75
 30
0.0
 11
1.66868
 21
0.744977
 31
0.0
  0
LINE
  8
0
  6
CONTINUOUS
 62
     7
  5
82E
 10
1.66868
 20
0.744977
 30
0.0
 11
1.668312
 21
0.739893
 31
0.0
  0
LINE
  8
0
  6
CONTINUOUS
 62
     7
  5
82F
 10
1.668312
 20
0.739893
 30
0.0
 11
1.66769
 21
0.734773
 31
0.0
  0
LINE
  8
0
  6
CONTINUOUS
 62
     7
  5
830
 10
1.66769
 20
0.734773
 30
0.0
 11
1.666807
 21
0.729641
 31
0.0
  0
LINE
  8
0
  6
CONTINUOUS
 62
     7
  5
831
 10
1.666807
 20
0.729641
 30
0.0
 11
1.665663
 21
0.724524
 31
0.0
  0
LINE
  8
0
  6
CONTINUOUS
 62
     7
  5
832
 10
1.665663
 20
0.724524
 30
0.0
 11
1.664256
 21
0.719446
 31
0.0
  0
LINE
  8
0
  6
CONTINUOUS
 62
     7
  5
833
 10
1.664256
 20
0.719446
 30
0.0
 11
1.662591
 21
0.71443
 31
0.0
  0
LINE
  8
0
  6
CONTINUOUS
 62
     7
  5
834
 10
1.662591
 20
0.71443
 30
0.0
 11
1.660674
 21
0.709497
 31
0.0
  0
LINE
  8
0
  6
CONTINUOUS
 62
     7
  5
835
 10
1.660674
 20
0.709497
 30
0.0
 11
1.65851
 21
0.704668
 31
0.0
  0
LINE
  8
0
  6
CONTINUOUS
 62
     7
  5
836
 10
1.65851
 20
0.704668
 30
0.0
 11
1.65611
 21
0.699961
 31
0.0
  0
LINE
  8
0
  6
CONTINUOUS
 62
     7
  5
837
 10
1.65611
 20
0.699961
 30
0.0
 11
1.653485
 21
0.695396
 31
0.0
  0
LINE
  8
0
  6
CONTINUOUS
 62
     7
  5
838
 10
1.653485
 20
0.695396
 30
0.0
 11
1.65065
 21
0.69099
 31
0.0
  0
LINE
  8
0
  6
CONTINUOUS
 62
     7
  5
839
 10
1.65065
 20
0.69099
 30
0.0
 11
1.647622
 21
0.686763
 31
0.0
  0
LINE
  8
0
  6
CONTINUOUS
 62
     7
  5
83A
 10
1.647622
 20
0.686763
 30
0.0
 11
1.64442
 21
0.682729
 31
0.0
  0
LINE
  8
0
  6
CONTINUOUS
 62
     7
  5
83B
 10
1.64442
 20
0.682729
 30
0.0
 11
1.641067
 21
0.678903
 31
0.0
  0
LINE
  8
0
  6
CONTINUOUS
 62
     7
  5
83C
 10
1.641067
 20
0.678903
 30
0.0
 11
1.637585
 21
0.675295
 31
0.0
  0
LINE
  8
0
  6
CONTINUOUS
 62
     7
  5
83D
 10
1.637585
 20
0.675295
 30
0.0
 11
1.63392
 21
0.671845
 31
0.0
  0
LINE
  8
0
  6
CONTINUOUS
 62
     7
  5
83E
 10
1.63392
 20
0.671845
 30
0.0
 11
1.630039
 21
0.66853
 31
0.0
  0
LINE
  8
0
  6
CONTINUOUS
 62
     7
  5
83F
 10
1.630039
 20
0.66853
 30
0.0
 11
1.625954
 21
0.665372
 31
0.0
  0
LINE
  8
0
  6
CONTINUOUS
 62
     7
  5
840
 10
1.625954
 20
0.665372
 30
0.0
 11
1.62168
 21
0.662394
 31
0.0
  0
LINE
  8
0
  6
CONTINUOUS
 62
     7
  5
841
 10
1.62168
 20
0.662394
 30
0.0
 11
1.617233
 21
0.659613
 31
0.0
  0
LINE
  8
0
  6
CONTINUOUS
 62
     7
  5
842
 10
1.617233
 20
0.659613
 30
0.0
 11
1.612631
 21
0.657046
 31
0.0
  0
LINE
  8
0
  6
CONTINUOUS
 62
     7
  5
843
 10
1.612631
 20
0.657046
 30
0.0
 11
1.607894
 21
0.654707
 31
0.0
  0
LINE
  8
0
  6
CONTINUOUS
 62
     7
  5
844
 10
1.607894
 20
0.654707
 30
0.0
 11
1.603039
 21
0.652608
 31
0.0
  0
LINE
  8
0
  6
CONTINUOUS
 62
     7
  5
845
 10
1.603039
 20
0.652608
 30
0.0
 11
1.598087
 21
0.650756
 31
0.0
  0
LINE
  8
0
  6
CONTINUOUS
 62
     7
  5
846
 10
1.598087
 20
0.650756
 30
0.0
 11
1.593056
 21
0.649158
 31
0.0
  0
LINE
  8
0
  6
CONTINUOUS
 62
     7
  5
847
 10
1.593056
 20
0.649158
 30
0.0
 11
1.58797
 21
0.64782
 31
0.0
  0
LINE
  8
0
  6
CONTINUOUS
 62
     7
  5
848
 10
1.58797
 20
0.64782
 30
0.0
 11
1.582852
 21
0.646743
 31
0.0
  0
LINE
  8
0
  6
CONTINUOUS
 62
     7
  5
849
 10
1.582852
 20
0.646743
 30
0.0
 11
1.577726
 21
0.645928
 31
0.0
  0
LINE
  8
0
  6
CONTINUOUS
 62
     7
  5
84A
 10
1.577726
 20
0.645928
 30
0.0
 11
1.572618
 21
0.645371
 31
0.0
  0
LINE
  8
0
  6
CONTINUOUS
 62
     7
  5
84B
 10
1.572618
 20
0.645371
 30
0.0
 11
1.567553
 21
0.645067
 31
0.0
  0
LINE
  8
0
  6
CONTINUOUS
 62
     7
  5
84C
 10
1.567553
 20
0.645067
 30
0.0
 11
1.56255
 21
0.645007
 31
0.0
  0
LINE
  8
0
  6
CONTINUOUS
 62
     7
  5
84D
 10
1.56255
 20
0.645007
 30
0.0
 11
1.557516
 21
0.645188
 31
0.0
  0
LINE
  8
0
  6
CONTINUOUS
 62
     7
  5
84E
 10
1.557516
 20
0.645188
 30
0.0
 11
1.552428
 21
0.645618
 31
0.0
  0
LINE
  8
0
  6
CONTINUOUS
 62
     7
  5
84F
 10
1.552428
 20
0.645618
 30
0.0
 11
1.54731
 21
0.646303
 31
0.0
  0
LINE
  8
0
  6
CONTINUOUS
 62
     7
  5
850
 10
2.0688
 20
-0.77
 30
0.0
 11
2.067165
 21
-0.788456
 31
0.0
  0
LINE
  8
0
  6
CONTINUOUS
 62
     7
  5
851
 10
2.067165
 20
-0.788456
 30
0.0
 11
2.062121
 21
-0.806851
 31
0.0
  0
LINE
  8
0
  6
CONTINUOUS
 62
     7
  5
852
 10
2.062121
 20
-0.806851
 30
0.0
 11
2.053796
 21
-0.824089
 31
0.0
  0
LINE
  8
0
  6
CONTINUOUS
 62
     7
  5
853
 10
2.053796
 20
-0.824089
 30
0.0
 11
2.04272
 21
-0.839257
 31
0.0
  0
LINE
  8
0
  6
CONTINUOUS
 62
     7
  5
854
 10
2.04272
 20
-0.839257
 30
0.0
 11
2.029486
 21
-0.851917
 31
0.0
  0
LINE
  8
0
  6
CONTINUOUS
 62
     7
  5
855
 10
2.029486
 20
-0.851917
 30
0.0
 11
2.013728
 21
-0.86237
 31
0.0
  0
LINE
  8
0
  6
CONTINUOUS
 62
     7
  5
856
 10
2.013728
 20
-0.86237
 30
0.0
 11
1.996128
 21
-0.8699
 31
0.0
  0
LINE
  8
0
  6
CONTINUOUS
 62
     7
  5
857
 10
1.996128
 20
-0.8699
 30
0.0
 11
1.977631
 21
-0.874085
 31
0.0
  0
LINE
  8
0
  6
CONTINUOUS
 62
     7
  5
858
 10
1.977631
 20
-0.874085
 30
0.0
 11
1.959298
 21
-0.874903
 31
0.0
  0
LINE
  8
0
  6
CONTINUOUS
 62
     7
  5
859
 10
1.959298
 20
-0.874903
 30
0.0
 11
1.940763
 21
-0.872442
 31
0.0
  0
LINE
  8
0
  6
CONTINUOUS
 62
     7
  5
85A
 10
1.940763
 20
-0.872442
 30
0.0
 11
1.922568
 21
-0.866566
 31
0.0
  0
LINE
  8
0
  6
CONTINUOUS
 62
     7
  5
85B
 10
1.922568
 20
-0.866566
 30
0.0
 11
1.905757
 21
-0.857499
 31
0.0
  0
LINE
  8
0
  6
CONTINUOUS
 62
     7
  5
85C
 10
1.905757
 20
-0.857499
 30
0.0
 11
1.891211
 21
-0.845867
 31
0.0
  0
LINE
  8
0
  6
CONTINUOUS
 62
     7
  5
85D
 10
1.891211
 20
-0.845867
 30
0.0
 11
1.879062
 21
-0.832003
 31
0.0
  0
LINE
  8
0
  6
CONTINUOUS
 62
     7
  5
85E
 10
1.879062
 20
-0.832003
 30
0.0
 11
1.869259
 21
-0.815684
 31
0.0
  0
LINE
  8
0
  6
CONTINUOUS
 62
     7
  5
85F
 10
1.869259
 20
-0.815684
 30
0.0
 11
1.86253
 21
-0.797739
 31
0.0
  0
LINE
  8
0
  6
CONTINUOUS
 62
     7
  5
860
 10
1.86253
 20
-0.797739
 30
0.0
 11
1.8592
 21
-0.779162
 31
0.0
  0
LINE
  8
0
  6
CONTINUOUS
 62
     7
  5
861
 10
1.8592
 20
-0.779162
 30
0.0
 11
1.8592
 21
-0.760838
 31
0.0
  0
LINE
  8
0
  6
CONTINUOUS
 62
     7
  5
862
 10
1.8592
 20
-0.760838
 30
0.0
 11
1.86253
 21
-0.742261
 31
0.0
  0
LINE
  8
0
  6
CONTINUOUS
 62
     7
  5
863
 10
1.86253
 20
-0.742261
 30
0.0
 11
1.869259
 21
-0.724316
 31
0.0
  0
LINE
  8
0
  6
CONTINUOUS
 62
     7
  5
864
 10
1.869259
 20
-0.724316
 30
0.0
 11
1.879062
 21
-0.707997
 31
0.0
  0
LINE
  8
0
  6
CONTINUOUS
 62
     7
  5
865
 10
1.879062
 20
-0.707997
 30
0.0
 11
1.891211
 21
-0.694133
 31
0.0
  0
LINE
  8
0
  6
CONTINUOUS
 62
     7
  5
866
 10
1.891211
 20
-0.694133
 30
0.0
 11
1.905757
 21
-0.682501
 31
0.0
  0
LINE
  8
0
  6
CONTINUOUS
 62
     7
  5
867
 10
1.905757
 20
-0.682501
 30
0.0
 11
1.922568
 21
-0.673434
 31
0.0
  0
LINE
  8
0
  6
CONTINUOUS
 62
     7
  5
868
 10
1.922568
 20
-0.673434
 30
0.0
 11
1.940763
 21
-0.667558
 31
0.0
  0
LINE
  8
0
  6
CONTINUOUS
 62
     7
  5
869
 10
1.940763
 20
-0.667558
 30
0.0
 11
1.959298
 21
-0.665097
 31
0.0
  0
LINE
  8
0
  6
CONTINUOUS
 62
     7
  5
86A
 10
1.959298
 20
-0.665097
 30
0.0
 11
1.977631
 21
-0.665915
 31
0.0
  0
LINE
  8
0
  6
CONTINUOUS
 62
     7
  5
86B
 10
1.977631
 20
-0.665915
 30
0.0
 11
1.996128
 21
-0.6701
 31
0.0
  0
LINE
  8
0
  6
CONTINUOUS
 62
     7
  5
86C
 10
1.996128
 20
-0.6701
 30
0.0
 11
2.013728
 21
-0.67763
 31
0.0
  0
LINE
  8
0
  6
CONTINUOUS
 62
     7
  5
86D
 10
2.013728
 20
-0.67763
 30
0.0
 11
2.029486
 21
-0.688083
 31
0.0
  0
LINE
  8
0
  6
CONTINUOUS
 62
     7
  5
86E
 10
2.029486
 20
-0.688083
 30
0.0
 11
2.04272
 21
-0.700743
 31
0.0
  0
LINE
  8
0
  6
CONTINUOUS
 62
     7
  5
86F
 10
2.04272
 20
-0.700743
 30
0.0
 11
2.053796
 21
-0.715911
 31
0.0
  0
LINE
  8
0
  6
CONTINUOUS
 62
     7
  5
870
 10
2.053796
 20
-0.715911
 30
0.0
 11
2.062121
 21
-0.733149
 31
0.0
  0
LINE
  8
0
  6
CONTINUOUS
 62
     7
  5
871
 10
2.062121
 20
-0.733149
 30
0.0
 11
2.067165
 21
-0.751544
 31
0.0
  0
LINE
  8
0
  6
CONTINUOUS
 62
     7
  5
872
 10
2.067165
 20
-0.751544
 30
0.0
 11
2.0688
 21
-0.77
 31
0.0
  0
LINE
  8
0
  6
CONTINUOUS
 62
     7
  5
873
 10
1.891938
 20
0.826556
 30
0.0
 11
1.895215
 21
0.829505
 31
0.0
  0
LINE
  8
0
  6
CONTINUOUS
 62
     7
  5
874
 10
1.895215
 20
0.829505
 30
0.0
 11
1.898652
 21
0.832345
 31
0.0
  0
LINE
  8
0
  6
CONTINUOUS
 62
     7
  5
875
 10
1.898652
 20
0.832345
 30
0.0
 11
1.90224
 21
0.835061
 31
0.0
  0
LINE
  8
0
  6
CONTINUOUS
 62
     7
  5
876
 10
1.90224
 20
0.835061
 30
0.0
 11
1.90597
 21
0.83764
 31
0.0
  0
LINE
  8
0
  6
CONTINUOUS
 62
     7
  5
877
 10
1.90597
 20
0.83764
 30
0.0
 11
1.909831
 21
0.840069
 31
0.0
  0
LINE
  8
0
  6
CONTINUOUS
 62
     7
  5
878
 10
1.909831
 20
0.840069
 30
0.0
 11
1.913811
 21
0.842337
 31
0.0
  0
LINE
  8
0
  6
CONTINUOUS
 62
     7
  5
879
 10
1.913811
 20
0.842337
 30
0.0
 11
1.917897
 21
0.844435
 31
0.0
  0
LINE
  8
0
  6
CONTINUOUS
 62
     7
  5
87A
 10
1.917897
 20
0.844435
 30
0.0
 11
1.922077
 21
0.846354
 31
0.0
  0
LINE
  8
0
  6
CONTINUOUS
 62
     7
  5
87B
 10
1.922077
 20
0.846354
 30
0.0
 11
1.926338
 21
0.84809
 31
0.0
  0
LINE
  8
0
  6
CONTINUOUS
 62
     7
  5
87C
 10
1.926338
 20
0.84809
 30
0.0
 11
1.930668
 21
0.849636
 31
0.0
  0
LINE
  8
0
  6
CONTINUOUS
 62
     7
  5
87D
 10
1.930668
 20
0.849636
 30
0.0
 11
1.935054
 21
0.850988
 31
0.0
  0
LINE
  8
0
  6
CONTINUOUS
 62
     7
  5
87E
 10
1.935054
 20
0.850988
 30
0.0
 11
1.93948
 21
0.852145
 31
0.0
  0
LINE
  8
0
  6
CONTINUOUS
 62
     7
  5
87F
 10
1.93948
 20
0.852145
 30
0.0
 11
1.943931
 21
0.853103
 31
0.0
  0
LINE
  8
0
  6
CONTINUOUS
 62
     7
  5
880
 10
1.943931
 20
0.853103
 30
0.0
 11
1.94839
 21
0.853863
 31
0.0
  0
LINE
  8
0
  6
CONTINUOUS
 62
     7
  5
881
 10
1.94839
 20
0.853863
 30
0.0
 11
1.952841
 21
0.854427
 31
0.0
  0
LINE
  8
0
  6
CONTINUOUS
 62
     7
  5
882
 10
1.952841
 20
0.854427
 30
0.0
 11
1.957268
 21
0.854797
 31
0.0
  0
LINE
  8
0
  6
CONTINUOUS
 62
     7
  5
883
 10
1.957268
 20
0.854797
 30
0.0
 11
1.961654
 21
0.854978
 31
0.0
  0
LINE
  8
0
  6
CONTINUOUS
 62
     7
  5
884
 10
1.961654
 20
0.854978
 30
0.0
 11
1.966
 21
0.854977
 31
0.0
  0
LINE
  8
0
  6
CONTINUOUS
 62
     7
  5
885
 10
1.966
 20
0.854977
 30
0.0
 11
1.970386
 21
0.854793
 31
0.0
  0
LINE
  8
0
  6
CONTINUOUS
 62
     7
  5
886
 10
1.970386
 20
0.854793
 30
0.0
 11
1.974812
 21
0.854421
 31
0.0
  0
LINE
  8
0
  6
CONTINUOUS
 62
     7
  5
887
 10
1.974812
 20
0.854421
 30
0.0
 11
1.979262
 21
0.853855
 31
0.0
  0
LINE
  8
0
  6
CONTINUOUS
 62
     7
  5
888
 10
1.979262
 20
0.853855
 30
0.0
 11
1.983719
 21
0.853093
 31
0.0
  0
LINE
  8
0
  6
CONTINUOUS
 62
     7
  5
889
 10
1.983719
 20
0.853093
 30
0.0
 11
1.988167
 21
0.852133
 31
0.0
  0
LINE
  8
0
  6
CONTINUOUS
 62
     7
  5
88A
 10
1.988167
 20
0.852133
 30
0.0
 11
1.99259
 21
0.850976
 31
0.0
  0
LINE
  8
0
  6
CONTINUOUS
 62
     7
  5
88B
 10
1.99259
 20
0.850976
 30
0.0
 11
1.996972
 21
0.849622
 31
0.0
  0
LINE
  8
0
  6
CONTINUOUS
 62
     7
  5
88C
 10
1.996972
 20
0.849622
 30
0.0
 11
2.001298
 21
0.848076
 31
0.0
  0
LINE
  8
0
  6
CONTINUOUS
 62
     7
  5
88D
 10
2.001298
 20
0.848076
 30
0.0
 11
2.005555
 21
0.846341
 31
0.0
  0
LINE
  8
0
  6
CONTINUOUS
 62
     7
  5
88E
 10
2.005555
 20
0.846341
 30
0.0
 11
2.009731
 21
0.844421
 31
0.0
  0
LINE
  8
0
  6
CONTINUOUS
 62
     7
  5
88F
 10
2.009731
 20
0.844421
 30
0.0
 11
2.013812
 21
0.842324
 31
0.0
  0
LINE
  8
0
  6
CONTINUOUS
 62
     7
  5
890
 10
2.013812
 20
0.842324
 30
0.0
 11
2.017788
 21
0.840057
 31
0.0
  0
LINE
  8
0
  6
CONTINUOUS
 62
     7
  5
891
 10
2.017788
 20
0.840057
 30
0.0
 11
2.021644
 21
0.83763
 31
0.0
  0
LINE
  8
0
  6
CONTINUOUS
 62
     7
  5
892
 10
2.021644
 20
0.83763
 30
0.0
 11
2.025371
 21
0.835053
 31
0.0
  0
LINE
  8
0
  6
CONTINUOUS
 62
     7
  5
893
 10
2.025371
 20
0.835053
 30
0.0
 11
2.028955
 21
0.832339
 31
0.0
  0
LINE
  8
0
  6
CONTINUOUS
 62
     7
  5
894
 10
2.028955
 20
0.832339
 30
0.0
 11
2.032389
 21
0.829502
 31
0.0
  0
LINE
  8
0
  6
CONTINUOUS
 62
     7
  5
895
 10
2.032389
 20
0.829502
 30
0.0
 11
2.035663
 21
0.826556
 31
0.0
  0
LINE
  8
0
  6
CONTINUOUS
 62
     7
  5
896
 10
1.98029
 20
0.646303
 30
0.0
 11
1.974559
 21
0.645553
 31
0.0
  0
LINE
  8
0
  6
CONTINUOUS
 62
     7
  5
897
 10
1.974559
 20
0.645553
 30
0.0
 11
1.968869
 21
0.645122
 31
0.0
  0
LINE
  8
0
  6
CONTINUOUS
 62
     7
  5
898
 10
1.968869
 20
0.645122
 30
0.0
 11
1.963254
 21
0.645001
 31
0.0
  0
LINE
  8
0
  6
CONTINUOUS
 62
     7
  5
899
 10
1.963254
 20
0.645001
 30
0.0
 11
1.957621
 21
0.645182
 31
0.0
  0
LINE
  8
0
  6
CONTINUOUS
 62
     7
  5
89A
 10
1.957621
 20
0.645182
 30
0.0
 11
1.951919
 21
0.645674
 31
0.0
  0
LINE
  8
0
  6
CONTINUOUS
 62
     7
  5
89B
 10
1.951919
 20
0.645674
 30
0.0
 11
1.946182
 21
0.646489
 31
0.0
  0
LINE
  8
0
  6
CONTINUOUS
 62
     7
  5
89C
 10
1.946182
 20
0.646489
 30
0.0
 11
1.940445
 21
0.64763
 31
0.0
  0
LINE
  8
0
  6
CONTINUOUS
 62
     7
  5
89D
 10
1.940445
 20
0.64763
 30
0.0
 11
1.934744
 21
0.6491
 31
0.0
  0
LINE
  8
0
  6
CONTINUOUS
 62
     7
  5
89E
 10
1.934744
 20
0.6491
 30
0.0
 11
1.929111
 21
0.650896
 31
0.0
  0
LINE
  8
0
  6
CONTINUOUS
 62
     7
  5
89F
 10
1.929111
 20
0.650896
 30
0.0
 11
1.923578
 21
0.653009
 31
0.0
  0
LINE
  8
0
  6
CONTINUOUS
 62
     7
  5
8A0
 10
1.923578
 20
0.653009
 30
0.0
 11
1.918173
 21
0.655432
 31
0.0
  0
LINE
  8
0
  6
CONTINUOUS
 62
     7
  5
8A1
 10
1.918173
 20
0.655432
 30
0.0
 11
1.912922
 21
0.65815
 31
0.0
  0
LINE
  8
0
  6
CONTINUOUS
 62
     7
  5
8A2
 10
1.912922
 20
0.65815
 30
0.0
 11
1.907852
 21
0.661147
 31
0.0
  0
LINE
  8
0
  6
CONTINUOUS
 62
     7
  5
8A3
 10
1.907852
 20
0.661147
 30
0.0
 11
1.902989
 21
0.664402
 31
0.0
  0
LINE
  8
0
  6
CONTINUOUS
 62
     7
  5
8A4
 10
1.902989
 20
0.664402
 30
0.0
 11
1.898358
 21
0.667888
 31
0.0
  0
LINE
  8
0
  6
CONTINUOUS
 62
     7
  5
8A5
 10
1.898358
 20
0.667888
 30
0.0
 11
1.893979
 21
0.671578
 31
0.0
  0
LINE
  8
0
  6
CONTINUOUS
 62
     7
  5
8A6
 10
1.893979
 20
0.671578
 30
0.0
 11
1.889869
 21
0.67544
 31
0.0
  0
LINE
  8
0
  6
CONTINUOUS
 62
     7
  5
8A7
 10
1.889869
 20
0.67544
 30
0.0
 11
1.885983
 21
0.679505
 31
0.0
  0
LINE
  8
0
  6
CONTINUOUS
 62
     7
  5
8A8
 10
1.885983
 20
0.679505
 30
0.0
 11
1.882263
 21
0.683843
 31
0.0
  0
LINE
  8
0
  6
CONTINUOUS
 62
     7
  5
8A9
 10
1.882263
 20
0.683843
 30
0.0
 11
1.878741
 21
0.688437
 31
0.0
  0
LINE
  8
0
  6
CONTINUOUS
 62
     7
  5
8AA
 10
1.878741
 20
0.688437
 30
0.0
 11
1.875447
 21
0.693266
 31
0.0
  0
LINE
  8
0
  6
CONTINUOUS
 62
     7
  5
8AB
 10
1.875447
 20
0.693266
 30
0.0
 11
1.872406
 21
0.698307
 31
0.0
  0
LINE
  8
0
  6
CONTINUOUS
 62
     7
  5
8AC
 10
1.872406
 20
0.698307
 30
0.0
 11
1.869641
 21
0.703534
 31
0.0
  0
LINE
  8
0
  6
CONTINUOUS
 62
     7
  5
8AD
 10
1.869641
 20
0.703534
 30
0.0
 11
1.86717
 21
0.70892
 31
0.0
  0
LINE
  8
0
  6
CONTINUOUS
 62
     7
  5
8AE
 10
1.86717
 20
0.70892
 30
0.0
 11
1.865006
 21
0.714438
 31
0.0
  0
LINE
  8
0
  6
CONTINUOUS
 62
     7
  5
8AF
 10
1.865006
 20
0.714438
 30
0.0
 11
1.863159
 21
0.720061
 31
0.0
  0
LINE
  8
0
  6
CONTINUOUS
 62
     7
  5
8B0
 10
1.863159
 20
0.720061
 30
0.0
 11
1.861637
 21
0.725759
 31
0.0
  0
LINE
  8
0
  6
CONTINUOUS
 62
     7
  5
8B1
 10
1.861637
 20
0.725759
 30
0.0
 11
1.860443
 21
0.731498
 31
0.0
  0
LINE
  8
0
  6
CONTINUOUS
 62
     7
  5
8B2
 10
1.860443
 20
0.731498
 30
0.0
 11
1.859578
 21
0.737243
 31
0.0
  0
LINE
  8
0
  6
CONTINUOUS
 62
     7
  5
8B3
 10
1.859578
 20
0.737243
 30
0.0
 11
1.859036
 21
0.742959
 31
0.0
  0
LINE
  8
0
  6
CONTINUOUS
 62
     7
  5
8B4
 10
1.859036
 20
0.742959
 30
0.0
 11
1.858809
 21
0.748611
 31
0.0
  0
LINE
  8
0
  6
CONTINUOUS
 62
     7
  5
8B5
 10
1.858809
 20
0.748611
 30
0.0
 11
1.858885
 21
0.754226
 31
0.0
  0
LINE
  8
0
  6
CONTINUOUS
 62
     7
  5
8B6
 10
1.858885
 20
0.754226
 30
0.0
 11
1.859269
 21
0.759914
 31
0.0
  0
LINE
  8
0
  6
CONTINUOUS
 62
     7
  5
8B7
 10
1.859269
 20
0.759914
 30
0.0
 11
1.859973
 21
0.765649
 31
0.0
  0
LINE
  8
0
  6
CONTINUOUS
 62
     7
  5
8B8
 10
1.859973
 20
0.765649
 30
0.0
 11
1.861003
 21
0.771396
 31
0.0
  0
LINE
  8
0
  6
CONTINUOUS
 62
     7
  5
8B9
 10
2.4688
 20
-0.77
 30
0.0
 11
2.467149
 21
-0.788547
 31
0.0
  0
LINE
  8
0
  6
CONTINUOUS
 62
     7
  5
8BA
 10
2.467149
 20
-0.788547
 30
0.0
 11
2.462062
 21
-0.807008
 31
0.0
  0
LINE
  8
0
  6
CONTINUOUS
 62
     7
  5
8BB
 10
2.462062
 20
-0.807008
 30
0.0
 11
2.453686
 21
-0.824273
 31
0.0
  0
LINE
  8
0
  6
CONTINUOUS
 62
     7
  5
8BC
 10
2.453686
 20
-0.824273
 30
0.0
 11
2.442577
 21
-0.839421
 31
0.0
  0
LINE
  8
0
  6
CONTINUOUS
 62
     7
  5
8BD
 10
2.442577
 20
-0.839421
 30
0.0
 11
2.429331
 21
-0.852041
 31
0.0
  0
LINE
  8
0
  6
CONTINUOUS
 62
     7
  5
8BE
 10
2.429331
 20
-0.852041
 30
0.0
 11
2.413598
 21
-0.86244
 31
0.0
  0
LINE
  8
0
  6
CONTINUOUS
 62
     7
  5
8BF
 10
2.413598
 20
-0.86244
 30
0.0
 11
2.396063
 21
-0.86992
 31
0.0
  0
LINE
  8
0
  6
CONTINUOUS
 62
     7
  5
8C0
 10
2.396063
 20
-0.86992
 30
0.0
 11
2.377657
 21
-0.874082
 31
0.0
  0
LINE
  8
0
  6
CONTINUOUS
 62
     7
  5
8C1
 10
2.377657
 20
-0.874082
 30
0.0
 11
2.359418
 21
-0.874909
 31
0.0
  0
LINE
  8
0
  6
CONTINUOUS
 62
     7
  5
8C2
 10
2.359418
 20
-0.874909
 30
0.0
 11
2.340967
 21
-0.872487
 31
0.0
  0
LINE
  8
0
  6
CONTINUOUS
 62
     7
  5
8C3
 10
2.340967
 20
-0.872487
 30
0.0
 11
2.322817
 21
-0.866672
 31
0.0
  0
LINE
  8
0
  6
CONTINUOUS
 62
     7
  5
8C4
 10
2.322817
 20
-0.866672
 30
0.0
 11
2.306008
 21
-0.857665
 31
0.0
  0
LINE
  8
0
  6
CONTINUOUS
 62
     7
  5
8C5
 10
2.306008
 20
-0.857665
 30
0.0
 11
2.291419
 21
-0.846066
 31
0.0
  0
LINE
  8
0
  6
CONTINUOUS
 62
     7
  5
8C6
 10
2.291419
 20
-0.846066
 30
0.0
 11
2.279222
 21
-0.832222
 31
0.0
  0
LINE
  8
0
  6
CONTINUOUS
 62
     7
  5
8C7
 10
2.279222
 20
-0.832222
 30
0.0
 11
2.269355
 21
-0.815882
 31
0.0
  0
LINE
  8
0
  6
CONTINUOUS
 62
     7
  5
8C8
 10
2.269355
 20
-0.815882
 30
0.0
 11
2.262568
 21
-0.797875
 31
0.0
  0
LINE
  8
0
  6
CONTINUOUS
 62
     7
  5
8C9
 10
2.262568
 20
-0.797875
 30
0.0
 11
2.259205
 21
-0.77921
 31
0.0
  0
LINE
  8
0
  6
CONTINUOUS
 62
     7
  5
8CA
 10
2.259205
 20
-0.77921
 30
0.0
 11
2.259205
 21
-0.76079
 31
0.0
  0
LINE
  8
0
  6
CONTINUOUS
 62
     7
  5
8CB
 10
2.259205
 20
-0.76079
 30
0.0
 11
2.262568
 21
-0.742125
 31
0.0
  0
LINE
  8
0
  6
CONTINUOUS
 62
     7
  5
8CC
 10
2.262568
 20
-0.742125
 30
0.0
 11
2.269355
 21
-0.724118
 31
0.0
  0
LINE
  8
0
  6
CONTINUOUS
 62
     7
  5
8CD
 10
2.269355
 20
-0.724118
 30
0.0
 11
2.279222
 21
-0.707778
 31
0.0
  0
LINE
  8
0
  6
CONTINUOUS
 62
     7
  5
8CE
 10
2.279222
 20
-0.707778
 30
0.0
 11
2.291419
 21
-0.693934
 31
0.0
  0
LINE
  8
0
  6
CONTINUOUS
 62
     7
  5
8CF
 10
2.291419
 20
-0.693934
 30
0.0
 11
2.306008
 21
-0.682335
 31
0.0
  0
LINE
  8
0
  6
CONTINUOUS
 62
     7
  5
8D0
 10
2.306008
 20
-0.682335
 30
0.0
 11
2.322817
 21
-0.673328
 31
0.0
  0
LINE
  8
0
  6
CONTINUOUS
 62
     7
  5
8D1
 10
2.322817
 20
-0.673328
 30
0.0
 11
2.340967
 21
-0.667513
 31
0.0
  0
LINE
  8
0
  6
CONTINUOUS
 62
     7
  5
8D2
 10
2.340967
 20
-0.667513
 30
0.0
 11
2.359418
 21
-0.665091
 31
0.0
  0
LINE
  8
0
  6
CONTINUOUS
 62
     7
  5
8D3
 10
2.359418
 20
-0.665091
 30
0.0
 11
2.377657
 21
-0.665918
 31
0.0
  0
LINE
  8
0
  6
CONTINUOUS
 62
     7
  5
8D4
 10
2.377657
 20
-0.665918
 30
0.0
 11
2.396063
 21
-0.67008
 31
0.0
  0
LINE
  8
0
  6
CONTINUOUS
 62
     7
  5
8D5
 10
2.396063
 20
-0.67008
 30
0.0
 11
2.413598
 21
-0.67756
 31
0.0
  0
LINE
  8
0
  6
CONTINUOUS
 62
     7
  5
8D6
 10
2.413598
 20
-0.67756
 30
0.0
 11
2.429331
 21
-0.687959
 31
0.0
  0
LINE
  8
0
  6
CONTINUOUS
 62
     7
  5
8D7
 10
2.429331
 20
-0.687959
 30
0.0
 11
2.442577
 21
-0.700579
 31
0.0
  0
LINE
  8
0
  6
CONTINUOUS
 62
     7
  5
8D8
 10
2.442577
 20
-0.700579
 30
0.0
 11
2.453686
 21
-0.715727
 31
0.0
  0
LINE
  8
0
  6
CONTINUOUS
 62
     7
  5
8D9
 10
2.453686
 20
-0.715727
 30
0.0
 11
2.462062
 21
-0.732992
 31
0.0
  0
LINE
  8
0
  6
CONTINUOUS
 62
     7
  5
8DA
 10
2.462062
 20
-0.732992
 30
0.0
 11
2.467149
 21
-0.751453
 31
0.0
  0
LINE
  8
0
  6
CONTINUOUS
 62
     7
  5
8DB
 10
2.467149
 20
-0.751453
 30
0.0
 11
2.4688
 21
-0.77
 31
0.0
  0
LINE
  8
0
  6
CONTINUOUS
 62
     7
  5
8DC
 10
2.4688
 20
0.75
 30
0.0
 11
2.467149
 21
0.731453
 31
0.0
  0
LINE
  8
0
  6
CONTINUOUS
 62
     7
  5
8DD
 10
2.467149
 20
0.731453
 30
0.0
 11
2.462062
 21
0.712992
 31
0.0
  0
LINE
  8
0
  6
CONTINUOUS
 62
     7
  5
8DE
 10
2.462062
 20
0.712992
 30
0.0
 11
2.453686
 21
0.695727
 31
0.0
  0
LINE
  8
0
  6
CONTINUOUS
 62
     7
  5
8DF
 10
2.453686
 20
0.695727
 30
0.0
 11
2.442577
 21
0.680579
 31
0.0
  0
LINE
  8
0
  6
CONTINUOUS
 62
     7
  5
8E0
 10
2.442577
 20
0.680579
 30
0.0
 11
2.429331
 21
0.667959
 31
0.0
  0
LINE
  8
0
  6
CONTINUOUS
 62
     7
  5
8E1
 10
2.429331
 20
0.667959
 30
0.0
 11
2.413598
 21
0.65756
 31
0.0
  0
LINE
  8
0
  6
CONTINUOUS
 62
     7
  5
8E2
 10
2.413598
 20
0.65756
 30
0.0
 11
2.396063
 21
0.65008
 31
0.0
  0
LINE
  8
0
  6
CONTINUOUS
 62
     7
  5
8E3
 10
2.396063
 20
0.65008
 30
0.0
 11
2.377657
 21
0.645918
 31
0.0
  0
LINE
  8
0
  6
CONTINUOUS
 62
     7
  5
8E4
 10
2.377657
 20
0.645918
 30
0.0
 11
2.359418
 21
0.645091
 31
0.0
  0
LINE
  8
0
  6
CONTINUOUS
 62
     7
  5
8E5
 10
2.359418
 20
0.645091
 30
0.0
 11
2.340967
 21
0.647513
 31
0.0
  0
LINE
  8
0
  6
CONTINUOUS
 62
     7
  5
8E6
 10
2.340967
 20
0.647513
 30
0.0
 11
2.322817
 21
0.653328
 31
0.0
  0
LINE
  8
0
  6
CONTINUOUS
 62
     7
  5
8E7
 10
2.322817
 20
0.653328
 30
0.0
 11
2.306008
 21
0.662335
 31
0.0
  0
LINE
  8
0
  6
CONTINUOUS
 62
     7
  5
8E8
 10
2.306008
 20
0.662335
 30
0.0
 11
2.291419
 21
0.673934
 31
0.0
  0
LINE
  8
0
  6
CONTINUOUS
 62
     7
  5
8E9
 10
2.291419
 20
0.673934
 30
0.0
 11
2.279222
 21
0.687778
 31
0.0
  0
LINE
  8
0
  6
CONTINUOUS
 62
     7
  5
8EA
 10
2.279222
 20
0.687778
 30
0.0
 11
2.269355
 21
0.704118
 31
0.0
  0
LINE
  8
0
  6
CONTINUOUS
 62
     7
  5
8EB
 10
2.269355
 20
0.704118
 30
0.0
 11
2.262568
 21
0.722125
 31
0.0
  0
LINE
  8
0
  6
CONTINUOUS
 62
     7
  5
8EC
 10
2.262568
 20
0.722125
 30
0.0
 11
2.259205
 21
0.74079
 31
0.0
  0
LINE
  8
0
  6
CONTINUOUS
 62
     7
  5
8ED
 10
2.259205
 20
0.74079
 30
0.0
 11
2.259205
 21
0.75921
 31
0.0
  0
LINE
  8
0
  6
CONTINUOUS
 62
     7
  5
8EE
 10
2.259205
 20
0.75921
 30
0.0
 11
2.262568
 21
0.777875
 31
0.0
  0
LINE
  8
0
  6
CONTINUOUS
 62
     7
  5
8EF
 10
2.262568
 20
0.777875
 30
0.0
 11
2.269355
 21
0.795882
 31
0.0
  0
LINE
  8
0
  6
CONTINUOUS
 62
     7
  5
8F0
 10
2.269355
 20
0.795882
 30
0.0
 11
2.279222
 21
0.812222
 31
0.0
  0
LINE
  8
0
  6
CONTINUOUS
 62
     7
  5
8F1
 10
2.279222
 20
0.812222
 30
0.0
 11
2.291419
 21
0.826066
 31
0.0
  0
LINE
  8
0
  6
CONTINUOUS
 62
     7
  5
8F2
 10
2.291419
 20
0.826066
 30
0.0
 11
2.306008
 21
0.837665
 31
0.0
  0
LINE
  8
0
  6
CONTINUOUS
 62
     7
  5
8F3
 10
2.306008
 20
0.837665
 30
0.0
 11
2.322817
 21
0.846672
 31
0.0
  0
LINE
  8
0
  6
CONTINUOUS
 62
     7
  5
8F4
 10
2.322817
 20
0.846672
 30
0.0
 11
2.340967
 21
0.852487
 31
0.0
  0
LINE
  8
0
  6
CONTINUOUS
 62
     7
  5
8F5
 10
2.340967
 20
0.852487
 30
0.0
 11
2.359418
 21
0.854909
 31
0.0
  0
LINE
  8
0
  6
CONTINUOUS
 62
     7
  5
8F6
 10
2.359418
 20
0.854909
 30
0.0
 11
2.377657
 21
0.854082
 31
0.0
  0
LINE
  8
0
  6
CONTINUOUS
 62
     7
  5
8F7
 10
2.377657
 20
0.854082
 30
0.0
 11
2.396063
 21
0.84992
 31
0.0
  0
LINE
  8
0
  6
CONTINUOUS
 62
     7
  5
8F8
 10
2.396063
 20
0.84992
 30
0.0
 11
2.413598
 21
0.84244
 31
0.0
  0
LINE
  8
0
  6
CONTINUOUS
 62
     7
  5
8F9
 10
2.413598
 20
0.84244
 30
0.0
 11
2.429331
 21
0.832041
 31
0.0
  0
LINE
  8
0
  6
CONTINUOUS
 62
     7
  5
8FA
 10
2.429331
 20
0.832041
 30
0.0
 11
2.442577
 21
0.819421
 31
0.0
  0
LINE
  8
0
  6
CONTINUOUS
 62
     7
  5
8FB
 10
2.442577
 20
0.819421
 30
0.0
 11
2.453686
 21
0.804273
 31
0.0
  0
LINE
  8
0
  6
CONTINUOUS
 62
     7
  5
8FC
 10
2.453686
 20
0.804273
 30
0.0
 11
2.462062
 21
0.787008
 31
0.0
  0
LINE
  8
0
  6
CONTINUOUS
 62
     7
  5
8FD
 10
2.462062
 20
0.787008
 30
0.0
 11
2.467149
 21
0.768547
 31
0.0
  0
LINE
  8
0
  6
CONTINUOUS
 62
     7
  5
8FE
 10
2.467149
 20
0.768547
 30
0.0
 11
2.4688
 21
0.75
 31
0.0
  0
LINE
  8
0
  6
CONTINUOUS
 62
     7
  5
8FF
 10
2.4738
 20
-1.2756
 30
0.0
 11
2.47129
 21
-1.303832
 31
0.0
  0
LINE
  8
0
  6
CONTINUOUS
 62
     7
  5
900
 10
2.47129
 20
-1.303832
 30
0.0
 11
2.463556
 21
-1.331931
 31
0.0
  0
LINE
  8
0
  6
CONTINUOUS
 62
     7
  5
901
 10
2.463556
 20
-1.331931
 30
0.0
 11
2.450818
 21
-1.35822
 31
0.0
  0
LINE
  8
0
  6
CONTINUOUS
 62
     7
  5
902
 10
2.450818
 20
-1.35822
 30
0.0
 11
2.433911
 21
-1.381304
 31
0.0
  0
LINE
  8
0
  6
CONTINUOUS
 62
     7
  5
903
 10
2.433911
 20
-1.381304
 30
0.0
 11
2.413756
 21
-1.400535
 31
0.0
  0
LINE
  8
0
  6
CONTINUOUS
 62
     7
  5
904
 10
2.413756
 20
-1.400535
 30
0.0
 11
2.389806
 21
-1.416394
 31
0.0
  0
LINE
  8
0
  6
CONTINUOUS
 62
     7
  5
905
 10
2.389806
 20
-1.416394
 30
0.0
 11
2.363089
 21
-1.427819
 31
0.0
  0
LINE
  8
0
  6
CONTINUOUS
 62
     7
  5
906
 10
2.363089
 20
-1.427819
 30
0.0
 11
2.335024
 21
-1.434186
 31
0.0
  0
LINE
  8
0
  6
CONTINUOUS
 62
     7
  5
907
 10
2.335024
 20
-1.434186
 30
0.0
 11
2.307202
 21
-1.435464
 31
0.0
  0
LINE
  8
0
  6
CONTINUOUS
 62
     7
  5
908
 10
2.307202
 20
-1.435464
 30
0.0
 11
2.279051
 21
-1.431781
 31
0.0
  0
LINE
  8
0
  6
CONTINUOUS
 62
     7
  5
909
 10
2.279051
 20
-1.431781
 30
0.0
 11
2.251359
 21
-1.422913
 31
0.0
  0
LINE
  8
0
  6
CONTINUOUS
 62
     7
  5
90A
 10
2.251359
 20
-1.422913
 30
0.0
 11
2.225717
 21
-1.409172
 31
0.0
  0
LINE
  8
0
  6
CONTINUOUS
 62
     7
  5
90B
 10
2.225717
 20
-1.409172
 30
0.0
 11
2.203481
 21
-1.391486
 31
0.0
  0
LINE
  8
0
  6
CONTINUOUS
 62
     7
  5
90C
 10
2.203481
 20
-1.391486
 30
0.0
 11
2.184888
 21
-1.370372
 31
0.0
  0
LINE
  8
0
  6
CONTINUOUS
 62
     7
  5
90D
 10
2.184888
 20
-1.370372
 30
0.0
 11
2.169861
 21
-1.345468
 31
0.0
  0
LINE
  8
0
  6
CONTINUOUS
 62
     7
  5
90E
 10
2.169861
 20
-1.345468
 30
0.0
 11
2.159532
 21
-1.318041
 31
0.0
  0
LINE
  8
0
  6
CONTINUOUS
 62
     7
  5
90F
 10
2.159532
 20
-1.318041
 30
0.0
 11
2.154416
 21
-1.289622
 31
0.0
  0
LINE
  8
0
  6
CONTINUOUS
 62
     7
  5
910
 10
2.154416
 20
-1.289622
 30
0.0
 11
2.154416
 21
-1.261578
 31
0.0
  0
LINE
  8
0
  6
CONTINUOUS
 62
     7
  5
911
 10
2.154416
 20
-1.261578
 30
0.0
 11
2.159533
 21
-1.233155
 31
0.0
  0
LINE
  8
0
  6
CONTINUOUS
 62
     7
  5
912
 10
2.159533
 20
-1.233155
 30
0.0
 11
2.169865
 21
-1.205724
 31
0.0
  0
LINE
  8
0
  6
CONTINUOUS
 62
     7
  5
913
 10
2.169865
 20
-1.205724
 30
0.0
 11
2.184893
 21
-1.180822
 31
0.0
  0
LINE
  8
0
  6
CONTINUOUS
 62
     7
  5
914
 10
2.184893
 20
-1.180822
 30
0.0
 11
2.203482
 21
-1.159712
 31
0.0
  0
LINE
  8
0
  6
CONTINUOUS
 62
     7
  5
915
 10
2.203482
 20
-1.159712
 30
0.0
 11
2.225725
 21
-1.142023
 31
0.0
  0
LINE
  8
0
  6
CONTINUOUS
 62
     7
  5
916
 10
2.225725
 20
-1.142023
 30
0.0
 11
2.251365
 21
-1.128284
 31
0.0
  0
LINE
  8
0
  6
CONTINUOUS
 62
     7
  5
917
 10
2.251365
 20
-1.128284
 30
0.0
 11
2.279054
 21
-1.119418
 31
0.0
  0
LINE
  8
0
  6
CONTINUOUS
 62
     7
  5
918
 10
2.279054
 20
-1.119418
 30
0.0
 11
2.307202
 21
-1.115736
 31
0.0
  0
LINE
  8
0
  6
CONTINUOUS
 62
     7
  5
919
 10
2.307202
 20
-1.115736
 30
0.0
 11
2.335021
 21
-1.117013
 31
0.0
  0
LINE
  8
0
  6
CONTINUOUS
 62
     7
  5
91A
 10
2.335021
 20
-1.117013
 30
0.0
 11
2.363079
 21
-1.123378
 31
0.0
  0
LINE
  8
0
  6
CONTINUOUS
 62
     7
  5
91B
 10
2.363079
 20
-1.123378
 30
0.0
 11
2.389792
 21
-1.134798
 31
0.0
  0
LINE
  8
0
  6
CONTINUOUS
 62
     7
  5
91C
 10
2.389792
 20
-1.134798
 30
0.0
 11
2.413746
 21
-1.150657
 31
0.0
  0
LINE
  8
0
  6
CONTINUOUS
 62
     7
  5
91D
 10
2.413746
 20
-1.150657
 30
0.0
 11
2.433905
 21
-1.169889
 31
0.0
  0
LINE
  8
0
  6
CONTINUOUS
 62
     7
  5
91E
 10
2.433905
 20
-1.169889
 30
0.0
 11
2.45081
 21
-1.192966
 31
0.0
  0
LINE
  8
0
  6
CONTINUOUS
 62
     7
  5
91F
 10
2.45081
 20
-1.192966
 30
0.0
 11
2.463551
 21
-1.219257
 31
0.0
  0
LINE
  8
0
  6
CONTINUOUS
 62
     7
  5
920
 10
2.463551
 20
-1.219257
 30
0.0
 11
2.471289
 21
-1.247363
 31
0.0
  0
LINE
  8
0
  6
CONTINUOUS
 62
     7
  5
921
 10
2.471289
 20
-1.247363
 30
0.0
 11
2.4738
 21
-1.2756
 31
0.0
  0
LINE
  8
0
  6
CONTINUOUS
 62
     7
  5
922
 10
2.4738
 20
1.2756
 30
0.0
 11
2.471289
 21
1.247363
 31
0.0
  0
LINE
  8
0
  6
CONTINUOUS
 62
     7
  5
923
 10
2.471289
 20
1.247363
 30
0.0
 11
2.463551
 21
1.219257
 31
0.0
  0
LINE
  8
0
  6
CONTINUOUS
 62
     7
  5
924
 10
2.463551
 20
1.219257
 30
0.0
 11
2.45081
 21
1.192966
 31
0.0
  0
LINE
  8
0
  6
CONTINUOUS
 62
     7
  5
925
 10
2.45081
 20
1.192966
 30
0.0
 11
2.433905
 21
1.169889
 31
0.0
  0
LINE
  8
0
  6
CONTINUOUS
 62
     7
  5
926
 10
2.433905
 20
1.169889
 30
0.0
 11
2.413746
 21
1.150657
 31
0.0
  0
LINE
  8
0
  6
CONTINUOUS
 62
     7
  5
927
 10
2.413746
 20
1.150657
 30
0.0
 11
2.389792
 21
1.134798
 31
0.0
  0
LINE
  8
0
  6
CONTINUOUS
 62
     7
  5
928
 10
2.389792
 20
1.134798
 30
0.0
 11
2.363079
 21
1.123378
 31
0.0
  0
LINE
  8
0
  6
CONTINUOUS
 62
     7
  5
929
 10
2.363079
 20
1.123378
 30
0.0
 11
2.335021
 21
1.117013
 31
0.0
  0
LINE
  8
0
  6
CONTINUOUS
 62
     7
  5
92A
 10
2.335021
 20
1.117013
 30
0.0
 11
2.307202
 21
1.115736
 31
0.0
  0
LINE
  8
0
  6
CONTINUOUS
 62
     7
  5
92B
 10
2.307202
 20
1.115736
 30
0.0
 11
2.279054
 21
1.119418
 31
0.0
  0
LINE
  8
0
  6
CONTINUOUS
 62
     7
  5
92C
 10
2.279054
 20
1.119418
 30
0.0
 11
2.251365
 21
1.128284
 31
0.0
  0
LINE
  8
0
  6
CONTINUOUS
 62
     7
  5
92D
 10
2.251365
 20
1.128284
 30
0.0
 11
2.225725
 21
1.142023
 31
0.0
  0
LINE
  8
0
  6
CONTINUOUS
 62
     7
  5
92E
 10
2.225725
 20
1.142023
 30
0.0
 11
2.203482
 21
1.159712
 31
0.0
  0
LINE
  8
0
  6
CONTINUOUS
 62
     7
  5
92F
 10
2.203482
 20
1.159712
 30
0.0
 11
2.184893
 21
1.180822
 31
0.0
  0
LINE
  8
0
  6
CONTINUOUS
 62
     7
  5
930
 10
2.184893
 20
1.180822
 30
0.0
 11
2.169865
 21
1.205724
 31
0.0
  0
LINE
  8
0
  6
CONTINUOUS
 62
     7
  5
931
 10
2.169865
 20
1.205724
 30
0.0
 11
2.159533
 21
1.233155
 31
0.0
  0
LINE
  8
0
  6
CONTINUOUS
 62
     7
  5
932
 10
2.159533
 20
1.233155
 30
0.0
 11
2.154416
 21
1.261577
 31
0.0
  0
LINE
  8
0
  6
CONTINUOUS
 62
     7
  5
933
 10
2.154416
 20
1.261577
 30
0.0
 11
2.154416
 21
1.289623
 31
0.0
  0
LINE
  8
0
  6
CONTINUOUS
 62
     7
  5
934
 10
2.154416
 20
1.289623
 30
0.0
 11
2.159533
 21
1.318045
 31
0.0
  0
LINE
  8
0
  6
CONTINUOUS
 62
     7
  5
935
 10
2.159533
 20
1.318045
 30
0.0
 11
2.169865
 21
1.345476
 31
0.0
  0
LINE
  8
0
  6
CONTINUOUS
 62
     7
  5
936
 10
2.169865
 20
1.345476
 30
0.0
 11
2.184893
 21
1.370378
 31
0.0
  0
LINE
  8
0
  6
CONTINUOUS
 62
     7
  5
937
 10
2.184893
 20
1.370378
 30
0.0
 11
2.203482
 21
1.391488
 31
0.0
  0
LINE
  8
0
  6
CONTINUOUS
 62
     7
  5
938
 10
2.203482
 20
1.391488
 30
0.0
 11
2.225725
 21
1.409177
 31
0.0
  0
LINE
  8
0
  6
CONTINUOUS
 62
     7
  5
939
 10
2.225725
 20
1.409177
 30
0.0
 11
2.251365
 21
1.422916
 31
0.0
  0
LINE
  8
0
  6
CONTINUOUS
 62
     7
  5
93A
 10
2.251365
 20
1.422916
 30
0.0
 11
2.279054
 21
1.431782
 31
0.0
  0
LINE
  8
0
  6
CONTINUOUS
 62
     7
  5
93B
 10
2.279054
 20
1.431782
 30
0.0
 11
2.307202
 21
1.435464
 31
0.0
  0
LINE
  8
0
  6
CONTINUOUS
 62
     7
  5
93C
 10
2.307202
 20
1.435464
 30
0.0
 11
2.335021
 21
1.434187
 31
0.0
  0
LINE
  8
0
  6
CONTINUOUS
 62
     7
  5
93D
 10
2.335021
 20
1.434187
 30
0.0
 11
2.363079
 21
1.427822
 31
0.0
  0
LINE
  8
0
  6
CONTINUOUS
 62
     7
  5
93E
 10
2.363079
 20
1.427822
 30
0.0
 11
2.389792
 21
1.416402
 31
0.0
  0
LINE
  8
0
  6
CONTINUOUS
 62
     7
  5
93F
 10
2.389792
 20
1.416402
 30
0.0
 11
2.413746
 21
1.400543
 31
0.0
  0
LINE
  8
0
  6
CONTINUOUS
 62
     7
  5
940
 10
2.413746
 20
1.400543
 30
0.0
 11
2.433905
 21
1.381311
 31
0.0
  0
LINE
  8
0
  6
CONTINUOUS
 62
     7
  5
941
 10
2.433905
 20
1.381311
 30
0.0
 11
2.45081
 21
1.358234
 31
0.0
  0
LINE
  8
0
  6
CONTINUOUS
 62
     7
  5
942
 10
2.45081
 20
1.358234
 30
0.0
 11
2.463551
 21
1.331943
 31
0.0
  0
LINE
  8
0
  6
CONTINUOUS
 62
     7
  5
943
 10
2.463551
 20
1.331943
 30
0.0
 11
2.471289
 21
1.303837
 31
0.0
  0
LINE
  8
0
  6
CONTINUOUS
 62
     7
  5
944
 10
2.471289
 20
1.303837
 30
0.0
 11
2.4738
 21
1.2756
 31
0.0
  0
LINE
  8
0
  6
CONTINUOUS
 62
     7
  5
945
 10
1.7638
 20
-1.4356
 30
0.0
 11
1.749847
 21
-1.43499
 31
0.0
  0
LINE
  8
0
  6
CONTINUOUS
 62
     7
  5
946
 10
1.749847
 20
-1.43499
 30
0.0
 11
1.735691
 21
-1.433111
 31
0.0
  0
LINE
  8
0
  6
CONTINUOUS
 62
     7
  5
947
 10
1.735691
 20
-1.433111
 30
0.0
 11
1.721558
 21
-1.429923
 31
0.0
  0
LINE
  8
0
  6
CONTINUOUS
 62
     7
  5
948
 10
1.721558
 20
-1.429923
 30
0.0
 11
1.70767
 21
-1.425431
 31
0.0
  0
LINE
  8
0
  6
CONTINUOUS
 62
     7
  5
949
 10
1.70767
 20
-1.425431
 30
0.0
 11
1.694227
 21
-1.419682
 31
0.0
  0
LINE
  8
0
  6
CONTINUOUS
 62
     7
  5
94A
 10
1.694227
 20
-1.419682
 30
0.0
 11
1.681403
 21
-1.412752
 31
0.0
  0
LINE
  8
0
  6
CONTINUOUS
 62
     7
  5
94B
 10
1.681403
 20
-1.412752
 30
0.0
 11
1.66937
 21
-1.404762
 31
0.0
  0
LINE
  8
0
  6
CONTINUOUS
 62
     7
  5
94C
 10
1.66937
 20
-1.404762
 30
0.0
 11
1.658282
 21
-1.395875
 31
0.0
  0
LINE
  8
0
  6
CONTINUOUS
 62
     7
  5
94D
 10
1.658282
 20
-1.395875
 30
0.0
 11
1.648245
 21
-1.386267
 31
0.0
  0
LINE
  8
0
  6
CONTINUOUS
 62
     7
  5
94E
 10
1.648245
 20
-1.386267
 30
0.0
 11
1.638981
 21
-1.375701
 31
0.0
  0
LINE
  8
0
  6
CONTINUOUS
 62
     7
  5
94F
 10
1.638981
 20
-1.375701
 30
0.0
 11
1.630519
 21
-1.364123
 31
0.0
  0
LINE
  8
0
  6
CONTINUOUS
 62
     7
  5
950
 10
1.630519
 20
-1.364123
 30
0.0
 11
1.623042
 21
-1.351673
 31
0.0
  0
LINE
  8
0
  6
CONTINUOUS
 62
     7
  5
951
 10
1.623042
 20
-1.351673
 30
0.0
 11
1.61669
 21
-1.338518
 31
0.0
  0
LINE
  8
0
  6
CONTINUOUS
 62
     7
  5
952
 10
1.61669
 20
-1.338518
 30
0.0
 11
1.611562
 21
-1.32483
 31
0.0
  0
LINE
  8
0
  6
CONTINUOUS
 62
     7
  5
953
 10
1.611562
 20
-1.32483
 30
0.0
 11
1.607718
 21
-1.310793
 31
0.0
  0
LINE
  8
0
  6
CONTINUOUS
 62
     7
  5
954
 10
1.607718
 20
-1.310793
 30
0.0
 11
1.605187
 21
-1.29662
 31
0.0
  0
LINE
  8
0
  6
CONTINUOUS
 62
     7
  5
955
 10
1.605187
 20
-1.29662
 30
0.0
 11
1.60395
 21
-1.282537
 31
0.0
  0
LINE
  8
0
  6
CONTINUOUS
 62
     7
  5
956
 10
1.60395
 20
-1.282537
 30
0.0
 11
1.60395
 21
-1.268663
 31
0.0
  0
LINE
  8
0
  6
CONTINUOUS
 62
     7
  5
957
 10
1.60395
 20
-1.268663
 30
0.0
 11
1.605187
 21
-1.25458
 31
0.0
  0
LINE
  8
0
  6
CONTINUOUS
 62
     7
  5
958
 10
1.605187
 20
-1.25458
 30
0.0
 11
1.607718
 21
-1.240407
 31
0.0
  0
LINE
  8
0
  6
CONTINUOUS
 62
     7
  5
959
 10
1.607718
 20
-1.240407
 30
0.0
 11
1.611562
 21
-1.22637
 31
0.0
  0
LINE
  8
0
  6
CONTINUOUS
 62
     7
  5
95A
 10
1.611562
 20
-1.22637
 30
0.0
 11
1.61669
 21
-1.212682
 31
0.0
  0
LINE
  8
0
  6
CONTINUOUS
 62
     7
  5
95B
 10
1.61669
 20
-1.212682
 30
0.0
 11
1.623042
 21
-1.199527
 31
0.0
  0
LINE
  8
0
  6
CONTINUOUS
 62
     7
  5
95C
 10
1.623042
 20
-1.199527
 30
0.0
 11
1.630519
 21
-1.187077
 31
0.0
  0
LINE
  8
0
  6
CONTINUOUS
 62
     7
  5
95D
 10
1.630519
 20
-1.187077
 30
0.0
 11
1.638981
 21
-1.175499
 31
0.0
  0
LINE
  8
0
  6
CONTINUOUS
 62
     7
  5
95E
 10
1.638981
 20
-1.175499
 30
0.0
 11
1.648245
 21
-1.164933
 31
0.0
  0
LINE
  8
0
  6
CONTINUOUS
 62
     7
  5
95F
 10
1.648245
 20
-1.164933
 30
0.0
 11
1.658282
 21
-1.155325
 31
0.0
  0
LINE
  8
0
  6
CONTINUOUS
 62
     7
  5
960
 10
1.658282
 20
-1.155325
 30
0.0
 11
1.66937
 21
-1.146438
 31
0.0
  0
LINE
  8
0
  6
CONTINUOUS
 62
     7
  5
961
 10
1.66937
 20
-1.146438
 30
0.0
 11
1.681403
 21
-1.138448
 31
0.0
  0
LINE
  8
0
  6
CONTINUOUS
 62
     7
  5
962
 10
1.681403
 20
-1.138448
 30
0.0
 11
1.694227
 21
-1.131518
 31
0.0
  0
LINE
  8
0
  6
CONTINUOUS
 62
     7
  5
963
 10
1.694227
 20
-1.131518
 30
0.0
 11
1.70767
 21
-1.125769
 31
0.0
  0
LINE
  8
0
  6
CONTINUOUS
 62
     7
  5
964
 10
1.70767
 20
-1.125769
 30
0.0
 11
1.721558
 21
-1.121277
 31
0.0
  0
LINE
  8
0
  6
CONTINUOUS
 62
     7
  5
965
 10
1.721558
 20
-1.121277
 30
0.0
 11
1.735691
 21
-1.118089
 31
0.0
  0
LINE
  8
0
  6
CONTINUOUS
 62
     7
  5
966
 10
1.735691
 20
-1.118089
 30
0.0
 11
1.749847
 21
-1.11621
 31
0.0
  0
LINE
  8
0
  6
CONTINUOUS
 62
     7
  5
967
 10
1.749847
 20
-1.11621
 30
0.0
 11
1.7638
 21
-1.1156
 31
0.0
  0
LINE
  8
0
  6
CONTINUOUS
 62
     7
  5
968
 10
1.7638
 20
-1.1156
 30
0.0
 11
1.777753
 21
-1.11621
 31
0.0
  0
LINE
  8
0
  6
CONTINUOUS
 62
     7
  5
969
 10
1.777753
 20
-1.11621
 30
0.0
 11
1.791909
 21
-1.118089
 31
0.0
  0
LINE
  8
0
  6
CONTINUOUS
 62
     7
  5
96A
 10
1.791909
 20
-1.118089
 30
0.0
 11
1.806042
 21
-1.121277
 31
0.0
  0
LINE
  8
0
  6
CONTINUOUS
 62
     7
  5
96B
 10
1.806042
 20
-1.121277
 30
0.0
 11
1.81993
 21
-1.125769
 31
0.0
  0
LINE
  8
0
  6
CONTINUOUS
 62
     7
  5
96C
 10
1.81993
 20
-1.125769
 30
0.0
 11
1.833373
 21
-1.131518
 31
0.0
  0
LINE
  8
0
  6
CONTINUOUS
 62
     7
  5
96D
 10
1.833373
 20
-1.131518
 30
0.0
 11
1.846197
 21
-1.138448
 31
0.0
  0
LINE
  8
0
  6
CONTINUOUS
 62
     7
  5
96E
 10
1.846197
 20
-1.138448
 30
0.0
 11
1.85823
 21
-1.146438
 31
0.0
  0
LINE
  8
0
  6
CONTINUOUS
 62
     7
  5
96F
 10
1.85823
 20
-1.146438
 30
0.0
 11
1.869318
 21
-1.155325
 31
0.0
  0
LINE
  8
0
  6
CONTINUOUS
 62
     7
  5
970
 10
1.869318
 20
-1.155325
 30
0.0
 11
1.879355
 21
-1.164933
 31
0.0
  0
LINE
  8
0
  6
CONTINUOUS
 62
     7
  5
971
 10
1.879355
 20
-1.164933
 30
0.0
 11
1.888619
 21
-1.175499
 31
0.0
  0
LINE
  8
0
  6
CONTINUOUS
 62
     7
  5
972
 10
1.888619
 20
-1.175499
 30
0.0
 11
1.897081
 21
-1.187077
 31
0.0
  0
LINE
  8
0
  6
CONTINUOUS
 62
     7
  5
973
 10
1.897081
 20
-1.187077
 30
0.0
 11
1.904558
 21
-1.199527
 31
0.0
  0
LINE
  8
0
  6
CONTINUOUS
 62
     7
  5
974
 10
1.904558
 20
-1.199527
 30
0.0
 11
1.91091
 21
-1.212682
 31
0.0
  0
LINE
  8
0
  6
CONTINUOUS
 62
     7
  5
975
 10
1.91091
 20
-1.212682
 30
0.0
 11
1.916038
 21
-1.22637
 31
0.0
  0
LINE
  8
0
  6
CONTINUOUS
 62
     7
  5
976
 10
1.916038
 20
-1.22637
 30
0.0
 11
1.919882
 21
-1.240407
 31
0.0
  0
LINE
  8
0
  6
CONTINUOUS
 62
     7
  5
977
 10
1.919882
 20
-1.240407
 30
0.0
 11
1.922413
 21
-1.25458
 31
0.0
  0
LINE
  8
0
  6
CONTINUOUS
 62
     7
  5
978
 10
1.922413
 20
-1.25458
 30
0.0
 11
1.92365
 21
-1.268663
 31
0.0
  0
LINE
  8
0
  6
CONTINUOUS
 62
     7
  5
979
 10
1.92365
 20
-1.268663
 30
0.0
 11
1.92365
 21
-1.282537
 31
0.0
  0
LINE
  8
0
  6
CONTINUOUS
 62
     7
  5
97A
 10
1.92365
 20
-1.282537
 30
0.0
 11
1.922413
 21
-1.29662
 31
0.0
  0
LINE
  8
0
  6
CONTINUOUS
 62
     7
  5
97B
 10
1.922413
 20
-1.29662
 30
0.0
 11
1.919882
 21
-1.310793
 31
0.0
  0
LINE
  8
0
  6
CONTINUOUS
 62
     7
  5
97C
 10
1.919882
 20
-1.310793
 30
0.0
 11
1.916038
 21
-1.32483
 31
0.0
  0
LINE
  8
0
  6
CONTINUOUS
 62
     7
  5
97D
 10
1.916038
 20
-1.32483
 30
0.0
 11
1.91091
 21
-1.338518
 31
0.0
  0
LINE
  8
0
  6
CONTINUOUS
 62
     7
  5
97E
 10
1.91091
 20
-1.338518
 30
0.0
 11
1.904558
 21
-1.351673
 31
0.0
  0
LINE
  8
0
  6
CONTINUOUS
 62
     7
  5
97F
 10
1.904558
 20
-1.351673
 30
0.0
 11
1.897081
 21
-1.364123
 31
0.0
  0
LINE
  8
0
  6
CONTINUOUS
 62
     7
  5
980
 10
1.897081
 20
-1.364123
 30
0.0
 11
1.888619
 21
-1.375701
 31
0.0
  0
LINE
  8
0
  6
CONTINUOUS
 62
     7
  5
981
 10
1.888619
 20
-1.375701
 30
0.0
 11
1.879355
 21
-1.386267
 31
0.0
  0
LINE
  8
0
  6
CONTINUOUS
 62
     7
  5
982
 10
1.879355
 20
-1.386267
 30
0.0
 11
1.869318
 21
-1.395875
 31
0.0
  0
LINE
  8
0
  6
CONTINUOUS
 62
     7
  5
983
 10
1.869318
 20
-1.395875
 30
0.0
 11
1.85823
 21
-1.404762
 31
0.0
  0
LINE
  8
0
  6
CONTINUOUS
 62
     7
  5
984
 10
1.85823
 20
-1.404762
 30
0.0
 11
1.846197
 21
-1.412752
 31
0.0
  0
LINE
  8
0
  6
CONTINUOUS
 62
     7
  5
985
 10
1.846197
 20
-1.412752
 30
0.0
 11
1.833373
 21
-1.419682
 31
0.0
  0
LINE
  8
0
  6
CONTINUOUS
 62
     7
  5
986
 10
1.833373
 20
-1.419682
 30
0.0
 11
1.81993
 21
-1.425431
 31
0.0
  0
LINE
  8
0
  6
CONTINUOUS
 62
     7
  5
987
 10
1.81993
 20
-1.425431
 30
0.0
 11
1.806042
 21
-1.429923
 31
0.0
  0
LINE
  8
0
  6
CONTINUOUS
 62
     7
  5
988
 10
1.806042
 20
-1.429923
 30
0.0
 11
1.791909
 21
-1.433111
 31
0.0
  0
LINE
  8
0
  6
CONTINUOUS
 62
     7
  5
989
 10
1.791909
 20
-1.433111
 30
0.0
 11
1.777753
 21
-1.43499
 31
0.0
  0
LINE
  8
0
  6
CONTINUOUS
 62
     7
  5
98A
 10
1.777753
 20
-1.43499
 30
0.0
 11
1.7638
 21
-1.4356
 31
0.0
  0
LINE
  8
0
  6
CONTINUOUS
 62
     7
  5
98B
 10
1.7638
 20
1.1156
 30
0.0
 11
1.749847
 21
1.11621
 31
0.0
  0
LINE
  8
0
  6
CONTINUOUS
 62
     7
  5
98C
 10
1.749847
 20
1.11621
 30
0.0
 11
1.735691
 21
1.118089
 31
0.0
  0
LINE
  8
0
  6
CONTINUOUS
 62
     7
  5
98D
 10
1.735691
 20
1.118089
 30
0.0
 11
1.721558
 21
1.121277
 31
0.0
  0
LINE
  8
0
  6
CONTINUOUS
 62
     7
  5
98E
 10
1.721558
 20
1.121277
 30
0.0
 11
1.70767
 21
1.125769
 31
0.0
  0
LINE
  8
0
  6
CONTINUOUS
 62
     7
  5
98F
 10
1.70767
 20
1.125769
 30
0.0
 11
1.694227
 21
1.131518
 31
0.0
  0
LINE
  8
0
  6
CONTINUOUS
 62
     7
  5
990
 10
1.694227
 20
1.131518
 30
0.0
 11
1.681403
 21
1.138448
 31
0.0
  0
LINE
  8
0
  6
CONTINUOUS
 62
     7
  5
991
 10
1.681403
 20
1.138448
 30
0.0
 11
1.66937
 21
1.146438
 31
0.0
  0
LINE
  8
0
  6
CONTINUOUS
 62
     7
  5
992
 10
1.66937
 20
1.146438
 30
0.0
 11
1.658282
 21
1.155325
 31
0.0
  0
LINE
  8
0
  6
CONTINUOUS
 62
     7
  5
993
 10
1.658282
 20
1.155325
 30
0.0
 11
1.648245
 21
1.164933
 31
0.0
  0
LINE
  8
0
  6
CONTINUOUS
 62
     7
  5
994
 10
1.648245
 20
1.164933
 30
0.0
 11
1.638981
 21
1.175499
 31
0.0
  0
LINE
  8
0
  6
CONTINUOUS
 62
     7
  5
995
 10
1.638981
 20
1.175499
 30
0.0
 11
1.630519
 21
1.187077
 31
0.0
  0
LINE
  8
0
  6
CONTINUOUS
 62
     7
  5
996
 10
1.630519
 20
1.187077
 30
0.0
 11
1.623042
 21
1.199527
 31
0.0
  0
LINE
  8
0
  6
CONTINUOUS
 62
     7
  5
997
 10
1.623042
 20
1.199527
 30
0.0
 11
1.61669
 21
1.212682
 31
0.0
  0
LINE
  8
0
  6
CONTINUOUS
 62
     7
  5
998
 10
1.61669
 20
1.212682
 30
0.0
 11
1.611562
 21
1.22637
 31
0.0
  0
LINE
  8
0
  6
CONTINUOUS
 62
     7
  5
999
 10
1.611562
 20
1.22637
 30
0.0
 11
1.607718
 21
1.240407
 31
0.0
  0
LINE
  8
0
  6
CONTINUOUS
 62
     7
  5
99A
 10
1.607718
 20
1.240407
 30
0.0
 11
1.605187
 21
1.25458
 31
0.0
  0
LINE
  8
0
  6
CONTINUOUS
 62
     7
  5
99B
 10
1.605187
 20
1.25458
 30
0.0
 11
1.60395
 21
1.268663
 31
0.0
  0
LINE
  8
0
  6
CONTINUOUS
 62
     7
  5
99C
 10
1.60395
 20
1.268663
 30
0.0
 11
1.60395
 21
1.282537
 31
0.0
  0
LINE
  8
0
  6
CONTINUOUS
 62
     7
  5
99D
 10
1.60395
 20
1.282537
 30
0.0
 11
1.605187
 21
1.29662
 31
0.0
  0
LINE
  8
0
  6
CONTINUOUS
 62
     7
  5
99E
 10
1.605187
 20
1.29662
 30
0.0
 11
1.607718
 21
1.310793
 31
0.0
  0
LINE
  8
0
  6
CONTINUOUS
 62
     7
  5
99F
 10
1.607718
 20
1.310793
 30
0.0
 11
1.611562
 21
1.32483
 31
0.0
  0
LINE
  8
0
  6
CONTINUOUS
 62
     7
  5
9A0
 10
1.611562
 20
1.32483
 30
0.0
 11
1.61669
 21
1.338518
 31
0.0
  0
LINE
  8
0
  6
CONTINUOUS
 62
     7
  5
9A1
 10
1.61669
 20
1.338518
 30
0.0
 11
1.623042
 21
1.351673
 31
0.0
  0
LINE
  8
0
  6
CONTINUOUS
 62
     7
  5
9A2
 10
1.623042
 20
1.351673
 30
0.0
 11
1.630519
 21
1.364123
 31
0.0
  0
LINE
  8
0
  6
CONTINUOUS
 62
     7
  5
9A3
 10
1.630519
 20
1.364123
 30
0.0
 11
1.638981
 21
1.375701
 31
0.0
  0
LINE
  8
0
  6
CONTINUOUS
 62
     7
  5
9A4
 10
1.638981
 20
1.375701
 30
0.0
 11
1.648245
 21
1.386267
 31
0.0
  0
LINE
  8
0
  6
CONTINUOUS
 62
     7
  5
9A5
 10
1.648245
 20
1.386267
 30
0.0
 11
1.658282
 21
1.395875
 31
0.0
  0
LINE
  8
0
  6
CONTINUOUS
 62
     7
  5
9A6
 10
1.658282
 20
1.395875
 30
0.0
 11
1.66937
 21
1.404762
 31
0.0
  0
LINE
  8
0
  6
CONTINUOUS
 62
     7
  5
9A7
 10
1.66937
 20
1.404762
 30
0.0
 11
1.681403
 21
1.412752
 31
0.0
  0
LINE
  8
0
  6
CONTINUOUS
 62
     7
  5
9A8
 10
1.681403
 20
1.412752
 30
0.0
 11
1.694227
 21
1.419682
 31
0.0
  0
LINE
  8
0
  6
CONTINUOUS
 62
     7
  5
9A9
 10
1.694227
 20
1.419682
 30
0.0
 11
1.70767
 21
1.425431
 31
0.0
  0
LINE
  8
0
  6
CONTINUOUS
 62
     7
  5
9AA
 10
1.70767
 20
1.425431
 30
0.0
 11
1.721558
 21
1.429923
 31
0.0
  0
LINE
  8
0
  6
CONTINUOUS
 62
     7
  5
9AB
 10
1.721558
 20
1.429923
 30
0.0
 11
1.735691
 21
1.433111
 31
0.0
  0
LINE
  8
0
  6
CONTINUOUS
 62
     7
  5
9AC
 10
1.735691
 20
1.433111
 30
0.0
 11
1.749847
 21
1.43499
 31
0.0
  0
LINE
  8
0
  6
CONTINUOUS
 62
     7
  5
9AD
 10
1.749847
 20
1.43499
 30
0.0
 11
1.7638
 21
1.4356
 31
0.0
  0
LINE
  8
0
  6
CONTINUOUS
 62
     7
  5
9AE
 10
1.7638
 20
1.4356
 30
0.0
 11
1.777753
 21
1.43499
 31
0.0
  0
LINE
  8
0
  6
CONTINUOUS
 62
     7
  5
9AF
 10
1.777753
 20
1.43499
 30
0.0
 11
1.791909
 21
1.433111
 31
0.0
  0
LINE
  8
0
  6
CONTINUOUS
 62
     7
  5
9B0
 10
1.791909
 20
1.433111
 30
0.0
 11
1.806042
 21
1.429923
 31
0.0
  0
LINE
  8
0
  6
CONTINUOUS
 62
     7
  5
9B1
 10
1.806042
 20
1.429923
 30
0.0
 11
1.81993
 21
1.425431
 31
0.0
  0
LINE
  8
0
  6
CONTINUOUS
 62
     7
  5
9B2
 10
1.81993
 20
1.425431
 30
0.0
 11
1.833373
 21
1.419682
 31
0.0
  0
LINE
  8
0
  6
CONTINUOUS
 62
     7
  5
9B3
 10
1.833373
 20
1.419682
 30
0.0
 11
1.846197
 21
1.412752
 31
0.0
  0
LINE
  8
0
  6
CONTINUOUS
 62
     7
  5
9B4
 10
1.846197
 20
1.412752
 30
0.0
 11
1.85823
 21
1.404762
 31
0.0
  0
LINE
  8
0
  6
CONTINUOUS
 62
     7
  5
9B5
 10
1.85823
 20
1.404762
 30
0.0
 11
1.869318
 21
1.395875
 31
0.0
  0
LINE
  8
0
  6
CONTINUOUS
 62
     7
  5
9B6
 10
1.869318
 20
1.395875
 30
0.0
 11
1.879355
 21
1.386267
 31
0.0
  0
LINE
  8
0
  6
CONTINUOUS
 62
     7
  5
9B7
 10
1.879355
 20
1.386267
 30
0.0
 11
1.888619
 21
1.375701
 31
0.0
  0
LINE
  8
0
  6
CONTINUOUS
 62
     7
  5
9B8
 10
1.888619
 20
1.375701
 30
0.0
 11
1.897081
 21
1.364123
 31
0.0
  0
LINE
  8
0
  6
CONTINUOUS
 62
     7
  5
9B9
 10
1.897081
 20
1.364123
 30
0.0
 11
1.904558
 21
1.351673
 31
0.0
  0
LINE
  8
0
  6
CONTINUOUS
 62
     7
  5
9BA
 10
1.904558
 20
1.351673
 30
0.0
 11
1.91091
 21
1.338518
 31
0.0
  0
LINE
  8
0
  6
CONTINUOUS
 62
     7
  5
9BB
 10
1.91091
 20
1.338518
 30
0.0
 11
1.916038
 21
1.32483
 31
0.0
  0
LINE
  8
0
  6
CONTINUOUS
 62
     7
  5
9BC
 10
1.916038
 20
1.32483
 30
0.0
 11
1.919882
 21
1.310793
 31
0.0
  0
LINE
  8
0
  6
CONTINUOUS
 62
     7
  5
9BD
 10
1.919882
 20
1.310793
 30
0.0
 11
1.922413
 21
1.29662
 31
0.0
  0
LINE
  8
0
  6
CONTINUOUS
 62
     7
  5
9BE
 10
1.922413
 20
1.29662
 30
0.0
 11
1.92365
 21
1.282537
 31
0.0
  0
LINE
  8
0
  6
CONTINUOUS
 62
     7
  5
9BF
 10
1.92365
 20
1.282537
 30
0.0
 11
1.92365
 21
1.268663
 31
0.0
  0
LINE
  8
0
  6
CONTINUOUS
 62
     7
  5
9C0
 10
1.92365
 20
1.268663
 30
0.0
 11
1.922413
 21
1.25458
 31
0.0
  0
LINE
  8
0
  6
CONTINUOUS
 62
     7
  5
9C1
 10
1.922413
 20
1.25458
 30
0.0
 11
1.919882
 21
1.240407
 31
0.0
  0
LINE
  8
0
  6
CONTINUOUS
 62
     7
  5
9C2
 10
1.919882
 20
1.240407
 30
0.0
 11
1.916038
 21
1.22637
 31
0.0
  0
LINE
  8
0
  6
CONTINUOUS
 62
     7
  5
9C3
 10
1.916038
 20
1.22637
 30
0.0
 11
1.91091
 21
1.212682
 31
0.0
  0
LINE
  8
0
  6
CONTINUOUS
 62
     7
  5
9C4
 10
1.91091
 20
1.212682
 30
0.0
 11
1.904558
 21
1.199527
 31
0.0
  0
LINE
  8
0
  6
CONTINUOUS
 62
     7
  5
9C5
 10
1.904558
 20
1.199527
 30
0.0
 11
1.897081
 21
1.187077
 31
0.0
  0
LINE
  8
0
  6
CONTINUOUS
 62
     7
  5
9C6
 10
1.897081
 20
1.187077
 30
0.0
 11
1.888619
 21
1.175499
 31
0.0
  0
LINE
  8
0
  6
CONTINUOUS
 62
     7
  5
9C7
 10
1.888619
 20
1.175499
 30
0.0
 11
1.879355
 21
1.164933
 31
0.0
  0
LINE
  8
0
  6
CONTINUOUS
 62
     7
  5
9C8
 10
1.879355
 20
1.164933
 30
0.0
 11
1.869318
 21
1.155325
 31
0.0
  0
LINE
  8
0
  6
CONTINUOUS
 62
     7
  5
9C9
 10
1.869318
 20
1.155325
 30
0.0
 11
1.85823
 21
1.146438
 31
0.0
  0
LINE
  8
0
  6
CONTINUOUS
 62
     7
  5
9CA
 10
1.85823
 20
1.146438
 30
0.0
 11
1.846197
 21
1.138448
 31
0.0
  0
LINE
  8
0
  6
CONTINUOUS
 62
     7
  5
9CB
 10
1.846197
 20
1.138448
 30
0.0
 11
1.833373
 21
1.131518
 31
0.0
  0
LINE
  8
0
  6
CONTINUOUS
 62
     7
  5
9CC
 10
1.833373
 20
1.131518
 30
0.0
 11
1.81993
 21
1.125769
 31
0.0
  0
LINE
  8
0
  6
CONTINUOUS
 62
     7
  5
9CD
 10
1.81993
 20
1.125769
 30
0.0
 11
1.806042
 21
1.121277
 31
0.0
  0
LINE
  8
0
  6
CONTINUOUS
 62
     7
  5
9CE
 10
1.806042
 20
1.121277
 30
0.0
 11
1.791909
 21
1.118089
 31
0.0
  0
LINE
  8
0
  6
CONTINUOUS
 62
     7
  5
9CF
 10
1.791909
 20
1.118089
 30
0.0
 11
1.777753
 21
1.11621
 31
0.0
  0
LINE
  8
0
  6
CONTINUOUS
 62
     7
  5
9D0
 10
1.777753
 20
1.11621
 30
0.0
 11
1.7638
 21
1.1156
 31
0.0
  0
LINE
  8
0
  6
CONTINUOUS
 62
     7
  5
9D1
 10
1.3738
 20
-1.2756
 30
0.0
 11
1.371287
 21
-1.303846
 31
0.0
  0
LINE
  8
0
  6
CONTINUOUS
 62
     7
  5
9D2
 10
1.371287
 20
-1.303846
 30
0.0
 11
1.363537
 21
-1.331982
 31
0.0
  0
LINE
  8
0
  6
CONTINUOUS
 62
     7
  5
9D3
 10
1.363537
 20
-1.331982
 30
0.0
 11
1.350756
 21
-1.358323
 31
0.0
  0
LINE
  8
0
  6
CONTINUOUS
 62
     7
  5
9D4
 10
1.350756
 20
-1.358323
 30
0.0
 11
1.333774
 21
-1.381459
 31
0.0
  0
LINE
  8
0
  6
CONTINUOUS
 62
     7
  5
9D5
 10
1.333774
 20
-1.381459
 30
0.0
 11
1.313502
 21
-1.400738
 31
0.0
  0
LINE
  8
0
  6
CONTINUOUS
 62
     7
  5
9D6
 10
1.313502
 20
-1.400738
 30
0.0
 11
1.289407
 21
-1.416609
 31
0.0
  0
LINE
  8
0
  6
CONTINUOUS
 62
     7
  5
9D7
 10
1.289407
 20
-1.416609
 30
0.0
 11
1.26256
 21
-1.427989
 31
0.0
  0
LINE
  8
0
  6
CONTINUOUS
 62
     7
  5
9D8
 10
1.26256
 20
-1.427989
 30
0.0
 11
1.23442
 21
-1.434266
 31
0.0
  0
LINE
  8
0
  6
CONTINUOUS
 62
     7
  5
9D9
 10
1.23442
 20
-1.434266
 30
0.0
 11
1.206592
 21
-1.435438
 31
0.0
  0
LINE
  8
0
  6
CONTINUOUS
 62
     7
  5
9DA
 10
1.206592
 20
-1.435438
 30
0.0
 11
1.178476
 21
-1.431652
 31
0.0
  0
LINE
  8
0
  6
CONTINUOUS
 62
     7
  5
9DB
 10
1.178476
 20
-1.431652
 30
0.0
 11
1.15089
 21
-1.422713
 31
0.0
  0
LINE
  8
0
  6
CONTINUOUS
 62
     7
  5
9DC
 10
1.15089
 20
-1.422713
 30
0.0
 11
1.125391
 21
-1.408956
 31
0.0
  0
LINE
  8
0
  6
CONTINUOUS
 62
     7
  5
9DD
 10
1.125391
 20
-1.408956
 30
0.0
 11
1.103293
 21
-1.391307
 31
0.0
  0
LINE
  8
0
  6
CONTINUOUS
 62
     7
  5
9DE
 10
1.103293
 20
-1.391307
 30
0.0
 11
1.084793
 21
-1.370242
 31
0.0
  0
LINE
  8
0
  6
CONTINUOUS
 62
     7
  5
9DF
 10
1.084793
 20
-1.370242
 30
0.0
 11
1.069824
 21
-1.345392
 31
0.0
  0
LINE
  8
0
  6
CONTINUOUS
 62
     7
  5
9E0
 10
1.069824
 20
-1.345392
 30
0.0
 11
1.059523
 21
-1.318011
 31
0.0
  0
LINE
  8
0
  6
CONTINUOUS
 62
     7
  5
9E1
 10
1.059523
 20
-1.318011
 30
0.0
 11
1.054415
 21
-1.289618
 31
0.0
  0
LINE
  8
0
  6
CONTINUOUS
 62
     7
  5
9E2
 10
1.054415
 20
-1.289618
 30
0.0
 11
1.054415
 21
-1.261581
 31
0.0
  0
LINE
  8
0
  6
CONTINUOUS
 62
     7
  5
9E3
 10
1.054415
 20
-1.261581
 30
0.0
 11
1.059526
 21
-1.233181
 31
0.0
  0
LINE
  8
0
  6
CONTINUOUS
 62
     7
  5
9E4
 10
1.059526
 20
-1.233181
 30
0.0
 11
1.069831
 21
-1.205794
 31
0.0
  0
LINE
  8
0
  6
CONTINUOUS
 62
     7
  5
9E5
 10
1.069831
 20
-1.205794
 30
0.0
 11
1.084801
 21
-1.180946
 31
0.0
  0
LINE
  8
0
  6
CONTINUOUS
 62
     7
  5
9E6
 10
1.084801
 20
-1.180946
 30
0.0
 11
1.103296
 21
-1.15989
 31
0.0
  0
LINE
  8
0
  6
CONTINUOUS
 62
     7
  5
9E7
 10
1.103296
 20
-1.15989
 30
0.0
 11
1.125404
 21
-1.142235
 31
0.0
  0
LINE
  8
0
  6
CONTINUOUS
 62
     7
  5
9E8
 10
1.125404
 20
-1.142235
 30
0.0
 11
1.150903
 21
-1.128481
 31
0.0
  0
LINE
  8
0
  6
CONTINUOUS
 62
     7
  5
9E9
 10
1.150903
 20
-1.128481
 30
0.0
 11
1.178482
 21
-1.119547
 31
0.0
  0
LINE
  8
0
  6
CONTINUOUS
 62
     7
  5
9EA
 10
1.178482
 20
-1.119547
 30
0.0
 11
1.206592
 21
-1.115762
 31
0.0
  0
LINE
  8
0
  6
CONTINUOUS
 62
     7
  5
9EB
 10
1.206592
 20
-1.115762
 30
0.0
 11
1.234418
 21
-1.116934
 31
0.0
  0
LINE
  8
0
  6
CONTINUOUS
 62
     7
  5
9EC
 10
1.234418
 20
-1.116934
 30
0.0
 11
1.262555
 21
-1.123209
 31
0.0
  0
LINE
  8
0
  6
CONTINUOUS
 62
     7
  5
9ED
 10
1.262555
 20
-1.123209
 30
0.0
 11
1.289399
 21
-1.134587
 31
0.0
  0
LINE
  8
0
  6
CONTINUOUS
 62
     7
  5
9EE
 10
1.289399
 20
-1.134587
 30
0.0
 11
1.313496
 21
-1.150457
 31
0.0
  0
LINE
  8
0
  6
CONTINUOUS
 62
     7
  5
9EF
 10
1.313496
 20
-1.150457
 30
0.0
 11
1.333771
 21
-1.169737
 31
0.0
  0
LINE
  8
0
  6
CONTINUOUS
 62
     7
  5
9F0
 10
1.333771
 20
-1.169737
 30
0.0
 11
1.350751
 21
-1.19287
 31
0.0
  0
LINE
  8
0
  6
CONTINUOUS
 62
     7
  5
9F1
 10
1.350751
 20
-1.19287
 30
0.0
 11
1.363534
 21
-1.219212
 31
0.0
  0
LINE
  8
0
  6
CONTINUOUS
 62
     7
  5
9F2
 10
1.363534
 20
-1.219212
 30
0.0
 11
1.371287
 21
-1.247352
 31
0.0
  0
LINE
  8
0
  6
CONTINUOUS
 62
     7
  5
9F3
 10
1.371287
 20
-1.247352
 30
0.0
 11
1.3738
 21
-1.2756
 31
0.0
  0
LINE
  8
0
  6
CONTINUOUS
 62
     7
  5
9F4
 10
1.3738
 20
1.2756
 30
0.0
 11
1.371287
 21
1.247352
 31
0.0
  0
LINE
  8
0
  6
CONTINUOUS
 62
     7
  5
9F5
 10
1.371287
 20
1.247352
 30
0.0
 11
1.363534
 21
1.219212
 31
0.0
  0
LINE
  8
0
  6
CONTINUOUS
 62
     7
  5
9F6
 10
1.363534
 20
1.219212
 30
0.0
 11
1.350751
 21
1.19287
 31
0.0
  0
LINE
  8
0
  6
CONTINUOUS
 62
     7
  5
9F7
 10
1.350751
 20
1.19287
 30
0.0
 11
1.333771
 21
1.169737
 31
0.0
  0
LINE
  8
0
  6
CONTINUOUS
 62
     7
  5
9F8
 10
1.333771
 20
1.169737
 30
0.0
 11
1.313496
 21
1.150457
 31
0.0
  0
LINE
  8
0
  6
CONTINUOUS
 62
     7
  5
9F9
 10
1.313496
 20
1.150457
 30
0.0
 11
1.289399
 21
1.134587
 31
0.0
  0
LINE
  8
0
  6
CONTINUOUS
 62
     7
  5
9FA
 10
1.289399
 20
1.134587
 30
0.0
 11
1.262555
 21
1.123209
 31
0.0
  0
LINE
  8
0
  6
CONTINUOUS
 62
     7
  5
9FB
 10
1.262555
 20
1.123209
 30
0.0
 11
1.234418
 21
1.116934
 31
0.0
  0
LINE
  8
0
  6
CONTINUOUS
 62
     7
  5
9FC
 10
1.234418
 20
1.116934
 30
0.0
 11
1.206592
 21
1.115762
 31
0.0
  0
LINE
  8
0
  6
CONTINUOUS
 62
     7
  5
9FD
 10
1.206592
 20
1.115762
 30
0.0
 11
1.178482
 21
1.119547
 31
0.0
  0
LINE
  8
0
  6
CONTINUOUS
 62
     7
  5
9FE
 10
1.178482
 20
1.119547
 30
0.0
 11
1.150903
 21
1.128481
 31
0.0
  0
LINE
  8
0
  6
CONTINUOUS
 62
     7
  5
9FF
 10
1.150903
 20
1.128481
 30
0.0
 11
1.125404
 21
1.142235
 31
0.0
  0
LINE
  8
0
  6
CONTINUOUS
 62
     7
  5
A00
 10
1.125404
 20
1.142235
 30
0.0
 11
1.103296
 21
1.15989
 31
0.0
  0
LINE
  8
0
  6
CONTINUOUS
 62
     7
  5
A01
 10
1.103296
 20
1.15989
 30
0.0
 11
1.084802
 21
1.180946
 31
0.0
  0
LINE
  8
0
  6
CONTINUOUS
 62
     7
  5
A02
 10
1.084802
 20
1.180946
 30
0.0
 11
1.069831
 21
1.205794
 31
0.0
  0
LINE
  8
0
  6
CONTINUOUS
 62
     7
  5
A03
 10
1.069831
 20
1.205794
 30
0.0
 11
1.059526
 21
1.233181
 31
0.0
  0
LINE
  8
0
  6
CONTINUOUS
 62
     7
  5
A04
 10
1.059526
 20
1.233181
 30
0.0
 11
1.054415
 21
1.26158
 31
0.0
  0
LINE
  8
0
  6
CONTINUOUS
 62
     7
  5
A05
 10
1.054415
 20
1.26158
 30
0.0
 11
1.054415
 21
1.28962
 31
0.0
  0
LINE
  8
0
  6
CONTINUOUS
 62
     7
  5
A06
 10
1.054415
 20
1.28962
 30
0.0
 11
1.059526
 21
1.318019
 31
0.0
  0
LINE
  8
0
  6
CONTINUOUS
 62
     7
  5
A07
 10
1.059526
 20
1.318019
 30
0.0
 11
1.069831
 21
1.345406
 31
0.0
  0
LINE
  8
0
  6
CONTINUOUS
 62
     7
  5
A08
 10
1.069831
 20
1.345406
 30
0.0
 11
1.084802
 21
1.370254
 31
0.0
  0
LINE
  8
0
  6
CONTINUOUS
 62
     7
  5
A09
 10
1.084802
 20
1.370254
 30
0.0
 11
1.103296
 21
1.39131
 31
0.0
  0
LINE
  8
0
  6
CONTINUOUS
 62
     7
  5
A0A
 10
1.103296
 20
1.39131
 30
0.0
 11
1.125404
 21
1.408965
 31
0.0
  0
LINE
  8
0
  6
CONTINUOUS
 62
     7
  5
A0B
 10
1.125404
 20
1.408965
 30
0.0
 11
1.150903
 21
1.422719
 31
0.0
  0
LINE
  8
0
  6
CONTINUOUS
 62
     7
  5
A0C
 10
1.150903
 20
1.422719
 30
0.0
 11
1.178482
 21
1.431653
 31
0.0
  0
LINE
  8
0
  6
CONTINUOUS
 62
     7
  5
A0D
 10
1.178482
 20
1.431653
 30
0.0
 11
1.206592
 21
1.435438
 31
0.0
  0
LINE
  8
0
  6
CONTINUOUS
 62
     7
  5
A0E
 10
1.206592
 20
1.435438
 30
0.0
 11
1.234418
 21
1.434266
 31
0.0
  0
LINE
  8
0
  6
CONTINUOUS
 62
     7
  5
A0F
 10
1.234418
 20
1.434266
 30
0.0
 11
1.262555
 21
1.427991
 31
0.0
  0
LINE
  8
0
  6
CONTINUOUS
 62
     7
  5
A10
 10
1.262555
 20
1.427991
 30
0.0
 11
1.289399
 21
1.416613
 31
0.0
  0
LINE
  8
0
  6
CONTINUOUS
 62
     7
  5
A11
 10
1.289399
 20
1.416613
 30
0.0
 11
1.313496
 21
1.400743
 31
0.0
  0
LINE
  8
0
  6
CONTINUOUS
 62
     7
  5
A12
 10
1.313496
 20
1.400743
 30
0.0
 11
1.333771
 21
1.381463
 31
0.0
  0
LINE
  8
0
  6
CONTINUOUS
 62
     7
  5
A13
 10
1.333771
 20
1.381463
 30
0.0
 11
1.350751
 21
1.35833
 31
0.0
  0
LINE
  8
0
  6
CONTINUOUS
 62
     7
  5
A14
 10
1.350751
 20
1.35833
 30
0.0
 11
1.363534
 21
1.331988
 31
0.0
  0
LINE
  8
0
  6
CONTINUOUS
 62
     7
  5
A15
 10
1.363534
 20
1.331988
 30
0.0
 11
1.371287
 21
1.303848
 31
0.0
  0
LINE
  8
0
  6
CONTINUOUS
 62
     7
  5
A16
 10
1.371287
 20
1.303848
 30
0.0
 11
1.3738
 21
1.2756
 31
0.0
  0
LINE
  8
0
  6
CONTINUOUS
 62
     7
  5
A17
 10
0.8838
 20
-1.01575
 30
0.0
 11
2.6438
 21
-1.01575
 31
0.0
  0
LINE
  8
0
  6
CONTINUOUS
 62
     7
  5
A18
 10
2.6438
 20
1.01575
 30
0.0
 11
0.8838
 21
1.01575
 31
0.0
  0
LINE
  8
0
  6
CONTINUOUS
 62
     7
  5
A19
 10
0.8838
 20
-1.67
 30
0.0
 11
2.6438
 21
-1.67
 31
0.0
  0
LINE
  8
0
  6
CONTINUOUS
 62
     7
  5
A1A
 10
1.94275
 20
0.551
 30
0.0
 11
1.94275
 21
0.1967
 31
0.0
  0
LINE
  8
0
  6
CONTINUOUS
 62
     7
  5
A1B
 10
1.94275
 20
0.551
 30
0.0
 11
2.11205
 21
0.551
 31
0.0
  0
LINE
  8
0
  6
CONTINUOUS
 62
     7
  5
A1C
 10
2.11205
 20
0.1967
 30
0.0
 11
1.94275
 21
0.1967
 31
0.0
  0
LINE
  8
0
  6
CONTINUOUS
 62
     7
  5
A1D
 10
2.11205
 20
0.551
 30
0.0
 11
2.11205
 21
0.1967
 31
0.0
  0
LINE
  8
0
  6
CONTINUOUS
 62
     7
  5
A1E
 10
2.11025
 20
0.8266
 30
0.0
 11
2.11025
 21
0.551
 31
0.0
  0
LINE
  8
0
  6
CONTINUOUS
 62
     7
  5
A1F
 10
1.41555
 20
0.551
 30
0.0
 11
1.41555
 21
0.1967
 31
0.0
  0
LINE
  8
0
  6
CONTINUOUS
 62
     7
  5
A20
 10
1.58485
 20
0.551
 30
0.0
 11
1.58485
 21
0.1967
 31
0.0
  0
LINE
  8
0
  6
CONTINUOUS
 62
     7
  5
A21
 10
1.41555
 20
0.551
 30
0.0
 11
1.58485
 21
0.551
 31
0.0
  0
LINE
  8
0
  6
CONTINUOUS
 62
     7
  5
A22
 10
1.58485
 20
0.1967
 30
0.0
 11
1.41555
 21
0.1967
 31
0.0
  0
LINE
  8
0
  6
CONTINUOUS
 62
     7
  5
A23
 10
1.41735
 20
0.8266
 30
0.0
 11
1.41735
 21
0.551
 31
0.0
  0
LINE
  8
0
  6
CONTINUOUS
 62
     7
  5
A24
 10
1.41735
 20
0.8266
 30
0.0
 11
2.11025
 21
0.8266
 31
0.0
  0
LINE
  8
0
  6
CONTINUOUS
 62
     7
  5
A25
 10
1.689
 20
0.1967
 30
0.0
 11
1.58485
 21
0.1967
 31
0.0
  0
LINE
  8
0
  6
CONTINUOUS
 62
     7
  5
A26
 10
1.6457
 20
0.4565
 30
0.0
 11
1.6457
 21
0.5982
 31
0.0
  0
LINE
  8
0
  6
CONTINUOUS
 62
     7
  5
A27
 10
1.6457
 20
0.5982
 30
0.0
 11
1.54725
 21
0.5982
 31
0.0
  0
LINE
  8
0
  6
CONTINUOUS
 62
     7
  5
A28
 10
1.54725
 20
0.5982
 30
0.0
 11
1.54725
 21
0.7714
 31
0.0
  0
LINE
  8
0
  6
CONTINUOUS
 62
     7
  5
A29
 10
1.54725
 20
0.7714
 30
0.0
 11
1.98035
 21
0.7714
 31
0.0
  0
LINE
  8
0
  6
CONTINUOUS
 62
     7
  5
A2A
 10
1.98035
 20
0.7714
 30
0.0
 11
1.98035
 21
0.5982
 31
0.0
  0
LINE
  8
0
  6
CONTINUOUS
 62
     7
  5
A2B
 10
1.98035
 20
0.5982
 30
0.0
 11
1.8819
 21
0.5982
 31
0.0
  0
LINE
  8
0
  6
CONTINUOUS
 62
     7
  5
A2C
 10
1.8819
 20
0.5982
 30
0.0
 11
1.8819
 21
0.4565
 31
0.0
  0
LINE
  8
0
  6
CONTINUOUS
 62
     7
  5
A2D
 10
1.94275
 20
0.1967
 30
0.0
 11
1.8386
 21
0.1967
 31
0.0
  0
LINE
  8
0
  6
CONTINUOUS
 62
     7
  5
A2E
 10
1.92425
 20
0.4565
 30
0.0
 11
1.92425
 21
0.2006
 31
0.0
  0
LINE
  8
0
  6
CONTINUOUS
 62
     7
  5
A2F
 10
1.689
 20
0.2006
 30
0.0
 11
1.689
 21
-0.1144
 31
0.0
  0
LINE
  8
0
  6
CONTINUOUS
 62
     7
  5
A30
 10
1.60335
 20
0.4565
 30
0.0
 11
1.92425
 21
0.4565
 31
0.0
  0
LINE
  8
0
  6
CONTINUOUS
 62
     7
  5
A31
 10
1.60335
 20
0.4565
 30
0.0
 11
1.60335
 21
0.2006
 31
0.0
  0
LINE
  8
0
  6
CONTINUOUS
 62
     7
  5
A32
 10
1.92425
 20
0.2006
 30
0.0
 11
1.60335
 21
0.2006
 31
0.0
  0
LINE
  8
0
  6
CONTINUOUS
 62
     7
  5
A33
 10
2.12205
 20
-0.2718
 30
0.0
 11
2.19685
 21
-0.2718
 31
0.0
  0
LINE
  8
0
  6
CONTINUOUS
 62
     7
  5
A34
 10
2.19685
 20
-0.5513
 30
0.0
 11
2.12205
 21
-0.5513
 31
0.0
  0
LINE
  8
0
  6
CONTINUOUS
 62
     7
  5
A35
 10
2.19685
 20
-0.2718
 30
0.0
 11
2.19685
 21
-0.5513
 31
0.0
  0
LINE
  8
0
  6
CONTINUOUS
 62
     7
  5
A36
 10
1.40555
 20
-0.5513
 30
0.0
 11
1.33075
 21
-0.5513
 31
0.0
  0
LINE
  8
0
  6
CONTINUOUS
 62
     7
  5
A37
 10
1.33075
 20
-0.2718
 30
0.0
 11
1.40555
 21
-0.2718
 31
0.0
  0
LINE
  8
0
  6
CONTINUOUS
 62
     7
  5
A38
 10
1.33075
 20
-0.2718
 30
0.0
 11
1.33075
 21
-0.5513
 31
0.0
  0
LINE
  8
0
  6
CONTINUOUS
 62
     7
  5
A39
 10
1.40555
 20
-0.197
 30
0.0
 11
1.40555
 21
-0.573
 31
0.0
  0
LINE
  8
0
  6
CONTINUOUS
 62
     7
  5
A3A
 10
1.40555
 20
-0.197
 30
0.0
 11
2.12205
 21
-0.197
 31
0.0
  0
LINE
  8
0
  6
CONTINUOUS
 62
     7
  5
A3B
 10
2.12205
 20
-0.573
 30
0.0
 11
1.40555
 21
-0.573
 31
0.0
  0
LINE
  8
0
  6
CONTINUOUS
 62
     7
  5
A3C
 10
2.12205
 20
-0.197
 30
0.0
 11
2.12205
 21
-0.573
 31
0.0
  0
LINE
  8
0
  6
CONTINUOUS
 62
     7
  5
A3D
 10
2.2087
 20
-0.55905
 30
0.0
 11
2.12205
 21
-0.55905
 31
0.0
  0
LINE
  8
0
  6
CONTINUOUS
 62
     7
  5
A3E
 10
2.2087
 20
0.55905
 30
0.0
 11
2.2087
 21
-0.55905
 31
0.0
  0
LINE
  8
0
  6
CONTINUOUS
 62
     7
  5
A3F
 10
2.11025
 20
0.55905
 30
0.0
 11
2.2087
 21
0.55905
 31
0.0
  0
LINE
  8
0
  6
CONTINUOUS
 62
     7
  5
A40
 10
1.6457
 20
0.55905
 30
0.0
 11
1.8819
 21
0.55905
 31
0.0
  0
LINE
  8
0
  6
CONTINUOUS
 62
     7
  5
A41
 10
1.3189
 20
0.55905
 30
0.0
 11
1.41735
 21
0.55905
 31
0.0
  0
LINE
  8
0
  6
CONTINUOUS
 62
     7
  5
A42
 10
1.3189
 20
0.55905
 30
0.0
 11
1.3189
 21
-0.55905
 31
0.0
  0
LINE
  8
0
  6
CONTINUOUS
 62
     7
  5
A43
 10
1.40555
 20
-0.55905
 30
0.0
 11
1.3189
 21
-0.55905
 31
0.0
  0
LINE
  8
0
  6
CONTINUOUS
 62
     7
  5
A44
 10
1.8386
 20
-0.1144
 30
0.0
 11
1.689
 21
-0.1144
 31
0.0
  0
LINE
  8
0
  6
CONTINUOUS
 62
     7
  5
A45
 10
1.8386
 20
0.2006
 30
0.0
 11
1.8386
 21
-0.1144
 31
0.0
  0
LINE
  8
0
  6
CONTINUOUS
 62
     7
  5
A46
 10
1.8386
 20
0.14565
 30
0.0
 11
1.8522
 21
0.14565
 31
0.0
  0
LINE
  8
0
  6
CONTINUOUS
 62
     7
  5
A47
 10
1.7931
 20
-0.1476
 30
0.0
 11
1.7931
 21
-0.1811
 31
0.0
  0
LINE
  8
0
  6
CONTINUOUS
 62
     7
  5
A48
 10
1.7931
 20
-0.1476
 30
0.0
 11
1.8522
 21
-0.1476
 31
0.0
  0
LINE
  8
0
  6
CONTINUOUS
 62
     7
  5
A49
 10
1.8522
 20
0.1811
 30
0.0
 11
1.8522
 21
-0.1476
 31
0.0
  0
LINE
  8
0
  6
CONTINUOUS
 62
     7
  5
A4A
 10
1.9998
 20
0.1811
 30
0.0
 11
1.9998
 21
-0.1811
 31
0.0
  0
LINE
  8
0
  6
CONTINUOUS
 62
     7
  5
A4B
 10
1.8522
 20
0.1811
 30
0.0
 11
1.9998
 21
0.1811
 31
0.0
  0
LINE
  8
0
  6
CONTINUOUS
 62
     7
  5
A4C
 10
1.9998
 20
-0.1811
 30
0.0
 11
1.7931
 21
-0.1811
 31
0.0
  0
LINE
  8
0
  6
CONTINUOUS
 62
     7
  5
A4D
 10
1.6754
 20
-0.1476
 30
0.0
 11
1.7345
 21
-0.1476
 31
0.0
  0
LINE
  8
0
  6
CONTINUOUS
 62
     7
  5
A4E
 10
1.7345
 20
-0.1476
 30
0.0
 11
1.7345
 21
-0.1811
 31
0.0
  0
LINE
  8
0
  6
CONTINUOUS
 62
     7
  5
A4F
 10
1.6754
 20
0.1811
 30
0.0
 11
1.6754
 21
-0.1476
 31
0.0
  0
LINE
  8
0
  6
CONTINUOUS
 62
     7
  5
A50
 10
1.5278
 20
0.1811
 30
0.0
 11
1.6754
 21
0.1811
 31
0.0
  0
LINE
  8
0
  6
CONTINUOUS
 62
     7
  5
A51
 10
1.5278
 20
0.1811
 30
0.0
 11
1.5278
 21
-0.1811
 31
0.0
  0
LINE
  8
0
  6
CONTINUOUS
 62
     7
  5
A52
 10
1.7345
 20
-0.1811
 30
0.0
 11
1.5278
 21
-0.1811
 31
0.0
  0
LINE
  8
0
  6
CONTINUOUS
 62
     7
  5
A53
 10
1.9998
 20
0.14565
 30
0.0
 11
2.1339
 21
0.14565
 31
0.0
  0
LINE
  8
0
  6
CONTINUOUS
 62
     7
  5
A54
 10
1.6754
 20
0.14565
 30
0.0
 11
1.689
 21
0.14565
 31
0.0
  0
LINE
  8
0
  6
CONTINUOUS
 62
     7
  5
A55
 10
2.1339
 20
-0.14565
 30
0.0
 11
1.9998
 21
-0.14565
 31
0.0
  0
LINE
  8
0
  6
CONTINUOUS
 62
     7
  5
A56
 10
2.1339
 20
0.14565
 30
0.0
 11
2.1339
 21
-0.14565
 31
0.0
  0
LINE
  8
0
  6
CONTINUOUS
 62
     7
  5
A57
 10
1.8522
 20
-0.14565
 30
0.0
 11
1.6754
 21
-0.14565
 31
0.0
  0
LINE
  8
0
  6
CONTINUOUS
 62
     7
  5
A58
 10
1.5278
 20
-0.14565
 30
0.0
 11
1.3937
 21
-0.14565
 31
0.0
  0
LINE
  8
0
  6
CONTINUOUS
 62
     7
  5
A59
 10
1.3937
 20
0.14565
 30
0.0
 11
1.5278
 21
0.14565
 31
0.0
  0
LINE
  8
0
  6
CONTINUOUS
 62
     7
  5
A5A
 10
1.3937
 20
0.14565
 30
0.0
 11
1.3937
 21
-0.14565
 31
0.0
  0
LINE
  8
0
  6
CONTINUOUS
 62
     7
  5
A5B
 10
1.562323
 20
1.822843
 30
0.0
 11
-0.051851
 21
1.822843
 31
0.0
  0
LINE
  8
0
  6
CONTINUOUS
 62
     7
  5
A5C
 10
1.562323
 20
1.67
 30
0.0
 11
1.562323
 21
1.874024
 31
0.0
  0
LINE
  8
0
  6
CONTINUOUS
 62
     7
  5
A5D
 10
1.601693
 20
1.67
 30
0.0
 11
1.601693
 21
1.874024
 31
0.0
  0
LINE
  8
0
  6
CONTINUOUS
 62
     7
  5
A5E
 10
1.601693
 20
1.874024
 30
0.0
 11
1.562323
 21
1.874024
 31
0.0
  0
LINE
  8
0
  6
CONTINUOUS
 62
     7
  5
A5F
 10
1.601693
 20
1.874024
 30
0.0
 11
1.680433
 21
1.874024
 31
0.0
  0
LINE
  8
0
  6
CONTINUOUS
 62
     7
  5
A60
 10
1.680433
 20
1.874024
 30
0.0
 11
1.680433
 21
1.67
 31
0.0
  0
LINE
  8
0
  6
CONTINUOUS
 62
     7
  5
A61
 10
1.719803
 20
1.67
 30
0.0
 11
1.719803
 21
1.874024
 31
0.0
  0
LINE
  8
0
  6
CONTINUOUS
 62
     7
  5
A62
 10
1.719803
 20
1.874024
 30
0.0
 11
1.680433
 21
1.874024
 31
0.0
  0
LINE
  8
0
  6
CONTINUOUS
 62
     7
  5
A63
 10
-0.169961
 20
1.874024
 30
0.0
 11
-0.091221
 21
1.874024
 31
0.0
  0
LINE
  8
0
  6
CONTINUOUS
 62
     7
  5
A64
 10
-0.091221
 20
1.874024
 30
0.0
 11
-0.091221
 21
1.67
 31
0.0
  0
LINE
  8
0
  6
CONTINUOUS
 62
     7
  5
A65
 10
-0.209331
 20
1.874024
 30
0.0
 11
-0.293977
 21
1.874024
 31
0.0
  0
LINE
  8
0
  6
CONTINUOUS
 62
     7
  5
A66
 10
-0.293977
 20
1.874024
 30
0.0
 11
-0.313662
 21
1.874024
 31
0.0
  0
LINE
  8
0
  6
CONTINUOUS
 62
     7
  5
A67
 10
-0.313662
 20
1.822843
 30
0.0
 11
-0.313662
 21
1.874024
 31
0.0
  0
LINE
  8
0
  6
CONTINUOUS
 62
     7
  5
A68
 10
0.357598
 20
1.874024
 30
0.0
 11
0.337913
 21
1.874024
 31
0.0
  0
LINE
  8
0
  6
CONTINUOUS
 62
     7
  5
A69
 10
0.337913
 20
1.822843
 30
0.0
 11
0.337913
 21
1.874024
 31
0.0
  0
LINE
  8
0
  6
CONTINUOUS
 62
     7
  5
A6A
 10
0.475708
 20
1.874024
 30
0.0
 11
0.357598
 21
1.874024
 31
0.0
  0
LINE
  8
0
  6
CONTINUOUS
 62
     7
  5
A6B
 10
0.495393
 20
1.822843
 30
0.0
 11
0.495393
 21
1.874024
 31
0.0
  0
LINE
  8
0
  6
CONTINUOUS
 62
     7
  5
A6C
 10
0.495393
 20
1.874024
 30
0.0
 11
0.475708
 21
1.874024
 31
0.0
  0
LINE
  8
0
  6
CONTINUOUS
 62
     7
  5
A6D
 10
1.562323
 20
1.874024
 30
0.0
 11
1.477677
 21
1.874024
 31
0.0
  0
LINE
  8
0
  6
CONTINUOUS
 62
     7
  5
A6E
 10
1.477677
 20
1.874024
 30
0.0
 11
1.457992
 21
1.874024
 31
0.0
  0
LINE
  8
0
  6
CONTINUOUS
 62
     7
  5
A6F
 10
1.457992
 20
1.822843
 30
0.0
 11
1.457992
 21
1.874024
 31
0.0
  0
LINE
  8
0
  6
CONTINUOUS
 62
     7
  5
A70
 10
2.597756
 20
1.822843
 30
0.0
 11
1.719803
 21
1.822843
 31
0.0
  0
LINE
  8
0
  6
CONTINUOUS
 62
     7
  5
A71
 10
2.645
 20
1.822843
 30
0.0
 11
2.597756
 21
1.822843
 31
0.0
  0
LINE
  8
0
  6
CONTINUOUS
 62
     7
  5
A72
 10
2.251299
 20
1.874024
 30
0.0
 11
2.133189
 21
1.874024
 31
0.0
  0
LINE
  8
0
  6
CONTINUOUS
 62
     7
  5
A73
 10
2.270984
 20
1.822843
 30
0.0
 11
2.270984
 21
1.874024
 31
0.0
  0
LINE
  8
0
  6
CONTINUOUS
 62
     7
  5
A74
 10
2.270984
 20
1.874024
 30
0.0
 11
2.251299
 21
1.874024
 31
0.0
  0
LINE
  8
0
  6
CONTINUOUS
 62
     7
  5
A75
 10
2.133189
 20
1.874024
 30
0.0
 11
2.113504
 21
1.874024
 31
0.0
  0
LINE
  8
0
  6
CONTINUOUS
 62
     7
  5
A76
 10
2.113504
 20
1.822843
 30
0.0
 11
2.113504
 21
1.874024
 31
0.0
  0
LINE
  8
0
  6
CONTINUOUS
 62
     7
  5
A77
 10
-0.051851
 20
1.67
 30
0.0
 11
-0.051851
 21
1.874024
 31
0.0
  0
LINE
  8
0
  6
CONTINUOUS
 62
     7
  5
A78
 10
-0.051851
 20
1.874024
 30
0.0
 11
-0.091221
 21
1.874024
 31
0.0
  0
LINE
  8
0
  6
CONTINUOUS
 62
     7
  5
A79
 10
2.645
 20
1.6693
 30
0.0
 11
2.645
 21
1.822843
 31
0.0
  0
LINE
  8
0
  6
CONTINUOUS
 62
     7
  5
A7A
 10
2.523586
 20
-1.67
 30
0.0
 11
2.523586
 21
-1.712643
 31
0.0
  0
LINE
  8
0
  6
CONTINUOUS
 62
     7
  5
A7B
 10
1.972405
 20
-1.67
 30
0.0
 11
1.972405
 21
-1.712643
 31
0.0
  0
LINE
  8
0
  6
CONTINUOUS
 62
     7
  5
A7C
 10
1.421224
 20
-1.67
 30
0.0
 11
1.421224
 21
-1.712643
 31
0.0
  0
LINE
  8
0
  6
CONTINUOUS
 62
     7
  5
A7D
 10
2.523586
 20
-1.712643
 30
0.0
 11
2.582641
 21
-1.712643
 31
0.0
  0
LINE
  8
0
  6
CONTINUOUS
 62
     7
  5
A7E
 10
2.582641
 20
-1.788002
 30
0.0
 11
2.582641
 21
-1.83469
 31
0.0
  0
LINE
  8
0
  6
CONTINUOUS
 62
     7
  5
A7F
 10
2.582641
 20
-1.67
 30
0.0
 11
2.582641
 21
-1.788002
 31
0.0
  0
LINE
  8
0
  6
CONTINUOUS
 62
     7
  5
A80
 10
2.582641
 20
-1.788002
 30
0.0
 11
2.645633
 21
-1.788002
 31
0.0
  0
LINE
  8
0
  6
CONTINUOUS
 62
     7
  5
A81
 10
2.645633
 20
-1.788002
 30
0.0
 11
2.645633
 21
-1.606625
 31
0.0
  0
LINE
  8
0
  6
CONTINUOUS
 62
     7
  5
A82
 10
2.6438
 20
-1.606625
 30
0.0
 11
2.645633
 21
-1.606625
 31
0.0
  0
LINE
  8
0
  6
CONTINUOUS
 62
     7
  5
A83
 10
2.645633
 20
-1.83469
 30
0.0
 11
2.645633
 21
-1.788002
 31
0.0
  0
LINE
  8
0
  6
CONTINUOUS
 62
     7
  5
A84
 10
0.751933
 20
-1.712643
 30
0.0
 11
0.810988
 21
-1.712643
 31
0.0
  0
LINE
  8
0
  6
CONTINUOUS
 62
     7
  5
A85
 10
0.810988
 20
-1.788002
 30
0.0
 11
0.810988
 21
-1.83469
 31
0.0
  0
LINE
  8
0
  6
CONTINUOUS
 62
     7
  5
A86
 10
0.810988
 20
-1.67
 30
0.0
 11
0.810988
 21
-1.788002
 31
0.0
  0
LINE
  8
0
  6
CONTINUOUS
 62
     7
  5
A87
 10
0.810988
 20
-1.788002
 30
0.0
 11
0.87398
 21
-1.788002
 31
0.0
  0
LINE
  8
0
  6
CONTINUOUS
 62
     7
  5
A88
 10
0.87398
 20
-1.788002
 30
0.0
 11
0.87398
 21
-1.67
 31
0.0
  0
LINE
  8
0
  6
CONTINUOUS
 62
     7
  5
A89
 10
0.87398
 20
-1.83469
 30
0.0
 11
0.87398
 21
-1.788002
 31
0.0
  0
LINE
  8
0
  6
CONTINUOUS
 62
     7
  5
A8A
 10
-0.8898
 20
-1.5591
 30
0.0
 11
-0.8898
 21
-1.712643
 31
0.0
  0
LINE
  8
0
  6
CONTINUOUS
 62
     7
  5
A8B
 10
-0.8898
 20
-1.712643
 30
0.0
 11
-0.701615
 21
-1.712643
 31
0.0
  0
LINE
  8
0
  6
CONTINUOUS
 62
     7
  5
A8C
 10
-0.88
 20
-1.5591
 30
0.0
 11
-0.8898
 21
-1.5591
 31
0.0
  0
LINE
  8
0
  6
CONTINUOUS
 62
     7
  5
A8D
 10
-0.701615
 20
-1.712643
 30
0.0
 11
-0.643039
 21
-1.712643
 31
0.0
  0
LINE
  8
0
  6
CONTINUOUS
 62
     7
  5
A8E
 10
-0.643039
 20
-1.712643
 30
0.0
 11
-0.541004
 21
-1.712643
 31
0.0
  0
LINE
  8
0
  6
CONTINUOUS
 62
     7
  5
A8F
 10
-0.541004
 20
-1.712643
 30
0.0
 11
-0.496099
 21
-1.712643
 31
0.0
  0
LINE
  8
0
  6
CONTINUOUS
 62
     7
  5
A90
 10
-0.496099
 20
-1.67
 30
0.0
 11
-0.496099
 21
-1.712643
 31
0.0
  0
LINE
  8
0
  6
CONTINUOUS
 62
     7
  5
A91
 10
-0.496099
 20
-1.712643
 30
0.0
 11
-0.397674
 21
-1.712643
 31
0.0
  0
LINE
  8
0
  6
CONTINUOUS
 62
     7
  5
A92
 10
-0.397674
 20
-1.67
 30
0.0
 11
-0.397674
 21
-1.712643
 31
0.0
  0
LINE
  8
0
  6
CONTINUOUS
 62
     7
  5
A93
 10
-0.397674
 20
-1.712643
 30
0.0
 11
-0.379957
 21
-1.712643
 31
0.0
  0
LINE
  8
0
  6
CONTINUOUS
 62
     7
  5
A94
 10
-0.379957
 20
-1.712643
 30
0.0
 11
-0.35043
 21
-1.712643
 31
0.0
  0
LINE
  8
0
  6
CONTINUOUS
 62
     7
  5
A95
 10
-0.35043
 20
-1.712643
 30
0.0
 11
-0.150434
 21
-1.712643
 31
0.0
  0
LINE
  8
0
  6
CONTINUOUS
 62
     7
  5
A96
 10
-0.150434
 20
-1.712643
 30
0.0
 11
-0.091858
 21
-1.712643
 31
0.0
  0
LINE
  8
0
  6
CONTINUOUS
 62
     7
  5
A97
 10
-0.091858
 20
-1.712643
 30
0.0
 11
0.010177
 21
-1.712643
 31
0.0
  0
LINE
  8
0
  6
CONTINUOUS
 62
     7
  5
A98
 10
0.010177
 20
-1.712643
 30
0.0
 11
0.055082
 21
-1.712643
 31
0.0
  0
LINE
  8
0
  6
CONTINUOUS
 62
     7
  5
A99
 10
0.055082
 20
-1.67
 30
0.0
 11
0.055082
 21
-1.712643
 31
0.0
  0
LINE
  8
0
  6
CONTINUOUS
 62
     7
  5
A9A
 10
0.055082
 20
-1.712643
 30
0.0
 11
0.153507
 21
-1.712643
 31
0.0
  0
LINE
  8
0
  6
CONTINUOUS
 62
     7
  5
A9B
 10
0.153507
 20
-1.67
 30
0.0
 11
0.153507
 21
-1.712643
 31
0.0
  0
LINE
  8
0
  6
CONTINUOUS
 62
     7
  5
A9C
 10
0.153507
 20
-1.712643
 30
0.0
 11
0.171224
 21
-1.712643
 31
0.0
  0
LINE
  8
0
  6
CONTINUOUS
 62
     7
  5
A9D
 10
0.171224
 20
-1.712643
 30
0.0
 11
0.200751
 21
-1.712643
 31
0.0
  0
LINE
  8
0
  6
CONTINUOUS
 62
     7
  5
A9E
 10
0.200751
 20
-1.712643
 30
0.0
 11
0.400747
 21
-1.712643
 31
0.0
  0
LINE
  8
0
  6
CONTINUOUS
 62
     7
  5
A9F
 10
0.400747
 20
-1.712643
 30
0.0
 11
0.459324
 21
-1.712643
 31
0.0
  0
LINE
  8
0
  6
CONTINUOUS
 62
     7
  5
AA0
 10
0.459324
 20
-1.712643
 30
0.0
 11
0.561358
 21
-1.712643
 31
0.0
  0
LINE
  8
0
  6
CONTINUOUS
 62
     7
  5
AA1
 10
0.561358
 20
-1.712643
 30
0.0
 11
0.606263
 21
-1.712643
 31
0.0
  0
LINE
  8
0
  6
CONTINUOUS
 62
     7
  5
AA2
 10
0.606263
 20
-1.67
 30
0.0
 11
0.606263
 21
-1.712643
 31
0.0
  0
LINE
  8
0
  6
CONTINUOUS
 62
     7
  5
AA3
 10
0.606263
 20
-1.712643
 30
0.0
 11
0.704688
 21
-1.712643
 31
0.0
  0
LINE
  8
0
  6
CONTINUOUS
 62
     7
  5
AA4
 10
0.704688
 20
-1.67
 30
0.0
 11
0.704688
 21
-1.712643
 31
0.0
  0
LINE
  8
0
  6
CONTINUOUS
 62
     7
  5
AA5
 10
0.704688
 20
-1.712643
 30
0.0
 11
0.722405
 21
-1.712643
 31
0.0
  0
LINE
  8
0
  6
CONTINUOUS
 62
     7
  5
AA6
 10
0.722405
 20
-1.712643
 30
0.0
 11
0.751932
 21
-1.712643
 31
0.0
  0
LINE
  8
0
  6
CONTINUOUS
 62
     7
  5
AA7
 10
0.87398
 20
-1.712643
 30
0.0
 11
1.070038
 21
-1.712643
 31
0.0
  0
LINE
  8
0
  6
CONTINUOUS
 62
     7
  5
AA8
 10
0.8838
 20
-1.5591
 30
0.0
 11
0.88
 21
-1.5591
 31
0.0
  0
LINE
  8
0
  6
CONTINUOUS
 62
     7
  5
AA9
 10
1.070038
 20
-1.712643
 30
0.0
 11
1.128615
 21
-1.712643
 31
0.0
  0
LINE
  8
0
  6
CONTINUOUS
 62
     7
  5
AAA
 10
1.128615
 20
-1.712643
 30
0.0
 11
1.230649
 21
-1.712643
 31
0.0
  0
LINE
  8
0
  6
CONTINUOUS
 62
     7
  5
AAB
 10
1.230649
 20
-1.712643
 30
0.0
 11
1.275554
 21
-1.712643
 31
0.0
  0
LINE
  8
0
  6
CONTINUOUS
 62
     7
  5
AAC
 10
1.275554
 20
-1.67
 30
0.0
 11
1.275554
 21
-1.712643
 31
0.0
  0
LINE
  8
0
  6
CONTINUOUS
 62
     7
  5
AAD
 10
1.275554
 20
-1.712643
 30
0.0
 11
1.37398
 21
-1.712643
 31
0.0
  0
LINE
  8
0
  6
CONTINUOUS
 62
     7
  5
AAE
 10
1.37398
 20
-1.67
 30
0.0
 11
1.37398
 21
-1.712643
 31
0.0
  0
LINE
  8
0
  6
CONTINUOUS
 62
     7
  5
AAF
 10
1.37398
 20
-1.712643
 30
0.0
 11
1.391696
 21
-1.712643
 31
0.0
  0
LINE
  8
0
  6
CONTINUOUS
 62
     7
  5
AB0
 10
1.391696
 20
-1.712643
 30
0.0
 11
1.421224
 21
-1.712643
 31
0.0
  0
LINE
  8
0
  6
CONTINUOUS
 62
     7
  5
AB1
 10
1.421224
 20
-1.712643
 30
0.0
 11
1.62122
 21
-1.712643
 31
0.0
  0
LINE
  8
0
  6
CONTINUOUS
 62
     7
  5
AB2
 10
1.62122
 20
-1.712643
 30
0.0
 11
1.679796
 21
-1.712643
 31
0.0
  0
LINE
  8
0
  6
CONTINUOUS
 62
     7
  5
AB3
 10
1.679796
 20
-1.712643
 30
0.0
 11
1.78183
 21
-1.712643
 31
0.0
  0
LINE
  8
0
  6
CONTINUOUS
 62
     7
  5
AB4
 10
1.78183
 20
-1.712643
 30
0.0
 11
1.826735
 21
-1.712643
 31
0.0
  0
LINE
  8
0
  6
CONTINUOUS
 62
     7
  5
AB5
 10
1.826735
 20
-1.67
 30
0.0
 11
1.826735
 21
-1.712643
 31
0.0
  0
LINE
  8
0
  6
CONTINUOUS
 62
     7
  5
AB6
 10
1.826735
 20
-1.712643
 30
0.0
 11
1.925161
 21
-1.712643
 31
0.0
  0
LINE
  8
0
  6
CONTINUOUS
 62
     7
  5
AB7
 10
1.925161
 20
-1.67
 30
0.0
 11
1.925161
 21
-1.712643
 31
0.0
  0
LINE
  8
0
  6
CONTINUOUS
 62
     7
  5
AB8
 10
1.925161
 20
-1.712643
 30
0.0
 11
1.942877
 21
-1.712643
 31
0.0
  0
LINE
  8
0
  6
CONTINUOUS
 62
     7
  5
AB9
 10
1.942877
 20
-1.712643
 30
0.0
 11
1.972405
 21
-1.712643
 31
0.0
  0
LINE
  8
0
  6
CONTINUOUS
 62
     7
  5
ABA
 10
1.972405
 20
-1.712643
 30
0.0
 11
2.172401
 21
-1.712643
 31
0.0
  0
LINE
  8
0
  6
CONTINUOUS
 62
     7
  5
ABB
 10
2.172401
 20
-1.712643
 30
0.0
 11
2.230977
 21
-1.712643
 31
0.0
  0
LINE
  8
0
  6
CONTINUOUS
 62
     7
  5
ABC
 10
2.230977
 20
-1.712643
 30
0.0
 11
2.333012
 21
-1.712643
 31
0.0
  0
LINE
  8
0
  6
CONTINUOUS
 62
     7
  5
ABD
 10
2.333012
 20
-1.712643
 30
0.0
 11
2.377917
 21
-1.712643
 31
0.0
  0
LINE
  8
0
  6
CONTINUOUS
 62
     7
  5
ABE
 10
2.377917
 20
-1.67
 30
0.0
 11
2.377917
 21
-1.712643
 31
0.0
  0
LINE
  8
0
  6
CONTINUOUS
 62
     7
  5
ABF
 10
2.377917
 20
-1.712643
 30
0.0
 11
2.476342
 21
-1.712643
 31
0.0
  0
LINE
  8
0
  6
CONTINUOUS
 62
     7
  5
AC0
 10
2.476342
 20
-1.67
 30
0.0
 11
2.476342
 21
-1.712643
 31
0.0
  0
LINE
  8
0
  6
CONTINUOUS
 62
     7
  5
AC1
 10
2.476342
 20
-1.712643
 30
0.0
 11
2.494058
 21
-1.712643
 31
0.0
  0
LINE
  8
0
  6
CONTINUOUS
 62
     7
  5
AC2
 10
2.494058
 20
-1.712643
 30
0.0
 11
2.523586
 21
-1.712643
 31
0.0
  0
LINE
  8
0
  6
CONTINUOUS
 62
     7
  5
AC3
 10
2.645633
 20
-1.5591
 30
0.0
 11
2.645633
 21
-1.644192
 31
0.0
  0
LINE
  8
0
  6
CONTINUOUS
 62
     7
  5
AC4
 10
2.645633
 20
-1.5591
 30
0.0
 11
2.6438
 21
-1.5591
 31
0.0
  0
LINE
  8
0
  6
CONTINUOUS
 62
     7
  5
AC5
 10
2.582641
 20
-1.83469
 30
0.0
 11
2.645633
 21
-1.83469
 31
0.0
  0
LINE
  8
0
  6
CONTINUOUS
 62
     7
  5
AC6
 10
0.810988
 20
-1.83469
 30
0.0
 11
0.87398
 21
-1.83469
 31
0.0
  0
LINE
  8
0
  6
CONTINUOUS
 62
     3
  5
AC7
 10
0.61
 20
1.18
 30
0.0
 11
0.77
 21
1.18
 31
0.0
  0
LINE
  8
0
  6
CONTINUOUS
 62
     3
  5
AC8
 10
0.69
 20
1.1
 30
0.0
 11
0.69
 21
1.26
 31
0.0
  0
LINE
  8
0
  6
CONTINUOUS
 62
     3
  5
AC9
 10
0.61
 20
1.38
 30
0.0
 11
0.77
 21
1.38
 31
0.0
  0
LINE
  8
0
  6
CONTINUOUS
 62
     3
  5
ACA
 10
0.69
 20
1.3
 30
0.0
 11
0.69
 21
1.46
 31
0.0
  0
LINE
  8
0
  6
CONTINUOUS
 62
     3
  5
ACB
 10
-0.77
 20
-1.18
 30
0.0
 11
-0.61
 21
-1.18
 31
0.0
  0
LINE
  8
0
  6
CONTINUOUS
 62
     3
  5
ACC
 10
-0.69
 20
-1.26
 30
0.0
 11
-0.69
 21
-1.1
 31
0.0
  0
LINE
  8
0
  6
CONTINUOUS
 62
     3
  5
ACD
 10
-0.77
 20
-1.38
 30
0.0
 11
-0.61
 21
-1.38
 31
0.0
  0
LINE
  8
0
  6
CONTINUOUS
 62
     3
  5
ACE
 10
-0.69
 20
-1.46
 30
0.0
 11
-0.69
 21
-1.3
 31
0.0
  0
LINE
  8
0
  6
CONTINUOUS
 62
     3
  5
ACF
 10
2.3738
 20
1.18
 30
0.0
 11
2.5338
 21
1.18
 31
0.0
  0
LINE
  8
0
  6
CONTINUOUS
 62
     3
  5
AD0
 10
2.4538
 20
1.1
 30
0.0
 11
2.4538
 21
1.26
 31
0.0
  0
LINE
  8
0
  6
CONTINUOUS
 62
     3
  5
AD1
 10
2.3738
 20
1.38
 30
0.0
 11
2.5338
 21
1.38
 31
0.0
  0
LINE
  8
0
  6
CONTINUOUS
 62
     3
  5
AD2
 10
2.4538
 20
1.3
 30
0.0
 11
2.4538
 21
1.46
 31
0.0
  0
LINE
  8
0
  6
CONTINUOUS
 62
     3
  5
AD3
 10
0.9938
 20
-1.18
 30
0.0
 11
1.1538
 21
-1.18
 31
0.0
  0
LINE
  8
0
  6
CONTINUOUS
 62
     3
  5
AD4
 10
1.0738
 20
-1.26
 30
0.0
 11
1.0738
 21
-1.1
 31
0.0
  0
LINE
  8
0
  6
CONTINUOUS
 62
     3
  5
AD5
 10
0.9938
 20
-1.38
 30
0.0
 11
1.1538
 21
-1.38
 31
0.0
  0
LINE
  8
0
  6
CONTINUOUS
 62
     3
  5
AD6
 10
1.0738
 20
-1.46
 30
0.0
 11
1.0738
 21
-1.3
 31
0.0
  0
ENDSEC
  0
EOF
