  0
SECTION
  2
HEADER
  9
$ACADVER
  1
AC1009
  9
$DWGCODEPAGE
  3
ansi_1250
  9
$INSBASE
 10
0.0
 20
0.0
 30
0.0
  9
$EXTMIN
 10
-4.938
 20
-8.9355
 30
0.0
  9
$EXTMAX
 10
0.032
 20
0.203
 30
0.0
  9
$LIMMIN
 10
0.0
 20
0.0
  9
$LIMMAX
 10
0.0
 20
0.0
  9
$ORTHOMODE
 70
     0
  9
$REGENMODE
 70
     1
  9
$FILLMODE
 70
     1
  9
$QTEXTMODE
 70
     0
  9
$MIRRTEXT
 70
     1
  9
$DRAGMODE
 70
     2
  9
$LTSCALE
 40
1.0
  9
$OSMODE
 70
     0
  9
$ATTMODE
 70
     1
  9
$TEXTSIZE
 40
0.2
  9
$TRACEWID
 40
0.05
  9
$TEXTSTYLE
  7
STANDARD
  9
$CLAYER
  8
0
  9
$CELTYPE
  6
CONTINUOUS
  9
$CECOLOR
 62
   256
  9
$DIMSCALE
 40
1.0
  9
$DIMASZ
 40
0.18
  9
$DIMEXO
 40
0.0625
  9
$DIMDLI
 40
0.38
  9
$DIMRND
 40
0.0
  9
$DIMDLE
 40
0.0
  9
$DIMEXE
 40
0.18
  9
$DIMTP
 40
0.0
  9
$DIMTM
 40
0.0
  9
$DIMTXT
 40
0.18
  9
$DIMCEN
 40
0.09
  9
$DIMTSZ
 40
0.0
  9
$DIMTOL
 70
     0
  9
$DIMLIM
 70
     0
  9
$DIMTIH
 70
     1
  9
$DIMTOH
 70
     1
  9
$DIMSE1
 70
     0
  9
$DIMSE2
 70
     0
  9
$DIMTAD
 70
     0
  9
$DIMZIN
 70
     0
  9
$DIMBLK
  1

  9
$DIMASO
 70
     1
  9
$DIMSHO
 70
     1
  9
$DIMPOST
  1

  9
$DIMAPOST
  1

  9
$DIMALT
 70
     0
  9
$DIMALTD
 70
     2
  9
$DIMALTF
 40
25.4
  9
$DIMLFAC
 40
1.0
  9
$DIMTOFL
 70
     0
  9
$DIMTVP
 40
0.0
  9
$DIMTIX
 70
     0
  9
$DIMSOXD
 70
     0
  9
$DIMSAH
 70
     0
  9
$DIMBLK1
  1

  9
$DIMBLK2
  1

  9
$DIMSTYLE
  2
STANDARD
  9
$DIMCLRD
 70
     0
  9
$DIMCLRE
 70
     0
  9
$DIMCLRT
 70
     0
  9
$DIMTFAC
 40
1.0
  9
$DIMGAP
 40
0.09
  9
$LUNITS
 70
     2
  9
$LUPREC
 70
     4
  9
$AXISMODE
 70
     0
  9
$AXISUNIT
 10
0.0
 20
0.0
  9
$SKETCHINC
 40
0.1
  9
$FILLETRAD
 40
0.0
  9
$AUNITS
 70
     0
  9
$AUPREC
 70
     0
  9
$MENU
  1
acad
  9
$ELEVATION
 40
0.0
  9
$PELEVATION
 40
0.0
  9
$THICKNESS
 40
0.0
  9
$LIMCHECK
 70
     0
  9
$BLIPMODE
 70
     1
  9
$CHAMFERA
 40
0.0
  9
$CHAMFERB
 40
0.0
  9
$SKPOLY
 70
     0
  9
$TDCREATE
 40
0.000000000
  9
$TDUPDATE
 40
0.000000000
  9
$TDINDWG
 40
0.0000000000
  9
$TDUSRTIMER
 40
0.0000000000
  9
$USRTIMER
 70
     1
  9
$ANGBASE
 50
0.0
  9
$ANGDIR
 70
     0
  9
$PDMODE
 70
     0
  9
$PDSIZE
 40
0.0
  9
$PLINEWID
 40
0.0
  9
$COORDS
 70
     0
  9
$SPLFRAME
 70
     0
  9
$SPLINETYPE
 70
     6
  9
$SPLINESEGS
 70
     8
  9
$ATTDIA
 70
     0
  9
$ATTREQ
 70
     1
  9
$HANDLING
 70
     1
  9
$HANDSEED
  5
8F7
  9
$SURFTAB1
 70
     6
  9
$SURFTAB2
 70
     6
  9
$SURFTYPE
 70
     6
  9
$SURFU
 70
     6
  9
$SURFV
 70
     6
  9
$UCSNAME
  2

  9
$UCSORG
 10
0.0
 20
0.0
 30
0.0
  9
$UCSXDIR
 10
1.0
 20
0.0
 30
0.0
  9
$UCSYDIR
 10
0.0
 20
1.0
 30
0.0
  9
$PUCSNAME
  2

  9
$PUCSORG
 10
0.0
 20
0.0
 30
0.0
  9
$PUCSXDIR
 10
1.0
 20
0.0
 30
0.0
  9
$PUCSYDIR
 10
0.0
 20
1.0
 30
0.0
  9
$USERI1
 70
     0
  9
$USERI2
 70
     0
  9
$USERI3
 70
     0
  9
$USERI4
 70
     0
  9
$USERI5
 70
     0
  9
$USERR1
 40
0.0
  9
$USERR2
 40
0.0
  9
$USERR3
 40
0.0
  9
$USERR4
 40
0.0
  9
$USERR5
 40
0.0
  9
$WORLDVIEW
 70
     1
  9
$SHADEDGE
 70
     3
  9
$SHADEDIF
 70
    70
  9
$TILEMODE
 70
     1
  9
$MAXACTVP
 70
    16
  9
$PINSBASE
 10
0.0
 20
0.0
 30
0.0
  9
$PLIMCHECK
 70
     0
  9
$PEXTMIN
 10
1.000000E+20
 20
1.000000E+20
 30
1.000000E+20
  9
$PEXTMAX
 10
-1.000000E+20
 20
-1.000000E+20
 30
-1.000000E+20
  9
$PLIMMIN
 10
0.0
 20
0.0
  9
$PLIMMAX
 10
12.0
 20
9.0
  9
$UNITMODE
 70
     0
  9
$VISRETAIN
 70
     0
  9
$PLINEGEN
 70
     1
  9
$PSLTSCALE
 70
     0
  9
$TREEDEPTH
 70
  3020
  0
ENDSEC
  0
SECTION
  2
TABLES
  0
TABLE
  2
VPORT
 70
     1
  0
VPORT
  2
*ACTIVE
 70
     0
 10
0.0
 20
0.0
 11
1.0
 21
1.0
 12
6.591288
 22
4.579184
 13
0.0
 23
0.0
 14
1.0
 24
1.0
 15
0.0
 25
0.0
 16
0.0
 26
0.0
 36
1.0
 17
0.0
 27
0.0
 37
0.0
 40
9.158369
 41
0.688564
 42
50.0
 43
0.0
 44
0.0
 50
0.0
 51
0.0
 71
     0
 72
   100
 73
     1
 74
     1
 75
     0
 76
     0
 77
     0
 78
     0
  0
ENDTAB
  0
TABLE
  2
LTYPE
 70
     5
  0
LTYPE
  2
CONTINUOUS
 70
    64
  3
Solid line
 72
    65
 73
     0
 40
0.0
  0
LTYPE
  2
CENTER
 70
    64
  3
Center ____ _ ____ _ ____ _ ____ _ ____ _ ____
 72
    65
 73
     4
 40
50.8
 49
31.75
 49
-6.35
 49
6.35
 49
-6.35
  0
LTYPE
  2
HIDDEN
 70
    64
  3
Hidden __ __ __ __ __ __ __ __ __ __ __ __ __ __
 72
    65
 73
     2
 40
9.525
 49
6.35
 49
-3.175
  0
LTYPE
  2
CENTER2
 70
    64
  3
Center (.5x) ___ _ ___ _ ___ _ ___ _ ___ _ ___
 72
    65
 73
     4
 40
28.575
 49
19.05
 49
-3.175
 49
3.175
 49
-3.175
  0
LTYPE
  2
HIDDEN2
 70
    64
  3
Hidden (.5x) _ _ _ _ _ _ _ _ _ _ _ _ _ _ _ _ _
 72
    65
 73
     2
 40
4.7625
 49
3.175
 49
-1.5875
  0
ENDTAB
  0
TABLE
  2
LAYER
 70
     1
  0
LAYER
  2
0
 70
     0
 62
     7
  6
CONTINUOUS
  0
ENDTAB
  0
TABLE
  2
STYLE
 70
     1
  0
STYLE
  2
STANDARD
 70
     0
 40
0.0
 41
1.0
 50
0.0
 71
     0
 42
0.0
  3
txt
  4

  0
ENDTAB
  0
TABLE
  2
VIEW
 70
     0
  0
ENDTAB
  0
TABLE
  2
UCS
 70
     0
  0
ENDTAB
  0
TABLE
  2
APPID
 70
     1
  0
APPID
  2
ACAD
 70
     0
  0
ENDTAB
  0
TABLE
  2
DIMSTYLE
 70
     1
  0
DIMSTYLE
  2
STANDARD
 70
     0
  3

  4

  5

  6

  7

 40
1.0
 41
0.18
 42
0.0625
 43
0.38
 44
0.18
 45
0.0
 46
0.0
 47
0.0
 48
0.0
 71
     0
 72
     0
 73
     1
 74
     1
 75
     0
 76
     0
 77
     0
 78
     0
140
0.18
141
0.09
142
0.0
143
25.4
144
1.0
145
0.0
146
1.0
147
0.09
170
     0
171
     2
172
     0
173
     0
174
     0
175
     0
176
     0
177
     0
178
     0
  0
ENDTAB
  0
ENDSEC
  0
SECTION
  2
BLOCKS
  0
ENDSEC
  0
SECTION
  2
ENTITIES
  0
LINE
  8
0
  6
CONTINUOUS
 62
     7
  5
4C6
 10
-0.089645
 20
-3.472421
 30
0.0
 11
-0.143
 21
-3.419066
 31
0.0
  0
ARC
  8
0
  6
CONTINUOUS
 62
     7
  5
4C7
 10
-0.125
 20
-3.507777
 30
0.0
 40
0.05
 50
0.0
 51
45.0
  0
LINE
  8
0
  6
CONTINUOUS
 62
     7
  5
4C8
 10
-0.075
 20
-3.734
 30
0.0
 11
-0.075
 21
-3.507777
 31
0.0
  0
LINE
  8
0
  6
CONTINUOUS
 62
     7
  5
4C9
 10
0.0
 20
-3.734
 30
0.0
 11
-0.075
 21
-3.734
 31
0.0
  0
LINE
  8
0
  6
CONTINUOUS
 62
     7
  5
4CA
 10
0.0
 20
-3.507777
 30
0.0
 11
0.0
 21
-3.734
 31
0.0
  0
ARC
  8
0
  6
CONTINUOUS
 62
     7
  5
4CB
 10
-0.125
 20
-3.507777
 30
0.0
 40
0.125
 50
0.0
 51
45.0
  0
LINE
  8
0
  6
CONTINUOUS
 62
     7
  5
4CC
 10
-0.128355
 20
-3.327645
 30
0.0
 11
-0.036612
 21
-3.419388
 31
0.0
  0
ARC
  8
0
  6
CONTINUOUS
 62
     7
  5
4CD
 10
-0.093
 20
-3.292289
 30
0.0
 40
0.05
 50
180.0
 51
225.0
  0
LINE
  8
0
  6
CONTINUOUS
 62
     7
  5
4CE
 10
-0.218
 20
-6.107
 30
0.0
 11
-0.218
 21
-0.547711
 31
0.0
  0
LINE
  8
0
  6
CONTINUOUS
 62
     7
  5
4CF
 10
0.0
 20
-0.15
 30
0.0
 11
0.0
 21
-0.332223
 31
0.0
  0
LINE
  8
0
  6
CONTINUOUS
 62
     7
  5
4D0
 10
0.0
 20
0.0
 30
0.0
 11
0.0
 21
-0.15
 31
0.0
  0
ARC
  8
0
  6
CONTINUOUS
 62
     7
  5
4D1
 10
-0.125
 20
-0.332223
 30
0.0
 40
0.05
 50
315.0
 51
360.0
  0
LINE
  8
0
  6
CONTINUOUS
 62
     7
  5
4D2
 10
-0.181388
 20
-0.459322
 30
0.0
 11
-0.089645
 21
-0.367579
 31
0.0
  0
LINE
  8
0
  6
CONTINUOUS
 62
     7
  5
4D3
 10
0.0
 20
0.203
 30
0.0
 11
0.0
 21
-0.332223
 31
0.0
  0
LINE
  8
0
  6
CONTINUOUS
 62
     7
  5
4D4
 10
0.0
 20
0.109
 30
0.0
 11
0.0
 21
0.0
 31
0.0
  0
ARC
  8
0
  6
CONTINUOUS
 62
     7
  5
4D5
 10
-0.093
 20
-0.547711
 30
0.0
 40
0.125
 50
135.0
 51
180.0
  0
LINE
  8
0
  6
CONTINUOUS
 62
     7
  5
4D6
 10
-0.143
 20
-0.547711
 30
0.0
 11
-0.143
 21
-6.107
 31
0.0
  0
ARC
  8
0
  6
CONTINUOUS
 62
     7
  5
4D7
 10
-0.093
 20
-0.547711
 30
0.0
 40
0.05
 50
135.0
 51
180.0
  0
LINE
  8
0
  6
CONTINUOUS
 62
     7
  5
4D8
 10
-0.036612
 20
-0.420612
 30
0.0
 11
-0.128355
 21
-0.512355
 31
0.0
  0
ARC
  8
0
  6
CONTINUOUS
 62
     7
  5
4D9
 10
-0.125
 20
-0.332223
 30
0.0
 40
0.125
 50
315.0
 51
0.0
  0
LINE
  8
0
  6
CONTINUOUS
 62
     7
  5
4DA
 10
-0.075
 20
-0.332223
 30
0.0
 11
-0.075
 21
0.203
 31
0.0
  0
LINE
  8
0
  6
CONTINUOUS
 62
     7
  5
4DB
 10
-0.075
 20
0.203
 30
0.0
 11
0.0
 21
0.203
 31
0.0
  0
LINE
  8
0
  6
CONTINUOUS
 62
     7
  5
4DC
 10
-0.143
 20
-6.107
 30
0.0
 11
-0.218
 21
-6.107
 31
0.0
  0
LINE
  8
0
  6
CONTINUOUS
 62
     7
  5
4DD
 10
-4.012374
 20
-1.311832
 30
0.0
 11
-4.012402
 21
-1.312993
 31
0.0
  0
LINE
  8
0
  6
CONTINUOUS
 62
     7
  5
4DE
 10
-4.012402
 20
-1.312993
 30
0.0
 11
-4.012429
 21
-1.314136
 31
0.0
  0
LINE
  8
0
  6
CONTINUOUS
 62
     7
  5
4DF
 10
-4.012429
 20
-1.314136
 30
0.0
 11
-4.012456
 21
-1.31526
 31
0.0
  0
LINE
  8
0
  6
CONTINUOUS
 62
     7
  5
4E0
 10
-4.012456
 20
-1.31526
 30
0.0
 11
-4.012483
 21
-1.316366
 31
0.0
  0
LINE
  8
0
  6
CONTINUOUS
 62
     7
  5
4E1
 10
-4.012483
 20
-1.316366
 30
0.0
 11
-4.01251
 21
-1.317453
 31
0.0
  0
LINE
  8
0
  6
CONTINUOUS
 62
     7
  5
4E2
 10
-4.01251
 20
-1.317453
 30
0.0
 11
-4.012536
 21
-1.31852
 31
0.0
  0
LINE
  8
0
  6
CONTINUOUS
 62
     7
  5
4E3
 10
-4.012536
 20
-1.31852
 30
0.0
 11
-4.012562
 21
-1.319567
 31
0.0
  0
LINE
  8
0
  6
CONTINUOUS
 62
     7
  5
4E4
 10
-4.012562
 20
-1.319567
 30
0.0
 11
-4.012588
 21
-1.320594
 31
0.0
  0
LINE
  8
0
  6
CONTINUOUS
 62
     7
  5
4E5
 10
-4.012588
 20
-1.320594
 30
0.0
 11
-4.012613
 21
-1.321601
 31
0.0
  0
LINE
  8
0
  6
CONTINUOUS
 62
     7
  5
4E6
 10
-4.012613
 20
-1.321601
 30
0.0
 11
-4.012638
 21
-1.322588
 31
0.0
  0
LINE
  8
0
  6
CONTINUOUS
 62
     7
  5
4E7
 10
-4.012638
 20
-1.322588
 30
0.0
 11
-4.012662
 21
-1.323553
 31
0.0
  0
LINE
  8
0
  6
CONTINUOUS
 62
     7
  5
4E8
 10
-4.012662
 20
-1.323553
 30
0.0
 11
-4.012686
 21
-1.324497
 31
0.0
  0
LINE
  8
0
  6
CONTINUOUS
 62
     7
  5
4E9
 10
-4.012686
 20
-1.324497
 30
0.0
 11
-4.01271
 21
-1.32542
 31
0.0
  0
LINE
  8
0
  6
CONTINUOUS
 62
     7
  5
4EA
 10
-4.01271
 20
-1.32542
 30
0.0
 11
-4.012734
 21
-1.326321
 31
0.0
  0
LINE
  8
0
  6
CONTINUOUS
 62
     7
  5
4EB
 10
-4.012734
 20
-1.326321
 30
0.0
 11
-4.012756
 21
-1.3272
 31
0.0
  0
LINE
  8
0
  6
CONTINUOUS
 62
     7
  5
4EC
 10
-4.012756
 20
-1.3272
 30
0.0
 11
-4.012779
 21
-1.328058
 31
0.0
  0
LINE
  8
0
  6
CONTINUOUS
 62
     7
  5
4ED
 10
-4.012779
 20
-1.328058
 30
0.0
 11
-4.012801
 21
-1.328893
 31
0.0
  0
LINE
  8
0
  6
CONTINUOUS
 62
     7
  5
4EE
 10
-4.012801
 20
-1.328893
 30
0.0
 11
-4.012822
 21
-1.329706
 31
0.0
  0
LINE
  8
0
  6
CONTINUOUS
 62
     7
  5
4EF
 10
-4.012822
 20
-1.329706
 30
0.0
 11
-4.012843
 21
-1.330496
 31
0.0
  0
LINE
  8
0
  6
CONTINUOUS
 62
     7
  5
4F0
 10
-4.012843
 20
-1.330496
 30
0.0
 11
-4.012864
 21
-1.331264
 31
0.0
  0
LINE
  8
0
  6
CONTINUOUS
 62
     7
  5
4F1
 10
-4.012864
 20
-1.331264
 30
0.0
 11
-4.012883
 21
-1.332009
 31
0.0
  0
LINE
  8
0
  6
CONTINUOUS
 62
     7
  5
4F2
 10
-4.012883
 20
-1.332009
 30
0.0
 11
-4.012903
 21
-1.332731
 31
0.0
  0
LINE
  8
0
  6
CONTINUOUS
 62
     7
  5
4F3
 10
-4.012903
 20
-1.332731
 30
0.0
 11
-4.012922
 21
-1.33343
 31
0.0
  0
LINE
  8
0
  6
CONTINUOUS
 62
     7
  5
4F4
 10
-4.012922
 20
-1.33343
 30
0.0
 11
-4.01294
 21
-1.334105
 31
0.0
  0
LINE
  8
0
  6
CONTINUOUS
 62
     7
  5
4F5
 10
-4.01294
 20
-1.334105
 30
0.0
 11
-4.012958
 21
-1.334758
 31
0.0
  0
LINE
  8
0
  6
CONTINUOUS
 62
     7
  5
4F6
 10
-4.012958
 20
-1.334758
 30
0.0
 11
-4.012975
 21
-1.335387
 31
0.0
  0
LINE
  8
0
  6
CONTINUOUS
 62
     7
  5
4F7
 10
-4.012975
 20
-1.335387
 30
0.0
 11
-4.012991
 21
-1.335992
 31
0.0
  0
LINE
  8
0
  6
CONTINUOUS
 62
     7
  5
4F8
 10
-4.012991
 20
-1.335992
 30
0.0
 11
-4.013007
 21
-1.336574
 31
0.0
  0
LINE
  8
0
  6
CONTINUOUS
 62
     7
  5
4F9
 10
-4.013007
 20
-1.336574
 30
0.0
 11
-4.013023
 21
-1.337132
 31
0.0
  0
LINE
  8
0
  6
CONTINUOUS
 62
     7
  5
4FA
 10
-4.013023
 20
-1.337132
 30
0.0
 11
-4.013037
 21
-1.337667
 31
0.0
  0
LINE
  8
0
  6
CONTINUOUS
 62
     7
  5
4FB
 10
-4.013037
 20
-1.337667
 30
0.0
 11
-4.013052
 21
-1.338178
 31
0.0
  0
LINE
  8
0
  6
CONTINUOUS
 62
     7
  5
4FC
 10
-4.013052
 20
-1.338178
 30
0.0
 11
-4.013065
 21
-1.338664
 31
0.0
  0
LINE
  8
0
  6
CONTINUOUS
 62
     7
  5
4FD
 10
-4.013065
 20
-1.338664
 30
0.0
 11
-4.013078
 21
-1.339127
 31
0.0
  0
LINE
  8
0
  6
CONTINUOUS
 62
     7
  5
4FE
 10
-4.013078
 20
-1.339127
 30
0.0
 11
-4.01309
 21
-1.339566
 31
0.0
  0
LINE
  8
0
  6
CONTINUOUS
 62
     7
  5
4FF
 10
-4.01309
 20
-1.339566
 30
0.0
 11
-4.013102
 21
-1.339982
 31
0.0
  0
LINE
  8
0
  6
CONTINUOUS
 62
     7
  5
500
 10
-4.013102
 20
-4.825618
 30
0.0
 11
-4.013107
 21
-4.82542
 31
0.0
  0
LINE
  8
0
  6
CONTINUOUS
 62
     7
  5
501
 10
-4.013107
 20
-4.82542
 30
0.0
 11
-4.013113
 21
-4.825227
 31
0.0
  0
LINE
  8
0
  6
CONTINUOUS
 62
     7
  5
502
 10
-4.013113
 20
-4.825227
 30
0.0
 11
-4.013118
 21
-4.82504
 31
0.0
  0
LINE
  8
0
  6
CONTINUOUS
 62
     7
  5
503
 10
-4.013118
 20
-4.82504
 30
0.0
 11
-4.013123
 21
-4.82486
 31
0.0
  0
LINE
  8
0
  6
CONTINUOUS
 62
     7
  5
504
 10
-4.013123
 20
-4.82486
 30
0.0
 11
-4.013128
 21
-4.824685
 31
0.0
  0
LINE
  8
0
  6
CONTINUOUS
 62
     7
  5
505
 10
-4.013128
 20
-4.824685
 30
0.0
 11
-4.013133
 21
-4.824516
 31
0.0
  0
LINE
  8
0
  6
CONTINUOUS
 62
     7
  5
506
 10
-4.013133
 20
-4.824516
 30
0.0
 11
-4.013137
 21
-4.824353
 31
0.0
  0
LINE
  8
0
  6
CONTINUOUS
 62
     7
  5
507
 10
-4.013137
 20
-4.824353
 30
0.0
 11
-4.013142
 21
-4.824196
 31
0.0
  0
LINE
  8
0
  6
CONTINUOUS
 62
     7
  5
508
 10
-4.013142
 20
-4.824196
 30
0.0
 11
-4.013146
 21
-4.824045
 31
0.0
  0
LINE
  8
0
  6
CONTINUOUS
 62
     7
  5
509
 10
-4.013146
 20
-4.824045
 30
0.0
 11
-4.01315
 21
-4.8239
 31
0.0
  0
LINE
  8
0
  6
CONTINUOUS
 62
     7
  5
50A
 10
-4.01315
 20
-4.8239
 30
0.0
 11
-4.013154
 21
-4.823761
 31
0.0
  0
LINE
  8
0
  6
CONTINUOUS
 62
     7
  5
50B
 10
-4.013154
 20
-4.823761
 30
0.0
 11
-4.013158
 21
-4.823627
 31
0.0
  0
LINE
  8
0
  6
CONTINUOUS
 62
     7
  5
50C
 10
-4.013158
 20
-4.823627
 30
0.0
 11
-4.013162
 21
-4.8235
 31
0.0
  0
LINE
  8
0
  6
CONTINUOUS
 62
     7
  5
50D
 10
-4.013162
 20
-4.8235
 30
0.0
 11
-4.013165
 21
-4.823378
 31
0.0
  0
LINE
  8
0
  6
CONTINUOUS
 62
     7
  5
50E
 10
-4.013165
 20
-4.823378
 30
0.0
 11
-4.013168
 21
-4.823263
 31
0.0
  0
LINE
  8
0
  6
CONTINUOUS
 62
     7
  5
50F
 10
-4.013168
 20
-4.823263
 30
0.0
 11
-4.013171
 21
-4.823153
 31
0.0
  0
LINE
  8
0
  6
CONTINUOUS
 62
     7
  5
510
 10
-4.013171
 20
-4.823153
 30
0.0
 11
-4.013174
 21
-4.823049
 31
0.0
  0
LINE
  8
0
  6
CONTINUOUS
 62
     7
  5
511
 10
-4.013174
 20
-4.823049
 30
0.0
 11
-4.013177
 21
-4.82295
 31
0.0
  0
LINE
  8
0
  6
CONTINUOUS
 62
     7
  5
512
 10
-4.013177
 20
-4.82295
 30
0.0
 11
-4.01318
 21
-4.822858
 31
0.0
  0
LINE
  8
0
  6
CONTINUOUS
 62
     7
  5
513
 10
-4.01318
 20
-4.822858
 30
0.0
 11
-4.013182
 21
-4.822771
 31
0.0
  0
LINE
  8
0
  6
CONTINUOUS
 62
     7
  5
514
 10
-4.013182
 20
-4.822771
 30
0.0
 11
-4.013185
 21
-4.82269
 31
0.0
  0
LINE
  8
0
  6
CONTINUOUS
 62
     7
  5
515
 10
-4.013185
 20
-4.82269
 30
0.0
 11
-4.013187
 21
-4.822615
 31
0.0
  0
LINE
  8
0
  6
CONTINUOUS
 62
     7
  5
516
 10
-4.013187
 20
-4.822615
 30
0.0
 11
-4.013189
 21
-4.822546
 31
0.0
  0
LINE
  8
0
  6
CONTINUOUS
 62
     7
  5
517
 10
-4.013189
 20
-4.822546
 30
0.0
 11
-4.013191
 21
-4.822482
 31
0.0
  0
LINE
  8
0
  6
CONTINUOUS
 62
     7
  5
518
 10
-4.013191
 20
-4.822482
 30
0.0
 11
-4.013192
 21
-4.822424
 31
0.0
  0
LINE
  8
0
  6
CONTINUOUS
 62
     7
  5
519
 10
-4.013192
 20
-4.822424
 30
0.0
 11
-4.013194
 21
-4.822372
 31
0.0
  0
LINE
  8
0
  6
CONTINUOUS
 62
     7
  5
51A
 10
-4.013194
 20
-4.822372
 30
0.0
 11
-4.013195
 21
-4.822325
 31
0.0
  0
LINE
  8
0
  6
CONTINUOUS
 62
     7
  5
51B
 10
-4.013195
 20
-4.822325
 30
0.0
 11
-4.013196
 21
-4.822284
 31
0.0
  0
LINE
  8
0
  6
CONTINUOUS
 62
     7
  5
51C
 10
-4.013196
 20
-4.822284
 30
0.0
 11
-4.013197
 21
-4.822248
 31
0.0
  0
LINE
  8
0
  6
CONTINUOUS
 62
     7
  5
51D
 10
-4.013197
 20
-4.822248
 30
0.0
 11
-4.013198
 21
-4.822218
 31
0.0
  0
LINE
  8
0
  6
CONTINUOUS
 62
     7
  5
51E
 10
-4.013198
 20
-4.822218
 30
0.0
 11
-4.013199
 21
-4.822193
 31
0.0
  0
LINE
  8
0
  6
CONTINUOUS
 62
     7
  5
51F
 10
-4.013199
 20
-4.822193
 30
0.0
 11
-4.013199
 21
-4.822174
 31
0.0
  0
LINE
  8
0
  6
CONTINUOUS
 62
     7
  5
520
 10
-4.013199
 20
-4.822174
 30
0.0
 11
-4.0132
 21
-4.822161
 31
0.0
  0
LINE
  8
0
  6
CONTINUOUS
 62
     7
  5
521
 10
-4.0132
 20
-4.822161
 30
0.0
 11
-4.0132
 21
-4.822153
 31
0.0
  0
LINE
  8
0
  6
CONTINUOUS
 62
     7
  5
522
 10
-4.0132
 20
-4.822153
 30
0.0
 11
-4.0132
 21
-4.82215
 31
0.0
  0
LINE
  8
0
  6
CONTINUOUS
 62
     7
  5
523
 10
-0.281
 20
-1.177298
 30
0.0
 11
-0.281
 21
-1.1796
 31
0.0
  0
LINE
  8
0
  6
CONTINUOUS
 62
     7
  5
524
 10
-0.281
 20
-0.630739
 30
0.0
 11
-0.281
 21
-1.177298
 31
0.0
  0
LINE
  8
0
  6
CONTINUOUS
 62
     7
  5
525
 10
-0.281
 20
-0.587895
 30
0.0
 11
-0.281
 21
-0.630739
 31
0.0
  0
LINE
  8
0
  6
CONTINUOUS
 62
     7
  5
526
 10
-0.281
 20
-0.547395
 30
0.0
 11
-0.281
 21
-0.587895
 31
0.0
  0
LINE
  8
0
  6
CONTINUOUS
 62
     7
  5
527
 10
-0.2219
 20
-1.1796
 30
0.0
 11
-0.2219
 21
-1.177298
 31
0.0
  0
LINE
  8
0
  6
CONTINUOUS
 62
     7
  5
528
 10
-0.2219
 20
-0.587895
 30
0.0
 11
-0.281
 21
-0.587895
 31
0.0
  0
LINE
  8
0
  6
CONTINUOUS
 62
     7
  5
529
 10
-0.2219
 20
-0.587895
 30
0.0
 11
-0.2219
 21
-0.547395
 31
0.0
  0
LINE
  8
0
  6
CONTINUOUS
 62
     7
  5
52A
 10
-0.2219
 20
-0.630739
 30
0.0
 11
-0.281
 21
-0.630739
 31
0.0
  0
LINE
  8
0
  6
CONTINUOUS
 62
     7
  5
52B
 10
-0.2219
 20
-0.630739
 30
0.0
 11
-0.2219
 21
-0.587895
 31
0.0
  0
LINE
  8
0
  6
CONTINUOUS
 62
     7
  5
52C
 10
-0.2219
 20
-1.177298
 30
0.0
 11
-0.2219
 21
-0.630739
 31
0.0
  0
LINE
  8
0
  6
CONTINUOUS
 62
     7
  5
52D
 10
-0.218
 20
-6.0228
 30
0.0
 11
-0.2888
 21
-6.0228
 31
0.0
  0
LINE
  8
0
  6
CONTINUOUS
 62
     7
  5
52E
 10
-0.2888
 20
-6.0228
 30
0.0
 11
-0.407
 21
-6.0228
 31
0.0
  0
LINE
  8
0
  6
CONTINUOUS
 62
     7
  5
52F
 10
-0.407
 20
-6.0228
 30
0.0
 11
-0.4306
 21
-6.0228
 31
0.0
  0
LINE
  8
0
  6
CONTINUOUS
 62
     7
  5
530
 10
-0.4306
 20
-6.0228
 30
0.0
 11
-0.4306
 21
-5.5503
 31
0.0
  0
LINE
  8
0
  6
CONTINUOUS
 62
     7
  5
531
 10
-0.4778
 20
-6.0228
 30
0.0
 11
-0.4778
 21
-5.5503
 31
0.0
  0
LINE
  8
0
  6
CONTINUOUS
 62
     7
  5
532
 10
-0.4306
 20
-6.0228
 30
0.0
 11
-0.4778
 21
-6.0228
 31
0.0
  0
LINE
  8
0
  6
CONTINUOUS
 62
     7
  5
533
 10
-1.5723
 20
-5.1278
 30
0.0
 11
-0.218
 21
-5.1278
 31
0.0
  0
LINE
  8
0
  6
CONTINUOUS
 62
     7
  5
534
 10
-0.6432
 20
-5.3878
 30
0.0
 11
-1.5723
 21
-5.3878
 31
0.0
  0
LINE
  8
0
  6
CONTINUOUS
 62
     7
  5
535
 10
-0.218
 20
-3.809462
 30
0.0
 11
-0.218
 21
-5.1278
 31
0.0
  0
LINE
  8
0
  6
CONTINUOUS
 62
     7
  5
536
 10
-0.218
 20
-1.1796
 30
0.0
 11
-0.218
 21
-2.3943
 31
0.0
  0
LINE
  8
0
  6
CONTINUOUS
 62
     7
  5
537
 10
-0.6432
 20
-5.5503
 30
0.0
 11
-0.6432
 21
-5.3878
 31
0.0
  0
LINE
  8
0
  6
CONTINUOUS
 62
     7
  5
538
 10
-0.218
 20
-5.5503
 30
0.0
 11
-0.6432
 21
-5.5503
 31
0.0
  0
LINE
  8
0
  6
CONTINUOUS
 62
     7
  5
539
 10
-1.65302
 20
-3.773371
 30
0.0
 11
-0.57824
 21
-3.773371
 31
0.0
  0
LINE
  8
0
  6
CONTINUOUS
 62
     7
  5
53A
 10
-0.57824
 20
-4.210441
 30
0.0
 11
-1.65302
 21
-4.210441
 31
0.0
  0
LINE
  8
0
  6
CONTINUOUS
 62
     7
  5
53B
 10
-1.65302
 20
-4.210441
 30
0.0
 11
-1.65302
 21
-3.773371
 31
0.0
  0
LINE
  8
0
  6
CONTINUOUS
 62
     7
  5
53C
 10
-0.57824
 20
-3.773371
 30
0.0
 11
-0.57824
 21
-4.210441
 31
0.0
  0
LINE
  8
0
  6
CONTINUOUS
 62
     7
  5
53D
 10
-1.65302
 20
-1.955159
 30
0.0
 11
-0.57824
 21
-1.955159
 31
0.0
  0
LINE
  8
0
  6
CONTINUOUS
 62
     7
  5
53E
 10
-0.57824
 20
-2.392229
 30
0.0
 11
-1.65302
 21
-2.392229
 31
0.0
  0
LINE
  8
0
  6
CONTINUOUS
 62
     7
  5
53F
 10
-1.65302
 20
-2.392229
 30
0.0
 11
-1.65302
 21
-1.955159
 31
0.0
  0
LINE
  8
0
  6
CONTINUOUS
 62
     7
  5
540
 10
-0.57824
 20
-1.955159
 30
0.0
 11
-0.57824
 21
-2.392229
 31
0.0
  0
LINE
  8
0
  6
CONTINUOUS
 62
     7
  5
541
 10
-0.218
 20
-2.5043
 30
0.0
 11
-0.4467
 21
-2.5043
 31
0.0
  0
LINE
  8
0
  6
CONTINUOUS
 62
     7
  5
542
 10
-0.4467
 20
-2.3943
 30
0.0
 11
-0.4467
 21
-2.5043
 31
0.0
  0
LINE
  8
0
  6
CONTINUOUS
 62
     7
  5
543
 10
-0.4272
 20
-3.68868
 30
0.0
 11
-0.4467
 21
-3.68868
 31
0.0
  0
LINE
  8
0
  6
CONTINUOUS
 62
     7
  5
544
 10
-0.4467
 20
-3.68868
 30
0.0
 11
-0.4467
 21
-3.7713
 31
0.0
  0
LINE
  8
0
  6
CONTINUOUS
 62
     7
  5
545
 10
-0.218
 20
-3.809462
 30
0.0
 11
-0.4272
 21
-3.68868
 31
0.0
  0
LINE
  8
0
  6
CONTINUOUS
 62
     7
  5
546
 10
-0.4467
 20
-3.7713
 30
0.0
 11
-0.4857
 21
-3.7713
 31
0.0
  0
LINE
  8
0
  6
CONTINUOUS
 62
     7
  5
547
 10
-0.4857
 20
-3.7713
 30
0.0
 11
-0.4857
 21
-2.3943
 31
0.0
  0
LINE
  8
0
  6
CONTINUOUS
 62
     7
  5
548
 10
-0.4857
 20
-2.3943
 30
0.0
 11
-0.218
 21
-2.3943
 31
0.0
  0
LINE
  8
0
  6
CONTINUOUS
 62
     7
  5
549
 10
-1.5723
 20
-1.1796
 30
0.0
 11
-0.218
 21
-1.1796
 31
0.0
  0
LINE
  8
0
  6
CONTINUOUS
 62
     7
  5
54A
 10
-0.2219
 20
-0.547395
 30
0.0
 11
-0.281
 21
-0.547395
 31
0.0
  0
LINE
  8
0
  6
CONTINUOUS
 62
     7
  5
54B
 10
-2.0093
 20
-4.7178
 30
0.0
 11
-2.0093
 21
-1.4478
 31
0.0
  0
LINE
  8
0
  6
CONTINUOUS
 62
     7
  5
54C
 10
-3.922147
 20
-1.4478
 30
0.0
 11
-4.0132
 21
-1.4478
 31
0.0
  0
LINE
  8
0
  6
CONTINUOUS
 62
     7
  5
54D
 10
-3.922147
 20
-4.7178
 30
0.0
 11
-3.922147
 21
-1.4478
 31
0.0
  0
LINE
  8
0
  6
CONTINUOUS
 62
     7
  5
54E
 10
-3.922147
 20
-4.7178
 30
0.0
 11
-4.0132
 21
-4.7178
 31
0.0
  0
LINE
  8
0
  6
CONTINUOUS
 62
     7
  5
54F
 10
-4.0132
 20
-4.09855
 30
0.0
 11
-4.0132
 21
-4.7178
 31
0.0
  0
LINE
  8
0
  6
CONTINUOUS
 62
     7
  5
550
 10
-4.0132
 20
-1.4478
 30
0.0
 11
-4.0132
 21
-2.06705
 31
0.0
  0
LINE
  8
0
  6
CONTINUOUS
 62
     7
  5
551
 10
-3.976636
 20
-1.34345
 30
0.0
 11
-3.977486
 21
-1.343276
 31
0.0
  0
LINE
  8
0
  6
CONTINUOUS
 62
     7
  5
552
 10
-3.977486
 20
-1.343276
 30
0.0
 11
-3.978335
 21
-1.342747
 31
0.0
  0
LINE
  8
0
  6
CONTINUOUS
 62
     7
  5
553
 10
-3.978335
 20
-1.342747
 30
0.0
 11
-3.979181
 21
-1.34185
 31
0.0
  0
LINE
  8
0
  6
CONTINUOUS
 62
     7
  5
554
 10
-3.979181
 20
-1.34185
 30
0.0
 11
-3.980018
 21
-1.340577
 31
0.0
  0
LINE
  8
0
  6
CONTINUOUS
 62
     7
  5
555
 10
-3.980018
 20
-1.340577
 30
0.0
 11
-3.980845
 21
-1.338926
 31
0.0
  0
LINE
  8
0
  6
CONTINUOUS
 62
     7
  5
556
 10
-3.980845
 20
-1.338926
 30
0.0
 11
-3.981657
 21
-1.336893
 31
0.0
  0
LINE
  8
0
  6
CONTINUOUS
 62
     7
  5
557
 10
-3.981657
 20
-1.336893
 30
0.0
 11
-3.982453
 21
-1.334483
 31
0.0
  0
LINE
  8
0
  6
CONTINUOUS
 62
     7
  5
558
 10
-3.982453
 20
-1.334483
 30
0.0
 11
-3.983228
 21
-1.3317
 31
0.0
  0
LINE
  8
0
  6
CONTINUOUS
 62
     7
  5
559
 10
-3.983228
 20
-1.3317
 30
0.0
 11
-3.983982
 21
-1.328552
 31
0.0
  0
LINE
  8
0
  6
CONTINUOUS
 62
     7
  5
55A
 10
-3.983982
 20
-1.328552
 30
0.0
 11
-3.984711
 21
-1.325048
 31
0.0
  0
LINE
  8
0
  6
CONTINUOUS
 62
     7
  5
55B
 10
-3.984711
 20
-1.325048
 30
0.0
 11
-3.985415
 21
-1.3212
 31
0.0
  0
LINE
  8
0
  6
CONTINUOUS
 62
     7
  5
55C
 10
-3.985415
 20
-1.3212
 30
0.0
 11
-3.986092
 21
-1.317024
 31
0.0
  0
LINE
  8
0
  6
CONTINUOUS
 62
     7
  5
55D
 10
-3.986092
 20
-1.317024
 30
0.0
 11
-3.986739
 21
-1.312537
 31
0.0
  0
LINE
  8
0
  6
CONTINUOUS
 62
     7
  5
55E
 10
-3.986739
 20
-1.312537
 30
0.0
 11
-3.987356
 21
-1.307763
 31
0.0
  0
LINE
  8
0
  6
CONTINUOUS
 62
     7
  5
55F
 10
-3.987356
 20
-1.307763
 30
0.0
 11
-3.987942
 21
-1.302726
 31
0.0
  0
LINE
  8
0
  6
CONTINUOUS
 62
     7
  5
560
 10
-3.987942
 20
-1.302726
 30
0.0
 11
-3.988496
 21
-1.297453
 31
0.0
  0
LINE
  8
0
  6
CONTINUOUS
 62
     7
  5
561
 10
-3.988496
 20
-1.297453
 30
0.0
 11
-3.989017
 21
-1.291973
 31
0.0
  0
LINE
  8
0
  6
CONTINUOUS
 62
     7
  5
562
 10
-3.989017
 20
-1.291973
 30
0.0
 11
-3.989506
 21
-1.286299
 31
0.0
  0
LINE
  8
0
  6
CONTINUOUS
 62
     7
  5
563
 10
-3.989506
 20
-1.286299
 30
0.0
 11
-3.989973
 21
-1.280324
 31
0.0
  0
LINE
  8
0
  6
CONTINUOUS
 62
     7
  5
564
 10
-3.989973
 20
-1.280324
 30
0.0
 11
-3.990419
 21
-1.274035
 31
0.0
  0
LINE
  8
0
  6
CONTINUOUS
 62
     7
  5
565
 10
-3.990419
 20
-1.274035
 30
0.0
 11
-3.990841
 21
-1.26745
 31
0.0
  0
LINE
  8
0
  6
CONTINUOUS
 62
     7
  5
566
 10
-3.990841
 20
-1.26745
 30
0.0
 11
-3.991237
 21
-1.260586
 31
0.0
  0
LINE
  8
0
  6
CONTINUOUS
 62
     7
  5
567
 10
-3.991237
 20
-1.260586
 30
0.0
 11
-3.991607
 21
-1.253467
 31
0.0
  0
LINE
  8
0
  6
CONTINUOUS
 62
     7
  5
568
 10
-3.991607
 20
-1.253467
 30
0.0
 11
-3.991949
 21
-1.246116
 31
0.0
  0
LINE
  8
0
  6
CONTINUOUS
 62
     7
  5
569
 10
-3.991949
 20
-1.246116
 30
0.0
 11
-3.992261
 21
-1.238559
 31
0.0
  0
LINE
  8
0
  6
CONTINUOUS
 62
     7
  5
56A
 10
-3.992261
 20
-1.238559
 30
0.0
 11
-3.992544
 21
-1.230819
 31
0.0
  0
LINE
  8
0
  6
CONTINUOUS
 62
     7
  5
56B
 10
-3.992544
 20
-1.230819
 30
0.0
 11
-3.992797
 21
-1.222923
 31
0.0
  0
LINE
  8
0
  6
CONTINUOUS
 62
     7
  5
56C
 10
-3.992797
 20
-1.222923
 30
0.0
 11
-3.993019
 21
-1.214896
 31
0.0
  0
LINE
  8
0
  6
CONTINUOUS
 62
     7
  5
56D
 10
-3.993019
 20
-1.214896
 30
0.0
 11
-3.99321
 21
-1.206766
 31
0.0
  0
LINE
  8
0
  6
CONTINUOUS
 62
     7
  5
56E
 10
-3.99321
 20
-1.206766
 30
0.0
 11
-3.993371
 21
-1.198563
 31
0.0
  0
LINE
  8
0
  6
CONTINUOUS
 62
     7
  5
56F
 10
-3.993371
 20
-1.198563
 30
0.0
 11
-3.993501
 21
-1.190318
 31
0.0
  0
LINE
  8
0
  6
CONTINUOUS
 62
     7
  5
570
 10
-3.993501
 20
-1.190318
 30
0.0
 11
-3.993601
 21
-1.182067
 31
0.0
  0
LINE
  8
0
  6
CONTINUOUS
 62
     7
  5
571
 10
-3.993601
 20
-1.182067
 30
0.0
 11
-3.993672
 21
-1.173841
 31
0.0
  0
LINE
  8
0
  6
CONTINUOUS
 62
     7
  5
572
 10
-3.993672
 20
-1.173841
 30
0.0
 11
-3.993713
 21
-1.165675
 31
0.0
  0
LINE
  8
0
  6
CONTINUOUS
 62
     7
  5
573
 10
-3.993713
 20
-1.165675
 30
0.0
 11
-3.993727
 21
-1.1576
 31
0.0
  0
LINE
  8
0
  6
CONTINUOUS
 62
     7
  5
574
 10
-3.976636
 20
-0.97175
 30
0.0
 11
-3.974895
 21
-0.972455
 31
0.0
  0
LINE
  8
0
  6
CONTINUOUS
 62
     7
  5
575
 10
-3.974895
 20
-0.972455
 30
0.0
 11
-3.973086
 21
-0.974627
 31
0.0
  0
LINE
  8
0
  6
CONTINUOUS
 62
     7
  5
576
 10
-3.973086
 20
-0.974627
 30
0.0
 11
-3.971239
 21
-0.978313
 31
0.0
  0
LINE
  8
0
  6
CONTINUOUS
 62
     7
  5
577
 10
-3.971239
 20
-0.978313
 30
0.0
 11
-3.969382
 21
-0.983506
 31
0.0
  0
LINE
  8
0
  6
CONTINUOUS
 62
     7
  5
578
 10
-3.969382
 20
-0.983506
 30
0.0
 11
-3.967545
 21
-0.990156
 31
0.0
  0
LINE
  8
0
  6
CONTINUOUS
 62
     7
  5
579
 10
-3.967545
 20
-0.990156
 30
0.0
 11
-3.965756
 21
-0.998175
 31
0.0
  0
LINE
  8
0
  6
CONTINUOUS
 62
     7
  5
57A
 10
-3.965756
 20
-0.998175
 30
0.0
 11
-3.964045
 21
-1.007427
 31
0.0
  0
LINE
  8
0
  6
CONTINUOUS
 62
     7
  5
57B
 10
-3.964045
 20
-1.007427
 30
0.0
 11
-3.962439
 21
-1.017728
 31
0.0
  0
LINE
  8
0
  6
CONTINUOUS
 62
     7
  5
57C
 10
-3.962439
 20
-1.017728
 30
0.0
 11
-3.960962
 21
-1.028871
 31
0.0
  0
LINE
  8
0
  6
CONTINUOUS
 62
     7
  5
57D
 10
-3.960962
 20
-1.028871
 30
0.0
 11
-3.95958
 21
-1.041121
 31
0.0
  0
LINE
  8
0
  6
CONTINUOUS
 62
     7
  5
57E
 10
-3.95958
 20
-1.041121
 30
0.0
 11
-3.9583
 21
-1.054561
 31
0.0
  0
LINE
  8
0
  6
CONTINUOUS
 62
     7
  5
57F
 10
-3.9583
 20
-1.054561
 30
0.0
 11
-3.957155
 21
-1.069026
 31
0.0
  0
LINE
  8
0
  6
CONTINUOUS
 62
     7
  5
580
 10
-3.957155
 20
-1.069026
 30
0.0
 11
-3.956172
 21
-1.084323
 31
0.0
  0
LINE
  8
0
  6
CONTINUOUS
 62
     7
  5
581
 10
-3.956172
 20
-1.084323
 30
0.0
 11
-3.955372
 21
-1.100251
 31
0.0
  0
LINE
  8
0
  6
CONTINUOUS
 62
     7
  5
582
 10
-3.955372
 20
-1.100251
 30
0.0
 11
-3.954768
 21
-1.116594
 31
0.0
  0
LINE
  8
0
  6
CONTINUOUS
 62
     7
  5
583
 10
-3.954768
 20
-1.116594
 30
0.0
 11
-3.954368
 21
-1.133105
 31
0.0
  0
LINE
  8
0
  6
CONTINUOUS
 62
     7
  5
584
 10
-3.954368
 20
-1.133105
 30
0.0
 11
-3.954172
 21
-1.149515
 31
0.0
  0
LINE
  8
0
  6
CONTINUOUS
 62
     7
  5
585
 10
-3.954172
 20
-1.149515
 30
0.0
 11
-3.954172
 21
-1.165685
 31
0.0
  0
LINE
  8
0
  6
CONTINUOUS
 62
     7
  5
586
 10
-3.954172
 20
-1.165685
 30
0.0
 11
-3.954368
 21
-1.182095
 31
0.0
  0
LINE
  8
0
  6
CONTINUOUS
 62
     7
  5
587
 10
-3.954368
 20
-1.182095
 30
0.0
 11
-3.954768
 21
-1.198606
 31
0.0
  0
LINE
  8
0
  6
CONTINUOUS
 62
     7
  5
588
 10
-3.954768
 20
-1.198606
 30
0.0
 11
-3.955372
 21
-1.214949
 31
0.0
  0
LINE
  8
0
  6
CONTINUOUS
 62
     7
  5
589
 10
-3.955372
 20
-1.214949
 30
0.0
 11
-3.956172
 21
-1.230877
 31
0.0
  0
LINE
  8
0
  6
CONTINUOUS
 62
     7
  5
58A
 10
-3.956172
 20
-1.230877
 30
0.0
 11
-3.957155
 21
-1.246174
 31
0.0
  0
LINE
  8
0
  6
CONTINUOUS
 62
     7
  5
58B
 10
-3.957155
 20
-1.246174
 30
0.0
 11
-3.9583
 21
-1.260639
 31
0.0
  0
LINE
  8
0
  6
CONTINUOUS
 62
     7
  5
58C
 10
-3.9583
 20
-1.260639
 30
0.0
 11
-3.95958
 21
-1.274079
 31
0.0
  0
LINE
  8
0
  6
CONTINUOUS
 62
     7
  5
58D
 10
-3.95958
 20
-1.274079
 30
0.0
 11
-3.960962
 21
-1.286329
 31
0.0
  0
LINE
  8
0
  6
CONTINUOUS
 62
     7
  5
58E
 10
-3.960962
 20
-1.286329
 30
0.0
 11
-3.962439
 21
-1.297472
 31
0.0
  0
LINE
  8
0
  6
CONTINUOUS
 62
     7
  5
58F
 10
-3.962439
 20
-1.297472
 30
0.0
 11
-3.964045
 21
-1.307773
 31
0.0
  0
LINE
  8
0
  6
CONTINUOUS
 62
     7
  5
590
 10
-3.964045
 20
-1.307773
 30
0.0
 11
-3.965756
 21
-1.317025
 31
0.0
  0
LINE
  8
0
  6
CONTINUOUS
 62
     7
  5
591
 10
-3.965756
 20
-1.317025
 30
0.0
 11
-3.967545
 21
-1.325044
 31
0.0
  0
LINE
  8
0
  6
CONTINUOUS
 62
     7
  5
592
 10
-3.967545
 20
-1.325044
 30
0.0
 11
-3.969382
 21
-1.331694
 31
0.0
  0
LINE
  8
0
  6
CONTINUOUS
 62
     7
  5
593
 10
-3.969382
 20
-1.331694
 30
0.0
 11
-3.971239
 21
-1.336887
 31
0.0
  0
LINE
  8
0
  6
CONTINUOUS
 62
     7
  5
594
 10
-3.971239
 20
-1.336887
 30
0.0
 11
-3.973086
 21
-1.340573
 31
0.0
  0
LINE
  8
0
  6
CONTINUOUS
 62
     7
  5
595
 10
-3.973086
 20
-1.340573
 30
0.0
 11
-3.974895
 21
-1.342745
 31
0.0
  0
LINE
  8
0
  6
CONTINUOUS
 62
     7
  5
596
 10
-3.974895
 20
-1.342745
 30
0.0
 11
-3.976636
 21
-1.34345
 31
0.0
  0
LINE
  8
0
  6
CONTINUOUS
 62
     7
  5
597
 10
-3.993727
 20
-1.1576
 30
0.0
 11
-3.993713
 21
-1.149525
 31
0.0
  0
LINE
  8
0
  6
CONTINUOUS
 62
     7
  5
598
 10
-3.993713
 20
-1.149525
 30
0.0
 11
-3.993672
 21
-1.141359
 31
0.0
  0
LINE
  8
0
  6
CONTINUOUS
 62
     7
  5
599
 10
-3.993672
 20
-1.141359
 30
0.0
 11
-3.993601
 21
-1.133133
 31
0.0
  0
LINE
  8
0
  6
CONTINUOUS
 62
     7
  5
59A
 10
-3.993601
 20
-1.133133
 30
0.0
 11
-3.993501
 21
-1.124882
 31
0.0
  0
LINE
  8
0
  6
CONTINUOUS
 62
     7
  5
59B
 10
-3.993501
 20
-1.124882
 30
0.0
 11
-3.993371
 21
-1.116637
 31
0.0
  0
LINE
  8
0
  6
CONTINUOUS
 62
     7
  5
59C
 10
-3.993371
 20
-1.116637
 30
0.0
 11
-3.99321
 21
-1.108434
 31
0.0
  0
LINE
  8
0
  6
CONTINUOUS
 62
     7
  5
59D
 10
-3.99321
 20
-1.108434
 30
0.0
 11
-3.993019
 21
-1.100304
 31
0.0
  0
LINE
  8
0
  6
CONTINUOUS
 62
     7
  5
59E
 10
-3.993019
 20
-1.100304
 30
0.0
 11
-3.992797
 21
-1.092277
 31
0.0
  0
LINE
  8
0
  6
CONTINUOUS
 62
     7
  5
59F
 10
-3.992797
 20
-1.092277
 30
0.0
 11
-3.992544
 21
-1.084381
 31
0.0
  0
LINE
  8
0
  6
CONTINUOUS
 62
     7
  5
5A0
 10
-3.992544
 20
-1.084381
 30
0.0
 11
-3.992261
 21
-1.076641
 31
0.0
  0
LINE
  8
0
  6
CONTINUOUS
 62
     7
  5
5A1
 10
-3.992261
 20
-1.076641
 30
0.0
 11
-3.991949
 21
-1.069084
 31
0.0
  0
LINE
  8
0
  6
CONTINUOUS
 62
     7
  5
5A2
 10
-3.991949
 20
-1.069084
 30
0.0
 11
-3.991607
 21
-1.061733
 31
0.0
  0
LINE
  8
0
  6
CONTINUOUS
 62
     7
  5
5A3
 10
-3.991607
 20
-1.061733
 30
0.0
 11
-3.991237
 21
-1.054614
 31
0.0
  0
LINE
  8
0
  6
CONTINUOUS
 62
     7
  5
5A4
 10
-3.991237
 20
-1.054614
 30
0.0
 11
-3.990841
 21
-1.04775
 31
0.0
  0
LINE
  8
0
  6
CONTINUOUS
 62
     7
  5
5A5
 10
-3.990841
 20
-1.04775
 30
0.0
 11
-3.990419
 21
-1.041165
 31
0.0
  0
LINE
  8
0
  6
CONTINUOUS
 62
     7
  5
5A6
 10
-3.990419
 20
-1.041165
 30
0.0
 11
-3.989973
 21
-1.034876
 31
0.0
  0
LINE
  8
0
  6
CONTINUOUS
 62
     7
  5
5A7
 10
-3.989973
 20
-1.034876
 30
0.0
 11
-3.989506
 21
-1.028901
 31
0.0
  0
LINE
  8
0
  6
CONTINUOUS
 62
     7
  5
5A8
 10
-3.989506
 20
-1.028901
 30
0.0
 11
-3.989017
 21
-1.023227
 31
0.0
  0
LINE
  8
0
  6
CONTINUOUS
 62
     7
  5
5A9
 10
-3.989017
 20
-1.023227
 30
0.0
 11
-3.988496
 21
-1.017747
 31
0.0
  0
LINE
  8
0
  6
CONTINUOUS
 62
     7
  5
5AA
 10
-3.988496
 20
-1.017747
 30
0.0
 11
-3.987942
 21
-1.012474
 31
0.0
  0
LINE
  8
0
  6
CONTINUOUS
 62
     7
  5
5AB
 10
-3.987942
 20
-1.012474
 30
0.0
 11
-3.987356
 21
-1.007437
 31
0.0
  0
LINE
  8
0
  6
CONTINUOUS
 62
     7
  5
5AC
 10
-3.987356
 20
-1.007437
 30
0.0
 11
-3.986739
 21
-1.002663
 31
0.0
  0
LINE
  8
0
  6
CONTINUOUS
 62
     7
  5
5AD
 10
-3.986739
 20
-1.002663
 30
0.0
 11
-3.986092
 21
-0.998176
 31
0.0
  0
LINE
  8
0
  6
CONTINUOUS
 62
     7
  5
5AE
 10
-3.986092
 20
-0.998176
 30
0.0
 11
-3.985415
 21
-0.994
 31
0.0
  0
LINE
  8
0
  6
CONTINUOUS
 62
     7
  5
5AF
 10
-3.985415
 20
-0.994
 30
0.0
 11
-3.984711
 21
-0.990152
 31
0.0
  0
LINE
  8
0
  6
CONTINUOUS
 62
     7
  5
5B0
 10
-3.984711
 20
-0.990152
 30
0.0
 11
-3.983982
 21
-0.986648
 31
0.0
  0
LINE
  8
0
  6
CONTINUOUS
 62
     7
  5
5B1
 10
-3.983982
 20
-0.986648
 30
0.0
 11
-3.983228
 21
-0.9835
 31
0.0
  0
LINE
  8
0
  6
CONTINUOUS
 62
     7
  5
5B2
 10
-3.983228
 20
-0.9835
 30
0.0
 11
-3.982453
 21
-0.980717
 31
0.0
  0
LINE
  8
0
  6
CONTINUOUS
 62
     7
  5
5B3
 10
-3.982453
 20
-0.980717
 30
0.0
 11
-3.981657
 21
-0.978307
 31
0.0
  0
LINE
  8
0
  6
CONTINUOUS
 62
     7
  5
5B4
 10
-3.981657
 20
-0.978307
 30
0.0
 11
-3.980845
 21
-0.976274
 31
0.0
  0
LINE
  8
0
  6
CONTINUOUS
 62
     7
  5
5B5
 10
-3.980845
 20
-0.976274
 30
0.0
 11
-3.980018
 21
-0.974623
 31
0.0
  0
LINE
  8
0
  6
CONTINUOUS
 62
     7
  5
5B6
 10
-3.980018
 20
-0.974623
 30
0.0
 11
-3.979181
 21
-0.97335
 31
0.0
  0
LINE
  8
0
  6
CONTINUOUS
 62
     7
  5
5B7
 10
-3.979181
 20
-0.97335
 30
0.0
 11
-3.978335
 21
-0.972453
 31
0.0
  0
LINE
  8
0
  6
CONTINUOUS
 62
     7
  5
5B8
 10
-3.978335
 20
-0.972453
 30
0.0
 11
-3.977486
 21
-0.971924
 31
0.0
  0
LINE
  8
0
  6
CONTINUOUS
 62
     7
  5
5B9
 10
-3.977486
 20
-0.971924
 30
0.0
 11
-3.976636
 21
-0.97175
 31
0.0
  0
LINE
  8
0
  6
CONTINUOUS
 62
     7
  5
5BA
 10
-4.0132
 20
-1.34345
 30
0.0
 11
-4.013199
 21
-1.343426
 31
0.0
  0
LINE
  8
0
  6
CONTINUOUS
 62
     7
  5
5BB
 10
-4.013199
 20
-1.343426
 30
0.0
 11
-4.013197
 21
-1.343352
 31
0.0
  0
LINE
  8
0
  6
CONTINUOUS
 62
     7
  5
5BC
 10
-4.013197
 20
-1.343352
 30
0.0
 11
-4.013194
 21
-1.343228
 31
0.0
  0
LINE
  8
0
  6
CONTINUOUS
 62
     7
  5
5BD
 10
-4.013194
 20
-1.343228
 30
0.0
 11
-4.013189
 21
-1.343054
 31
0.0
  0
LINE
  8
0
  6
CONTINUOUS
 62
     7
  5
5BE
 10
-4.013189
 20
-1.343054
 30
0.0
 11
-4.013182
 21
-1.342829
 31
0.0
  0
LINE
  8
0
  6
CONTINUOUS
 62
     7
  5
5BF
 10
-4.013182
 20
-1.342829
 30
0.0
 11
-4.013174
 21
-1.342551
 31
0.0
  0
LINE
  8
0
  6
CONTINUOUS
 62
     7
  5
5C0
 10
-4.013174
 20
-1.342551
 30
0.0
 11
-4.013165
 21
-1.342222
 31
0.0
  0
LINE
  8
0
  6
CONTINUOUS
 62
     7
  5
5C1
 10
-4.013165
 20
-1.342222
 30
0.0
 11
-4.013154
 21
-1.341839
 31
0.0
  0
LINE
  8
0
  6
CONTINUOUS
 62
     7
  5
5C2
 10
-4.013154
 20
-1.341839
 30
0.0
 11
-4.013142
 21
-1.341404
 31
0.0
  0
LINE
  8
0
  6
CONTINUOUS
 62
     7
  5
5C3
 10
-4.013142
 20
-1.341404
 30
0.0
 11
-4.013128
 21
-1.340915
 31
0.0
  0
LINE
  8
0
  6
CONTINUOUS
 62
     7
  5
5C4
 10
-4.013128
 20
-1.340915
 30
0.0
 11
-4.013113
 21
-1.340373
 31
0.0
  0
LINE
  8
0
  6
CONTINUOUS
 62
     7
  5
5C5
 10
-4.013113
 20
-1.340373
 30
0.0
 11
-4.013096
 21
-1.339777
 31
0.0
  0
LINE
  8
0
  6
CONTINUOUS
 62
     7
  5
5C6
 10
-4.013096
 20
-1.339777
 30
0.0
 11
-4.013078
 21
-1.339127
 31
0.0
  0
LINE
  8
0
  6
CONTINUOUS
 62
     7
  5
5C7
 10
-4.013078
 20
-1.339127
 30
0.0
 11
-4.013058
 21
-1.338424
 31
0.0
  0
LINE
  8
0
  6
CONTINUOUS
 62
     7
  5
5C8
 10
-4.013058
 20
-1.338424
 30
0.0
 11
-4.013037
 21
-1.337667
 31
0.0
  0
LINE
  8
0
  6
CONTINUOUS
 62
     7
  5
5C9
 10
-4.013037
 20
-1.337667
 30
0.0
 11
-4.013015
 21
-1.336856
 31
0.0
  0
LINE
  8
0
  6
CONTINUOUS
 62
     7
  5
5CA
 10
-4.013015
 20
-1.336856
 30
0.0
 11
-4.012991
 21
-1.335992
 31
0.0
  0
LINE
  8
0
  6
CONTINUOUS
 62
     7
  5
5CB
 10
-4.012991
 20
-1.335992
 30
0.0
 11
-4.012966
 21
-1.335075
 31
0.0
  0
LINE
  8
0
  6
CONTINUOUS
 62
     7
  5
5CC
 10
-4.012966
 20
-1.335075
 30
0.0
 11
-4.01294
 21
-1.334105
 31
0.0
  0
LINE
  8
0
  6
CONTINUOUS
 62
     7
  5
5CD
 10
-4.01294
 20
-1.334105
 30
0.0
 11
-4.012912
 21
-1.333083
 31
0.0
  0
LINE
  8
0
  6
CONTINUOUS
 62
     7
  5
5CE
 10
-4.012912
 20
-1.333083
 30
0.0
 11
-4.012883
 21
-1.332009
 31
0.0
  0
LINE
  8
0
  6
CONTINUOUS
 62
     7
  5
5CF
 10
-4.012883
 20
-1.332009
 30
0.0
 11
-4.012853
 21
-1.330883
 31
0.0
  0
LINE
  8
0
  6
CONTINUOUS
 62
     7
  5
5D0
 10
-4.012853
 20
-1.330883
 30
0.0
 11
-4.012822
 21
-1.329706
 31
0.0
  0
LINE
  8
0
  6
CONTINUOUS
 62
     7
  5
5D1
 10
-4.012822
 20
-1.329706
 30
0.0
 11
-4.01279
 21
-1.328478
 31
0.0
  0
LINE
  8
0
  6
CONTINUOUS
 62
     7
  5
5D2
 10
-4.01279
 20
-1.328478
 30
0.0
 11
-4.012756
 21
-1.3272
 31
0.0
  0
LINE
  8
0
  6
CONTINUOUS
 62
     7
  5
5D3
 10
-4.012756
 20
-1.3272
 30
0.0
 11
-4.012722
 21
-1.325873
 31
0.0
  0
LINE
  8
0
  6
CONTINUOUS
 62
     7
  5
5D4
 10
-4.012722
 20
-1.325873
 30
0.0
 11
-4.012686
 21
-1.324497
 31
0.0
  0
LINE
  8
0
  6
CONTINUOUS
 62
     7
  5
5D5
 10
-4.012686
 20
-1.324497
 30
0.0
 11
-4.01265
 21
-1.323073
 31
0.0
  0
LINE
  8
0
  6
CONTINUOUS
 62
     7
  5
5D6
 10
-4.01265
 20
-1.323073
 30
0.0
 11
-4.012613
 21
-1.321601
 31
0.0
  0
LINE
  8
0
  6
CONTINUOUS
 62
     7
  5
5D7
 10
-4.012613
 20
-1.321601
 30
0.0
 11
-4.012575
 21
-1.320083
 31
0.0
  0
LINE
  8
0
  6
CONTINUOUS
 62
     7
  5
5D8
 10
-4.012575
 20
-1.320083
 30
0.0
 11
-4.012536
 21
-1.31852
 31
0.0
  0
LINE
  8
0
  6
CONTINUOUS
 62
     7
  5
5D9
 10
-4.012536
 20
-1.31852
 30
0.0
 11
-4.012496
 21
-1.316912
 31
0.0
  0
LINE
  8
0
  6
CONTINUOUS
 62
     7
  5
5DA
 10
-4.012496
 20
-1.316912
 30
0.0
 11
-4.012456
 21
-1.31526
 31
0.0
  0
LINE
  8
0
  6
CONTINUOUS
 62
     7
  5
5DB
 10
-4.012456
 20
-1.31526
 30
0.0
 11
-4.012415
 21
-1.313567
 31
0.0
  0
LINE
  8
0
  6
CONTINUOUS
 62
     7
  5
5DC
 10
-4.012415
 20
-1.313567
 30
0.0
 11
-4.012374
 21
-1.311832
 31
0.0
  0
LINE
  8
0
  6
CONTINUOUS
 62
     7
  5
5DD
 10
-4.0132
 20
-0.97175
 30
0.0
 11
-4.01318
 21
-0.972458
 31
0.0
  0
LINE
  8
0
  6
CONTINUOUS
 62
     7
  5
5DE
 10
-4.01318
 20
-0.972458
 30
0.0
 11
-4.013118
 21
-0.97464
 31
0.0
  0
LINE
  8
0
  6
CONTINUOUS
 62
     7
  5
5DF
 10
-4.013118
 20
-0.97464
 30
0.0
 11
-4.013015
 21
-0.978344
 31
0.0
  0
LINE
  8
0
  6
CONTINUOUS
 62
     7
  5
5E0
 10
-4.013015
 20
-0.978344
 30
0.0
 11
-4.012874
 21
-0.983561
 31
0.0
  0
LINE
  8
0
  6
CONTINUOUS
 62
     7
  5
5E1
 10
-4.012874
 20
-0.983561
 30
0.0
 11
-4.012698
 21
-0.990239
 31
0.0
  0
LINE
  8
0
  6
CONTINUOUS
 62
     7
  5
5E2
 10
-4.012698
 20
-0.990239
 30
0.0
 11
-4.012496
 21
-0.998288
 31
0.0
  0
LINE
  8
0
  6
CONTINUOUS
 62
     7
  5
5E3
 10
-4.012496
 20
-0.998288
 30
0.0
 11
-4.012276
 21
-1.007569
 31
0.0
  0
LINE
  8
0
  6
CONTINUOUS
 62
     7
  5
5E4
 10
-4.012276
 20
-1.007569
 30
0.0
 11
-4.012046
 21
-1.017893
 31
0.0
  0
LINE
  8
0
  6
CONTINUOUS
 62
     7
  5
5E5
 10
-4.012046
 20
-1.017893
 30
0.0
 11
-4.011816
 21
-1.029054
 31
0.0
  0
LINE
  8
0
  6
CONTINUOUS
 62
     7
  5
5E6
 10
-4.011816
 20
-1.029054
 30
0.0
 11
-4.011585
 21
-1.041327
 31
0.0
  0
LINE
  8
0
  6
CONTINUOUS
 62
     7
  5
5E7
 10
-4.011585
 20
-1.041327
 30
0.0
 11
-4.011359
 21
-1.054777
 31
0.0
  0
LINE
  8
0
  6
CONTINUOUS
 62
     7
  5
5E8
 10
-4.011359
 20
-1.054777
 30
0.0
 11
-4.011146
 21
-1.069238
 31
0.0
  0
LINE
  8
0
  6
CONTINUOUS
 62
     7
  5
5E9
 10
-4.011146
 20
-1.069238
 30
0.0
 11
-4.010957
 21
-1.084519
 31
0.0
  0
LINE
  8
0
  6
CONTINUOUS
 62
     7
  5
5EA
 10
-4.010957
 20
-1.084519
 30
0.0
 11
-4.010798
 21
-1.100418
 31
0.0
  0
LINE
  8
0
  6
CONTINUOUS
 62
     7
  5
5EB
 10
-4.010798
 20
-1.100418
 30
0.0
 11
-4.010675
 21
-1.116723
 31
0.0
  0
LINE
  8
0
  6
CONTINUOUS
 62
     7
  5
5EC
 10
-4.010675
 20
-1.116723
 30
0.0
 11
-4.010592
 21
-1.133186
 31
0.0
  0
LINE
  8
0
  6
CONTINUOUS
 62
     7
  5
5ED
 10
-4.010592
 20
-1.133186
 30
0.0
 11
-4.010552
 21
-1.149543
 31
0.0
  0
LINE
  8
0
  6
CONTINUOUS
 62
     7
  5
5EE
 10
-4.010552
 20
-1.149543
 30
0.0
 11
-4.010552
 21
-1.165657
 31
0.0
  0
LINE
  8
0
  6
CONTINUOUS
 62
     7
  5
5EF
 10
-4.010552
 20
-1.165657
 30
0.0
 11
-4.010592
 21
-1.182014
 31
0.0
  0
LINE
  8
0
  6
CONTINUOUS
 62
     7
  5
5F0
 10
-4.010592
 20
-1.182014
 30
0.0
 11
-4.010675
 21
-1.198477
 31
0.0
  0
LINE
  8
0
  6
CONTINUOUS
 62
     7
  5
5F1
 10
-4.010675
 20
-1.198477
 30
0.0
 11
-4.010798
 21
-1.214782
 31
0.0
  0
LINE
  8
0
  6
CONTINUOUS
 62
     7
  5
5F2
 10
-4.010798
 20
-1.214782
 30
0.0
 11
-4.010957
 21
-1.230681
 31
0.0
  0
LINE
  8
0
  6
CONTINUOUS
 62
     7
  5
5F3
 10
-4.010957
 20
-1.230681
 30
0.0
 11
-4.011146
 21
-1.245962
 31
0.0
  0
LINE
  8
0
  6
CONTINUOUS
 62
     7
  5
5F4
 10
-4.011146
 20
-1.245962
 30
0.0
 11
-4.011359
 21
-1.260423
 31
0.0
  0
LINE
  8
0
  6
CONTINUOUS
 62
     7
  5
5F5
 10
-4.011359
 20
-1.260423
 30
0.0
 11
-4.011585
 21
-1.273873
 31
0.0
  0
LINE
  8
0
  6
CONTINUOUS
 62
     7
  5
5F6
 10
-4.011585
 20
-1.273873
 30
0.0
 11
-4.011816
 21
-1.286146
 31
0.0
  0
LINE
  8
0
  6
CONTINUOUS
 62
     7
  5
5F7
 10
-4.011816
 20
-1.286146
 30
0.0
 11
-4.012046
 21
-1.297307
 31
0.0
  0
LINE
  8
0
  6
CONTINUOUS
 62
     7
  5
5F8
 10
-4.012046
 20
-1.297307
 30
0.0
 11
-4.012276
 21
-1.307631
 31
0.0
  0
LINE
  8
0
  6
CONTINUOUS
 62
     7
  5
5F9
 10
-4.012276
 20
-1.307631
 30
0.0
 11
-4.012496
 21
-1.316912
 31
0.0
  0
LINE
  8
0
  6
CONTINUOUS
 62
     7
  5
5FA
 10
-4.012496
 20
-1.316912
 30
0.0
 11
-4.012698
 21
-1.324961
 31
0.0
  0
LINE
  8
0
  6
CONTINUOUS
 62
     7
  5
5FB
 10
-4.012698
 20
-1.324961
 30
0.0
 11
-4.012874
 21
-1.331639
 31
0.0
  0
LINE
  8
0
  6
CONTINUOUS
 62
     7
  5
5FC
 10
-4.012874
 20
-1.331639
 30
0.0
 11
-4.013015
 21
-1.336856
 31
0.0
  0
LINE
  8
0
  6
CONTINUOUS
 62
     7
  5
5FD
 10
-4.013015
 20
-1.336856
 30
0.0
 11
-4.013118
 21
-1.34056
 31
0.0
  0
LINE
  8
0
  6
CONTINUOUS
 62
     7
  5
5FE
 10
-4.013118
 20
-1.34056
 30
0.0
 11
-4.01318
 21
-1.342742
 31
0.0
  0
LINE
  8
0
  6
CONTINUOUS
 62
     7
  5
5FF
 10
-4.01318
 20
-1.342742
 30
0.0
 11
-4.0132
 21
-1.34345
 31
0.0
  0
LINE
  8
0
  6
CONTINUOUS
 62
     7
  5
600
 10
-1.5723
 20
-1.4478
 30
0.0
 11
-1.5723
 21
-0.7778
 31
0.0
  0
LINE
  8
0
  6
CONTINUOUS
 62
     7
  5
601
 10
-3.922147
 20
-0.7778
 30
0.0
 11
-4.0132
 21
-0.7778
 31
0.0
  0
LINE
  8
0
  6
CONTINUOUS
 62
     7
  5
602
 10
-1.5723
 20
-0.7778
 30
0.0
 11
-3.922147
 21
-0.7778
 31
0.0
  0
LINE
  8
0
  6
CONTINUOUS
 62
     7
  5
603
 10
-3.922147
 20
-1.4478
 30
0.0
 11
-3.922147
 21
-0.7778
 31
0.0
  0
LINE
  8
0
  6
CONTINUOUS
 62
     7
  5
604
 10
-1.5723
 20
-1.4478
 30
0.0
 11
-3.922147
 21
-1.4478
 31
0.0
  0
LINE
  8
0
  6
CONTINUOUS
 62
     7
  5
605
 10
-4.0132
 20
-0.7778
 30
0.0
 11
-4.0132
 21
-0.97175
 31
0.0
  0
LINE
  8
0
  6
CONTINUOUS
 62
     7
  5
606
 10
-4.0132
 20
-1.34345
 30
0.0
 11
-4.0132
 21
-1.4478
 31
0.0
  0
LINE
  8
0
  6
CONTINUOUS
 62
     7
  5
607
 10
-3.976636
 20
-4.82215
 30
0.0
 11
-3.975776
 21
-4.822324
 31
0.0
  0
LINE
  8
0
  6
CONTINUOUS
 62
     7
  5
608
 10
-3.975776
 20
-4.822324
 30
0.0
 11
-3.974895
 21
-4.822855
 31
0.0
  0
LINE
  8
0
  6
CONTINUOUS
 62
     7
  5
609
 10
-3.974895
 20
-4.822855
 30
0.0
 11
-3.973997
 21
-4.823753
 31
0.0
  0
LINE
  8
0
  6
CONTINUOUS
 62
     7
  5
60A
 10
-3.973997
 20
-4.823753
 30
0.0
 11
-3.973086
 21
-4.825027
 31
0.0
  0
LINE
  8
0
  6
CONTINUOUS
 62
     7
  5
60B
 10
-3.973086
 20
-4.825027
 30
0.0
 11
-3.972166
 21
-4.82668
 31
0.0
  0
LINE
  8
0
  6
CONTINUOUS
 62
     7
  5
60C
 10
-3.972166
 20
-4.82668
 30
0.0
 11
-3.971239
 21
-4.828713
 31
0.0
  0
LINE
  8
0
  6
CONTINUOUS
 62
     7
  5
60D
 10
-3.971239
 20
-4.828713
 30
0.0
 11
-3.97031
 21
-4.831124
 31
0.0
  0
LINE
  8
0
  6
CONTINUOUS
 62
     7
  5
60E
 10
-3.97031
 20
-4.831124
 30
0.0
 11
-3.969382
 21
-4.833906
 31
0.0
  0
LINE
  8
0
  6
CONTINUOUS
 62
     7
  5
60F
 10
-3.969382
 20
-4.833906
 30
0.0
 11
-3.968459
 21
-4.837054
 31
0.0
  0
LINE
  8
0
  6
CONTINUOUS
 62
     7
  5
610
 10
-3.968459
 20
-4.837054
 30
0.0
 11
-3.967545
 21
-4.840556
 31
0.0
  0
LINE
  8
0
  6
CONTINUOUS
 62
     7
  5
611
 10
-3.967545
 20
-4.840556
 30
0.0
 11
-3.966643
 21
-4.844402
 31
0.0
  0
LINE
  8
0
  6
CONTINUOUS
 62
     7
  5
612
 10
-3.966643
 20
-4.844402
 30
0.0
 11
-3.965756
 21
-4.848575
 31
0.0
  0
LINE
  8
0
  6
CONTINUOUS
 62
     7
  5
613
 10
-3.965756
 20
-4.848575
 30
0.0
 11
-3.964889
 21
-4.853057
 31
0.0
  0
LINE
  8
0
  6
CONTINUOUS
 62
     7
  5
614
 10
-3.964889
 20
-4.853057
 30
0.0
 11
-3.964045
 21
-4.857827
 31
0.0
  0
LINE
  8
0
  6
CONTINUOUS
 62
     7
  5
615
 10
-3.964045
 20
-4.857827
 30
0.0
 11
-3.963227
 21
-4.862859
 31
0.0
  0
LINE
  8
0
  6
CONTINUOUS
 62
     7
  5
616
 10
-3.963227
 20
-4.862859
 30
0.0
 11
-3.962439
 21
-4.868128
 31
0.0
  0
LINE
  8
0
  6
CONTINUOUS
 62
     7
  5
617
 10
-3.962439
 20
-4.868128
 30
0.0
 11
-3.961684
 21
-4.873603
 31
0.0
  0
LINE
  8
0
  6
CONTINUOUS
 62
     7
  5
618
 10
-3.961684
 20
-4.873603
 30
0.0
 11
-3.960962
 21
-4.879271
 31
0.0
  0
LINE
  8
0
  6
CONTINUOUS
 62
     7
  5
619
 10
-3.960962
 20
-4.879271
 30
0.0
 11
-3.96026
 21
-4.885239
 31
0.0
  0
LINE
  8
0
  6
CONTINUOUS
 62
     7
  5
61A
 10
-3.96026
 20
-4.885239
 30
0.0
 11
-3.95958
 21
-4.891521
 31
0.0
  0
LINE
  8
0
  6
CONTINUOUS
 62
     7
  5
61B
 10
-3.95958
 20
-4.891521
 30
0.0
 11
-3.958925
 21
-4.898102
 31
0.0
  0
LINE
  8
0
  6
CONTINUOUS
 62
     7
  5
61C
 10
-3.958925
 20
-4.898102
 30
0.0
 11
-3.9583
 21
-4.904961
 31
0.0
  0
LINE
  8
0
  6
CONTINUOUS
 62
     7
  5
61D
 10
-3.9583
 20
-4.904961
 30
0.0
 11
-3.957709
 21
-4.912077
 31
0.0
  0
LINE
  8
0
  6
CONTINUOUS
 62
     7
  5
61E
 10
-3.957709
 20
-4.912077
 30
0.0
 11
-3.957155
 21
-4.919426
 31
0.0
  0
LINE
  8
0
  6
CONTINUOUS
 62
     7
  5
61F
 10
-3.957155
 20
-4.919426
 30
0.0
 11
-3.956642
 21
-4.926983
 31
0.0
  0
LINE
  8
0
  6
CONTINUOUS
 62
     7
  5
620
 10
-3.956642
 20
-4.926983
 30
0.0
 11
-3.956172
 21
-4.934723
 31
0.0
  0
LINE
  8
0
  6
CONTINUOUS
 62
     7
  5
621
 10
-3.956172
 20
-4.934723
 30
0.0
 11
-3.955748
 21
-4.942621
 31
0.0
  0
LINE
  8
0
  6
CONTINUOUS
 62
     7
  5
622
 10
-3.955748
 20
-4.942621
 30
0.0
 11
-3.955372
 21
-4.950651
 31
0.0
  0
LINE
  8
0
  6
CONTINUOUS
 62
     7
  5
623
 10
-3.955372
 20
-4.950651
 30
0.0
 11
-3.955045
 21
-4.958785
 31
0.0
  0
LINE
  8
0
  6
CONTINUOUS
 62
     7
  5
624
 10
-3.955045
 20
-4.958785
 30
0.0
 11
-3.954768
 21
-4.966994
 31
0.0
  0
LINE
  8
0
  6
CONTINUOUS
 62
     7
  5
625
 10
-3.954768
 20
-4.966994
 30
0.0
 11
-3.954542
 21
-4.975245
 31
0.0
  0
LINE
  8
0
  6
CONTINUOUS
 62
     7
  5
626
 10
-3.954542
 20
-4.975245
 30
0.0
 11
-3.954368
 21
-4.983505
 31
0.0
  0
LINE
  8
0
  6
CONTINUOUS
 62
     7
  5
627
 10
-3.954368
 20
-4.983505
 30
0.0
 11
-3.954245
 21
-4.991739
 31
0.0
  0
LINE
  8
0
  6
CONTINUOUS
 62
     7
  5
628
 10
-3.954245
 20
-4.991739
 30
0.0
 11
-3.954172
 21
-4.999915
 31
0.0
  0
LINE
  8
0
  6
CONTINUOUS
 62
     7
  5
629
 10
-3.954172
 20
-4.999915
 30
0.0
 11
-3.954149
 21
-5.008
 31
0.0
  0
LINE
  8
0
  6
CONTINUOUS
 62
     7
  5
62A
 10
-3.976636
 20
-5.19385
 30
0.0
 11
-3.978335
 21
-5.193147
 31
0.0
  0
LINE
  8
0
  6
CONTINUOUS
 62
     7
  5
62B
 10
-3.978335
 20
-5.193147
 30
0.0
 11
-3.980018
 21
-5.190977
 31
0.0
  0
LINE
  8
0
  6
CONTINUOUS
 62
     7
  5
62C
 10
-3.980018
 20
-5.190977
 30
0.0
 11
-3.981657
 21
-5.187293
 31
0.0
  0
LINE
  8
0
  6
CONTINUOUS
 62
     7
  5
62D
 10
-3.981657
 20
-5.187293
 30
0.0
 11
-3.983228
 21
-5.1821
 31
0.0
  0
LINE
  8
0
  6
CONTINUOUS
 62
     7
  5
62E
 10
-3.983228
 20
-5.1821
 30
0.0
 11
-3.984711
 21
-5.175448
 31
0.0
  0
LINE
  8
0
  6
CONTINUOUS
 62
     7
  5
62F
 10
-3.984711
 20
-5.175448
 30
0.0
 11
-3.986092
 21
-5.167424
 31
0.0
  0
LINE
  8
0
  6
CONTINUOUS
 62
     7
  5
630
 10
-3.986092
 20
-5.167424
 30
0.0
 11
-3.987356
 21
-5.158163
 31
0.0
  0
LINE
  8
0
  6
CONTINUOUS
 62
     7
  5
631
 10
-3.987356
 20
-5.158163
 30
0.0
 11
-3.988496
 21
-5.147853
 31
0.0
  0
LINE
  8
0
  6
CONTINUOUS
 62
     7
  5
632
 10
-3.988496
 20
-5.147853
 30
0.0
 11
-3.989506
 21
-5.136699
 31
0.0
  0
LINE
  8
0
  6
CONTINUOUS
 62
     7
  5
633
 10
-3.989506
 20
-5.136699
 30
0.0
 11
-3.990419
 21
-5.124435
 31
0.0
  0
LINE
  8
0
  6
CONTINUOUS
 62
     7
  5
634
 10
-3.990419
 20
-5.124435
 30
0.0
 11
-3.991237
 21
-5.110986
 31
0.0
  0
LINE
  8
0
  6
CONTINUOUS
 62
     7
  5
635
 10
-3.991237
 20
-5.110986
 30
0.0
 11
-3.991949
 21
-5.096516
 31
0.0
  0
LINE
  8
0
  6
CONTINUOUS
 62
     7
  5
636
 10
-3.991949
 20
-5.096516
 30
0.0
 11
-3.992544
 21
-5.081219
 31
0.0
  0
LINE
  8
0
  6
CONTINUOUS
 62
     7
  5
637
 10
-3.992544
 20
-5.081219
 30
0.0
 11
-3.993019
 21
-5.065296
 31
0.0
  0
LINE
  8
0
  6
CONTINUOUS
 62
     7
  5
638
 10
-3.993019
 20
-5.065296
 30
0.0
 11
-3.993371
 21
-5.048963
 31
0.0
  0
LINE
  8
0
  6
CONTINUOUS
 62
     7
  5
639
 10
-3.993371
 20
-5.048963
 30
0.0
 11
-3.993601
 21
-5.032467
 31
0.0
  0
LINE
  8
0
  6
CONTINUOUS
 62
     7
  5
63A
 10
-3.993601
 20
-5.032467
 30
0.0
 11
-3.993713
 21
-5.016075
 31
0.0
  0
LINE
  8
0
  6
CONTINUOUS
 62
     7
  5
63B
 10
-3.993713
 20
-5.016075
 30
0.0
 11
-3.993713
 21
-4.999925
 31
0.0
  0
LINE
  8
0
  6
CONTINUOUS
 62
     7
  5
63C
 10
-3.993713
 20
-4.999925
 30
0.0
 11
-3.993601
 21
-4.983533
 31
0.0
  0
LINE
  8
0
  6
CONTINUOUS
 62
     7
  5
63D
 10
-3.993601
 20
-4.983533
 30
0.0
 11
-3.993371
 21
-4.967037
 31
0.0
  0
LINE
  8
0
  6
CONTINUOUS
 62
     7
  5
63E
 10
-3.993371
 20
-4.967037
 30
0.0
 11
-3.993019
 21
-4.950704
 31
0.0
  0
LINE
  8
0
  6
CONTINUOUS
 62
     7
  5
63F
 10
-3.993019
 20
-4.950704
 30
0.0
 11
-3.992544
 21
-4.934781
 31
0.0
  0
LINE
  8
0
  6
CONTINUOUS
 62
     7
  5
640
 10
-3.992544
 20
-4.934781
 30
0.0
 11
-3.991949
 21
-4.919484
 31
0.0
  0
LINE
  8
0
  6
CONTINUOUS
 62
     7
  5
641
 10
-3.991949
 20
-4.919484
 30
0.0
 11
-3.991237
 21
-4.905014
 31
0.0
  0
LINE
  8
0
  6
CONTINUOUS
 62
     7
  5
642
 10
-3.991237
 20
-4.905014
 30
0.0
 11
-3.990419
 21
-4.891565
 31
0.0
  0
LINE
  8
0
  6
CONTINUOUS
 62
     7
  5
643
 10
-3.990419
 20
-4.891565
 30
0.0
 11
-3.989506
 21
-4.879301
 31
0.0
  0
LINE
  8
0
  6
CONTINUOUS
 62
     7
  5
644
 10
-3.989506
 20
-4.879301
 30
0.0
 11
-3.988496
 21
-4.868147
 31
0.0
  0
LINE
  8
0
  6
CONTINUOUS
 62
     7
  5
645
 10
-3.988496
 20
-4.868147
 30
0.0
 11
-3.987356
 21
-4.857837
 31
0.0
  0
LINE
  8
0
  6
CONTINUOUS
 62
     7
  5
646
 10
-3.987356
 20
-4.857837
 30
0.0
 11
-3.986092
 21
-4.848576
 31
0.0
  0
LINE
  8
0
  6
CONTINUOUS
 62
     7
  5
647
 10
-3.986092
 20
-4.848576
 30
0.0
 11
-3.984711
 21
-4.840552
 31
0.0
  0
LINE
  8
0
  6
CONTINUOUS
 62
     7
  5
648
 10
-3.984711
 20
-4.840552
 30
0.0
 11
-3.983228
 21
-4.8339
 31
0.0
  0
LINE
  8
0
  6
CONTINUOUS
 62
     7
  5
649
 10
-3.983228
 20
-4.8339
 30
0.0
 11
-3.981657
 21
-4.828707
 31
0.0
  0
LINE
  8
0
  6
CONTINUOUS
 62
     7
  5
64A
 10
-3.981657
 20
-4.828707
 30
0.0
 11
-3.980018
 21
-4.825023
 31
0.0
  0
LINE
  8
0
  6
CONTINUOUS
 62
     7
  5
64B
 10
-3.980018
 20
-4.825023
 30
0.0
 11
-3.978335
 21
-4.822853
 31
0.0
  0
LINE
  8
0
  6
CONTINUOUS
 62
     7
  5
64C
 10
-3.978335
 20
-4.822853
 30
0.0
 11
-3.976636
 21
-4.82215
 31
0.0
  0
LINE
  8
0
  6
CONTINUOUS
 62
     7
  5
64D
 10
-3.954149
 20
-5.008
 30
0.0
 11
-3.954172
 21
-5.016085
 31
0.0
  0
LINE
  8
0
  6
CONTINUOUS
 62
     7
  5
64E
 10
-3.954172
 20
-5.016085
 30
0.0
 11
-3.954245
 21
-5.024261
 31
0.0
  0
LINE
  8
0
  6
CONTINUOUS
 62
     7
  5
64F
 10
-3.954245
 20
-5.024261
 30
0.0
 11
-3.954368
 21
-5.032495
 31
0.0
  0
LINE
  8
0
  6
CONTINUOUS
 62
     7
  5
650
 10
-3.954368
 20
-5.032495
 30
0.0
 11
-3.954542
 21
-5.040755
 31
0.0
  0
LINE
  8
0
  6
CONTINUOUS
 62
     7
  5
651
 10
-3.954542
 20
-5.040755
 30
0.0
 11
-3.954768
 21
-5.049006
 31
0.0
  0
LINE
  8
0
  6
CONTINUOUS
 62
     7
  5
652
 10
-3.954768
 20
-5.049006
 30
0.0
 11
-3.955045
 21
-5.057215
 31
0.0
  0
LINE
  8
0
  6
CONTINUOUS
 62
     7
  5
653
 10
-3.955045
 20
-5.057215
 30
0.0
 11
-3.955372
 21
-5.065349
 31
0.0
  0
LINE
  8
0
  6
CONTINUOUS
 62
     7
  5
654
 10
-3.955372
 20
-5.065349
 30
0.0
 11
-3.955748
 21
-5.073379
 31
0.0
  0
LINE
  8
0
  6
CONTINUOUS
 62
     7
  5
655
 10
-3.955748
 20
-5.073379
 30
0.0
 11
-3.956172
 21
-5.081277
 31
0.0
  0
LINE
  8
0
  6
CONTINUOUS
 62
     7
  5
656
 10
-3.956172
 20
-5.081277
 30
0.0
 11
-3.956642
 21
-5.089017
 31
0.0
  0
LINE
  8
0
  6
CONTINUOUS
 62
     7
  5
657
 10
-3.956642
 20
-5.089017
 30
0.0
 11
-3.957155
 21
-5.096574
 31
0.0
  0
LINE
  8
0
  6
CONTINUOUS
 62
     7
  5
658
 10
-3.957155
 20
-5.096574
 30
0.0
 11
-3.957709
 21
-5.103923
 31
0.0
  0
LINE
  8
0
  6
CONTINUOUS
 62
     7
  5
659
 10
-3.957709
 20
-5.103923
 30
0.0
 11
-3.9583
 21
-5.111039
 31
0.0
  0
LINE
  8
0
  6
CONTINUOUS
 62
     7
  5
65A
 10
-3.9583
 20
-5.111039
 30
0.0
 11
-3.958925
 21
-5.117898
 31
0.0
  0
LINE
  8
0
  6
CONTINUOUS
 62
     7
  5
65B
 10
-3.958925
 20
-5.117898
 30
0.0
 11
-3.95958
 21
-5.124479
 31
0.0
  0
LINE
  8
0
  6
CONTINUOUS
 62
     7
  5
65C
 10
-3.95958
 20
-5.124479
 30
0.0
 11
-3.96026
 21
-5.130761
 31
0.0
  0
LINE
  8
0
  6
CONTINUOUS
 62
     7
  5
65D
 10
-3.96026
 20
-5.130761
 30
0.0
 11
-3.960962
 21
-5.136729
 31
0.0
  0
LINE
  8
0
  6
CONTINUOUS
 62
     7
  5
65E
 10
-3.960962
 20
-5.136729
 30
0.0
 11
-3.961684
 21
-5.142397
 31
0.0
  0
LINE
  8
0
  6
CONTINUOUS
 62
     7
  5
65F
 10
-3.961684
 20
-5.142397
 30
0.0
 11
-3.962439
 21
-5.147872
 31
0.0
  0
LINE
  8
0
  6
CONTINUOUS
 62
     7
  5
660
 10
-3.962439
 20
-5.147872
 30
0.0
 11
-3.963227
 21
-5.153141
 31
0.0
  0
LINE
  8
0
  6
CONTINUOUS
 62
     7
  5
661
 10
-3.963227
 20
-5.153141
 30
0.0
 11
-3.964045
 21
-5.158173
 31
0.0
  0
LINE
  8
0
  6
CONTINUOUS
 62
     7
  5
662
 10
-3.964045
 20
-5.158173
 30
0.0
 11
-3.964889
 21
-5.162943
 31
0.0
  0
LINE
  8
0
  6
CONTINUOUS
 62
     7
  5
663
 10
-3.964889
 20
-5.162943
 30
0.0
 11
-3.965756
 21
-5.167425
 31
0.0
  0
LINE
  8
0
  6
CONTINUOUS
 62
     7
  5
664
 10
-3.965756
 20
-5.167425
 30
0.0
 11
-3.966643
 21
-5.171598
 31
0.0
  0
LINE
  8
0
  6
CONTINUOUS
 62
     7
  5
665
 10
-3.966643
 20
-5.171598
 30
0.0
 11
-3.967545
 21
-5.175444
 31
0.0
  0
LINE
  8
0
  6
CONTINUOUS
 62
     7
  5
666
 10
-3.967545
 20
-5.175444
 30
0.0
 11
-3.968459
 21
-5.178946
 31
0.0
  0
LINE
  8
0
  6
CONTINUOUS
 62
     7
  5
667
 10
-3.968459
 20
-5.178946
 30
0.0
 11
-3.969382
 21
-5.182094
 31
0.0
  0
LINE
  8
0
  6
CONTINUOUS
 62
     7
  5
668
 10
-3.969382
 20
-5.182094
 30
0.0
 11
-3.97031
 21
-5.184876
 31
0.0
  0
LINE
  8
0
  6
CONTINUOUS
 62
     7
  5
669
 10
-3.97031
 20
-5.184876
 30
0.0
 11
-3.971239
 21
-5.187287
 31
0.0
  0
LINE
  8
0
  6
CONTINUOUS
 62
     7
  5
66A
 10
-3.971239
 20
-5.187287
 30
0.0
 11
-3.972166
 21
-5.18932
 31
0.0
  0
LINE
  8
0
  6
CONTINUOUS
 62
     7
  5
66B
 10
-3.972166
 20
-5.18932
 30
0.0
 11
-3.973086
 21
-5.190973
 31
0.0
  0
LINE
  8
0
  6
CONTINUOUS
 62
     7
  5
66C
 10
-3.973086
 20
-5.190973
 30
0.0
 11
-3.973997
 21
-5.192247
 31
0.0
  0
LINE
  8
0
  6
CONTINUOUS
 62
     7
  5
66D
 10
-3.973997
 20
-5.192247
 30
0.0
 11
-3.974895
 21
-5.193145
 31
0.0
  0
LINE
  8
0
  6
CONTINUOUS
 62
     7
  5
66E
 10
-3.974895
 20
-5.193145
 30
0.0
 11
-3.975776
 21
-5.193676
 31
0.0
  0
LINE
  8
0
  6
CONTINUOUS
 62
     7
  5
66F
 10
-3.975776
 20
-5.193676
 30
0.0
 11
-3.976636
 21
-5.19385
 31
0.0
  0
LINE
  8
0
  6
CONTINUOUS
 62
     7
  5
670
 10
-4.0132
 20
-4.82215
 30
0.0
 11
-4.013195
 21
-4.822325
 31
0.0
  0
LINE
  8
0
  6
CONTINUOUS
 62
     7
  5
671
 10
-4.013195
 20
-4.822325
 30
0.0
 11
-4.01318
 21
-4.822858
 31
0.0
  0
LINE
  8
0
  6
CONTINUOUS
 62
     7
  5
672
 10
-4.01318
 20
-4.822858
 30
0.0
 11
-4.013154
 21
-4.823761
 31
0.0
  0
LINE
  8
0
  6
CONTINUOUS
 62
     7
  5
673
 10
-4.013154
 20
-4.823761
 30
0.0
 11
-4.013118
 21
-4.82504
 31
0.0
  0
LINE
  8
0
  6
CONTINUOUS
 62
     7
  5
674
 10
-4.013118
 20
-4.82504
 30
0.0
 11
-4.013072
 21
-4.826701
 31
0.0
  0
LINE
  8
0
  6
CONTINUOUS
 62
     7
  5
675
 10
-4.013072
 20
-4.826701
 30
0.0
 11
-4.013015
 21
-4.828744
 31
0.0
  0
LINE
  8
0
  6
CONTINUOUS
 62
     7
  5
676
 10
-4.013015
 20
-4.828744
 30
0.0
 11
-4.012949
 21
-4.831165
 31
0.0
  0
LINE
  8
0
  6
CONTINUOUS
 62
     7
  5
677
 10
-4.012949
 20
-4.831165
 30
0.0
 11
-4.012874
 21
-4.833961
 31
0.0
  0
LINE
  8
0
  6
CONTINUOUS
 62
     7
  5
678
 10
-4.012874
 20
-4.833961
 30
0.0
 11
-4.01279
 21
-4.837122
 31
0.0
  0
LINE
  8
0
  6
CONTINUOUS
 62
     7
  5
679
 10
-4.01279
 20
-4.837122
 30
0.0
 11
-4.012698
 21
-4.840639
 31
0.0
  0
LINE
  8
0
  6
CONTINUOUS
 62
     7
  5
67A
 10
-4.012698
 20
-4.840639
 30
0.0
 11
-4.0126
 21
-4.8445
 31
0.0
  0
LINE
  8
0
  6
CONTINUOUS
 62
     7
  5
67B
 10
-4.0126
 20
-4.8445
 30
0.0
 11
-4.012496
 21
-4.848688
 31
0.0
  0
LINE
  8
0
  6
CONTINUOUS
 62
     7
  5
67C
 10
-4.012496
 20
-4.848688
 30
0.0
 11
-4.012388
 21
-4.853185
 31
0.0
  0
LINE
  8
0
  6
CONTINUOUS
 62
     7
  5
67D
 10
-4.012388
 20
-4.853185
 30
0.0
 11
-4.012276
 21
-4.857969
 31
0.0
  0
LINE
  8
0
  6
CONTINUOUS
 62
     7
  5
67E
 10
-4.012276
 20
-4.857969
 30
0.0
 11
-4.012162
 21
-4.863014
 31
0.0
  0
LINE
  8
0
  6
CONTINUOUS
 62
     7
  5
67F
 10
-4.012162
 20
-4.863014
 30
0.0
 11
-4.012046
 21
-4.868293
 31
0.0
  0
LINE
  8
0
  6
CONTINUOUS
 62
     7
  5
680
 10
-4.012046
 20
-4.868293
 30
0.0
 11
-4.011931
 21
-4.873776
 31
0.0
  0
LINE
  8
0
  6
CONTINUOUS
 62
     7
  5
681
 10
-4.011931
 20
-4.873776
 30
0.0
 11
-4.011816
 21
-4.879454
 31
0.0
  0
LINE
  8
0
  6
CONTINUOUS
 62
     7
  5
682
 10
-4.011816
 20
-4.879454
 30
0.0
 11
-4.011701
 21
-4.885435
 31
0.0
  0
LINE
  8
0
  6
CONTINUOUS
 62
     7
  5
683
 10
-4.011701
 20
-4.885435
 30
0.0
 11
-4.011585
 21
-4.891727
 31
0.0
  0
LINE
  8
0
  6
CONTINUOUS
 62
     7
  5
684
 10
-4.011585
 20
-4.891727
 30
0.0
 11
-4.011471
 21
-4.898314
 31
0.0
  0
LINE
  8
0
  6
CONTINUOUS
 62
     7
  5
685
 10
-4.011471
 20
-4.898314
 30
0.0
 11
-4.011359
 21
-4.905177
 31
0.0
  0
LINE
  8
0
  6
CONTINUOUS
 62
     7
  5
686
 10
-4.011359
 20
-4.905177
 30
0.0
 11
-4.01125
 21
-4.912292
 31
0.0
  0
LINE
  8
0
  6
CONTINUOUS
 62
     7
  5
687
 10
-4.01125
 20
-4.912292
 30
0.0
 11
-4.011146
 21
-4.919638
 31
0.0
  0
LINE
  8
0
  6
CONTINUOUS
 62
     7
  5
688
 10
-4.011146
 20
-4.919638
 30
0.0
 11
-4.011048
 21
-4.927189
 31
0.0
  0
LINE
  8
0
  6
CONTINUOUS
 62
     7
  5
689
 10
-4.011048
 20
-4.927189
 30
0.0
 11
-4.010957
 21
-4.934919
 31
0.0
  0
LINE
  8
0
  6
CONTINUOUS
 62
     7
  5
68A
 10
-4.010957
 20
-4.934919
 30
0.0
 11
-4.010873
 21
-4.942804
 31
0.0
  0
LINE
  8
0
  6
CONTINUOUS
 62
     7
  5
68B
 10
-4.010873
 20
-4.942804
 30
0.0
 11
-4.010798
 21
-4.950818
 31
0.0
  0
LINE
  8
0
  6
CONTINUOUS
 62
     7
  5
68C
 10
-4.010798
 20
-4.950818
 30
0.0
 11
-4.010732
 21
-4.958935
 31
0.0
  0
LINE
  8
0
  6
CONTINUOUS
 62
     7
  5
68D
 10
-4.010732
 20
-4.958935
 30
0.0
 11
-4.010675
 21
-4.967123
 31
0.0
  0
LINE
  8
0
  6
CONTINUOUS
 62
     7
  5
68E
 10
-4.010675
 20
-4.967123
 30
0.0
 11
-4.010629
 21
-4.975351
 31
0.0
  0
LINE
  8
0
  6
CONTINUOUS
 62
     7
  5
68F
 10
-4.010629
 20
-4.975351
 30
0.0
 11
-4.010592
 21
-4.983586
 31
0.0
  0
LINE
  8
0
  6
CONTINUOUS
 62
     7
  5
690
 10
-4.010592
 20
-4.983586
 30
0.0
 11
-4.010567
 21
-4.991794
 31
0.0
  0
LINE
  8
0
  6
CONTINUOUS
 62
     7
  5
691
 10
-4.010567
 20
-4.991794
 30
0.0
 11
-4.010552
 21
-4.999943
 31
0.0
  0
LINE
  8
0
  6
CONTINUOUS
 62
     7
  5
692
 10
-4.010552
 20
-4.999943
 30
0.0
 11
-4.010547
 21
-5.008
 31
0.0
  0
LINE
  8
0
  6
CONTINUOUS
 62
     7
  5
693
 10
-4.013102
 20
-4.825618
 30
0.0
 11
-4.013107
 21
-4.82542
 31
0.0
  0
LINE
  8
0
  6
CONTINUOUS
 62
     7
  5
694
 10
-4.013107
 20
-4.82542
 30
0.0
 11
-4.013113
 21
-4.825227
 31
0.0
  0
LINE
  8
0
  6
CONTINUOUS
 62
     7
  5
695
 10
-4.013113
 20
-4.825227
 30
0.0
 11
-4.013118
 21
-4.82504
 31
0.0
  0
LINE
  8
0
  6
CONTINUOUS
 62
     7
  5
696
 10
-4.013118
 20
-4.82504
 30
0.0
 11
-4.013123
 21
-4.82486
 31
0.0
  0
LINE
  8
0
  6
CONTINUOUS
 62
     7
  5
697
 10
-4.013123
 20
-4.82486
 30
0.0
 11
-4.013128
 21
-4.824685
 31
0.0
  0
LINE
  8
0
  6
CONTINUOUS
 62
     7
  5
698
 10
-4.013128
 20
-4.824685
 30
0.0
 11
-4.013133
 21
-4.824516
 31
0.0
  0
LINE
  8
0
  6
CONTINUOUS
 62
     7
  5
699
 10
-4.013133
 20
-4.824516
 30
0.0
 11
-4.013137
 21
-4.824353
 31
0.0
  0
LINE
  8
0
  6
CONTINUOUS
 62
     7
  5
69A
 10
-4.013137
 20
-4.824353
 30
0.0
 11
-4.013142
 21
-4.824196
 31
0.0
  0
LINE
  8
0
  6
CONTINUOUS
 62
     7
  5
69B
 10
-4.013142
 20
-4.824196
 30
0.0
 11
-4.013146
 21
-4.824045
 31
0.0
  0
LINE
  8
0
  6
CONTINUOUS
 62
     7
  5
69C
 10
-4.013146
 20
-4.824045
 30
0.0
 11
-4.01315
 21
-4.8239
 31
0.0
  0
LINE
  8
0
  6
CONTINUOUS
 62
     7
  5
69D
 10
-4.01315
 20
-4.8239
 30
0.0
 11
-4.013154
 21
-4.823761
 31
0.0
  0
LINE
  8
0
  6
CONTINUOUS
 62
     7
  5
69E
 10
-4.013154
 20
-4.823761
 30
0.0
 11
-4.013158
 21
-4.823627
 31
0.0
  0
LINE
  8
0
  6
CONTINUOUS
 62
     7
  5
69F
 10
-4.013158
 20
-4.823627
 30
0.0
 11
-4.013162
 21
-4.8235
 31
0.0
  0
LINE
  8
0
  6
CONTINUOUS
 62
     7
  5
6A0
 10
-4.013162
 20
-4.8235
 30
0.0
 11
-4.013165
 21
-4.823378
 31
0.0
  0
LINE
  8
0
  6
CONTINUOUS
 62
     7
  5
6A1
 10
-4.013165
 20
-4.823378
 30
0.0
 11
-4.013168
 21
-4.823263
 31
0.0
  0
LINE
  8
0
  6
CONTINUOUS
 62
     7
  5
6A2
 10
-4.013168
 20
-4.823263
 30
0.0
 11
-4.013171
 21
-4.823153
 31
0.0
  0
LINE
  8
0
  6
CONTINUOUS
 62
     7
  5
6A3
 10
-4.013171
 20
-4.823153
 30
0.0
 11
-4.013174
 21
-4.823049
 31
0.0
  0
LINE
  8
0
  6
CONTINUOUS
 62
     7
  5
6A4
 10
-4.013174
 20
-4.823049
 30
0.0
 11
-4.013177
 21
-4.82295
 31
0.0
  0
LINE
  8
0
  6
CONTINUOUS
 62
     7
  5
6A5
 10
-4.013177
 20
-4.82295
 30
0.0
 11
-4.01318
 21
-4.822858
 31
0.0
  0
LINE
  8
0
  6
CONTINUOUS
 62
     7
  5
6A6
 10
-4.01318
 20
-4.822858
 30
0.0
 11
-4.013182
 21
-4.822771
 31
0.0
  0
LINE
  8
0
  6
CONTINUOUS
 62
     7
  5
6A7
 10
-4.013182
 20
-4.822771
 30
0.0
 11
-4.013185
 21
-4.82269
 31
0.0
  0
LINE
  8
0
  6
CONTINUOUS
 62
     7
  5
6A8
 10
-4.013185
 20
-4.82269
 30
0.0
 11
-4.013187
 21
-4.822615
 31
0.0
  0
LINE
  8
0
  6
CONTINUOUS
 62
     7
  5
6A9
 10
-4.013187
 20
-4.822615
 30
0.0
 11
-4.013189
 21
-4.822546
 31
0.0
  0
LINE
  8
0
  6
CONTINUOUS
 62
     7
  5
6AA
 10
-4.013189
 20
-4.822546
 30
0.0
 11
-4.013191
 21
-4.822482
 31
0.0
  0
LINE
  8
0
  6
CONTINUOUS
 62
     7
  5
6AB
 10
-4.013191
 20
-4.822482
 30
0.0
 11
-4.013192
 21
-4.822424
 31
0.0
  0
LINE
  8
0
  6
CONTINUOUS
 62
     7
  5
6AC
 10
-4.013192
 20
-4.822424
 30
0.0
 11
-4.013194
 21
-4.822372
 31
0.0
  0
LINE
  8
0
  6
CONTINUOUS
 62
     7
  5
6AD
 10
-4.013194
 20
-4.822372
 30
0.0
 11
-4.013195
 21
-4.822325
 31
0.0
  0
LINE
  8
0
  6
CONTINUOUS
 62
     7
  5
6AE
 10
-4.013195
 20
-4.822325
 30
0.0
 11
-4.013196
 21
-4.822284
 31
0.0
  0
LINE
  8
0
  6
CONTINUOUS
 62
     7
  5
6AF
 10
-4.013196
 20
-4.822284
 30
0.0
 11
-4.013197
 21
-4.822248
 31
0.0
  0
LINE
  8
0
  6
CONTINUOUS
 62
     7
  5
6B0
 10
-4.013197
 20
-4.822248
 30
0.0
 11
-4.013198
 21
-4.822218
 31
0.0
  0
LINE
  8
0
  6
CONTINUOUS
 62
     7
  5
6B1
 10
-4.013198
 20
-4.822218
 30
0.0
 11
-4.013199
 21
-4.822193
 31
0.0
  0
LINE
  8
0
  6
CONTINUOUS
 62
     7
  5
6B2
 10
-4.013199
 20
-4.822193
 30
0.0
 11
-4.013199
 21
-4.822174
 31
0.0
  0
LINE
  8
0
  6
CONTINUOUS
 62
     7
  5
6B3
 10
-4.013199
 20
-4.822174
 30
0.0
 11
-4.0132
 21
-4.822161
 31
0.0
  0
LINE
  8
0
  6
CONTINUOUS
 62
     7
  5
6B4
 10
-4.0132
 20
-4.822161
 30
0.0
 11
-4.0132
 21
-4.822153
 31
0.0
  0
LINE
  8
0
  6
CONTINUOUS
 62
     7
  5
6B5
 10
-4.0132
 20
-4.822153
 30
0.0
 11
-4.0132
 21
-4.82215
 31
0.0
  0
LINE
  8
0
  6
CONTINUOUS
 62
     7
  5
6B6
 10
-4.010547
 20
-5.008
 30
0.0
 11
-4.010552
 21
-5.016057
 31
0.0
  0
LINE
  8
0
  6
CONTINUOUS
 62
     7
  5
6B7
 10
-4.010552
 20
-5.016057
 30
0.0
 11
-4.010567
 21
-5.024206
 31
0.0
  0
LINE
  8
0
  6
CONTINUOUS
 62
     7
  5
6B8
 10
-4.010567
 20
-5.024206
 30
0.0
 11
-4.010592
 21
-5.032414
 31
0.0
  0
LINE
  8
0
  6
CONTINUOUS
 62
     7
  5
6B9
 10
-4.010592
 20
-5.032414
 30
0.0
 11
-4.010629
 21
-5.040649
 31
0.0
  0
LINE
  8
0
  6
CONTINUOUS
 62
     7
  5
6BA
 10
-4.010629
 20
-5.040649
 30
0.0
 11
-4.010675
 21
-5.048877
 31
0.0
  0
LINE
  8
0
  6
CONTINUOUS
 62
     7
  5
6BB
 10
-4.010675
 20
-5.048877
 30
0.0
 11
-4.010732
 21
-5.057065
 31
0.0
  0
LINE
  8
0
  6
CONTINUOUS
 62
     7
  5
6BC
 10
-4.010732
 20
-5.057065
 30
0.0
 11
-4.010798
 21
-5.065182
 31
0.0
  0
LINE
  8
0
  6
CONTINUOUS
 62
     7
  5
6BD
 10
-4.010798
 20
-5.065182
 30
0.0
 11
-4.010873
 21
-5.073196
 31
0.0
  0
LINE
  8
0
  6
CONTINUOUS
 62
     7
  5
6BE
 10
-4.010873
 20
-5.073196
 30
0.0
 11
-4.010957
 21
-5.081081
 31
0.0
  0
LINE
  8
0
  6
CONTINUOUS
 62
     7
  5
6BF
 10
-4.010957
 20
-5.081081
 30
0.0
 11
-4.011048
 21
-5.088811
 31
0.0
  0
LINE
  8
0
  6
CONTINUOUS
 62
     7
  5
6C0
 10
-4.011048
 20
-5.088811
 30
0.0
 11
-4.011146
 21
-5.096362
 31
0.0
  0
LINE
  8
0
  6
CONTINUOUS
 62
     7
  5
6C1
 10
-4.011146
 20
-5.096362
 30
0.0
 11
-4.01125
 21
-5.103708
 31
0.0
  0
LINE
  8
0
  6
CONTINUOUS
 62
     7
  5
6C2
 10
-4.01125
 20
-5.103708
 30
0.0
 11
-4.011359
 21
-5.110823
 31
0.0
  0
LINE
  8
0
  6
CONTINUOUS
 62
     7
  5
6C3
 10
-4.011359
 20
-5.110823
 30
0.0
 11
-4.011471
 21
-5.117686
 31
0.0
  0
LINE
  8
0
  6
CONTINUOUS
 62
     7
  5
6C4
 10
-4.011471
 20
-5.117686
 30
0.0
 11
-4.011585
 21
-5.124273
 31
0.0
  0
LINE
  8
0
  6
CONTINUOUS
 62
     7
  5
6C5
 10
-4.011585
 20
-5.124273
 30
0.0
 11
-4.011701
 21
-5.130565
 31
0.0
  0
LINE
  8
0
  6
CONTINUOUS
 62
     7
  5
6C6
 10
-4.011701
 20
-5.130565
 30
0.0
 11
-4.011816
 21
-5.136546
 31
0.0
  0
LINE
  8
0
  6
CONTINUOUS
 62
     7
  5
6C7
 10
-4.011816
 20
-5.136546
 30
0.0
 11
-4.011931
 21
-5.142224
 31
0.0
  0
LINE
  8
0
  6
CONTINUOUS
 62
     7
  5
6C8
 10
-4.011931
 20
-5.142224
 30
0.0
 11
-4.012046
 21
-5.147707
 31
0.0
  0
LINE
  8
0
  6
CONTINUOUS
 62
     7
  5
6C9
 10
-4.012046
 20
-5.147707
 30
0.0
 11
-4.012162
 21
-5.152986
 31
0.0
  0
LINE
  8
0
  6
CONTINUOUS
 62
     7
  5
6CA
 10
-4.012162
 20
-5.152986
 30
0.0
 11
-4.012276
 21
-5.158031
 31
0.0
  0
LINE
  8
0
  6
CONTINUOUS
 62
     7
  5
6CB
 10
-4.012276
 20
-5.158031
 30
0.0
 11
-4.012388
 21
-5.162815
 31
0.0
  0
LINE
  8
0
  6
CONTINUOUS
 62
     7
  5
6CC
 10
-4.012388
 20
-5.162815
 30
0.0
 11
-4.012496
 21
-5.167312
 31
0.0
  0
LINE
  8
0
  6
CONTINUOUS
 62
     7
  5
6CD
 10
-4.012496
 20
-5.167312
 30
0.0
 11
-4.0126
 21
-5.1715
 31
0.0
  0
LINE
  8
0
  6
CONTINUOUS
 62
     7
  5
6CE
 10
-4.0126
 20
-5.1715
 30
0.0
 11
-4.012698
 21
-5.175361
 31
0.0
  0
LINE
  8
0
  6
CONTINUOUS
 62
     7
  5
6CF
 10
-4.012698
 20
-5.175361
 30
0.0
 11
-4.01279
 21
-5.178878
 31
0.0
  0
LINE
  8
0
  6
CONTINUOUS
 62
     7
  5
6D0
 10
-4.01279
 20
-5.178878
 30
0.0
 11
-4.012874
 21
-5.182039
 31
0.0
  0
LINE
  8
0
  6
CONTINUOUS
 62
     7
  5
6D1
 10
-4.012874
 20
-5.182039
 30
0.0
 11
-4.012949
 21
-5.184835
 31
0.0
  0
LINE
  8
0
  6
CONTINUOUS
 62
     7
  5
6D2
 10
-4.012949
 20
-5.184835
 30
0.0
 11
-4.013015
 21
-5.187256
 31
0.0
  0
LINE
  8
0
  6
CONTINUOUS
 62
     7
  5
6D3
 10
-4.013015
 20
-5.187256
 30
0.0
 11
-4.013072
 21
-5.189299
 31
0.0
  0
LINE
  8
0
  6
CONTINUOUS
 62
     7
  5
6D4
 10
-4.013072
 20
-5.189299
 30
0.0
 11
-4.013118
 21
-5.19096
 31
0.0
  0
LINE
  8
0
  6
CONTINUOUS
 62
     7
  5
6D5
 10
-4.013118
 20
-5.19096
 30
0.0
 11
-4.013154
 21
-5.192239
 31
0.0
  0
LINE
  8
0
  6
CONTINUOUS
 62
     7
  5
6D6
 10
-4.013154
 20
-5.192239
 30
0.0
 11
-4.01318
 21
-5.193142
 31
0.0
  0
LINE
  8
0
  6
CONTINUOUS
 62
     7
  5
6D7
 10
-4.01318
 20
-5.193142
 30
0.0
 11
-4.013195
 21
-5.193675
 31
0.0
  0
LINE
  8
0
  6
CONTINUOUS
 62
     7
  5
6D8
 10
-4.013195
 20
-5.193675
 30
0.0
 11
-4.0132
 21
-5.19385
 31
0.0
  0
LINE
  8
0
  6
CONTINUOUS
 62
     7
  5
6D9
 10
-1.5723
 20
-5.3878
 30
0.0
 11
-1.5723
 21
-4.7178
 31
0.0
  0
LINE
  8
0
  6
CONTINUOUS
 62
     7
  5
6DA
 10
-3.922147
 20
-5.3878
 30
0.0
 11
-1.5723
 21
-5.3878
 31
0.0
  0
LINE
  8
0
  6
CONTINUOUS
 62
     7
  5
6DB
 10
-4.0132
 20
-5.3878
 30
0.0
 11
-3.922147
 21
-5.3878
 31
0.0
  0
LINE
  8
0
  6
CONTINUOUS
 62
     7
  5
6DC
 10
-3.922147
 20
-4.7178
 30
0.0
 11
-1.5723
 21
-4.7178
 31
0.0
  0
LINE
  8
0
  6
CONTINUOUS
 62
     7
  5
6DD
 10
-3.922147
 20
-4.7178
 30
0.0
 11
-3.922147
 21
-5.3878
 31
0.0
  0
LINE
  8
0
  6
CONTINUOUS
 62
     7
  5
6DE
 10
-4.0132
 20
-4.7178
 30
0.0
 11
-4.0132
 21
-4.82215
 31
0.0
  0
LINE
  8
0
  6
CONTINUOUS
 62
     7
  5
6DF
 10
-4.0132
 20
-5.19385
 30
0.0
 11
-4.0132
 21
-5.3878
 31
0.0
  0
LINE
  8
0
  6
CONTINUOUS
 62
     7
  5
6E0
 10
-4.5571
 20
-4.09855
 30
0.0
 11
-4.5571
 21
-4.21471
 31
0.0
  0
LINE
  8
0
  6
CONTINUOUS
 62
     7
  5
6E1
 10
-4.0181
 20
-4.21471
 30
0.0
 11
-4.5571
 21
-4.21471
 31
0.0
  0
LINE
  8
0
  6
CONTINUOUS
 62
     7
  5
6E2
 10
-4.0181
 20
-4.09855
 30
0.0
 11
-4.0181
 21
-4.21471
 31
0.0
  0
LINE
  8
0
  6
CONTINUOUS
 62
     7
  5
6E3
 10
-4.0181
 20
-1.95089
 30
0.0
 11
-4.0181
 21
-2.06705
 31
0.0
  0
LINE
  8
0
  6
CONTINUOUS
 62
     7
  5
6E4
 10
-4.5571
 20
-1.95089
 30
0.0
 11
-4.0181
 21
-1.95089
 31
0.0
  0
LINE
  8
0
  6
CONTINUOUS
 62
     7
  5
6E5
 10
-4.5571
 20
-1.95089
 30
0.0
 11
-4.5571
 21
-2.06705
 31
0.0
  0
LINE
  8
0
  6
CONTINUOUS
 62
     7
  5
6E6
 10
-4.595339
 20
-3.964486
 30
0.0
 11
-4.595847
 21
-3.964372
 31
0.0
  0
LINE
  8
0
  6
CONTINUOUS
 62
     7
  5
6E7
 10
-4.595847
 20
-3.964372
 30
0.0
 11
-4.596356
 21
-3.964025
 31
0.0
  0
LINE
  8
0
  6
CONTINUOUS
 62
     7
  5
6E8
 10
-4.596356
 20
-3.964025
 30
0.0
 11
-4.596865
 21
-3.963436
 31
0.0
  0
LINE
  8
0
  6
CONTINUOUS
 62
     7
  5
6E9
 10
-4.596865
 20
-3.963436
 30
0.0
 11
-4.597372
 21
-3.962601
 31
0.0
  0
LINE
  8
0
  6
CONTINUOUS
 62
     7
  5
6EA
 10
-4.597372
 20
-3.962601
 30
0.0
 11
-4.597873
 21
-3.961518
 31
0.0
  0
LINE
  8
0
  6
CONTINUOUS
 62
     7
  5
6EB
 10
-4.597873
 20
-3.961518
 30
0.0
 11
-4.598368
 21
-3.960185
 31
0.0
  0
LINE
  8
0
  6
CONTINUOUS
 62
     7
  5
6EC
 10
-4.598368
 20
-3.960185
 30
0.0
 11
-4.598853
 21
-3.958605
 31
0.0
  0
LINE
  8
0
  6
CONTINUOUS
 62
     7
  5
6ED
 10
-4.598853
 20
-3.958605
 30
0.0
 11
-4.599329
 21
-3.95678
 31
0.0
  0
LINE
  8
0
  6
CONTINUOUS
 62
     7
  5
6EE
 10
-4.599329
 20
-3.95678
 30
0.0
 11
-4.599793
 21
-3.954715
 31
0.0
  0
LINE
  8
0
  6
CONTINUOUS
 62
     7
  5
6EF
 10
-4.599793
 20
-3.954715
 30
0.0
 11
-4.600244
 21
-3.952418
 31
0.0
  0
LINE
  8
0
  6
CONTINUOUS
 62
     7
  5
6F0
 10
-4.600244
 20
-3.952418
 30
0.0
 11
-4.600681
 21
-3.949895
 31
0.0
  0
LINE
  8
0
  6
CONTINUOUS
 62
     7
  5
6F1
 10
-4.600681
 20
-3.949895
 30
0.0
 11
-4.601102
 21
-3.947157
 31
0.0
  0
LINE
  8
0
  6
CONTINUOUS
 62
     7
  5
6F2
 10
-4.601102
 20
-3.947157
 30
0.0
 11
-4.601507
 21
-3.944216
 31
0.0
  0
LINE
  8
0
  6
CONTINUOUS
 62
     7
  5
6F3
 10
-4.601507
 20
-3.944216
 30
0.0
 11
-4.601894
 21
-3.941087
 31
0.0
  0
LINE
  8
0
  6
CONTINUOUS
 62
     7
  5
6F4
 10
-4.601894
 20
-3.941087
 30
0.0
 11
-4.602263
 21
-3.937786
 31
0.0
  0
LINE
  8
0
  6
CONTINUOUS
 62
     7
  5
6F5
 10
-4.602263
 20
-3.937786
 30
0.0
 11
-4.602613
 21
-3.93433
 31
0.0
  0
LINE
  8
0
  6
CONTINUOUS
 62
     7
  5
6F6
 10
-4.602613
 20
-3.93433
 30
0.0
 11
-4.602943
 21
-3.930739
 31
0.0
  0
LINE
  8
0
  6
CONTINUOUS
 62
     7
  5
6F7
 10
-4.602943
 20
-3.930739
 30
0.0
 11
-4.603255
 21
-3.927021
 31
0.0
  0
LINE
  8
0
  6
CONTINUOUS
 62
     7
  5
6F8
 10
-4.603255
 20
-3.927021
 30
0.0
 11
-4.603553
 21
-3.923105
 31
0.0
  0
LINE
  8
0
  6
CONTINUOUS
 62
     7
  5
6F9
 10
-4.603553
 20
-3.923105
 30
0.0
 11
-4.603838
 21
-3.918984
 31
0.0
  0
LINE
  8
0
  6
CONTINUOUS
 62
     7
  5
6FA
 10
-4.603838
 20
-3.918984
 30
0.0
 11
-4.60411
 21
-3.914669
 31
0.0
  0
LINE
  8
0
  6
CONTINUOUS
 62
     7
  5
6FB
 10
-4.60411
 20
-3.914669
 30
0.0
 11
-4.604365
 21
-3.910172
 31
0.0
  0
LINE
  8
0
  6
CONTINUOUS
 62
     7
  5
6FC
 10
-4.604365
 20
-3.910172
 30
0.0
 11
-4.604604
 21
-3.905507
 31
0.0
  0
LINE
  8
0
  6
CONTINUOUS
 62
     7
  5
6FD
 10
-4.604604
 20
-3.905507
 30
0.0
 11
-4.604826
 21
-3.900691
 31
0.0
  0
LINE
  8
0
  6
CONTINUOUS
 62
     7
  5
6FE
 10
-4.604826
 20
-3.900691
 30
0.0
 11
-4.605029
 21
-3.895739
 31
0.0
  0
LINE
  8
0
  6
CONTINUOUS
 62
     7
  5
6FF
 10
-4.605029
 20
-3.895739
 30
0.0
 11
-4.605213
 21
-3.890668
 31
0.0
  0
LINE
  8
0
  6
CONTINUOUS
 62
     7
  5
700
 10
-4.605213
 20
-3.890668
 30
0.0
 11
-4.605378
 21
-3.885495
 31
0.0
  0
LINE
  8
0
  6
CONTINUOUS
 62
     7
  5
701
 10
-4.605378
 20
-3.885495
 30
0.0
 11
-4.605524
 21
-3.880236
 31
0.0
  0
LINE
  8
0
  6
CONTINUOUS
 62
     7
  5
702
 10
-4.605524
 20
-3.880236
 30
0.0
 11
-4.605649
 21
-3.87491
 31
0.0
  0
LINE
  8
0
  6
CONTINUOUS
 62
     7
  5
703
 10
-4.605649
 20
-3.87491
 30
0.0
 11
-4.605755
 21
-3.869536
 31
0.0
  0
LINE
  8
0
  6
CONTINUOUS
 62
     7
  5
704
 10
-4.605755
 20
-3.869536
 30
0.0
 11
-4.60584
 21
-3.864135
 31
0.0
  0
LINE
  8
0
  6
CONTINUOUS
 62
     7
  5
705
 10
-4.60584
 20
-3.864135
 30
0.0
 11
-4.605906
 21
-3.858729
 31
0.0
  0
LINE
  8
0
  6
CONTINUOUS
 62
     7
  5
706
 10
-4.605906
 20
-3.858729
 30
0.0
 11
-4.605952
 21
-3.85334
 31
0.0
  0
LINE
  8
0
  6
CONTINUOUS
 62
     7
  5
707
 10
-4.605952
 20
-3.85334
 30
0.0
 11
-4.60598
 21
-3.84799
 31
0.0
  0
LINE
  8
0
  6
CONTINUOUS
 62
     7
  5
708
 10
-4.60598
 20
-3.84799
 30
0.0
 11
-4.605989
 21
-3.8427
 31
0.0
  0
LINE
  8
0
  6
CONTINUOUS
 62
     7
  5
709
 10
-4.595339
 20
-3.720914
 30
0.0
 11
-4.594303
 21
-3.721376
 31
0.0
  0
LINE
  8
0
  6
CONTINUOUS
 62
     7
  5
70A
 10
-4.594303
 20
-3.721376
 30
0.0
 11
-4.593234
 21
-3.7228
 31
0.0
  0
LINE
  8
0
  6
CONTINUOUS
 62
     7
  5
70B
 10
-4.593234
 20
-3.7228
 30
0.0
 11
-4.592148
 21
-3.725217
 31
0.0
  0
LINE
  8
0
  6
CONTINUOUS
 62
     7
  5
70C
 10
-4.592148
 20
-3.725217
 30
0.0
 11
-4.591064
 21
-3.728623
 31
0.0
  0
LINE
  8
0
  6
CONTINUOUS
 62
     7
  5
70D
 10
-4.591064
 20
-3.728623
 30
0.0
 11
-4.589998
 21
-3.732984
 31
0.0
  0
LINE
  8
0
  6
CONTINUOUS
 62
     7
  5
70E
 10
-4.589998
 20
-3.732984
 30
0.0
 11
-4.588964
 21
-3.738242
 31
0.0
  0
LINE
  8
0
  6
CONTINUOUS
 62
     7
  5
70F
 10
-4.588964
 20
-3.738242
 30
0.0
 11
-4.587981
 21
-3.744309
 31
0.0
  0
LINE
  8
0
  6
CONTINUOUS
 62
     7
  5
710
 10
-4.587981
 20
-3.744309
 30
0.0
 11
-4.587062
 21
-3.751063
 31
0.0
  0
LINE
  8
0
  6
CONTINUOUS
 62
     7
  5
711
 10
-4.587062
 20
-3.751063
 30
0.0
 11
-4.586221
 21
-3.758367
 31
0.0
  0
LINE
  8
0
  6
CONTINUOUS
 62
     7
  5
712
 10
-4.586221
 20
-3.758367
 30
0.0
 11
-4.585436
 21
-3.766399
 31
0.0
  0
LINE
  8
0
  6
CONTINUOUS
 62
     7
  5
713
 10
-4.585436
 20
-3.766399
 30
0.0
 11
-4.584712
 21
-3.775208
 31
0.0
  0
LINE
  8
0
  6
CONTINUOUS
 62
     7
  5
714
 10
-4.584712
 20
-3.775208
 30
0.0
 11
-4.584066
 21
-3.784687
 31
0.0
  0
LINE
  8
0
  6
CONTINUOUS
 62
     7
  5
715
 10
-4.584066
 20
-3.784687
 30
0.0
 11
-4.583513
 21
-3.794709
 31
0.0
  0
LINE
  8
0
  6
CONTINUOUS
 62
     7
  5
716
 10
-4.583513
 20
-3.794709
 30
0.0
 11
-4.583063
 21
-3.805143
 31
0.0
  0
LINE
  8
0
  6
CONTINUOUS
 62
     7
  5
717
 10
-4.583063
 20
-3.805143
 30
0.0
 11
-4.582725
 21
-3.815848
 31
0.0
  0
LINE
  8
0
  6
CONTINUOUS
 62
     7
  5
718
 10
-4.582725
 20
-3.815848
 30
0.0
 11
-4.582501
 21
-3.82666
 31
0.0
  0
LINE
  8
0
  6
CONTINUOUS
 62
     7
  5
719
 10
-4.582501
 20
-3.82666
 30
0.0
 11
-4.582391
 21
-3.837406
 31
0.0
  0
LINE
  8
0
  6
CONTINUOUS
 62
     7
  5
71A
 10
-4.582391
 20
-3.837406
 30
0.0
 11
-4.582391
 21
-3.847994
 31
0.0
  0
LINE
  8
0
  6
CONTINUOUS
 62
     7
  5
71B
 10
-4.582391
 20
-3.847994
 30
0.0
 11
-4.582501
 21
-3.85874
 31
0.0
  0
LINE
  8
0
  6
CONTINUOUS
 62
     7
  5
71C
 10
-4.582501
 20
-3.85874
 30
0.0
 11
-4.582725
 21
-3.869552
 31
0.0
  0
LINE
  8
0
  6
CONTINUOUS
 62
     7
  5
71D
 10
-4.582725
 20
-3.869552
 30
0.0
 11
-4.583063
 21
-3.880257
 31
0.0
  0
LINE
  8
0
  6
CONTINUOUS
 62
     7
  5
71E
 10
-4.583063
 20
-3.880257
 30
0.0
 11
-4.583513
 21
-3.890691
 31
0.0
  0
LINE
  8
0
  6
CONTINUOUS
 62
     7
  5
71F
 10
-4.583513
 20
-3.890691
 30
0.0
 11
-4.584066
 21
-3.900713
 31
0.0
  0
LINE
  8
0
  6
CONTINUOUS
 62
     7
  5
720
 10
-4.584066
 20
-3.900713
 30
0.0
 11
-4.584712
 21
-3.910192
 31
0.0
  0
LINE
  8
0
  6
CONTINUOUS
 62
     7
  5
721
 10
-4.584712
 20
-3.910192
 30
0.0
 11
-4.585436
 21
-3.919001
 31
0.0
  0
LINE
  8
0
  6
CONTINUOUS
 62
     7
  5
722
 10
-4.585436
 20
-3.919001
 30
0.0
 11
-4.586221
 21
-3.927033
 31
0.0
  0
LINE
  8
0
  6
CONTINUOUS
 62
     7
  5
723
 10
-4.586221
 20
-3.927033
 30
0.0
 11
-4.587062
 21
-3.934337
 31
0.0
  0
LINE
  8
0
  6
CONTINUOUS
 62
     7
  5
724
 10
-4.587062
 20
-3.934337
 30
0.0
 11
-4.587981
 21
-3.941091
 31
0.0
  0
LINE
  8
0
  6
CONTINUOUS
 62
     7
  5
725
 10
-4.587981
 20
-3.941091
 30
0.0
 11
-4.588964
 21
-3.947158
 31
0.0
  0
LINE
  8
0
  6
CONTINUOUS
 62
     7
  5
726
 10
-4.588964
 20
-3.947158
 30
0.0
 11
-4.589998
 21
-3.952416
 31
0.0
  0
LINE
  8
0
  6
CONTINUOUS
 62
     7
  5
727
 10
-4.589998
 20
-3.952416
 30
0.0
 11
-4.591064
 21
-3.956777
 31
0.0
  0
LINE
  8
0
  6
CONTINUOUS
 62
     7
  5
728
 10
-4.591064
 20
-3.956777
 30
0.0
 11
-4.592148
 21
-3.960183
 31
0.0
  0
LINE
  8
0
  6
CONTINUOUS
 62
     7
  5
729
 10
-4.592148
 20
-3.960183
 30
0.0
 11
-4.593234
 21
-3.9626
 31
0.0
  0
LINE
  8
0
  6
CONTINUOUS
 62
     7
  5
72A
 10
-4.593234
 20
-3.9626
 30
0.0
 11
-4.594303
 21
-3.964024
 31
0.0
  0
LINE
  8
0
  6
CONTINUOUS
 62
     7
  5
72B
 10
-4.594303
 20
-3.964024
 30
0.0
 11
-4.595339
 21
-3.964486
 31
0.0
  0
LINE
  8
0
  6
CONTINUOUS
 62
     7
  5
72C
 10
-4.605989
 20
-3.8427
 30
0.0
 11
-4.60598
 21
-3.83741
 31
0.0
  0
LINE
  8
0
  6
CONTINUOUS
 62
     7
  5
72D
 10
-4.60598
 20
-3.83741
 30
0.0
 11
-4.605952
 21
-3.83206
 31
0.0
  0
LINE
  8
0
  6
CONTINUOUS
 62
     7
  5
72E
 10
-4.605952
 20
-3.83206
 30
0.0
 11
-4.605906
 21
-3.826671
 31
0.0
  0
LINE
  8
0
  6
CONTINUOUS
 62
     7
  5
72F
 10
-4.605906
 20
-3.826671
 30
0.0
 11
-4.60584
 21
-3.821265
 31
0.0
  0
LINE
  8
0
  6
CONTINUOUS
 62
     7
  5
730
 10
-4.60584
 20
-3.821265
 30
0.0
 11
-4.605755
 21
-3.815864
 31
0.0
  0
LINE
  8
0
  6
CONTINUOUS
 62
     7
  5
731
 10
-4.605755
 20
-3.815864
 30
0.0
 11
-4.605649
 21
-3.81049
 31
0.0
  0
LINE
  8
0
  6
CONTINUOUS
 62
     7
  5
732
 10
-4.605649
 20
-3.81049
 30
0.0
 11
-4.605524
 21
-3.805164
 31
0.0
  0
LINE
  8
0
  6
CONTINUOUS
 62
     7
  5
733
 10
-4.605524
 20
-3.805164
 30
0.0
 11
-4.605378
 21
-3.799905
 31
0.0
  0
LINE
  8
0
  6
CONTINUOUS
 62
     7
  5
734
 10
-4.605378
 20
-3.799905
 30
0.0
 11
-4.605213
 21
-3.794732
 31
0.0
  0
LINE
  8
0
  6
CONTINUOUS
 62
     7
  5
735
 10
-4.605213
 20
-3.794732
 30
0.0
 11
-4.605029
 21
-3.789661
 31
0.0
  0
LINE
  8
0
  6
CONTINUOUS
 62
     7
  5
736
 10
-4.605029
 20
-3.789661
 30
0.0
 11
-4.604826
 21
-3.784709
 31
0.0
  0
LINE
  8
0
  6
CONTINUOUS
 62
     7
  5
737
 10
-4.604826
 20
-3.784709
 30
0.0
 11
-4.604604
 21
-3.779893
 31
0.0
  0
LINE
  8
0
  6
CONTINUOUS
 62
     7
  5
738
 10
-4.604604
 20
-3.779893
 30
0.0
 11
-4.604365
 21
-3.775228
 31
0.0
  0
LINE
  8
0
  6
CONTINUOUS
 62
     7
  5
739
 10
-4.604365
 20
-3.775228
 30
0.0
 11
-4.60411
 21
-3.770731
 31
0.0
  0
LINE
  8
0
  6
CONTINUOUS
 62
     7
  5
73A
 10
-4.60411
 20
-3.770731
 30
0.0
 11
-4.603838
 21
-3.766416
 31
0.0
  0
LINE
  8
0
  6
CONTINUOUS
 62
     7
  5
73B
 10
-4.603838
 20
-3.766416
 30
0.0
 11
-4.603553
 21
-3.762295
 31
0.0
  0
LINE
  8
0
  6
CONTINUOUS
 62
     7
  5
73C
 10
-4.603553
 20
-3.762295
 30
0.0
 11
-4.603255
 21
-3.758379
 31
0.0
  0
LINE
  8
0
  6
CONTINUOUS
 62
     7
  5
73D
 10
-4.603255
 20
-3.758379
 30
0.0
 11
-4.602943
 21
-3.754661
 31
0.0
  0
LINE
  8
0
  6
CONTINUOUS
 62
     7
  5
73E
 10
-4.602943
 20
-3.754661
 30
0.0
 11
-4.602613
 21
-3.75107
 31
0.0
  0
LINE
  8
0
  6
CONTINUOUS
 62
     7
  5
73F
 10
-4.602613
 20
-3.75107
 30
0.0
 11
-4.602263
 21
-3.747614
 31
0.0
  0
LINE
  8
0
  6
CONTINUOUS
 62
     7
  5
740
 10
-4.602263
 20
-3.747614
 30
0.0
 11
-4.601894
 21
-3.744313
 31
0.0
  0
LINE
  8
0
  6
CONTINUOUS
 62
     7
  5
741
 10
-4.601894
 20
-3.744313
 30
0.0
 11
-4.601507
 21
-3.741184
 31
0.0
  0
LINE
  8
0
  6
CONTINUOUS
 62
     7
  5
742
 10
-4.601507
 20
-3.741184
 30
0.0
 11
-4.601102
 21
-3.738243
 31
0.0
  0
LINE
  8
0
  6
CONTINUOUS
 62
     7
  5
743
 10
-4.601102
 20
-3.738243
 30
0.0
 11
-4.600681
 21
-3.735505
 31
0.0
  0
LINE
  8
0
  6
CONTINUOUS
 62
     7
  5
744
 10
-4.600681
 20
-3.735505
 30
0.0
 11
-4.600244
 21
-3.732982
 31
0.0
  0
LINE
  8
0
  6
CONTINUOUS
 62
     7
  5
745
 10
-4.600244
 20
-3.732982
 30
0.0
 11
-4.599793
 21
-3.730685
 31
0.0
  0
LINE
  8
0
  6
CONTINUOUS
 62
     7
  5
746
 10
-4.599793
 20
-3.730685
 30
0.0
 11
-4.599329
 21
-3.72862
 31
0.0
  0
LINE
  8
0
  6
CONTINUOUS
 62
     7
  5
747
 10
-4.599329
 20
-3.72862
 30
0.0
 11
-4.598853
 21
-3.726795
 31
0.0
  0
LINE
  8
0
  6
CONTINUOUS
 62
     7
  5
748
 10
-4.598853
 20
-3.726795
 30
0.0
 11
-4.598368
 21
-3.725215
 31
0.0
  0
LINE
  8
0
  6
CONTINUOUS
 62
     7
  5
749
 10
-4.598368
 20
-3.725215
 30
0.0
 11
-4.597873
 21
-3.723882
 31
0.0
  0
LINE
  8
0
  6
CONTINUOUS
 62
     7
  5
74A
 10
-4.597873
 20
-3.723882
 30
0.0
 11
-4.597372
 21
-3.722799
 31
0.0
  0
LINE
  8
0
  6
CONTINUOUS
 62
     7
  5
74B
 10
-4.597372
 20
-3.722799
 30
0.0
 11
-4.596865
 21
-3.721964
 31
0.0
  0
LINE
  8
0
  6
CONTINUOUS
 62
     7
  5
74C
 10
-4.596865
 20
-3.721964
 30
0.0
 11
-4.596356
 21
-3.721375
 31
0.0
  0
LINE
  8
0
  6
CONTINUOUS
 62
     7
  5
74D
 10
-4.596356
 20
-3.721375
 30
0.0
 11
-4.595847
 21
-3.721028
 31
0.0
  0
LINE
  8
0
  6
CONTINUOUS
 62
     7
  5
74E
 10
-4.595847
 20
-3.721028
 30
0.0
 11
-4.595339
 21
-3.720914
 31
0.0
  0
LINE
  8
0
  6
CONTINUOUS
 62
     7
  5
74F
 10
-4.622354
 20
-3.964486
 30
0.0
 11
-4.622521
 21
-3.964372
 31
0.0
  0
LINE
  8
0
  6
CONTINUOUS
 62
     7
  5
750
 10
-4.622521
 20
-3.964372
 30
0.0
 11
-4.622686
 21
-3.964022
 31
0.0
  0
LINE
  8
0
  6
CONTINUOUS
 62
     7
  5
751
 10
-4.622686
 20
-3.964022
 30
0.0
 11
-4.622847
 21
-3.963431
 31
0.0
  0
LINE
  8
0
  6
CONTINUOUS
 62
     7
  5
752
 10
-4.622847
 20
-3.963431
 30
0.0
 11
-4.623005
 21
-3.962593
 31
0.0
  0
LINE
  8
0
  6
CONTINUOUS
 62
     7
  5
753
 10
-4.623005
 20
-3.962593
 30
0.0
 11
-4.623158
 21
-3.961506
 31
0.0
  0
LINE
  8
0
  6
CONTINUOUS
 62
     7
  5
754
 10
-4.623158
 20
-3.961506
 30
0.0
 11
-4.623305
 21
-3.960168
 31
0.0
  0
LINE
  8
0
  6
CONTINUOUS
 62
     7
  5
755
 10
-4.623305
 20
-3.960168
 30
0.0
 11
-4.623447
 21
-3.958582
 31
0.0
  0
LINE
  8
0
  6
CONTINUOUS
 62
     7
  5
756
 10
-4.623447
 20
-3.958582
 30
0.0
 11
-4.623584
 21
-3.956751
 31
0.0
  0
LINE
  8
0
  6
CONTINUOUS
 62
     7
  5
757
 10
-4.623584
 20
-3.956751
 30
0.0
 11
-4.623713
 21
-3.95468
 31
0.0
  0
LINE
  8
0
  6
CONTINUOUS
 62
     7
  5
758
 10
-4.623713
 20
-3.95468
 30
0.0
 11
-4.623836
 21
-3.952376
 31
0.0
  0
LINE
  8
0
  6
CONTINUOUS
 62
     7
  5
759
 10
-4.623836
 20
-3.952376
 30
0.0
 11
-4.623953
 21
-3.949847
 31
0.0
  0
LINE
  8
0
  6
CONTINUOUS
 62
     7
  5
75A
 10
-4.623953
 20
-3.949847
 30
0.0
 11
-4.624063
 21
-3.947103
 31
0.0
  0
LINE
  8
0
  6
CONTINUOUS
 62
     7
  5
75B
 10
-4.624063
 20
-3.947103
 30
0.0
 11
-4.624166
 21
-3.944156
 31
0.0
  0
LINE
  8
0
  6
CONTINUOUS
 62
     7
  5
75C
 10
-4.624166
 20
-3.944156
 30
0.0
 11
-4.624262
 21
-3.941022
 31
0.0
  0
LINE
  8
0
  6
CONTINUOUS
 62
     7
  5
75D
 10
-4.624262
 20
-3.941022
 30
0.0
 11
-4.624351
 21
-3.937716
 31
0.0
  0
LINE
  8
0
  6
CONTINUOUS
 62
     7
  5
75E
 10
-4.624351
 20
-3.937716
 30
0.0
 11
-4.624434
 21
-3.934257
 31
0.0
  0
LINE
  8
0
  6
CONTINUOUS
 62
     7
  5
75F
 10
-4.624434
 20
-3.934257
 30
0.0
 11
-4.62451
 21
-3.930664
 31
0.0
  0
LINE
  8
0
  6
CONTINUOUS
 62
     7
  5
760
 10
-4.62451
 20
-3.930664
 30
0.0
 11
-4.62458
 21
-3.926943
 31
0.0
  0
LINE
  8
0
  6
CONTINUOUS
 62
     7
  5
761
 10
-4.62458
 20
-3.926943
 30
0.0
 11
-4.624646
 21
-3.923024
 31
0.0
  0
LINE
  8
0
  6
CONTINUOUS
 62
     7
  5
762
 10
-4.624646
 20
-3.923024
 30
0.0
 11
-4.624707
 21
-3.918901
 31
0.0
  0
LINE
  8
0
  6
CONTINUOUS
 62
     7
  5
763
 10
-4.624707
 20
-3.918901
 30
0.0
 11
-4.624764
 21
-3.914584
 31
0.0
  0
LINE
  8
0
  6
CONTINUOUS
 62
     7
  5
764
 10
-4.624764
 20
-3.914584
 30
0.0
 11
-4.624816
 21
-3.910087
 31
0.0
  0
LINE
  8
0
  6
CONTINUOUS
 62
     7
  5
765
 10
-4.624816
 20
-3.910087
 30
0.0
 11
-4.624864
 21
-3.905423
 31
0.0
  0
LINE
  8
0
  6
CONTINUOUS
 62
     7
  5
766
 10
-4.624864
 20
-3.905423
 30
0.0
 11
-4.624908
 21
-3.90061
 31
0.0
  0
LINE
  8
0
  6
CONTINUOUS
 62
     7
  5
767
 10
-4.624908
 20
-3.90061
 30
0.0
 11
-4.624947
 21
-3.895661
 31
0.0
  0
LINE
  8
0
  6
CONTINUOUS
 62
     7
  5
768
 10
-4.624947
 20
-3.895661
 30
0.0
 11
-4.624981
 21
-3.890595
 31
0.0
  0
LINE
  8
0
  6
CONTINUOUS
 62
     7
  5
769
 10
-4.624981
 20
-3.890595
 30
0.0
 11
-4.625012
 21
-3.885428
 31
0.0
  0
LINE
  8
0
  6
CONTINUOUS
 62
     7
  5
76A
 10
-4.625012
 20
-3.885428
 30
0.0
 11
-4.625038
 21
-3.880175
 31
0.0
  0
LINE
  8
0
  6
CONTINUOUS
 62
     7
  5
76B
 10
-4.625038
 20
-3.880175
 30
0.0
 11
-4.625061
 21
-3.874856
 31
0.0
  0
LINE
  8
0
  6
CONTINUOUS
 62
     7
  5
76C
 10
-4.625061
 20
-3.874856
 30
0.0
 11
-4.625079
 21
-3.86949
 31
0.0
  0
LINE
  8
0
  6
CONTINUOUS
 62
     7
  5
76D
 10
-4.625079
 20
-3.86949
 30
0.0
 11
-4.625094
 21
-3.864097
 31
0.0
  0
LINE
  8
0
  6
CONTINUOUS
 62
     7
  5
76E
 10
-4.625094
 20
-3.864097
 30
0.0
 11
-4.625106
 21
-3.8587
 31
0.0
  0
LINE
  8
0
  6
CONTINUOUS
 62
     7
  5
76F
 10
-4.625106
 20
-3.8587
 30
0.0
 11
-4.625114
 21
-3.853321
 31
0.0
  0
LINE
  8
0
  6
CONTINUOUS
 62
     7
  5
770
 10
-4.625114
 20
-3.853321
 30
0.0
 11
-4.625118
 21
-3.84798
 31
0.0
  0
LINE
  8
0
  6
CONTINUOUS
 62
     7
  5
771
 10
-4.625118
 20
-3.84798
 30
0.0
 11
-4.62512
 21
-3.8427
 31
0.0
  0
LINE
  8
0
  6
CONTINUOUS
 62
     7
  5
772
 10
-4.622354
 20
-3.720914
 30
0.0
 11
-4.622005
 21
-3.721378
 31
0.0
  0
LINE
  8
0
  6
CONTINUOUS
 62
     7
  5
773
 10
-4.622005
 20
-3.721378
 30
0.0
 11
-4.621633
 21
-3.722807
 31
0.0
  0
LINE
  8
0
  6
CONTINUOUS
 62
     7
  5
774
 10
-4.621633
 20
-3.722807
 30
0.0
 11
-4.621243
 21
-3.725233
 31
0.0
  0
LINE
  8
0
  6
CONTINUOUS
 62
     7
  5
775
 10
-4.621243
 20
-3.725233
 30
0.0
 11
-4.620843
 21
-3.72865
 31
0.0
  0
LINE
  8
0
  6
CONTINUOUS
 62
     7
  5
776
 10
-4.620843
 20
-3.72865
 30
0.0
 11
-4.62044
 21
-3.733024
 31
0.0
  0
LINE
  8
0
  6
CONTINUOUS
 62
     7
  5
777
 10
-4.62044
 20
-3.733024
 30
0.0
 11
-4.62004
 21
-3.738297
 31
0.0
  0
LINE
  8
0
  6
CONTINUOUS
 62
     7
  5
778
 10
-4.62004
 20
-3.738297
 30
0.0
 11
-4.619651
 21
-3.744377
 31
0.0
  0
LINE
  8
0
  6
CONTINUOUS
 62
     7
  5
779
 10
-4.619651
 20
-3.744377
 30
0.0
 11
-4.619282
 21
-3.75114
 31
0.0
  0
LINE
  8
0
  6
CONTINUOUS
 62
     7
  5
77A
 10
-4.619282
 20
-3.75114
 30
0.0
 11
-4.618938
 21
-3.758453
 31
0.0
  0
LINE
  8
0
  6
CONTINUOUS
 62
     7
  5
77B
 10
-4.618938
 20
-3.758453
 30
0.0
 11
-4.618612
 21
-3.766494
 31
0.0
  0
LINE
  8
0
  6
CONTINUOUS
 62
     7
  5
77C
 10
-4.618612
 20
-3.766494
 30
0.0
 11
-4.618308
 21
-3.775306
 31
0.0
  0
LINE
  8
0
  6
CONTINUOUS
 62
     7
  5
77D
 10
-4.618308
 20
-3.775306
 30
0.0
 11
-4.618034
 21
-3.784783
 31
0.0
  0
LINE
  8
0
  6
CONTINUOUS
 62
     7
  5
77E
 10
-4.618034
 20
-3.784783
 30
0.0
 11
-4.617797
 21
-3.794797
 31
0.0
  0
LINE
  8
0
  6
CONTINUOUS
 62
     7
  5
77F
 10
-4.617797
 20
-3.794797
 30
0.0
 11
-4.617604
 21
-3.805218
 31
0.0
  0
LINE
  8
0
  6
CONTINUOUS
 62
     7
  5
780
 10
-4.617604
 20
-3.805218
 30
0.0
 11
-4.617457
 21
-3.815905
 31
0.0
  0
LINE
  8
0
  6
CONTINUOUS
 62
     7
  5
781
 10
-4.617457
 20
-3.815905
 30
0.0
 11
-4.617359
 21
-3.826696
 31
0.0
  0
LINE
  8
0
  6
CONTINUOUS
 62
     7
  5
782
 10
-4.617359
 20
-3.826696
 30
0.0
 11
-4.617312
 21
-3.837418
 31
0.0
  0
LINE
  8
0
  6
CONTINUOUS
 62
     7
  5
783
 10
-4.617312
 20
-3.837418
 30
0.0
 11
-4.617312
 21
-3.847982
 31
0.0
  0
LINE
  8
0
  6
CONTINUOUS
 62
     7
  5
784
 10
-4.617312
 20
-3.847982
 30
0.0
 11
-4.617359
 21
-3.858704
 31
0.0
  0
LINE
  8
0
  6
CONTINUOUS
 62
     7
  5
785
 10
-4.617359
 20
-3.858704
 30
0.0
 11
-4.617457
 21
-3.869495
 31
0.0
  0
LINE
  8
0
  6
CONTINUOUS
 62
     7
  5
786
 10
-4.617457
 20
-3.869495
 30
0.0
 11
-4.617604
 21
-3.880182
 31
0.0
  0
LINE
  8
0
  6
CONTINUOUS
 62
     7
  5
787
 10
-4.617604
 20
-3.880182
 30
0.0
 11
-4.617797
 21
-3.890603
 31
0.0
  0
LINE
  8
0
  6
CONTINUOUS
 62
     7
  5
788
 10
-4.617797
 20
-3.890603
 30
0.0
 11
-4.618034
 21
-3.900617
 31
0.0
  0
LINE
  8
0
  6
CONTINUOUS
 62
     7
  5
789
 10
-4.618034
 20
-3.900617
 30
0.0
 11
-4.618308
 21
-3.910094
 31
0.0
  0
LINE
  8
0
  6
CONTINUOUS
 62
     7
  5
78A
 10
-4.618308
 20
-3.910094
 30
0.0
 11
-4.618612
 21
-3.918906
 31
0.0
  0
LINE
  8
0
  6
CONTINUOUS
 62
     7
  5
78B
 10
-4.618612
 20
-3.918906
 30
0.0
 11
-4.618938
 21
-3.926947
 31
0.0
  0
LINE
  8
0
  6
CONTINUOUS
 62
     7
  5
78C
 10
-4.618938
 20
-3.926947
 30
0.0
 11
-4.619282
 21
-3.93426
 31
0.0
  0
LINE
  8
0
  6
CONTINUOUS
 62
     7
  5
78D
 10
-4.619282
 20
-3.93426
 30
0.0
 11
-4.619651
 21
-3.941023
 31
0.0
  0
LINE
  8
0
  6
CONTINUOUS
 62
     7
  5
78E
 10
-4.619651
 20
-3.941023
 30
0.0
 11
-4.62004
 21
-3.947103
 31
0.0
  0
LINE
  8
0
  6
CONTINUOUS
 62
     7
  5
78F
 10
-4.62004
 20
-3.947103
 30
0.0
 11
-4.62044
 21
-3.952376
 31
0.0
  0
LINE
  8
0
  6
CONTINUOUS
 62
     7
  5
790
 10
-4.62044
 20
-3.952376
 30
0.0
 11
-4.620843
 21
-3.95675
 31
0.0
  0
LINE
  8
0
  6
CONTINUOUS
 62
     7
  5
791
 10
-4.620843
 20
-3.95675
 30
0.0
 11
-4.621243
 21
-3.960167
 31
0.0
  0
LINE
  8
0
  6
CONTINUOUS
 62
     7
  5
792
 10
-4.621243
 20
-3.960167
 30
0.0
 11
-4.621633
 21
-3.962593
 31
0.0
  0
LINE
  8
0
  6
CONTINUOUS
 62
     7
  5
793
 10
-4.621633
 20
-3.962593
 30
0.0
 11
-4.622005
 21
-3.964022
 31
0.0
  0
LINE
  8
0
  6
CONTINUOUS
 62
     7
  5
794
 10
-4.622005
 20
-3.964022
 30
0.0
 11
-4.622354
 21
-3.964486
 31
0.0
  0
LINE
  8
0
  6
CONTINUOUS
 62
     7
  5
795
 10
-4.62512
 20
-3.8427
 30
0.0
 11
-4.625118
 21
-3.83742
 31
0.0
  0
LINE
  8
0
  6
CONTINUOUS
 62
     7
  5
796
 10
-4.625118
 20
-3.83742
 30
0.0
 11
-4.625114
 21
-3.832079
 31
0.0
  0
LINE
  8
0
  6
CONTINUOUS
 62
     7
  5
797
 10
-4.625114
 20
-3.832079
 30
0.0
 11
-4.625106
 21
-3.8267
 31
0.0
  0
LINE
  8
0
  6
CONTINUOUS
 62
     7
  5
798
 10
-4.625106
 20
-3.8267
 30
0.0
 11
-4.625094
 21
-3.821303
 31
0.0
  0
LINE
  8
0
  6
CONTINUOUS
 62
     7
  5
799
 10
-4.625094
 20
-3.821303
 30
0.0
 11
-4.625079
 21
-3.81591
 31
0.0
  0
LINE
  8
0
  6
CONTINUOUS
 62
     7
  5
79A
 10
-4.625079
 20
-3.81591
 30
0.0
 11
-4.625061
 21
-3.810544
 31
0.0
  0
LINE
  8
0
  6
CONTINUOUS
 62
     7
  5
79B
 10
-4.625061
 20
-3.810544
 30
0.0
 11
-4.625038
 21
-3.805225
 31
0.0
  0
LINE
  8
0
  6
CONTINUOUS
 62
     7
  5
79C
 10
-4.625038
 20
-3.805225
 30
0.0
 11
-4.625012
 21
-3.799972
 31
0.0
  0
LINE
  8
0
  6
CONTINUOUS
 62
     7
  5
79D
 10
-4.625012
 20
-3.799972
 30
0.0
 11
-4.624981
 21
-3.794805
 31
0.0
  0
LINE
  8
0
  6
CONTINUOUS
 62
     7
  5
79E
 10
-4.624981
 20
-3.794805
 30
0.0
 11
-4.624947
 21
-3.789739
 31
0.0
  0
LINE
  8
0
  6
CONTINUOUS
 62
     7
  5
79F
 10
-4.624947
 20
-3.789739
 30
0.0
 11
-4.624908
 21
-3.78479
 31
0.0
  0
LINE
  8
0
  6
CONTINUOUS
 62
     7
  5
7A0
 10
-4.624908
 20
-3.78479
 30
0.0
 11
-4.624864
 21
-3.779977
 31
0.0
  0
LINE
  8
0
  6
CONTINUOUS
 62
     7
  5
7A1
 10
-4.624864
 20
-3.779977
 30
0.0
 11
-4.624816
 21
-3.775313
 31
0.0
  0
LINE
  8
0
  6
CONTINUOUS
 62
     7
  5
7A2
 10
-4.624816
 20
-3.775313
 30
0.0
 11
-4.624764
 21
-3.770816
 31
0.0
  0
LINE
  8
0
  6
CONTINUOUS
 62
     7
  5
7A3
 10
-4.624764
 20
-3.770816
 30
0.0
 11
-4.624707
 21
-3.766499
 31
0.0
  0
LINE
  8
0
  6
CONTINUOUS
 62
     7
  5
7A4
 10
-4.624707
 20
-3.766499
 30
0.0
 11
-4.624646
 21
-3.762376
 31
0.0
  0
LINE
  8
0
  6
CONTINUOUS
 62
     7
  5
7A5
 10
-4.624646
 20
-3.762376
 30
0.0
 11
-4.62458
 21
-3.758457
 31
0.0
  0
LINE
  8
0
  6
CONTINUOUS
 62
     7
  5
7A6
 10
-4.62458
 20
-3.758457
 30
0.0
 11
-4.62451
 21
-3.754736
 31
0.0
  0
LINE
  8
0
  6
CONTINUOUS
 62
     7
  5
7A7
 10
-4.62451
 20
-3.754736
 30
0.0
 11
-4.624434
 21
-3.751143
 31
0.0
  0
LINE
  8
0
  6
CONTINUOUS
 62
     7
  5
7A8
 10
-4.624434
 20
-3.751143
 30
0.0
 11
-4.624351
 21
-3.747684
 31
0.0
  0
LINE
  8
0
  6
CONTINUOUS
 62
     7
  5
7A9
 10
-4.624351
 20
-3.747684
 30
0.0
 11
-4.624262
 21
-3.744378
 31
0.0
  0
LINE
  8
0
  6
CONTINUOUS
 62
     7
  5
7AA
 10
-4.624262
 20
-3.744378
 30
0.0
 11
-4.624166
 21
-3.741244
 31
0.0
  0
LINE
  8
0
  6
CONTINUOUS
 62
     7
  5
7AB
 10
-4.624166
 20
-3.741244
 30
0.0
 11
-4.624063
 21
-3.738297
 31
0.0
  0
LINE
  8
0
  6
CONTINUOUS
 62
     7
  5
7AC
 10
-4.624063
 20
-3.738297
 30
0.0
 11
-4.623953
 21
-3.735553
 31
0.0
  0
LINE
  8
0
  6
CONTINUOUS
 62
     7
  5
7AD
 10
-4.623953
 20
-3.735553
 30
0.0
 11
-4.623836
 21
-3.733024
 31
0.0
  0
LINE
  8
0
  6
CONTINUOUS
 62
     7
  5
7AE
 10
-4.623836
 20
-3.733024
 30
0.0
 11
-4.623713
 21
-3.73072
 31
0.0
  0
LINE
  8
0
  6
CONTINUOUS
 62
     7
  5
7AF
 10
-4.623713
 20
-3.73072
 30
0.0
 11
-4.623584
 21
-3.728649
 31
0.0
  0
LINE
  8
0
  6
CONTINUOUS
 62
     7
  5
7B0
 10
-4.623584
 20
-3.728649
 30
0.0
 11
-4.623447
 21
-3.726818
 31
0.0
  0
LINE
  8
0
  6
CONTINUOUS
 62
     7
  5
7B1
 10
-4.623447
 20
-3.726818
 30
0.0
 11
-4.623305
 21
-3.725232
 31
0.0
  0
LINE
  8
0
  6
CONTINUOUS
 62
     7
  5
7B2
 10
-4.623305
 20
-3.725232
 30
0.0
 11
-4.623158
 21
-3.723894
 31
0.0
  0
LINE
  8
0
  6
CONTINUOUS
 62
     7
  5
7B3
 10
-4.623158
 20
-3.723894
 30
0.0
 11
-4.623005
 21
-3.722807
 31
0.0
  0
LINE
  8
0
  6
CONTINUOUS
 62
     7
  5
7B4
 10
-4.623005
 20
-3.722807
 30
0.0
 11
-4.622847
 21
-3.721969
 31
0.0
  0
LINE
  8
0
  6
CONTINUOUS
 62
     7
  5
7B5
 10
-4.622847
 20
-3.721969
 30
0.0
 11
-4.622686
 21
-3.721378
 31
0.0
  0
LINE
  8
0
  6
CONTINUOUS
 62
     7
  5
7B6
 10
-4.622686
 20
-3.721378
 30
0.0
 11
-4.622521
 21
-3.721028
 31
0.0
  0
LINE
  8
0
  6
CONTINUOUS
 62
     7
  5
7B7
 10
-4.622521
 20
-3.721028
 30
0.0
 11
-4.622354
 21
-3.720914
 31
0.0
  0
LINE
  8
0
  6
CONTINUOUS
 62
     7
  5
7B8
 10
-4.595339
 20
-2.444686
 30
0.0
 11
-4.595847
 21
-2.444572
 31
0.0
  0
LINE
  8
0
  6
CONTINUOUS
 62
     7
  5
7B9
 10
-4.595847
 20
-2.444572
 30
0.0
 11
-4.596356
 21
-2.444225
 31
0.0
  0
LINE
  8
0
  6
CONTINUOUS
 62
     7
  5
7BA
 10
-4.596356
 20
-2.444225
 30
0.0
 11
-4.596865
 21
-2.443636
 31
0.0
  0
LINE
  8
0
  6
CONTINUOUS
 62
     7
  5
7BB
 10
-4.596865
 20
-2.443636
 30
0.0
 11
-4.597372
 21
-2.442801
 31
0.0
  0
LINE
  8
0
  6
CONTINUOUS
 62
     7
  5
7BC
 10
-4.597372
 20
-2.442801
 30
0.0
 11
-4.597873
 21
-2.441718
 31
0.0
  0
LINE
  8
0
  6
CONTINUOUS
 62
     7
  5
7BD
 10
-4.597873
 20
-2.441718
 30
0.0
 11
-4.598368
 21
-2.440385
 31
0.0
  0
LINE
  8
0
  6
CONTINUOUS
 62
     7
  5
7BE
 10
-4.598368
 20
-2.440385
 30
0.0
 11
-4.598853
 21
-2.438805
 31
0.0
  0
LINE
  8
0
  6
CONTINUOUS
 62
     7
  5
7BF
 10
-4.598853
 20
-2.438805
 30
0.0
 11
-4.599329
 21
-2.43698
 31
0.0
  0
LINE
  8
0
  6
CONTINUOUS
 62
     7
  5
7C0
 10
-4.599329
 20
-2.43698
 30
0.0
 11
-4.599793
 21
-2.434915
 31
0.0
  0
LINE
  8
0
  6
CONTINUOUS
 62
     7
  5
7C1
 10
-4.599793
 20
-2.434915
 30
0.0
 11
-4.600244
 21
-2.432618
 31
0.0
  0
LINE
  8
0
  6
CONTINUOUS
 62
     7
  5
7C2
 10
-4.600244
 20
-2.432618
 30
0.0
 11
-4.600681
 21
-2.430095
 31
0.0
  0
LINE
  8
0
  6
CONTINUOUS
 62
     7
  5
7C3
 10
-4.600681
 20
-2.430095
 30
0.0
 11
-4.601102
 21
-2.427357
 31
0.0
  0
LINE
  8
0
  6
CONTINUOUS
 62
     7
  5
7C4
 10
-4.601102
 20
-2.427357
 30
0.0
 11
-4.601507
 21
-2.424416
 31
0.0
  0
LINE
  8
0
  6
CONTINUOUS
 62
     7
  5
7C5
 10
-4.601507
 20
-2.424416
 30
0.0
 11
-4.601894
 21
-2.421287
 31
0.0
  0
LINE
  8
0
  6
CONTINUOUS
 62
     7
  5
7C6
 10
-4.601894
 20
-2.421287
 30
0.0
 11
-4.602263
 21
-2.417986
 31
0.0
  0
LINE
  8
0
  6
CONTINUOUS
 62
     7
  5
7C7
 10
-4.602263
 20
-2.417986
 30
0.0
 11
-4.602613
 21
-2.41453
 31
0.0
  0
LINE
  8
0
  6
CONTINUOUS
 62
     7
  5
7C8
 10
-4.602613
 20
-2.41453
 30
0.0
 11
-4.602943
 21
-2.410939
 31
0.0
  0
LINE
  8
0
  6
CONTINUOUS
 62
     7
  5
7C9
 10
-4.602943
 20
-2.410939
 30
0.0
 11
-4.603255
 21
-2.407221
 31
0.0
  0
LINE
  8
0
  6
CONTINUOUS
 62
     7
  5
7CA
 10
-4.603255
 20
-2.407221
 30
0.0
 11
-4.603553
 21
-2.403305
 31
0.0
  0
LINE
  8
0
  6
CONTINUOUS
 62
     7
  5
7CB
 10
-4.603553
 20
-2.403305
 30
0.0
 11
-4.603838
 21
-2.399184
 31
0.0
  0
LINE
  8
0
  6
CONTINUOUS
 62
     7
  5
7CC
 10
-4.603838
 20
-2.399184
 30
0.0
 11
-4.60411
 21
-2.394869
 31
0.0
  0
LINE
  8
0
  6
CONTINUOUS
 62
     7
  5
7CD
 10
-4.60411
 20
-2.394869
 30
0.0
 11
-4.604365
 21
-2.390372
 31
0.0
  0
LINE
  8
0
  6
CONTINUOUS
 62
     7
  5
7CE
 10
-4.604365
 20
-2.390372
 30
0.0
 11
-4.604604
 21
-2.385707
 31
0.0
  0
LINE
  8
0
  6
CONTINUOUS
 62
     7
  5
7CF
 10
-4.604604
 20
-2.385707
 30
0.0
 11
-4.604826
 21
-2.380891
 31
0.0
  0
LINE
  8
0
  6
CONTINUOUS
 62
     7
  5
7D0
 10
-4.604826
 20
-2.380891
 30
0.0
 11
-4.605029
 21
-2.375939
 31
0.0
  0
LINE
  8
0
  6
CONTINUOUS
 62
     7
  5
7D1
 10
-4.605029
 20
-2.375939
 30
0.0
 11
-4.605213
 21
-2.370868
 31
0.0
  0
LINE
  8
0
  6
CONTINUOUS
 62
     7
  5
7D2
 10
-4.605213
 20
-2.370868
 30
0.0
 11
-4.605378
 21
-2.365695
 31
0.0
  0
LINE
  8
0
  6
CONTINUOUS
 62
     7
  5
7D3
 10
-4.605378
 20
-2.365695
 30
0.0
 11
-4.605524
 21
-2.360436
 31
0.0
  0
LINE
  8
0
  6
CONTINUOUS
 62
     7
  5
7D4
 10
-4.605524
 20
-2.360436
 30
0.0
 11
-4.605649
 21
-2.35511
 31
0.0
  0
LINE
  8
0
  6
CONTINUOUS
 62
     7
  5
7D5
 10
-4.605649
 20
-2.35511
 30
0.0
 11
-4.605755
 21
-2.349736
 31
0.0
  0
LINE
  8
0
  6
CONTINUOUS
 62
     7
  5
7D6
 10
-4.605755
 20
-2.349736
 30
0.0
 11
-4.60584
 21
-2.344335
 31
0.0
  0
LINE
  8
0
  6
CONTINUOUS
 62
     7
  5
7D7
 10
-4.60584
 20
-2.344335
 30
0.0
 11
-4.605906
 21
-2.338929
 31
0.0
  0
LINE
  8
0
  6
CONTINUOUS
 62
     7
  5
7D8
 10
-4.605906
 20
-2.338929
 30
0.0
 11
-4.605952
 21
-2.33354
 31
0.0
  0
LINE
  8
0
  6
CONTINUOUS
 62
     7
  5
7D9
 10
-4.605952
 20
-2.33354
 30
0.0
 11
-4.60598
 21
-2.32819
 31
0.0
  0
LINE
  8
0
  6
CONTINUOUS
 62
     7
  5
7DA
 10
-4.60598
 20
-2.32819
 30
0.0
 11
-4.605989
 21
-2.3229
 31
0.0
  0
LINE
  8
0
  6
CONTINUOUS
 62
     7
  5
7DB
 10
-4.595339
 20
-2.201114
 30
0.0
 11
-4.594303
 21
-2.201576
 31
0.0
  0
LINE
  8
0
  6
CONTINUOUS
 62
     7
  5
7DC
 10
-4.594303
 20
-2.201576
 30
0.0
 11
-4.593234
 21
-2.203
 31
0.0
  0
LINE
  8
0
  6
CONTINUOUS
 62
     7
  5
7DD
 10
-4.593234
 20
-2.203
 30
0.0
 11
-4.592148
 21
-2.205417
 31
0.0
  0
LINE
  8
0
  6
CONTINUOUS
 62
     7
  5
7DE
 10
-4.592148
 20
-2.205417
 30
0.0
 11
-4.591064
 21
-2.208823
 31
0.0
  0
LINE
  8
0
  6
CONTINUOUS
 62
     7
  5
7DF
 10
-4.591064
 20
-2.208823
 30
0.0
 11
-4.589998
 21
-2.213184
 31
0.0
  0
LINE
  8
0
  6
CONTINUOUS
 62
     7
  5
7E0
 10
-4.589998
 20
-2.213184
 30
0.0
 11
-4.588964
 21
-2.218442
 31
0.0
  0
LINE
  8
0
  6
CONTINUOUS
 62
     7
  5
7E1
 10
-4.588964
 20
-2.218442
 30
0.0
 11
-4.587981
 21
-2.224509
 31
0.0
  0
LINE
  8
0
  6
CONTINUOUS
 62
     7
  5
7E2
 10
-4.587981
 20
-2.224509
 30
0.0
 11
-4.587062
 21
-2.231263
 31
0.0
  0
LINE
  8
0
  6
CONTINUOUS
 62
     7
  5
7E3
 10
-4.587062
 20
-2.231263
 30
0.0
 11
-4.586221
 21
-2.238567
 31
0.0
  0
LINE
  8
0
  6
CONTINUOUS
 62
     7
  5
7E4
 10
-4.586221
 20
-2.238567
 30
0.0
 11
-4.585436
 21
-2.246599
 31
0.0
  0
LINE
  8
0
  6
CONTINUOUS
 62
     7
  5
7E5
 10
-4.585436
 20
-2.246599
 30
0.0
 11
-4.584712
 21
-2.255408
 31
0.0
  0
LINE
  8
0
  6
CONTINUOUS
 62
     7
  5
7E6
 10
-4.584712
 20
-2.255408
 30
0.0
 11
-4.584066
 21
-2.264887
 31
0.0
  0
LINE
  8
0
  6
CONTINUOUS
 62
     7
  5
7E7
 10
-4.584066
 20
-2.264887
 30
0.0
 11
-4.583513
 21
-2.274909
 31
0.0
  0
LINE
  8
0
  6
CONTINUOUS
 62
     7
  5
7E8
 10
-4.583513
 20
-2.274909
 30
0.0
 11
-4.583063
 21
-2.285343
 31
0.0
  0
LINE
  8
0
  6
CONTINUOUS
 62
     7
  5
7E9
 10
-4.583063
 20
-2.285343
 30
0.0
 11
-4.582725
 21
-2.296048
 31
0.0
  0
LINE
  8
0
  6
CONTINUOUS
 62
     7
  5
7EA
 10
-4.582725
 20
-2.296048
 30
0.0
 11
-4.582501
 21
-2.30686
 31
0.0
  0
LINE
  8
0
  6
CONTINUOUS
 62
     7
  5
7EB
 10
-4.582501
 20
-2.30686
 30
0.0
 11
-4.582391
 21
-2.317606
 31
0.0
  0
LINE
  8
0
  6
CONTINUOUS
 62
     7
  5
7EC
 10
-4.582391
 20
-2.317606
 30
0.0
 11
-4.582391
 21
-2.328194
 31
0.0
  0
LINE
  8
0
  6
CONTINUOUS
 62
     7
  5
7ED
 10
-4.582391
 20
-2.328194
 30
0.0
 11
-4.582501
 21
-2.33894
 31
0.0
  0
LINE
  8
0
  6
CONTINUOUS
 62
     7
  5
7EE
 10
-4.582501
 20
-2.33894
 30
0.0
 11
-4.582725
 21
-2.349752
 31
0.0
  0
LINE
  8
0
  6
CONTINUOUS
 62
     7
  5
7EF
 10
-4.582725
 20
-2.349752
 30
0.0
 11
-4.583063
 21
-2.360457
 31
0.0
  0
LINE
  8
0
  6
CONTINUOUS
 62
     7
  5
7F0
 10
-4.583063
 20
-2.360457
 30
0.0
 11
-4.583513
 21
-2.370891
 31
0.0
  0
LINE
  8
0
  6
CONTINUOUS
 62
     7
  5
7F1
 10
-4.583513
 20
-2.370891
 30
0.0
 11
-4.584066
 21
-2.380913
 31
0.0
  0
LINE
  8
0
  6
CONTINUOUS
 62
     7
  5
7F2
 10
-4.584066
 20
-2.380913
 30
0.0
 11
-4.584712
 21
-2.390392
 31
0.0
  0
LINE
  8
0
  6
CONTINUOUS
 62
     7
  5
7F3
 10
-4.584712
 20
-2.390392
 30
0.0
 11
-4.585436
 21
-2.399201
 31
0.0
  0
LINE
  8
0
  6
CONTINUOUS
 62
     7
  5
7F4
 10
-4.585436
 20
-2.399201
 30
0.0
 11
-4.586221
 21
-2.407233
 31
0.0
  0
LINE
  8
0
  6
CONTINUOUS
 62
     7
  5
7F5
 10
-4.586221
 20
-2.407233
 30
0.0
 11
-4.587062
 21
-2.414537
 31
0.0
  0
LINE
  8
0
  6
CONTINUOUS
 62
     7
  5
7F6
 10
-4.587062
 20
-2.414537
 30
0.0
 11
-4.587981
 21
-2.421291
 31
0.0
  0
LINE
  8
0
  6
CONTINUOUS
 62
     7
  5
7F7
 10
-4.587981
 20
-2.421291
 30
0.0
 11
-4.588964
 21
-2.427358
 31
0.0
  0
LINE
  8
0
  6
CONTINUOUS
 62
     7
  5
7F8
 10
-4.588964
 20
-2.427358
 30
0.0
 11
-4.589998
 21
-2.432616
 31
0.0
  0
LINE
  8
0
  6
CONTINUOUS
 62
     7
  5
7F9
 10
-4.589998
 20
-2.432616
 30
0.0
 11
-4.591064
 21
-2.436977
 31
0.0
  0
LINE
  8
0
  6
CONTINUOUS
 62
     7
  5
7FA
 10
-4.591064
 20
-2.436977
 30
0.0
 11
-4.592148
 21
-2.440383
 31
0.0
  0
LINE
  8
0
  6
CONTINUOUS
 62
     7
  5
7FB
 10
-4.592148
 20
-2.440383
 30
0.0
 11
-4.593234
 21
-2.4428
 31
0.0
  0
LINE
  8
0
  6
CONTINUOUS
 62
     7
  5
7FC
 10
-4.593234
 20
-2.4428
 30
0.0
 11
-4.594303
 21
-2.444224
 31
0.0
  0
LINE
  8
0
  6
CONTINUOUS
 62
     7
  5
7FD
 10
-4.594303
 20
-2.444224
 30
0.0
 11
-4.595339
 21
-2.444686
 31
0.0
  0
LINE
  8
0
  6
CONTINUOUS
 62
     7
  5
7FE
 10
-4.605989
 20
-2.3229
 30
0.0
 11
-4.60598
 21
-2.31761
 31
0.0
  0
LINE
  8
0
  6
CONTINUOUS
 62
     7
  5
7FF
 10
-4.60598
 20
-2.31761
 30
0.0
 11
-4.605952
 21
-2.31226
 31
0.0
  0
LINE
  8
0
  6
CONTINUOUS
 62
     7
  5
800
 10
-4.605952
 20
-2.31226
 30
0.0
 11
-4.605906
 21
-2.306871
 31
0.0
  0
LINE
  8
0
  6
CONTINUOUS
 62
     7
  5
801
 10
-4.605906
 20
-2.306871
 30
0.0
 11
-4.60584
 21
-2.301465
 31
0.0
  0
LINE
  8
0
  6
CONTINUOUS
 62
     7
  5
802
 10
-4.60584
 20
-2.301465
 30
0.0
 11
-4.605755
 21
-2.296064
 31
0.0
  0
LINE
  8
0
  6
CONTINUOUS
 62
     7
  5
803
 10
-4.605755
 20
-2.296064
 30
0.0
 11
-4.605649
 21
-2.29069
 31
0.0
  0
LINE
  8
0
  6
CONTINUOUS
 62
     7
  5
804
 10
-4.605649
 20
-2.29069
 30
0.0
 11
-4.605524
 21
-2.285364
 31
0.0
  0
LINE
  8
0
  6
CONTINUOUS
 62
     7
  5
805
 10
-4.605524
 20
-2.285364
 30
0.0
 11
-4.605378
 21
-2.280105
 31
0.0
  0
LINE
  8
0
  6
CONTINUOUS
 62
     7
  5
806
 10
-4.605378
 20
-2.280105
 30
0.0
 11
-4.605213
 21
-2.274932
 31
0.0
  0
LINE
  8
0
  6
CONTINUOUS
 62
     7
  5
807
 10
-4.605213
 20
-2.274932
 30
0.0
 11
-4.605029
 21
-2.269861
 31
0.0
  0
LINE
  8
0
  6
CONTINUOUS
 62
     7
  5
808
 10
-4.605029
 20
-2.269861
 30
0.0
 11
-4.604826
 21
-2.264909
 31
0.0
  0
LINE
  8
0
  6
CONTINUOUS
 62
     7
  5
809
 10
-4.604826
 20
-2.264909
 30
0.0
 11
-4.604604
 21
-2.260093
 31
0.0
  0
LINE
  8
0
  6
CONTINUOUS
 62
     7
  5
80A
 10
-4.604604
 20
-2.260093
 30
0.0
 11
-4.604365
 21
-2.255428
 31
0.0
  0
LINE
  8
0
  6
CONTINUOUS
 62
     7
  5
80B
 10
-4.604365
 20
-2.255428
 30
0.0
 11
-4.60411
 21
-2.250931
 31
0.0
  0
LINE
  8
0
  6
CONTINUOUS
 62
     7
  5
80C
 10
-4.60411
 20
-2.250931
 30
0.0
 11
-4.603838
 21
-2.246616
 31
0.0
  0
LINE
  8
0
  6
CONTINUOUS
 62
     7
  5
80D
 10
-4.603838
 20
-2.246616
 30
0.0
 11
-4.603553
 21
-2.242495
 31
0.0
  0
LINE
  8
0
  6
CONTINUOUS
 62
     7
  5
80E
 10
-4.603553
 20
-2.242495
 30
0.0
 11
-4.603255
 21
-2.238579
 31
0.0
  0
LINE
  8
0
  6
CONTINUOUS
 62
     7
  5
80F
 10
-4.603255
 20
-2.238579
 30
0.0
 11
-4.602943
 21
-2.234861
 31
0.0
  0
LINE
  8
0
  6
CONTINUOUS
 62
     7
  5
810
 10
-4.602943
 20
-2.234861
 30
0.0
 11
-4.602613
 21
-2.23127
 31
0.0
  0
LINE
  8
0
  6
CONTINUOUS
 62
     7
  5
811
 10
-4.602613
 20
-2.23127
 30
0.0
 11
-4.602263
 21
-2.227814
 31
0.0
  0
LINE
  8
0
  6
CONTINUOUS
 62
     7
  5
812
 10
-4.602263
 20
-2.227814
 30
0.0
 11
-4.601894
 21
-2.224513
 31
0.0
  0
LINE
  8
0
  6
CONTINUOUS
 62
     7
  5
813
 10
-4.601894
 20
-2.224513
 30
0.0
 11
-4.601507
 21
-2.221384
 31
0.0
  0
LINE
  8
0
  6
CONTINUOUS
 62
     7
  5
814
 10
-4.601507
 20
-2.221384
 30
0.0
 11
-4.601102
 21
-2.218443
 31
0.0
  0
LINE
  8
0
  6
CONTINUOUS
 62
     7
  5
815
 10
-4.601102
 20
-2.218443
 30
0.0
 11
-4.600681
 21
-2.215705
 31
0.0
  0
LINE
  8
0
  6
CONTINUOUS
 62
     7
  5
816
 10
-4.600681
 20
-2.215705
 30
0.0
 11
-4.600244
 21
-2.213182
 31
0.0
  0
LINE
  8
0
  6
CONTINUOUS
 62
     7
  5
817
 10
-4.600244
 20
-2.213182
 30
0.0
 11
-4.599793
 21
-2.210885
 31
0.0
  0
LINE
  8
0
  6
CONTINUOUS
 62
     7
  5
818
 10
-4.599793
 20
-2.210885
 30
0.0
 11
-4.599329
 21
-2.20882
 31
0.0
  0
LINE
  8
0
  6
CONTINUOUS
 62
     7
  5
819
 10
-4.599329
 20
-2.20882
 30
0.0
 11
-4.598853
 21
-2.206995
 31
0.0
  0
LINE
  8
0
  6
CONTINUOUS
 62
     7
  5
81A
 10
-4.598853
 20
-2.206995
 30
0.0
 11
-4.598368
 21
-2.205415
 31
0.0
  0
LINE
  8
0
  6
CONTINUOUS
 62
     7
  5
81B
 10
-4.598368
 20
-2.205415
 30
0.0
 11
-4.597873
 21
-2.204082
 31
0.0
  0
LINE
  8
0
  6
CONTINUOUS
 62
     7
  5
81C
 10
-4.597873
 20
-2.204082
 30
0.0
 11
-4.597372
 21
-2.202999
 31
0.0
  0
LINE
  8
0
  6
CONTINUOUS
 62
     7
  5
81D
 10
-4.597372
 20
-2.202999
 30
0.0
 11
-4.596865
 21
-2.202164
 31
0.0
  0
LINE
  8
0
  6
CONTINUOUS
 62
     7
  5
81E
 10
-4.596865
 20
-2.202164
 30
0.0
 11
-4.596356
 21
-2.201575
 31
0.0
  0
LINE
  8
0
  6
CONTINUOUS
 62
     7
  5
81F
 10
-4.596356
 20
-2.201575
 30
0.0
 11
-4.595847
 21
-2.201228
 31
0.0
  0
LINE
  8
0
  6
CONTINUOUS
 62
     7
  5
820
 10
-4.595847
 20
-2.201228
 30
0.0
 11
-4.595339
 21
-2.201114
 31
0.0
  0
LINE
  8
0
  6
CONTINUOUS
 62
     7
  5
821
 10
-4.622354
 20
-2.444686
 30
0.0
 11
-4.622521
 21
-2.444572
 31
0.0
  0
LINE
  8
0
  6
CONTINUOUS
 62
     7
  5
822
 10
-4.622521
 20
-2.444572
 30
0.0
 11
-4.622686
 21
-2.444222
 31
0.0
  0
LINE
  8
0
  6
CONTINUOUS
 62
     7
  5
823
 10
-4.622686
 20
-2.444222
 30
0.0
 11
-4.622847
 21
-2.443631
 31
0.0
  0
LINE
  8
0
  6
CONTINUOUS
 62
     7
  5
824
 10
-4.622847
 20
-2.443631
 30
0.0
 11
-4.623005
 21
-2.442793
 31
0.0
  0
LINE
  8
0
  6
CONTINUOUS
 62
     7
  5
825
 10
-4.623005
 20
-2.442793
 30
0.0
 11
-4.623158
 21
-2.441706
 31
0.0
  0
LINE
  8
0
  6
CONTINUOUS
 62
     7
  5
826
 10
-4.623158
 20
-2.441706
 30
0.0
 11
-4.623305
 21
-2.440368
 31
0.0
  0
LINE
  8
0
  6
CONTINUOUS
 62
     7
  5
827
 10
-4.623305
 20
-2.440368
 30
0.0
 11
-4.623447
 21
-2.438782
 31
0.0
  0
LINE
  8
0
  6
CONTINUOUS
 62
     7
  5
828
 10
-4.623447
 20
-2.438782
 30
0.0
 11
-4.623584
 21
-2.436951
 31
0.0
  0
LINE
  8
0
  6
CONTINUOUS
 62
     7
  5
829
 10
-4.623584
 20
-2.436951
 30
0.0
 11
-4.623713
 21
-2.43488
 31
0.0
  0
LINE
  8
0
  6
CONTINUOUS
 62
     7
  5
82A
 10
-4.623713
 20
-2.43488
 30
0.0
 11
-4.623836
 21
-2.432576
 31
0.0
  0
LINE
  8
0
  6
CONTINUOUS
 62
     7
  5
82B
 10
-4.623836
 20
-2.432576
 30
0.0
 11
-4.623953
 21
-2.430047
 31
0.0
  0
LINE
  8
0
  6
CONTINUOUS
 62
     7
  5
82C
 10
-4.623953
 20
-2.430047
 30
0.0
 11
-4.624063
 21
-2.427303
 31
0.0
  0
LINE
  8
0
  6
CONTINUOUS
 62
     7
  5
82D
 10
-4.624063
 20
-2.427303
 30
0.0
 11
-4.624166
 21
-2.424356
 31
0.0
  0
LINE
  8
0
  6
CONTINUOUS
 62
     7
  5
82E
 10
-4.624166
 20
-2.424356
 30
0.0
 11
-4.624262
 21
-2.421222
 31
0.0
  0
LINE
  8
0
  6
CONTINUOUS
 62
     7
  5
82F
 10
-4.624262
 20
-2.421222
 30
0.0
 11
-4.624351
 21
-2.417916
 31
0.0
  0
LINE
  8
0
  6
CONTINUOUS
 62
     7
  5
830
 10
-4.624351
 20
-2.417916
 30
0.0
 11
-4.624434
 21
-2.414457
 31
0.0
  0
LINE
  8
0
  6
CONTINUOUS
 62
     7
  5
831
 10
-4.624434
 20
-2.414457
 30
0.0
 11
-4.62451
 21
-2.410864
 31
0.0
  0
LINE
  8
0
  6
CONTINUOUS
 62
     7
  5
832
 10
-4.62451
 20
-2.410864
 30
0.0
 11
-4.62458
 21
-2.407143
 31
0.0
  0
LINE
  8
0
  6
CONTINUOUS
 62
     7
  5
833
 10
-4.62458
 20
-2.407143
 30
0.0
 11
-4.624646
 21
-2.403224
 31
0.0
  0
LINE
  8
0
  6
CONTINUOUS
 62
     7
  5
834
 10
-4.624646
 20
-2.403224
 30
0.0
 11
-4.624707
 21
-2.399101
 31
0.0
  0
LINE
  8
0
  6
CONTINUOUS
 62
     7
  5
835
 10
-4.624707
 20
-2.399101
 30
0.0
 11
-4.624764
 21
-2.394784
 31
0.0
  0
LINE
  8
0
  6
CONTINUOUS
 62
     7
  5
836
 10
-4.624764
 20
-2.394784
 30
0.0
 11
-4.624816
 21
-2.390287
 31
0.0
  0
LINE
  8
0
  6
CONTINUOUS
 62
     7
  5
837
 10
-4.624816
 20
-2.390287
 30
0.0
 11
-4.624864
 21
-2.385623
 31
0.0
  0
LINE
  8
0
  6
CONTINUOUS
 62
     7
  5
838
 10
-4.624864
 20
-2.385623
 30
0.0
 11
-4.624908
 21
-2.38081
 31
0.0
  0
LINE
  8
0
  6
CONTINUOUS
 62
     7
  5
839
 10
-4.624908
 20
-2.38081
 30
0.0
 11
-4.624947
 21
-2.375861
 31
0.0
  0
LINE
  8
0
  6
CONTINUOUS
 62
     7
  5
83A
 10
-4.624947
 20
-2.375861
 30
0.0
 11
-4.624981
 21
-2.370795
 31
0.0
  0
LINE
  8
0
  6
CONTINUOUS
 62
     7
  5
83B
 10
-4.624981
 20
-2.370795
 30
0.0
 11
-4.625012
 21
-2.365628
 31
0.0
  0
LINE
  8
0
  6
CONTINUOUS
 62
     7
  5
83C
 10
-4.625012
 20
-2.365628
 30
0.0
 11
-4.625038
 21
-2.360375
 31
0.0
  0
LINE
  8
0
  6
CONTINUOUS
 62
     7
  5
83D
 10
-4.625038
 20
-2.360375
 30
0.0
 11
-4.625061
 21
-2.355056
 31
0.0
  0
LINE
  8
0
  6
CONTINUOUS
 62
     7
  5
83E
 10
-4.625061
 20
-2.355056
 30
0.0
 11
-4.625079
 21
-2.34969
 31
0.0
  0
LINE
  8
0
  6
CONTINUOUS
 62
     7
  5
83F
 10
-4.625079
 20
-2.34969
 30
0.0
 11
-4.625094
 21
-2.344297
 31
0.0
  0
LINE
  8
0
  6
CONTINUOUS
 62
     7
  5
840
 10
-4.625094
 20
-2.344297
 30
0.0
 11
-4.625106
 21
-2.3389
 31
0.0
  0
LINE
  8
0
  6
CONTINUOUS
 62
     7
  5
841
 10
-4.625106
 20
-2.3389
 30
0.0
 11
-4.625114
 21
-2.333521
 31
0.0
  0
LINE
  8
0
  6
CONTINUOUS
 62
     7
  5
842
 10
-4.625114
 20
-2.333521
 30
0.0
 11
-4.625118
 21
-2.32818
 31
0.0
  0
LINE
  8
0
  6
CONTINUOUS
 62
     7
  5
843
 10
-4.625118
 20
-2.32818
 30
0.0
 11
-4.62512
 21
-2.3229
 31
0.0
  0
LINE
  8
0
  6
CONTINUOUS
 62
     7
  5
844
 10
-4.622354
 20
-2.201114
 30
0.0
 11
-4.622005
 21
-2.201578
 31
0.0
  0
LINE
  8
0
  6
CONTINUOUS
 62
     7
  5
845
 10
-4.622005
 20
-2.201578
 30
0.0
 11
-4.621633
 21
-2.203007
 31
0.0
  0
LINE
  8
0
  6
CONTINUOUS
 62
     7
  5
846
 10
-4.621633
 20
-2.203007
 30
0.0
 11
-4.621243
 21
-2.205433
 31
0.0
  0
LINE
  8
0
  6
CONTINUOUS
 62
     7
  5
847
 10
-4.621243
 20
-2.205433
 30
0.0
 11
-4.620843
 21
-2.20885
 31
0.0
  0
LINE
  8
0
  6
CONTINUOUS
 62
     7
  5
848
 10
-4.620843
 20
-2.20885
 30
0.0
 11
-4.62044
 21
-2.213224
 31
0.0
  0
LINE
  8
0
  6
CONTINUOUS
 62
     7
  5
849
 10
-4.62044
 20
-2.213224
 30
0.0
 11
-4.62004
 21
-2.218497
 31
0.0
  0
LINE
  8
0
  6
CONTINUOUS
 62
     7
  5
84A
 10
-4.62004
 20
-2.218497
 30
0.0
 11
-4.619651
 21
-2.224577
 31
0.0
  0
LINE
  8
0
  6
CONTINUOUS
 62
     7
  5
84B
 10
-4.619651
 20
-2.224577
 30
0.0
 11
-4.619282
 21
-2.23134
 31
0.0
  0
LINE
  8
0
  6
CONTINUOUS
 62
     7
  5
84C
 10
-4.619282
 20
-2.23134
 30
0.0
 11
-4.618938
 21
-2.238653
 31
0.0
  0
LINE
  8
0
  6
CONTINUOUS
 62
     7
  5
84D
 10
-4.618938
 20
-2.238653
 30
0.0
 11
-4.618612
 21
-2.246694
 31
0.0
  0
LINE
  8
0
  6
CONTINUOUS
 62
     7
  5
84E
 10
-4.618612
 20
-2.246694
 30
0.0
 11
-4.618308
 21
-2.255506
 31
0.0
  0
LINE
  8
0
  6
CONTINUOUS
 62
     7
  5
84F
 10
-4.618308
 20
-2.255506
 30
0.0
 11
-4.618034
 21
-2.264983
 31
0.0
  0
LINE
  8
0
  6
CONTINUOUS
 62
     7
  5
850
 10
-4.618034
 20
-2.264983
 30
0.0
 11
-4.617797
 21
-2.274997
 31
0.0
  0
LINE
  8
0
  6
CONTINUOUS
 62
     7
  5
851
 10
-4.617797
 20
-2.274997
 30
0.0
 11
-4.617604
 21
-2.285418
 31
0.0
  0
LINE
  8
0
  6
CONTINUOUS
 62
     7
  5
852
 10
-4.617604
 20
-2.285418
 30
0.0
 11
-4.617457
 21
-2.296105
 31
0.0
  0
LINE
  8
0
  6
CONTINUOUS
 62
     7
  5
853
 10
-4.617457
 20
-2.296105
 30
0.0
 11
-4.617359
 21
-2.306896
 31
0.0
  0
LINE
  8
0
  6
CONTINUOUS
 62
     7
  5
854
 10
-4.617359
 20
-2.306896
 30
0.0
 11
-4.617312
 21
-2.317618
 31
0.0
  0
LINE
  8
0
  6
CONTINUOUS
 62
     7
  5
855
 10
-4.617312
 20
-2.317618
 30
0.0
 11
-4.617312
 21
-2.328182
 31
0.0
  0
LINE
  8
0
  6
CONTINUOUS
 62
     7
  5
856
 10
-4.617312
 20
-2.328182
 30
0.0
 11
-4.617359
 21
-2.338904
 31
0.0
  0
LINE
  8
0
  6
CONTINUOUS
 62
     7
  5
857
 10
-4.617359
 20
-2.338904
 30
0.0
 11
-4.617457
 21
-2.349695
 31
0.0
  0
LINE
  8
0
  6
CONTINUOUS
 62
     7
  5
858
 10
-4.617457
 20
-2.349695
 30
0.0
 11
-4.617604
 21
-2.360382
 31
0.0
  0
LINE
  8
0
  6
CONTINUOUS
 62
     7
  5
859
 10
-4.617604
 20
-2.360382
 30
0.0
 11
-4.617797
 21
-2.370803
 31
0.0
  0
LINE
  8
0
  6
CONTINUOUS
 62
     7
  5
85A
 10
-4.617797
 20
-2.370803
 30
0.0
 11
-4.618034
 21
-2.380817
 31
0.0
  0
LINE
  8
0
  6
CONTINUOUS
 62
     7
  5
85B
 10
-4.618034
 20
-2.380817
 30
0.0
 11
-4.618308
 21
-2.390294
 31
0.0
  0
LINE
  8
0
  6
CONTINUOUS
 62
     7
  5
85C
 10
-4.618308
 20
-2.390294
 30
0.0
 11
-4.618612
 21
-2.399106
 31
0.0
  0
LINE
  8
0
  6
CONTINUOUS
 62
     7
  5
85D
 10
-4.618612
 20
-2.399106
 30
0.0
 11
-4.618938
 21
-2.407147
 31
0.0
  0
LINE
  8
0
  6
CONTINUOUS
 62
     7
  5
85E
 10
-4.618938
 20
-2.407147
 30
0.0
 11
-4.619282
 21
-2.41446
 31
0.0
  0
LINE
  8
0
  6
CONTINUOUS
 62
     7
  5
85F
 10
-4.619282
 20
-2.41446
 30
0.0
 11
-4.619651
 21
-2.421223
 31
0.0
  0
LINE
  8
0
  6
CONTINUOUS
 62
     7
  5
860
 10
-4.619651
 20
-2.421223
 30
0.0
 11
-4.62004
 21
-2.427303
 31
0.0
  0
LINE
  8
0
  6
CONTINUOUS
 62
     7
  5
861
 10
-4.62004
 20
-2.427303
 30
0.0
 11
-4.62044
 21
-2.432576
 31
0.0
  0
LINE
  8
0
  6
CONTINUOUS
 62
     7
  5
862
 10
-4.62044
 20
-2.432576
 30
0.0
 11
-4.620843
 21
-2.43695
 31
0.0
  0
LINE
  8
0
  6
CONTINUOUS
 62
     7
  5
863
 10
-4.620843
 20
-2.43695
 30
0.0
 11
-4.621243
 21
-2.440367
 31
0.0
  0
LINE
  8
0
  6
CONTINUOUS
 62
     7
  5
864
 10
-4.621243
 20
-2.440367
 30
0.0
 11
-4.621633
 21
-2.442793
 31
0.0
  0
LINE
  8
0
  6
CONTINUOUS
 62
     7
  5
865
 10
-4.621633
 20
-2.442793
 30
0.0
 11
-4.622005
 21
-2.444222
 31
0.0
  0
LINE
  8
0
  6
CONTINUOUS
 62
     7
  5
866
 10
-4.622005
 20
-2.444222
 30
0.0
 11
-4.622354
 21
-2.444686
 31
0.0
  0
LINE
  8
0
  6
CONTINUOUS
 62
     7
  5
867
 10
-4.62512
 20
-2.3229
 30
0.0
 11
-4.625118
 21
-2.31762
 31
0.0
  0
LINE
  8
0
  6
CONTINUOUS
 62
     7
  5
868
 10
-4.625118
 20
-2.31762
 30
0.0
 11
-4.625114
 21
-2.312279
 31
0.0
  0
LINE
  8
0
  6
CONTINUOUS
 62
     7
  5
869
 10
-4.625114
 20
-2.312279
 30
0.0
 11
-4.625106
 21
-2.3069
 31
0.0
  0
LINE
  8
0
  6
CONTINUOUS
 62
     7
  5
86A
 10
-4.625106
 20
-2.3069
 30
0.0
 11
-4.625094
 21
-2.301503
 31
0.0
  0
LINE
  8
0
  6
CONTINUOUS
 62
     7
  5
86B
 10
-4.625094
 20
-2.301503
 30
0.0
 11
-4.625079
 21
-2.29611
 31
0.0
  0
LINE
  8
0
  6
CONTINUOUS
 62
     7
  5
86C
 10
-4.625079
 20
-2.29611
 30
0.0
 11
-4.625061
 21
-2.290744
 31
0.0
  0
LINE
  8
0
  6
CONTINUOUS
 62
     7
  5
86D
 10
-4.625061
 20
-2.290744
 30
0.0
 11
-4.625038
 21
-2.285425
 31
0.0
  0
LINE
  8
0
  6
CONTINUOUS
 62
     7
  5
86E
 10
-4.625038
 20
-2.285425
 30
0.0
 11
-4.625012
 21
-2.280172
 31
0.0
  0
LINE
  8
0
  6
CONTINUOUS
 62
     7
  5
86F
 10
-4.625012
 20
-2.280172
 30
0.0
 11
-4.624981
 21
-2.275005
 31
0.0
  0
LINE
  8
0
  6
CONTINUOUS
 62
     7
  5
870
 10
-4.624981
 20
-2.275005
 30
0.0
 11
-4.624947
 21
-2.269939
 31
0.0
  0
LINE
  8
0
  6
CONTINUOUS
 62
     7
  5
871
 10
-4.624947
 20
-2.269939
 30
0.0
 11
-4.624908
 21
-2.26499
 31
0.0
  0
LINE
  8
0
  6
CONTINUOUS
 62
     7
  5
872
 10
-4.624908
 20
-2.26499
 30
0.0
 11
-4.624864
 21
-2.260177
 31
0.0
  0
LINE
  8
0
  6
CONTINUOUS
 62
     7
  5
873
 10
-4.624864
 20
-2.260177
 30
0.0
 11
-4.624816
 21
-2.255513
 31
0.0
  0
LINE
  8
0
  6
CONTINUOUS
 62
     7
  5
874
 10
-4.624816
 20
-2.255513
 30
0.0
 11
-4.624764
 21
-2.251016
 31
0.0
  0
LINE
  8
0
  6
CONTINUOUS
 62
     7
  5
875
 10
-4.624764
 20
-2.251016
 30
0.0
 11
-4.624707
 21
-2.246699
 31
0.0
  0
LINE
  8
0
  6
CONTINUOUS
 62
     7
  5
876
 10
-4.624707
 20
-2.246699
 30
0.0
 11
-4.624646
 21
-2.242576
 31
0.0
  0
LINE
  8
0
  6
CONTINUOUS
 62
     7
  5
877
 10
-4.624646
 20
-2.242576
 30
0.0
 11
-4.62458
 21
-2.238657
 31
0.0
  0
LINE
  8
0
  6
CONTINUOUS
 62
     7
  5
878
 10
-4.62458
 20
-2.238657
 30
0.0
 11
-4.62451
 21
-2.234936
 31
0.0
  0
LINE
  8
0
  6
CONTINUOUS
 62
     7
  5
879
 10
-4.62451
 20
-2.234936
 30
0.0
 11
-4.624434
 21
-2.231343
 31
0.0
  0
LINE
  8
0
  6
CONTINUOUS
 62
     7
  5
87A
 10
-4.624434
 20
-2.231343
 30
0.0
 11
-4.624351
 21
-2.227884
 31
0.0
  0
LINE
  8
0
  6
CONTINUOUS
 62
     7
  5
87B
 10
-4.624351
 20
-2.227884
 30
0.0
 11
-4.624262
 21
-2.224578
 31
0.0
  0
LINE
  8
0
  6
CONTINUOUS
 62
     7
  5
87C
 10
-4.624262
 20
-2.224578
 30
0.0
 11
-4.624166
 21
-2.221444
 31
0.0
  0
LINE
  8
0
  6
CONTINUOUS
 62
     7
  5
87D
 10
-4.624166
 20
-2.221444
 30
0.0
 11
-4.624063
 21
-2.218497
 31
0.0
  0
LINE
  8
0
  6
CONTINUOUS
 62
     7
  5
87E
 10
-4.624063
 20
-2.218497
 30
0.0
 11
-4.623953
 21
-2.215753
 31
0.0
  0
LINE
  8
0
  6
CONTINUOUS
 62
     7
  5
87F
 10
-4.623953
 20
-2.215753
 30
0.0
 11
-4.623836
 21
-2.213224
 31
0.0
  0
LINE
  8
0
  6
CONTINUOUS
 62
     7
  5
880
 10
-4.623836
 20
-2.213224
 30
0.0
 11
-4.623713
 21
-2.21092
 31
0.0
  0
LINE
  8
0
  6
CONTINUOUS
 62
     7
  5
881
 10
-4.623713
 20
-2.21092
 30
0.0
 11
-4.623584
 21
-2.208849
 31
0.0
  0
LINE
  8
0
  6
CONTINUOUS
 62
     7
  5
882
 10
-4.623584
 20
-2.208849
 30
0.0
 11
-4.623447
 21
-2.207018
 31
0.0
  0
LINE
  8
0
  6
CONTINUOUS
 62
     7
  5
883
 10
-4.623447
 20
-2.207018
 30
0.0
 11
-4.623305
 21
-2.205432
 31
0.0
  0
LINE
  8
0
  6
CONTINUOUS
 62
     7
  5
884
 10
-4.623305
 20
-2.205432
 30
0.0
 11
-4.623158
 21
-2.204094
 31
0.0
  0
LINE
  8
0
  6
CONTINUOUS
 62
     7
  5
885
 10
-4.623158
 20
-2.204094
 30
0.0
 11
-4.623005
 21
-2.203007
 31
0.0
  0
LINE
  8
0
  6
CONTINUOUS
 62
     7
  5
886
 10
-4.623005
 20
-2.203007
 30
0.0
 11
-4.622847
 21
-2.202169
 31
0.0
  0
LINE
  8
0
  6
CONTINUOUS
 62
     7
  5
887
 10
-4.622847
 20
-2.202169
 30
0.0
 11
-4.622686
 21
-2.201578
 31
0.0
  0
LINE
  8
0
  6
CONTINUOUS
 62
     7
  5
888
 10
-4.622686
 20
-2.201578
 30
0.0
 11
-4.622521
 21
-2.201228
 31
0.0
  0
LINE
  8
0
  6
CONTINUOUS
 62
     7
  5
889
 10
-4.622521
 20
-2.201228
 30
0.0
 11
-4.622354
 21
-2.201114
 31
0.0
  0
LINE
  8
0
  6
CONTINUOUS
 62
     7
  5
88A
 10
-3.922147
 20
-4.09855
 30
0.0
 11
-4.534647
 21
-4.09855
 31
0.0
  0
LINE
  8
0
  6
CONTINUOUS
 62
     7
  5
88B
 10
-4.534647
 20
-4.09855
 30
0.0
 11
-4.6257
 21
-4.09855
 31
0.0
  0
LINE
  8
0
  6
CONTINUOUS
 62
     7
  5
88C
 10
-4.534647
 20
-2.501
 30
0.0
 11
-4.534647
 21
-2.06705
 31
0.0
  0
LINE
  8
0
  6
CONTINUOUS
 62
     7
  5
88D
 10
-4.534647
 20
-2.06705
 30
0.0
 11
-4.6257
 21
-2.06705
 31
0.0
  0
LINE
  8
0
  6
CONTINUOUS
 62
     7
  5
88E
 10
-4.534647
 20
-4.09855
 30
0.0
 11
-4.534647
 21
-3.6646
 31
0.0
  0
LINE
  8
0
  6
CONTINUOUS
 62
     7
  5
88F
 10
-3.922147
 20
-2.06705
 30
0.0
 11
-4.534647
 21
-2.06705
 31
0.0
  0
LINE
  8
0
  6
CONTINUOUS
 62
     7
  5
890
 10
-4.534647
 20
-3.6646
 30
0.0
 11
-4.6257
 21
-3.6646
 31
0.0
  0
LINE
  8
0
  6
CONTINUOUS
 62
     7
  5
891
 10
-4.6257
 20
-2.501
 30
0.0
 11
-4.534647
 21
-2.501
 31
0.0
  0
LINE
  8
0
  6
CONTINUOUS
 62
     7
  5
892
 10
-4.6257
 20
-2.501
 30
0.0
 11
-4.6257
 21
-3.6646
 31
0.0
  0
LINE
  8
0
  6
CONTINUOUS
 62
     7
  5
893
 10
-4.878132
 20
-3.6636
 30
0.0
 11
-4.6257
 21
-3.6636
 31
0.0
  0
LINE
  8
0
  6
CONTINUOUS
 62
     7
  5
894
 10
-4.938
 20
-3.6636
 30
0.0
 11
-4.878132
 21
-3.6636
 31
0.0
  0
LINE
  8
0
  6
CONTINUOUS
 62
     7
  5
895
 10
-4.6257
 20
-2.502
 30
0.0
 11
-4.878132
 21
-2.502
 31
0.0
  0
LINE
  8
0
  6
CONTINUOUS
 62
     7
  5
896
 10
-4.878132
 20
-2.502
 30
0.0
 11
-4.878132
 21
-2.7009
 31
0.0
  0
LINE
  8
0
  6
CONTINUOUS
 62
     7
  5
897
 10
-4.878132
 20
-2.7009
 30
0.0
 11
-4.868132
 21
-2.7009
 31
0.0
  0
LINE
  8
0
  6
CONTINUOUS
 62
     7
  5
898
 10
-4.868132
 20
-2.7009
 30
0.0
 11
-4.868132
 21
-3.0198
 31
0.0
  0
LINE
  8
0
  6
CONTINUOUS
 62
     7
  5
899
 10
-4.868132
 20
-3.0198
 30
0.0
 11
-4.878132
 21
-3.0198
 31
0.0
  0
LINE
  8
0
  6
CONTINUOUS
 62
     7
  5
89A
 10
-4.878132
 20
-3.0198
 30
0.0
 11
-4.878132
 21
-3.6636
 31
0.0
  0
LINE
  8
0
  6
CONTINUOUS
 62
     7
  5
89B
 10
-4.938
 20
-2.7009
 30
0.0
 11
-4.878132
 21
-2.7009
 31
0.0
  0
LINE
  8
0
  6
CONTINUOUS
 62
     7
  5
89C
 10
-4.878132
 20
-2.502
 30
0.0
 11
-4.938
 21
-2.502
 31
0.0
  0
LINE
  8
0
  6
CONTINUOUS
 62
     7
  5
89D
 10
-4.878132
 20
-3.0198
 30
0.0
 11
-4.938
 21
-3.0198
 31
0.0
  0
LINE
  8
0
  6
CONTINUOUS
 62
     7
  5
89E
 10
-4.6257
 20
-2.06705
 30
0.0
 11
-4.6257
 21
-2.501
 31
0.0
  0
LINE
  8
0
  6
CONTINUOUS
 62
     7
  5
89F
 10
-4.6257
 20
-3.6646
 30
0.0
 11
-4.6257
 21
-4.09855
 31
0.0
  0
LINE
  8
0
  6
CONTINUOUS
 62
     7
  5
8A0
 10
-4.928
 20
-2.7009
 30
0.0
 11
-4.928
 21
-3.0198
 31
0.0
  0
LINE
  8
0
  6
CONTINUOUS
 62
     7
  5
8A1
 10
-4.938
 20
-2.502
 30
0.0
 11
-4.938
 21
-2.7009
 31
0.0
  0
LINE
  8
0
  6
CONTINUOUS
 62
     7
  5
8A2
 10
-4.938
 20
-3.0198
 30
0.0
 11
-4.938
 21
-3.6636
 31
0.0
  0
LINE
  8
0
  6
CONTINUOUS
 62
     7
  5
8A3
 10
-0.06
 20
-6.1015
 30
0.0
 11
-0.06
 21
-7.959368
 31
0.0
  0
LINE
  8
0
  6
CONTINUOUS
 62
     7
  5
8A4
 10
-3.55
 20
-7.9538
 30
0.0
 11
-3.55
 21
-8.0038
 31
0.0
  0
LINE
  8
0
  6
CONTINUOUS
 62
     7
  5
8A5
 10
-3.55
 20
-6.1888
 30
0.0
 11
-3.55
 21
-7.9538
 31
0.0
  0
LINE
  8
0
  6
CONTINUOUS
 62
     7
  5
8A6
 10
-3.55
 20
-6.1388
 30
0.0
 11
-3.55
 21
-6.1888
 31
0.0
  0
LINE
  8
0
  6
CONTINUOUS
 62
     7
  5
8A7
 10
-3.42
 20
-8.0038
 30
0.0
 11
-3.55
 21
-8.0038
 31
0.0
  0
LINE
  8
0
  6
CONTINUOUS
 62
     7
  5
8A8
 10
-3.42
 20
-6.1888
 30
0.0
 11
-3.42
 21
-6.1388
 31
0.0
  0
LINE
  8
0
  6
CONTINUOUS
 62
     7
  5
8A9
 10
-3.42
 20
-6.2915
 30
0.0
 11
-3.42
 21
-6.1888
 31
0.0
  0
LINE
  8
0
  6
CONTINUOUS
 62
     7
  5
8AA
 10
-3.42
 20
-6.1388
 30
0.0
 11
-3.55
 21
-6.1388
 31
0.0
  0
LINE
  8
0
  6
CONTINUOUS
 62
     7
  5
8AB
 10
-3.55
 20
-7.9205
 30
0.0
 11
-3.57
 21
-7.9205
 31
0.0
  0
LINE
  8
0
  6
CONTINUOUS
 62
     7
  5
8AC
 10
-3.57
 20
-7.6805
 30
0.0
 11
-3.55
 21
-7.6805
 31
0.0
  0
ARC
  8
0
  6
CONTINUOUS
 62
     7
  5
8AD
 10
-3.57
 20
-7.8005
 30
0.0
 40
0.12
 50
90.0
 51
270.0
  0
LINE
  8
0
  6
CONTINUOUS
 62
     7
  5
8AE
 10
-3.9
 20
-7.542
 30
0.0
 11
-3.9
 21
-7.854
 31
0.0
  0
LINE
  8
0
  6
CONTINUOUS
 62
     7
  5
8AF
 10
-3.9
 20
-7.854
 30
0.0
 11
-3.8
 21
-7.854
 31
0.0
  0
LINE
  8
0
  6
CONTINUOUS
 62
     7
  5
8B0
 10
-3.9
 20
-7.542
 30
0.0
 11
-3.8
 21
-7.542
 31
0.0
  0
LINE
  8
0
  6
CONTINUOUS
 62
     7
  5
8B1
 10
-3.8
 20
-7.854
 30
0.0
 11
-3.677414
 21
-7.854
 31
0.0
  0
LINE
  8
0
  6
CONTINUOUS
 62
     7
  5
8B2
 10
-3.8
 20
-7.542
 30
0.0
 11
-3.55
 21
-7.542
 31
0.0
  0
LINE
  8
0
  6
CONTINUOUS
 62
     7
  5
8B3
 10
-3.66
 20
-7.1488
 30
0.0
 11
-3.66
 21
-6.9988
 31
0.0
  0
LINE
  8
0
  6
CONTINUOUS
 62
     7
  5
8B4
 10
-3.66
 20
-6.8028
 30
0.0
 11
-3.55
 21
-6.8028
 31
0.0
  0
LINE
  8
0
  6
CONTINUOUS
 62
     7
  5
8B5
 10
-3.66
 20
-6.9988
 30
0.0
 11
-3.66
 21
-6.8028
 31
0.0
  0
LINE
  8
0
  6
CONTINUOUS
 62
     7
  5
8B6
 10
-3.66
 20
-7.1488
 30
0.0
 11
-3.66
 21
-6.9988
 31
0.0
  0
LINE
  8
0
  6
CONTINUOUS
 62
     7
  5
8B7
 10
-3.55
 20
-7.2828
 30
0.0
 11
-3.6
 21
-7.2828
 31
0.0
  0
ARC
  8
0
  6
CONTINUOUS
 62
     7
  5
8B8
 10
-3.6
 20
-7.2228
 30
0.0
 40
0.06
 50
180.0
 51
270.0
  0
LINE
  8
0
  6
CONTINUOUS
 62
     7
  5
8B9
 10
-3.66
 20
-7.2228
 30
0.0
 11
-3.66
 21
-6.8028
 31
0.0
  0
LINE
  8
0
  6
CONTINUOUS
 62
     7
  5
8BA
 10
-3.42
 20
-8.1205
 30
0.0
 11
-3.42
 21
-6.2915
 31
0.0
  0
LINE
  8
0
  6
CONTINUOUS
 62
     7
  5
8BB
 10
-3.23
 20
-6.1015
 30
0.0
 11
-2.87
 21
-6.1015
 31
0.0
  0
LINE
  8
0
  6
CONTINUOUS
 62
     7
  5
8BC
 10
-1.231
 20
-8.2405
 30
0.0
 11
-0.06
 21
-7.959368
 31
0.0
  0
LINE
  8
0
  6
CONTINUOUS
 62
     7
  5
8BD
 10
-3.23
 20
-6.1015
 30
0.0
 11
-2.33
 21
-6.1015
 31
0.0
  0
LINE
  8
0
  6
CONTINUOUS
 62
     7
  5
8BE
 10
-0.143
 20
-6.1015
 30
0.0
 11
-0.06
 21
-6.1015
 31
0.0
  0
LINE
  8
0
  6
CONTINUOUS
 62
     7
  5
8BF
 10
-1.35
 20
-6.1015
 30
0.0
 11
-0.218
 21
-6.1015
 31
0.0
  0
LINE
  8
0
  6
CONTINUOUS
 62
     7
  5
8C0
 10
-2.33
 20
-6.1015
 30
0.0
 11
-2.33
 21
-5.921
 31
0.0
  0
LINE
  8
0
  6
CONTINUOUS
 62
     7
  5
8C1
 10
-1.35
 20
-5.921
 30
0.0
 11
-1.35
 21
-6.1015
 31
0.0
  0
LINE
  8
0
  6
CONTINUOUS
 62
     7
  5
8C2
 10
-1.35
 20
-8.2405
 30
0.0
 11
-1.35
 21
-8.421
 31
0.0
  0
LINE
  8
0
  6
CONTINUOUS
 62
     7
  5
8C3
 10
-2.33
 20
-8.421
 30
0.0
 11
-2.33
 21
-8.2405
 31
0.0
  0
LINE
  8
0
  6
CONTINUOUS
 62
     7
  5
8C4
 10
-2.33
 20
-5.921
 30
0.0
 11
-1.35
 21
-5.921
 31
0.0
  0
LINE
  8
0
  6
CONTINUOUS
 62
     7
  5
8C5
 10
-2.33
 20
-8.421
 30
0.0
 11
-1.35
 21
-8.421
 31
0.0
  0
ARC
  8
0
  6
CONTINUOUS
 62
     7
  5
8C6
 10
-3.23
 20
-6.2915
 30
0.0
 40
0.19
 50
90.0
 51
180.0
  0
ARC
  8
0
  6
CONTINUOUS
 62
     7
  5
8C7
 10
-3.3
 20
-8.1205
 30
0.0
 40
0.12
 50
180.0
 51
270.0
  0
LINE
  8
0
  6
CONTINUOUS
 62
     7
  5
8C8
 10
-2.33
 20
-8.2405
 30
0.0
 11
-3.3
 21
-8.2405
 31
0.0
  0
LINE
  8
0
  6
CONTINUOUS
 62
     7
  5
8C9
 10
-1.231
 20
-8.2405
 30
0.0
 11
-1.35
 21
-8.2405
 31
0.0
  0
LINE
  8
0
  6
CONTINUOUS
 62
     7
  5
8CA
 10
-0.278
 20
-6.0228
 30
0.0
 11
-0.278
 21
-6.1015
 31
0.0
  0
LINE
  8
0
  6
CONTINUOUS
 62
     7
  5
8CB
 10
-0.06
 20
-5.895
 30
0.0
 11
-0.06
 21
-6.1015
 31
0.0
  0
LINE
  8
0
  6
CONTINUOUS
 62
     7
  5
8CC
 10
-0.06
 20
-5.71
 30
0.0
 11
-0.06
 21
-5.895
 31
0.0
  0
LINE
  8
0
  6
CONTINUOUS
 62
     7
  5
8CD
 10
0.0
 20
-5.71
 30
0.0
 11
0.0
 21
-5.895
 31
0.0
  0
LINE
  8
0
  6
CONTINUOUS
 62
     7
  5
8CE
 10
0.0
 20
-5.895
 30
0.0
 11
0.0
 21
-6.48
 31
0.0
  0
LINE
  8
0
  6
CONTINUOUS
 62
     7
  5
8CF
 10
0.0
 20
-6.48
 30
0.0
 11
0.0
 21
-6.51
 31
0.0
  0
LINE
  8
0
  6
CONTINUOUS
 62
     7
  5
8D0
 10
0.0
 20
-6.51
 30
0.0
 11
0.0
 21
-6.57
 31
0.0
  0
LINE
  8
0
  6
CONTINUOUS
 62
     7
  5
8D1
 10
0.0
 20
-6.57
 30
0.0
 11
0.0
 21
-7.88
 31
0.0
  0
LINE
  8
0
  6
CONTINUOUS
 62
     7
  5
8D2
 10
0.0
 20
-7.88
 30
0.0
 11
0.0
 21
-8.01
 31
0.0
  0
LINE
  8
0
  6
CONTINUOUS
 62
     7
  5
8D3
 10
0.0
 20
-8.01
 30
0.0
 11
0.0
 21
-8.28
 31
0.0
  0
LINE
  8
0
  6
CONTINUOUS
 62
     7
  5
8D4
 10
0.0
 20
-8.28
 30
0.0
 11
0.0
 21
-8.41
 31
0.0
  0
LINE
  8
0
  6
CONTINUOUS
 62
     7
  5
8D5
 10
0.0
 20
-6.51
 30
0.0
 11
-0.06
 21
-6.51
 31
0.0
  0
LINE
  8
0
  6
CONTINUOUS
 62
     7
  5
8D6
 10
0.0
 20
-6.57
 30
0.0
 11
-0.06
 21
-6.57
 31
0.0
  0
LINE
  8
0
  6
CONTINUOUS
 62
     7
  5
8D7
 10
0.0
 20
-7.88
 30
0.0
 11
-0.06
 21
-7.88
 31
0.0
  0
LINE
  8
0
  6
CONTINUOUS
 62
     7
  5
8D8
 10
-0.06
 20
-7.959368
 30
0.0
 11
-0.06
 21
-8.01
 31
0.0
  0
LINE
  8
0
  6
CONTINUOUS
 62
     7
  5
8D9
 10
-0.06
 20
-8.01
 30
0.0
 11
-0.06
 21
-8.28
 31
0.0
  0
LINE
  8
0
  6
CONTINUOUS
 62
     7
  5
8DA
 10
-0.06
 20
-8.28
 30
0.0
 11
-0.06
 21
-8.41
 31
0.0
  0
LINE
  8
0
  6
CONTINUOUS
 62
     7
  5
8DB
 10
0.0
 20
-8.41
 30
0.0
 11
-0.06
 21
-8.41
 31
0.0
  0
LINE
  8
0
  6
CONTINUOUS
 62
     7
  5
8DC
 10
0.0
 20
-5.71
 30
0.0
 11
-0.06
 21
-5.71
 31
0.0
  0
LINE
  8
0
  6
CONTINUOUS
 62
     7
  5
8DD
 10
-2.04
 20
-8.8555
 30
0.0
 11
-2.04
 21
-8.421
 31
0.0
  0
LINE
  8
0
  6
CONTINUOUS
 62
     7
  5
8DE
 10
-2.04
 20
-8.8555
 30
0.0
 11
-2.04
 21
-8.421
 31
0.0
  0
ARC
  8
0
  6
CONTINUOUS
 62
     7
  5
8DF
 10
-1.96
 20
-8.8555
 30
0.0
 40
0.08
 50
180.0
 51
270.0
  0
LINE
  8
0
  6
CONTINUOUS
 62
     7
  5
8E0
 10
-2.04
 20
-8.8555
 30
0.0
 11
-2.04
 21
-8.421
 31
0.0
  0
LINE
  8
0
  6
CONTINUOUS
 62
     7
  5
8E1
 10
-1.29
 20
-8.2405
 30
0.0
 11
-1.29
 21
-8.9355
 31
0.0
  0
LINE
  8
0
  6
CONTINUOUS
 62
     7
  5
8E2
 10
-1.29
 20
-8.9355
 30
0.0
 11
-1.96
 21
-8.9355
 31
0.0
  0
ARC
  8
0
  6
CONTINUOUS
 62
     7
  5
8E3
 10
-2.007
 20
-5.7855
 30
0.0
 40
0.094
 50
180.0
 51
270.0
  0
LINE
  8
0
  6
CONTINUOUS
 62
     7
  5
8E4
 10
-2.101
 20
-5.7855
 30
0.0
 11
-2.101
 21
-5.3878
 31
0.0
  0
ARC
  8
0
  6
CONTINUOUS
 62
     7
  5
8E5
 10
-1.624
 20
-5.8795
 30
0.0
 40
0.094
 50
0.0
 51
90.0
  0
LINE
  8
0
  6
CONTINUOUS
 62
     7
  5
8E6
 10
-1.53
 20
-5.8795
 30
0.0
 11
-1.53
 21
-5.921
 31
0.0
  0
LINE
  8
0
  6
CONTINUOUS
 62
     7
  5
8E7
 10
-2.007
 20
-5.3878
 30
0.0
 11
-2.007
 21
-5.7855
 31
0.0
  0
LINE
  8
0
  6
CONTINUOUS
 62
     7
  5
8E8
 10
-2.007
 20
-5.7855
 30
0.0
 11
-2.007
 21
-5.8795
 31
0.0
  0
LINE
  8
0
  6
CONTINUOUS
 62
     7
  5
8E9
 10
-1.624
 20
-5.921
 30
0.0
 11
-1.624
 21
-5.8795
 31
0.0
  0
LINE
  8
0
  6
CONTINUOUS
 62
     7
  5
8EA
 10
-1.624
 20
-5.7855
 30
0.0
 11
-1.624
 21
-5.8795
 31
0.0
  0
LINE
  8
0
  6
CONTINUOUS
 62
     7
  5
8EB
 10
-2.007
 20
-5.8795
 30
0.0
 11
-1.624
 21
-5.8795
 31
0.0
  0
LINE
  8
0
  6
CONTINUOUS
 62
     7
  5
8EC
 10
-1.624
 20
-5.7855
 30
0.0
 11
-2.007
 21
-5.7855
 31
0.0
  0
LINE
  8
0
  6
CONTINUOUS
 62
     7
  5
8ED
 10
-0.452756
 20
-2.419545
 30
0.0
 11
-0.4857
 21
-2.419545
 31
0.0
  0
LINE
  8
0
  6
CONTINUOUS
 62
     7
  5
8EE
 10
-0.452756
 20
-2.419545
 30
0.0
 11
-0.452756
 21
-2.3943
 31
0.0
  0
LINE
  8
0
  6
CONTINUOUS
 62
     7
  5
8EF
 10
-0.452756
 20
-3.7713
 30
0.0
 11
-0.452756
 21
-2.419545
 31
0.0
  0
LINE
  8
0
  6
CONTINUOUS
 62
     3
  5
8F0
 10
0.0
 20
0.0
 30
0.0
 11
-0.075
 21
0.0
 31
0.0
  0
LINE
  8
0
  6
CONTINUOUS
 62
     3
  5
8F1
 10
-0.281
 20
-0.9844
 30
0.0
 11
-0.2219
 21
-0.9844
 31
0.0
  0
LINE
  8
0
  6
CONTINUOUS
 62
     3
  5
8F2
 10
-0.281
 20
-0.7628
 30
0.0
 11
-0.2219
 21
-0.7628
 31
0.0
  0
LINE
  8
0
  6
CONTINUOUS
 62
     3
  5
8F3
 10
-0.4778
 20
-5.7228
 30
0.0
 11
-0.218
 21
-5.7228
 31
0.0
  0
LINE
  8
0
  6
CONTINUOUS
 62
     3
  5
8F4
 10
-0.06
 20
-8.13
 30
0.0
 11
0.0
 21
-8.13
 31
0.0
  0
ENDSEC
  0
EOF
