  0
SECTION
  2
HEADER
  9
$ACADVER
  1
AC1009
  9
$DWGCODEPAGE
  3
ansi_1250
  9
$INSBASE
 10
0.0
 20
0.0
 30
0.0
  9
$EXTMIN
 10
-1.145271
 20
-5.708661
 30
0.0
  9
$EXTMAX
 10
0.0
 20
5.708661
 30
0.0
  9
$LIMMIN
 10
0.0
 20
0.0
  9
$LIMMAX
 10
0.0
 20
0.0
  9
$ORTHOMODE
 70
     0
  9
$REGENMODE
 70
     1
  9
$FILLMODE
 70
     1
  9
$QTEXTMODE
 70
     0
  9
$MIRRTEXT
 70
     1
  9
$DRAGMODE
 70
     2
  9
$LTSCALE
 40
1.0
  9
$OSMODE
 70
     0
  9
$ATTMODE
 70
     1
  9
$TEXTSIZE
 40
0.2
  9
$TRACEWID
 40
0.05
  9
$TEXTSTYLE
  7
STANDARD
  9
$CLAYER
  8
0
  9
$CELTYPE
  6
CONTINUOUS
  9
$CECOLOR
 62
   256
  9
$DIMSCALE
 40
1.0
  9
$DIMASZ
 40
0.18
  9
$DIMEXO
 40
0.0625
  9
$DIMDLI
 40
0.38
  9
$DIMRND
 40
0.0
  9
$DIMDLE
 40
0.0
  9
$DIMEXE
 40
0.18
  9
$DIMTP
 40
0.0
  9
$DIMTM
 40
0.0
  9
$DIMTXT
 40
0.18
  9
$DIMCEN
 40
0.09
  9
$DIMTSZ
 40
0.0
  9
$DIMTOL
 70
     0
  9
$DIMLIM
 70
     0
  9
$DIMTIH
 70
     1
  9
$DIMTOH
 70
     1
  9
$DIMSE1
 70
     0
  9
$DIMSE2
 70
     0
  9
$DIMTAD
 70
     0
  9
$DIMZIN
 70
     0
  9
$DIMBLK
  1

  9
$DIMASO
 70
     1
  9
$DIMSHO
 70
     1
  9
$DIMPOST
  1

  9
$DIMAPOST
  1

  9
$DIMALT
 70
     0
  9
$DIMALTD
 70
     2
  9
$DIMALTF
 40
25.4
  9
$DIMLFAC
 40
1.0
  9
$DIMTOFL
 70
     0
  9
$DIMTVP
 40
0.0
  9
$DIMTIX
 70
     0
  9
$DIMSOXD
 70
     0
  9
$DIMSAH
 70
     0
  9
$DIMBLK1
  1

  9
$DIMBLK2
  1

  9
$DIMSTYLE
  2
STANDARD
  9
$DIMCLRD
 70
     0
  9
$DIMCLRE
 70
     0
  9
$DIMCLRT
 70
     0
  9
$DIMTFAC
 40
1.0
  9
$DIMGAP
 40
0.09
  9
$LUNITS
 70
     2
  9
$LUPREC
 70
     4
  9
$AXISMODE
 70
     0
  9
$AXISUNIT
 10
0.0
 20
0.0
  9
$SKETCHINC
 40
0.1
  9
$FILLETRAD
 40
0.0
  9
$AUNITS
 70
     0
  9
$AUPREC
 70
     0
  9
$MENU
  1
acad
  9
$ELEVATION
 40
0.0
  9
$PELEVATION
 40
0.0
  9
$THICKNESS
 40
0.0
  9
$LIMCHECK
 70
     0
  9
$BLIPMODE
 70
     1
  9
$CHAMFERA
 40
0.0
  9
$CHAMFERB
 40
0.0
  9
$SKPOLY
 70
     0
  9
$TDCREATE
 40
0.000000000
  9
$TDUPDATE
 40
0.000000000
  9
$TDINDWG
 40
0.0000000000
  9
$TDUSRTIMER
 40
0.0000000000
  9
$USRTIMER
 70
     1
  9
$ANGBASE
 50
0.0
  9
$ANGDIR
 70
     0
  9
$PDMODE
 70
     0
  9
$PDSIZE
 40
0.0
  9
$PLINEWID
 40
0.0
  9
$COORDS
 70
     0
  9
$SPLFRAME
 70
     0
  9
$SPLINETYPE
 70
     6
  9
$SPLINESEGS
 70
     8
  9
$ATTDIA
 70
     0
  9
$ATTREQ
 70
     1
  9
$HANDLING
 70
     1
  9
$HANDSEED
  5
1A5
  9
$SURFTAB1
 70
     6
  9
$SURFTAB2
 70
     6
  9
$SURFTYPE
 70
     6
  9
$SURFU
 70
     6
  9
$SURFV
 70
     6
  9
$UCSNAME
  2

  9
$UCSORG
 10
0.0
 20
0.0
 30
0.0
  9
$UCSXDIR
 10
1.0
 20
0.0
 30
0.0
  9
$UCSYDIR
 10
0.0
 20
1.0
 30
0.0
  9
$PUCSNAME
  2

  9
$PUCSORG
 10
0.0
 20
0.0
 30
0.0
  9
$PUCSXDIR
 10
1.0
 20
0.0
 30
0.0
  9
$PUCSYDIR
 10
0.0
 20
1.0
 30
0.0
  9
$USERI1
 70
     0
  9
$USERI2
 70
     0
  9
$USERI3
 70
     0
  9
$USERI4
 70
     0
  9
$USERI5
 70
     0
  9
$USERR1
 40
0.0
  9
$USERR2
 40
0.0
  9
$USERR3
 40
0.0
  9
$USERR4
 40
0.0
  9
$USERR5
 40
0.0
  9
$WORLDVIEW
 70
     1
  9
$SHADEDGE
 70
     3
  9
$SHADEDIF
 70
    70
  9
$TILEMODE
 70
     1
  9
$MAXACTVP
 70
    16
  9
$PINSBASE
 10
0.0
 20
0.0
 30
0.0
  9
$PLIMCHECK
 70
     0
  9
$PEXTMIN
 10
1.000000E+20
 20
1.000000E+20
 30
1.000000E+20
  9
$PEXTMAX
 10
-1.000000E+20
 20
-1.000000E+20
 30
-1.000000E+20
  9
$PLIMMIN
 10
0.0
 20
0.0
  9
$PLIMMAX
 10
12.0
 20
9.0
  9
$UNITMODE
 70
     0
  9
$VISRETAIN
 70
     0
  9
$PLINEGEN
 70
     1
  9
$PSLTSCALE
 70
     0
  9
$TREEDEPTH
 70
  3020
  0
ENDSEC
  0
SECTION
  2
TABLES
  0
TABLE
  2
VPORT
 70
     1
  0
VPORT
  2
*ACTIVE
 70
     0
 10
0.0
 20
0.0
 11
1.0
 21
1.0
 12
6.591288
 22
4.579184
 13
0.0
 23
0.0
 14
1.0
 24
1.0
 15
0.0
 25
0.0
 16
0.0
 26
0.0
 36
1.0
 17
0.0
 27
0.0
 37
0.0
 40
9.158369
 41
0.688564
 42
50.0
 43
0.0
 44
0.0
 50
0.0
 51
0.0
 71
     0
 72
   100
 73
     1
 74
     1
 75
     0
 76
     0
 77
     0
 78
     0
  0
ENDTAB
  0
TABLE
  2
LTYPE
 70
     5
  0
LTYPE
  2
CONTINUOUS
 70
    64
  3
Solid line
 72
    65
 73
     0
 40
0.0
  0
LTYPE
  2
CENTER
 70
    64
  3
Center ____ _ ____ _ ____ _ ____ _ ____ _ ____
 72
    65
 73
     4
 40
50.8
 49
31.75
 49
-6.35
 49
6.35
 49
-6.35
  0
LTYPE
  2
HIDDEN
 70
    64
  3
Hidden __ __ __ __ __ __ __ __ __ __ __ __ __ __
 72
    65
 73
     2
 40
9.525
 49
6.35
 49
-3.175
  0
LTYPE
  2
CENTER2
 70
    64
  3
Center (.5x) ___ _ ___ _ ___ _ ___ _ ___ _ ___
 72
    65
 73
     4
 40
28.575
 49
19.05
 49
-3.175
 49
3.175
 49
-3.175
  0
LTYPE
  2
HIDDEN2
 70
    64
  3
Hidden (.5x) _ _ _ _ _ _ _ _ _ _ _ _ _ _ _ _ _
 72
    65
 73
     2
 40
4.7625
 49
3.175
 49
-1.5875
  0
ENDTAB
  0
TABLE
  2
LAYER
 70
     1
  0
LAYER
  2
0
 70
     0
 62
     7
  6
CONTINUOUS
  0
ENDTAB
  0
TABLE
  2
STYLE
 70
     1
  0
STYLE
  2
STANDARD
 70
     0
 40
0.0
 41
1.0
 50
0.0
 71
     0
 42
0.0
  3
txt
  4

  0
ENDTAB
  0
TABLE
  2
VIEW
 70
     0
  0
ENDTAB
  0
TABLE
  2
UCS
 70
     0
  0
ENDTAB
  0
TABLE
  2
APPID
 70
     1
  0
APPID
  2
ACAD
 70
     0
  0
ENDTAB
  0
TABLE
  2
DIMSTYLE
 70
     1
  0
DIMSTYLE
  2
STANDARD
 70
     0
  3

  4

  5

  6

  7

 40
1.0
 41
0.18
 42
0.0625
 43
0.38
 44
0.18
 45
0.0
 46
0.0
 47
0.0
 48
0.0
 71
     0
 72
     0
 73
     1
 74
     1
 75
     0
 76
     0
 77
     0
 78
     0
140
0.18
141
0.09
142
0.0
143
25.4
144
1.0
145
0.0
146
1.0
147
0.09
170
     0
171
     2
172
     0
173
     0
174
     0
175
     0
176
     0
177
     0
178
     0
  0
ENDTAB
  0
ENDSEC
  0
SECTION
  2
BLOCKS
  0
ENDSEC
  0
SECTION
  2
ENTITIES
  0
LINE
  8
0
  6
CONTINUOUS
 62
     7
  5
F9
 10
-0.004331
 20
-4.745669
 30
0.0
 11
-0.004331
 21
-4.667717
 31
0.0
  0
LINE
  8
0
  6
CONTINUOUS
 62
     7
  5
FA
 10
-0.004331
 20
-4.667717
 30
0.0
 11
-0.004331
 21
-4.589764
 31
0.0
  0
LINE
  8
0
  6
CONTINUOUS
 62
     7
  5
FB
 10
-0.420866
 20
-4.529921
 30
0.0
 11
-0.420866
 21
-4.667717
 31
0.0
  0
LINE
  8
0
  6
CONTINUOUS
 62
     7
  5
FC
 10
-0.420866
 20
-4.667717
 30
0.0
 11
-0.420866
 21
-4.805512
 31
0.0
  0
LINE
  8
0
  6
CONTINUOUS
 62
     7
  5
FD
 10
-0.311417
 20
-4.47874
 30
0.0
 11
-0.20315
 21
-4.47874
 31
0.0
  0
LINE
  8
0
  6
CONTINUOUS
 62
     7
  5
FE
 10
-0.20315
 20
-4.856693
 30
0.0
 11
-0.311417
 21
-4.856693
 31
0.0
  0
LINE
  8
0
  6
CONTINUOUS
 62
     7
  5
FF
 10
-0.311417
 20
-4.47874
 30
0.0
 11
-0.311417
 21
-4.856693
 31
0.0
  0
LINE
  8
0
  6
CONTINUOUS
 62
     7
  5
100
 10
-0.20315
 20
-4.854331
 30
0.0
 11
-0.20315
 21
-4.856693
 31
0.0
  0
LINE
  8
0
  6
CONTINUOUS
 62
     7
  5
101
 10
-0.004331
 20
-4.076378
 30
0.0
 11
-0.004331
 21
-3.998425
 31
0.0
  0
LINE
  8
0
  6
CONTINUOUS
 62
     7
  5
102
 10
-0.004331
 20
-3.998425
 30
0.0
 11
-0.004331
 21
-3.920472
 31
0.0
  0
LINE
  8
0
  6
CONTINUOUS
 62
     7
  5
103
 10
-0.01811
 20
-4.13622
 30
0.0
 11
-0.01811
 21
-3.998425
 31
0.0
  0
LINE
  8
0
  6
CONTINUOUS
 62
     7
  5
104
 10
-0.01811
 20
-3.998425
 30
0.0
 11
-0.01811
 21
-3.86063
 31
0.0
  0
LINE
  8
0
  6
CONTINUOUS
 62
     7
  5
105
 10
-0.420866
 20
-3.86063
 30
0.0
 11
-0.420866
 21
-3.998425
 31
0.0
  0
LINE
  8
0
  6
CONTINUOUS
 62
     7
  5
106
 10
-0.420866
 20
-3.998425
 30
0.0
 11
-0.420866
 21
-4.13622
 31
0.0
  0
LINE
  8
0
  6
CONTINUOUS
 62
     7
  5
107
 10
-0.311417
 20
-3.809449
 30
0.0
 11
-0.20315
 21
-3.809449
 31
0.0
  0
LINE
  8
0
  6
CONTINUOUS
 62
     7
  5
108
 10
-0.20315
 20
-4.187402
 30
0.0
 11
-0.311417
 21
-4.187402
 31
0.0
  0
LINE
  8
0
  6
CONTINUOUS
 62
     7
  5
109
 10
-0.311417
 20
-3.809449
 30
0.0
 11
-0.311417
 21
-4.187402
 31
0.0
  0
LINE
  8
0
  6
CONTINUOUS
 62
     7
  5
10A
 10
-0.004331
 20
-3.407087
 30
0.0
 11
-0.004331
 21
-3.329134
 31
0.0
  0
LINE
  8
0
  6
CONTINUOUS
 62
     7
  5
10B
 10
-0.004331
 20
-3.329134
 30
0.0
 11
-0.004331
 21
-3.251181
 31
0.0
  0
LINE
  8
0
  6
CONTINUOUS
 62
     7
  5
10C
 10
-0.01811
 20
-3.466929
 30
0.0
 11
-0.01811
 21
-3.329134
 31
0.0
  0
LINE
  8
0
  6
CONTINUOUS
 62
     7
  5
10D
 10
-0.01811
 20
-3.329134
 30
0.0
 11
-0.01811
 21
-3.191339
 31
0.0
  0
LINE
  8
0
  6
CONTINUOUS
 62
     7
  5
10E
 10
-0.420866
 20
-3.191339
 30
0.0
 11
-0.420866
 21
-3.329134
 31
0.0
  0
LINE
  8
0
  6
CONTINUOUS
 62
     7
  5
10F
 10
-0.420866
 20
-3.329134
 30
0.0
 11
-0.420866
 21
-3.466929
 31
0.0
  0
LINE
  8
0
  6
CONTINUOUS
 62
     7
  5
110
 10
-0.311417
 20
-3.140157
 30
0.0
 11
-0.20315
 21
-3.140157
 31
0.0
  0
LINE
  8
0
  6
CONTINUOUS
 62
     7
  5
111
 10
-0.20315
 20
-3.51811
 30
0.0
 11
-0.311417
 21
-3.51811
 31
0.0
  0
LINE
  8
0
  6
CONTINUOUS
 62
     7
  5
112
 10
-0.311417
 20
-3.140157
 30
0.0
 11
-0.311417
 21
-3.51811
 31
0.0
  0
LINE
  8
0
  6
CONTINUOUS
 62
     7
  5
113
 10
-0.004331
 20
-2.737795
 30
0.0
 11
-0.004331
 21
-2.659843
 31
0.0
  0
LINE
  8
0
  6
CONTINUOUS
 62
     7
  5
114
 10
-0.004331
 20
-2.659843
 30
0.0
 11
-0.004331
 21
-2.58189
 31
0.0
  0
LINE
  8
0
  6
CONTINUOUS
 62
     7
  5
115
 10
-0.01811
 20
-2.797638
 30
0.0
 11
-0.01811
 21
-2.659843
 31
0.0
  0
LINE
  8
0
  6
CONTINUOUS
 62
     7
  5
116
 10
-0.01811
 20
-2.659843
 30
0.0
 11
-0.01811
 21
-2.522047
 31
0.0
  0
LINE
  8
0
  6
CONTINUOUS
 62
     7
  5
117
 10
-0.420866
 20
-2.522047
 30
0.0
 11
-0.420866
 21
-2.659843
 31
0.0
  0
LINE
  8
0
  6
CONTINUOUS
 62
     7
  5
118
 10
-0.420866
 20
-2.659843
 30
0.0
 11
-0.420866
 21
-2.797638
 31
0.0
  0
LINE
  8
0
  6
CONTINUOUS
 62
     7
  5
119
 10
-0.311417
 20
-2.470866
 30
0.0
 11
-0.20315
 21
-2.470866
 31
0.0
  0
LINE
  8
0
  6
CONTINUOUS
 62
     7
  5
11A
 10
-0.20315
 20
-2.848819
 30
0.0
 11
-0.311417
 21
-2.848819
 31
0.0
  0
LINE
  8
0
  6
CONTINUOUS
 62
     7
  5
11B
 10
-0.311417
 20
-2.470866
 30
0.0
 11
-0.311417
 21
-2.848819
 31
0.0
  0
LINE
  8
0
  6
CONTINUOUS
 62
     7
  5
11C
 10
-0.20315
 20
4.918898
 30
0.0
 11
-0.20315
 21
4.854331
 31
0.0
  0
LINE
  8
0
  6
CONTINUOUS
 62
     7
  5
11D
 10
-0.977559
 20
2.18878
 30
0.0
 11
-1.032677
 21
2.18878
 31
0.0
  0
LINE
  8
0
  6
CONTINUOUS
 62
     7
  5
11E
 10
-0.977559
 20
4.275394
 30
0.0
 11
-1.032677
 21
4.275394
 31
0.0
  0
LINE
  8
0
  6
CONTINUOUS
 62
     7
  5
11F
 10
-1.032677
 20
4.275394
 30
0.0
 11
-1.032677
 21
4.236024
 31
0.0
  0
LINE
  8
0
  6
CONTINUOUS
 62
     7
  5
120
 10
-1.032677
 20
4.236024
 30
0.0
 11
-1.032677
 21
2.22815
 31
0.0
  0
LINE
  8
0
  6
CONTINUOUS
 62
     7
  5
121
 10
-1.032677
 20
2.22815
 30
0.0
 11
-1.032677
 21
2.18878
 31
0.0
  0
LINE
  8
0
  6
CONTINUOUS
 62
     7
  5
122
 10
-1.032677
 20
2.22815
 30
0.0
 11
-1.032677
 21
2.18878
 31
0.0
  0
LINE
  8
0
  6
CONTINUOUS
 62
     7
  5
123
 10
-1.032677
 20
2.22815
 30
0.0
 11
-1.032677
 21
2.18878
 31
0.0
  0
LINE
  8
0
  6
CONTINUOUS
 62
     7
  5
124
 10
-0.4
 20
4.168898
 30
0.0
 11
-0.4
 21
2.107087
 31
0.0
  0
LINE
  8
0
  6
CONTINUOUS
 62
     7
  5
125
 10
-0.396063
 20
2.107087
 30
0.0
 11
-0.4
 21
2.107087
 31
0.0
  0
LINE
  8
0
  6
CONTINUOUS
 62
     7
  5
126
 10
-0.977559
 20
4.307087
 30
0.0
 11
-0.96053
 21
4.307087
 31
0.0
  0
LINE
  8
0
  6
CONTINUOUS
 62
     7
  5
127
 10
-0.396063
 20
4.168898
 30
0.0
 11
-0.70315
 21
4.168898
 31
0.0
  0
LINE
  8
0
  6
CONTINUOUS
 62
     7
  5
128
 10
-0.396063
 20
2.064173
 30
0.0
 11
-0.396063
 21
4.168898
 31
0.0
  0
LINE
  8
0
  6
CONTINUOUS
 62
     7
  5
129
 10
-0.4
 20
2.157087
 30
0.0
 11
-0.977559
 21
2.157087
 31
0.0
  0
LINE
  8
0
  6
CONTINUOUS
 62
     7
  5
12A
 10
-0.977559
 20
4.232452
 30
0.0
 11
-0.977559
 21
2.157087
 31
0.0
  0
LINE
  8
0
  6
CONTINUOUS
 62
     7
  5
12B
 10
-0.977559
 20
4.307087
 30
0.0
 11
-0.977559
 21
4.274891
 31
0.0
  0
LINE
  8
0
  6
CONTINUOUS
 62
     7
  5
12C
 10
-0.299606
 20
4.907636
 30
0.0
 11
-0.299606
 21
2.064173
 31
0.0
  0
LINE
  8
0
  6
CONTINUOUS
 62
     7
  5
12D
 10
-0.299606
 20
2.064173
 30
0.0
 11
-0.396063
 21
2.064173
 31
0.0
  0
LINE
  8
0
  6
CONTINUOUS
 62
     7
  5
12E
 10
-0.20315
 20
2.064173
 30
0.0
 11
-0.299606
 21
2.064173
 31
0.0
  0
LINE
  8
0
  6
CONTINUOUS
 62
     7
  5
12F
 10
-0.558465
 20
4.918898
 30
0.0
 11
-0.295056
 21
4.918898
 31
0.0
  0
ARC
  8
0
  6
CONTINUOUS
 62
     7
  5
130
 10
-0.558465
 20
4.899213
 30
0.0
 40
0.019685
 50
90.0
 51
180.0
  0
LINE
  8
0
  6
CONTINUOUS
 62
     7
  5
131
 10
-0.57815
 20
4.793701
 30
0.0
 11
-0.57815
 21
4.899213
 31
0.0
  0
ARC
  8
0
  6
CONTINUOUS
 62
     7
  5
132
 10
-0.70315
 20
4.793701
 30
0.0
 40
0.125
 50
180.0
 51
0.0
  0
LINE
  8
0
  6
CONTINUOUS
 62
     7
  5
133
 10
-0.82815
 20
4.839449
 30
0.0
 11
-0.82815
 21
4.793701
 31
0.0
  0
ARC
  8
0
  6
CONTINUOUS
 62
     7
  5
134
 10
-0.847835
 20
4.839449
 30
0.0
 40
0.019685
 50
0.0
 51
65.000015
  0
LINE
  8
0
  6
CONTINUOUS
 62
     7
  5
135
 10
-0.902669
 20
4.886738
 30
0.0
 11
-0.839515
 21
4.857289
 31
0.0
  0
ARC
  8
0
  6
CONTINUOUS
 62
     7
  5
136
 10
-0.910989
 20
4.868898
 30
0.0
 40
0.019685
 50
65.000015
 51
90.0
  0
LINE
  8
0
  6
CONTINUOUS
 62
     7
  5
137
 10
-1.118844
 20
4.888583
 30
0.0
 11
-0.910989
 21
4.888583
 31
0.0
  0
LINE
  8
0
  6
CONTINUOUS
 62
     7
  5
138
 10
-1.127653
 20
4.886502
 30
0.0
 11
-1.118844
 21
4.888583
 31
0.0
  0
LINE
  8
0
  6
CONTINUOUS
 62
     7
  5
139
 10
-1.134599
 20
4.880699
 30
0.0
 11
-1.127653
 21
4.886502
 31
0.0
  0
LINE
  8
0
  6
CONTINUOUS
 62
     7
  5
13A
 10
-1.138215
 20
4.872402
 30
0.0
 11
-1.134599
 21
4.880699
 31
0.0
  0
LINE
  8
0
  6
CONTINUOUS
 62
     7
  5
13B
 10
-1.145271
 20
4.795729
 30
0.0
 11
-1.138215
 21
4.872402
 31
0.0
  0
LINE
  8
0
  6
CONTINUOUS
 62
     7
  5
13C
 10
-1.145143
 20
4.782881
 30
0.0
 11
-1.145271
 21
4.795729
 31
0.0
  0
LINE
  8
0
  6
CONTINUOUS
 62
     7
  5
13D
 10
-1.138918
 20
4.718995
 30
0.0
 11
-1.145143
 21
4.782881
 31
0.0
  0
LINE
  8
0
  6
CONTINUOUS
 62
     7
  5
13E
 10
-1.133843
 20
4.693807
 30
0.0
 11
-1.138918
 21
4.718995
 31
0.0
  0
LINE
  8
0
  6
CONTINUOUS
 62
     7
  5
13F
 10
-1.11935
 20
4.644527
 30
0.0
 11
-1.133843
 21
4.693807
 31
0.0
  0
LINE
  8
0
  6
CONTINUOUS
 62
     7
  5
140
 10
-1.104779
 20
4.608853
 30
0.0
 11
-1.11935
 21
4.644527
 31
0.0
  0
LINE
  8
0
  6
CONTINUOUS
 62
     7
  5
141
 10
-1.087158
 20
4.574583
 30
0.0
 11
-1.104779
 21
4.608853
 31
0.0
  0
LINE
  8
0
  6
CONTINUOUS
 62
     7
  5
142
 10
-1.059152
 20
4.531522
 30
0.0
 11
-1.087158
 21
4.574583
 31
0.0
  0
LINE
  8
0
  6
CONTINUOUS
 62
     7
  5
143
 10
-1.04332
 20
4.511284
 30
0.0
 11
-1.059152
 21
4.531522
 31
0.0
  0
LINE
  8
0
  6
CONTINUOUS
 62
     7
  5
144
 10
-0.998842
 20
4.465004
 30
0.0
 11
-1.04332
 21
4.511284
 31
0.0
  0
LINE
  8
0
  6
CONTINUOUS
 62
     7
  5
145
 10
-0.989166
 20
4.456551
 30
0.0
 11
-0.998842
 21
4.465004
 31
0.0
  0
LINE
  8
0
  6
CONTINUOUS
 62
     7
  5
146
 10
-0.92493
 20
4.411046
 30
0.0
 11
-0.989166
 21
4.456551
 31
0.0
  0
ARC
  8
0
  6
CONTINUOUS
 62
     7
  5
147
 10
-0.936309
 20
4.394983
 30
0.0
 40
0.019685
 50
332.124696
 51
54.686313
  0
LINE
  8
0
  6
CONTINUOUS
 62
     7
  5
148
 10
-0.985896
 20
4.259129
 30
0.0
 11
-0.918908
 21
4.385779
 31
0.0
  0
ARC
  8
0
  6
CONTINUOUS
 62
     7
  5
149
 10
-0.968495
 20
4.249926
 30
0.0
 40
0.019685
 50
152.124696
 51
248.324109
  0
LINE
  8
0
  6
CONTINUOUS
 62
     7
  5
14A
 10
-0.889374
 20
4.197295
 30
0.0
 11
-0.975765
 21
4.231633
 31
0.0
  0
LINE
  8
0
  6
CONTINUOUS
 62
     7
  5
14B
 10
-0.797338
 20
4.176038
 30
0.0
 11
-0.889374
 21
4.197295
 31
0.0
  0
LINE
  8
0
  6
CONTINUOUS
 62
     7
  5
14C
 10
-0.70315
 20
4.168898
 30
0.0
 11
-0.797338
 21
4.176038
 31
0.0
  0
LINE
  8
0
  6
CONTINUOUS
 62
     7
  5
14D
 10
-0.295056
 20
4.918898
 30
0.0
 11
-0.299606
 21
4.907636
 31
0.0
  0
LINE
  8
0
  6
CONTINUOUS
 62
     7
  5
14E
 10
-0.295056
 20
4.918898
 30
0.0
 11
-0.20315
 21
4.918898
 31
0.0
  0
LINE
  8
0
  6
CONTINUOUS
 62
     7
  5
14F
 10
-0.20315
 20
2.029783
 30
0.0
 11
-0.20315
 21
2.064173
 31
0.0
  0
LINE
  8
0
  6
CONTINUOUS
 62
     7
  5
150
 10
-0.01811
 20
-4.805512
 30
0.0
 11
-0.01811
 21
-4.667717
 31
0.0
  0
LINE
  8
0
  6
CONTINUOUS
 62
     7
  5
151
 10
-0.01811
 20
-4.667717
 30
0.0
 11
-0.01811
 21
-4.529921
 31
0.0
  0
LINE
  8
0
  6
CONTINUOUS
 62
     7
  5
152
 10
-0.01811
 20
-4.805512
 30
0.0
 11
-0.01811
 21
-4.667717
 31
0.0
  0
LINE
  8
0
  6
CONTINUOUS
 62
     7
  5
153
 10
-0.01811
 20
-4.667717
 30
0.0
 11
-0.01811
 21
-4.529921
 31
0.0
  0
LINE
  8
0
  6
CONTINUOUS
 62
     7
  5
154
 10
-0.059055
 20
-5.708661
 30
0.0
 11
-0.059055
 21
-4.952756
 31
0.0
  0
ARC
  8
0
  6
CONTINUOUS
 62
     7
  5
155
 10
-0.07874
 20
-4.952756
 30
0.0
 40
0.019685
 50
0.0
 51
90.0
  0
LINE
  8
0
  6
CONTINUOUS
 62
     7
  5
156
 10
-0.07874
 20
-4.933071
 30
0.0
 11
-0.124409
 21
-4.933071
 31
0.0
  0
ARC
  8
0
  6
CONTINUOUS
 62
     7
  5
157
 10
-0.124409
 20
-4.854331
 30
0.0
 40
0.07874
 50
180.0
 51
270.0
  0
LINE
  8
0
  6
CONTINUOUS
 62
     7
  5
158
 10
-0.20315
 20
-4.854331
 30
0.0
 11
-0.20315
 21
-2.029782
 31
0.0
  0
ARC
  8
0
  6
CONTINUOUS
 62
     7
  5
159
 10
-0.124409
 20
-2.029782
 30
0.0
 40
0.07874
 50
119.999941
 51
180.0
  0
LINE
  8
0
  6
CONTINUOUS
 62
     7
  5
15A
 10
-0.163779
 20
-1.961591
 30
0.0
 11
-0.068898
 21
-1.906811
 31
0.0
  0
ARC
  8
0
  6
CONTINUOUS
 62
     7
  5
15B
 10
-0.07874
 20
-1.889764
 30
0.0
 40
0.019685
 50
299.999941
 51
360.0
  0
LINE
  8
0
  6
CONTINUOUS
 62
     7
  5
15C
 10
-0.059055
 20
-1.889764
 30
0.0
 11
-0.059055
 21
-1.299212
 31
0.0
  0
ARC
  8
0
  6
CONTINUOUS
 62
     7
  5
15D
 10
-0.07874
 20
-1.299212
 30
0.0
 40
0.019685
 50
0.0
 51
60.000059
  0
LINE
  8
0
  6
CONTINUOUS
 62
     7
  5
15E
 10
-0.068898
 20
-1.282165
 30
0.0
 11
-0.163779
 21
-1.227385
 31
0.0
  0
ARC
  8
0
  6
CONTINUOUS
 62
     7
  5
15F
 10
-0.124409
 20
-1.159194
 30
0.0
 40
0.07874
 50
180.0
 51
240.000059
  0
LINE
  8
0
  6
CONTINUOUS
 62
     7
  5
160
 10
-0.20315
 20
-1.159194
 30
0.0
 11
-0.20315
 21
1.159194
 31
0.0
  0
ARC
  8
0
  6
CONTINUOUS
 62
     7
  5
161
 10
-0.124409
 20
1.159194
 30
0.0
 40
0.07874
 50
120.000008
 51
180.0
  0
LINE
  8
0
  6
CONTINUOUS
 62
     7
  5
162
 10
-0.16378
 20
1.227385
 30
0.0
 11
-0.068898
 21
1.282165
 31
0.0
  0
ARC
  8
0
  6
CONTINUOUS
 62
     7
  5
163
 10
-0.07874
 20
1.299213
 30
0.0
 40
0.019685
 50
300.000008
 51
360.0
  0
LINE
  8
0
  6
CONTINUOUS
 62
     7
  5
164
 10
-0.059055
 20
1.299213
 30
0.0
 11
-0.059055
 21
1.889764
 31
0.0
  0
ARC
  8
0
  6
CONTINUOUS
 62
     7
  5
165
 10
-0.07874
 20
1.889764
 30
0.0
 40
0.019685
 50
0.0
 51
60.000009
  0
LINE
  8
0
  6
CONTINUOUS
 62
     7
  5
166
 10
-0.068898
 20
1.906812
 30
0.0
 11
-0.16378
 21
1.961592
 31
0.0
  0
ARC
  8
0
  6
CONTINUOUS
 62
     7
  5
167
 10
-0.124409
 20
2.029783
 30
0.0
 40
0.07874
 50
180.0
 51
240.000009
  0
ARC
  8
0
  6
CONTINUOUS
 62
     7
  5
168
 10
-0.124409
 20
4.854331
 30
0.0
 40
0.07874
 50
90.0
 51
180.0
  0
LINE
  8
0
  6
CONTINUOUS
 62
     7
  5
169
 10
-0.124409
 20
4.933071
 30
0.0
 11
-0.07874
 21
4.933071
 31
0.0
  0
ARC
  8
0
  6
CONTINUOUS
 62
     7
  5
16A
 10
-0.07874
 20
4.952756
 30
0.0
 40
0.019685
 50
270.0
 51
0.0
  0
LINE
  8
0
  6
CONTINUOUS
 62
     7
  5
16B
 10
-0.059055
 20
4.952756
 30
0.0
 11
-0.059055
 21
5.708661
 31
0.0
  0
LINE
  8
0
  6
CONTINUOUS
 62
     7
  5
16C
 10
-0.059055
 20
5.708661
 30
0.0
 11
0.0
 21
5.708661
 31
0.0
  0
LINE
  8
0
  6
CONTINUOUS
 62
     7
  5
16D
 10
0.0
 20
5.708661
 30
0.0
 11
0.0
 21
4.952756
 31
0.0
  0
ARC
  8
0
  6
CONTINUOUS
 62
     7
  5
16E
 10
-0.07874
 20
4.952756
 30
0.0
 40
0.07874
 50
270.0
 51
0.0
  0
LINE
  8
0
  6
CONTINUOUS
 62
     7
  5
16F
 10
-0.07874
 20
4.874016
 30
0.0
 11
-0.124409
 21
4.874016
 31
0.0
  0
ARC
  8
0
  6
CONTINUOUS
 62
     7
  5
170
 10
-0.124409
 20
4.854331
 30
0.0
 40
0.019685
 50
90.0
 51
180.0
  0
LINE
  8
0
  6
CONTINUOUS
 62
     7
  5
171
 10
-0.144094
 20
4.854331
 30
0.0
 11
-0.144094
 21
2.029783
 31
0.0
  0
ARC
  8
0
  6
CONTINUOUS
 62
     7
  5
172
 10
-0.124409
 20
2.029783
 30
0.0
 40
0.019685
 50
180.0
 51
240.000002
  0
LINE
  8
0
  6
CONTINUOUS
 62
     7
  5
173
 10
-0.134252
 20
2.012735
 30
0.0
 11
-0.03937
 21
1.957955
 31
0.0
  0
ARC
  8
0
  6
CONTINUOUS
 62
     7
  5
174
 10
-0.07874
 20
1.889764
 30
0.0
 40
0.07874
 50
0.0
 51
60.000002
  0
LINE
  8
0
  6
CONTINUOUS
 62
     7
  5
175
 10
0.0
 20
1.889764
 30
0.0
 11
0.0
 21
1.299213
 31
0.0
  0
ARC
  8
0
  6
CONTINUOUS
 62
     7
  5
176
 10
-0.07874
 20
1.299213
 30
0.0
 40
0.07874
 50
300.000006
 51
0.0
  0
LINE
  8
0
  6
CONTINUOUS
 62
     7
  5
177
 10
-0.03937
 20
1.231022
 30
0.0
 11
-0.134252
 21
1.176242
 31
0.0
  0
ARC
  8
0
  6
CONTINUOUS
 62
     7
  5
178
 10
-0.124409
 20
1.159194
 30
0.0
 40
0.019685
 50
120.000006
 51
180.0
  0
LINE
  8
0
  6
CONTINUOUS
 62
     7
  5
179
 10
-0.144094
 20
1.159194
 30
0.0
 11
-0.144094
 21
-1.159194
 31
0.0
  0
ARC
  8
0
  6
CONTINUOUS
 62
     7
  5
17A
 10
-0.124409
 20
-1.159194
 30
0.0
 40
0.019685
 50
180.0
 51
239.999927
  0
LINE
  8
0
  6
CONTINUOUS
 62
     7
  5
17B
 10
-0.134252
 20
-1.176241
 30
0.0
 11
-0.03937
 21
-1.231022
 31
0.0
  0
ARC
  8
0
  6
CONTINUOUS
 62
     7
  5
17C
 10
-0.07874
 20
-1.299213
 30
0.0
 40
0.07874
 50
0.0
 51
59.999927
  0
LINE
  8
0
  6
CONTINUOUS
 62
     7
  5
17D
 10
0.0
 20
-1.299213
 30
0.0
 11
0.0
 21
-1.889764
 31
0.0
  0
ARC
  8
0
  6
CONTINUOUS
 62
     7
  5
17E
 10
-0.07874
 20
-1.889764
 30
0.0
 40
0.07874
 50
300.000073
 51
0.0
  0
LINE
  8
0
  6
CONTINUOUS
 62
     7
  5
17F
 10
-0.03937
 20
-1.957955
 30
0.0
 11
-0.134252
 21
-2.012735
 31
0.0
  0
ARC
  8
0
  6
CONTINUOUS
 62
     7
  5
180
 10
-0.124409
 20
-2.029783
 30
0.0
 40
0.019685
 50
120.000073
 51
180.0
  0
LINE
  8
0
  6
CONTINUOUS
 62
     7
  5
181
 10
-0.144094
 20
-2.029783
 30
0.0
 11
-0.144094
 21
-4.854331
 31
0.0
  0
ARC
  8
0
  6
CONTINUOUS
 62
     7
  5
182
 10
-0.124409
 20
-4.854331
 30
0.0
 40
0.019685
 50
180.0
 51
270.0
  0
LINE
  8
0
  6
CONTINUOUS
 62
     7
  5
183
 10
-0.124409
 20
-4.874016
 30
0.0
 11
-0.07874
 21
-4.874016
 31
0.0
  0
ARC
  8
0
  6
CONTINUOUS
 62
     7
  5
184
 10
-0.07874
 20
-4.952756
 30
0.0
 40
0.07874
 50
0.0
 51
90.0
  0
LINE
  8
0
  6
CONTINUOUS
 62
     7
  5
185
 10
0.0
 20
-4.952756
 30
0.0
 11
0.0
 21
-5.708661
 31
0.0
  0
LINE
  8
0
  6
CONTINUOUS
 62
     7
  5
186
 10
0.0
 20
-5.708661
 30
0.0
 11
-0.059055
 21
-5.708661
 31
0.0
  0
LINE
  8
0
  6
CONTINUOUS
 62
     7
  5
187
 10
-0.01811
 20
-4.745669
 30
0.0
 11
-0.004331
 21
-4.745669
 31
0.0
  0
LINE
  8
0
  6
CONTINUOUS
 62
     7
  5
188
 10
-0.004331
 20
-4.589764
 30
0.0
 11
-0.01811
 21
-4.589764
 31
0.0
  0
LINE
  8
0
  6
CONTINUOUS
 62
     7
  5
189
 10
-0.311417
 20
-4.529921
 30
0.0
 11
-0.420866
 21
-4.529921
 31
0.0
  0
LINE
  8
0
  6
CONTINUOUS
 62
     7
  5
18A
 10
-0.420866
 20
-4.805512
 30
0.0
 11
-0.311417
 21
-4.805512
 31
0.0
  0
LINE
  8
0
  6
CONTINUOUS
 62
     7
  5
18B
 10
-0.01811
 20
-4.076378
 30
0.0
 11
-0.004331
 21
-4.076378
 31
0.0
  0
LINE
  8
0
  6
CONTINUOUS
 62
     7
  5
18C
 10
-0.004331
 20
-3.920472
 30
0.0
 11
-0.01811
 21
-3.920472
 31
0.0
  0
LINE
  8
0
  6
CONTINUOUS
 62
     7
  5
18D
 10
-0.144094
 20
-4.13622
 30
0.0
 11
-0.01811
 21
-4.13622
 31
0.0
  0
LINE
  8
0
  6
CONTINUOUS
 62
     7
  5
18E
 10
-0.01811
 20
-3.86063
 30
0.0
 11
-0.144094
 21
-3.86063
 31
0.0
  0
LINE
  8
0
  6
CONTINUOUS
 62
     7
  5
18F
 10
-0.311417
 20
-3.86063
 30
0.0
 11
-0.420866
 21
-3.86063
 31
0.0
  0
LINE
  8
0
  6
CONTINUOUS
 62
     7
  5
190
 10
-0.420866
 20
-4.13622
 30
0.0
 11
-0.311417
 21
-4.13622
 31
0.0
  0
LINE
  8
0
  6
CONTINUOUS
 62
     7
  5
191
 10
-0.01811
 20
-3.407087
 30
0.0
 11
-0.004331
 21
-3.407087
 31
0.0
  0
LINE
  8
0
  6
CONTINUOUS
 62
     7
  5
192
 10
-0.004331
 20
-3.251181
 30
0.0
 11
-0.01811
 21
-3.251181
 31
0.0
  0
LINE
  8
0
  6
CONTINUOUS
 62
     7
  5
193
 10
-0.144094
 20
-3.466929
 30
0.0
 11
-0.01811
 21
-3.466929
 31
0.0
  0
LINE
  8
0
  6
CONTINUOUS
 62
     7
  5
194
 10
-0.01811
 20
-3.191339
 30
0.0
 11
-0.144094
 21
-3.191339
 31
0.0
  0
LINE
  8
0
  6
CONTINUOUS
 62
     7
  5
195
 10
-0.311417
 20
-3.191339
 30
0.0
 11
-0.420866
 21
-3.191339
 31
0.0
  0
LINE
  8
0
  6
CONTINUOUS
 62
     7
  5
196
 10
-0.420866
 20
-3.466929
 30
0.0
 11
-0.311417
 21
-3.466929
 31
0.0
  0
LINE
  8
0
  6
CONTINUOUS
 62
     7
  5
197
 10
-0.01811
 20
-2.737795
 30
0.0
 11
-0.004331
 21
-2.737795
 31
0.0
  0
LINE
  8
0
  6
CONTINUOUS
 62
     7
  5
198
 10
-0.004331
 20
-2.58189
 30
0.0
 11
-0.01811
 21
-2.58189
 31
0.0
  0
LINE
  8
0
  6
CONTINUOUS
 62
     7
  5
199
 10
-0.144094
 20
-2.797638
 30
0.0
 11
-0.01811
 21
-2.797638
 31
0.0
  0
LINE
  8
0
  6
CONTINUOUS
 62
     7
  5
19A
 10
-0.01811
 20
-2.522047
 30
0.0
 11
-0.144094
 21
-2.522047
 31
0.0
  0
LINE
  8
0
  6
CONTINUOUS
 62
     7
  5
19B
 10
-0.311417
 20
-2.522047
 30
0.0
 11
-0.420866
 21
-2.522047
 31
0.0
  0
LINE
  8
0
  6
CONTINUOUS
 62
     7
  5
19C
 10
-0.420866
 20
-2.797638
 30
0.0
 11
-0.311417
 21
-2.797638
 31
0.0
  0
LINE
  8
0
  6
CONTINUOUS
 62
     7
  5
19D
 10
-0.144094
 20
-4.805512
 30
0.0
 11
-0.01811
 21
-4.805512
 31
0.0
  0
LINE
  8
0
  6
CONTINUOUS
 62
     7
  5
19E
 10
-0.01811
 20
-4.529921
 30
0.0
 11
-0.144094
 21
-4.529921
 31
0.0
  0
LINE
  8
0
  6
CONTINUOUS
 62
     3
  5
19F
 10
-0.059055
 20
-5.314961
 30
0.0
 11
0.0
 21
-5.314961
 31
0.0
  0
LINE
  8
0
  6
CONTINUOUS
 62
     3
  5
1A0
 10
-0.059055
 20
5.314961
 30
0.0
 11
0.0
 21
5.314961
 31
0.0
  0
LINE
  8
0
  6
CONTINUOUS
 62
     3
  5
1A1
 10
-0.059055
 20
-1.594488
 30
0.0
 11
0.0
 21
-1.594488
 31
0.0
  0
LINE
  8
0
  6
CONTINUOUS
 62
     3
  5
1A2
 10
-0.059055
 20
1.594488
 30
0.0
 11
0.0
 21
1.594488
 31
0.0
  0
ENDSEC
  0
EOF
