999
DXF file: D:\david\140_cra_crp_93xxx.dxf
999
Pro/ENGINEER 2004010 by Parametric Technology Corporation
0
SECTION
2
HEADER
9
$ACADVER
1
AC1014
9
$HANDSEED
5
       467
9
$EXTMAX
10
420.0000000000
20
297.0000000000
9
$EXTMIN
10
0.0000000000
20
0.0000000000
9
$LIMMIN
10
0.0000000000
20
0.0000000000
9
$LIMMAX
10
420.0000000000
20
297.0000000000
9
$VIEWCTR
10
210.0000000000
20
148.5000000000
9
$VIEWSIZE
40
297.0000000000
9
$CLAYER
8
0
9
$LTSCALE
40
23.1000000000
9
$CELTYPE
6
BYLAYER
9
$DIMSCALE
40
1
9
$DIMASZ
40
3.0000000000
9
$DIMEXO
40
2.6250000000
9
$DIMDLI
40
15.9600000000
9
$DIMEXE
40
7.5600000000
9
$DIMCEN
40
3.7800000000
9
$DIMLFAC
40
1.0000000000
9
$DIMTXT
40
3.5000000000
9
$DIMTOL
70
1
9
$DIMLIM
70
0
9
$DIMTFAC
40
1.0000000000
9
$DIMTP
40
0.0100000000
9
$DIMTM
40
0.0100000000
9
$MEASUREMENT
70
1
0
ENDSEC
0
SECTION
2
CLASSES
0
ENDSEC
0
SECTION
2
TABLES
0
TABLE
2
VPORT
5
8
100
AcDbSymbolTable
70
2
0
VPORT
5
1F4
100
AcDbSymbolTableRecord
100
AcDbViewportTableRecord
2
*ACTIVE
70
0
10
0.0
20
0.0
11
1.0
21
1.0
12
210.0000000000
22
148.5000000000
13
0.0
23
0.0
14
1.0
24
1.0
15
0.0
25
0.0
16
0.0
26
0.0
36
1.0
17
0.0
27
0.0
37
0.0
40
297.0000000000
41
1.4141414141
42
50.0
43
0.0
44
0.0
50
0.0
51
0.0
71
0
72
100
73
1
74
1
75
0
76
0
77
0
78
0
0
ENDTAB
0
TABLE
2
LTYPE
5
5
100
AcDbSymbolTable
70
6
0
LTYPE
5
14
100
AcDbSymbolTableRecord
100
AcDbLinetypeTableRecord
2
BYBLOCK
70
0
3

72
65
73
0
40
0.0
0
LTYPE
5
15
100
AcDbSymbolTableRecord
100
AcDbLinetypeTableRecord
2
BYLAYER
70
0
3

72
65
73
0
40
0.0
0
LTYPE
5
16
100
AcDbSymbolTableRecord
100
AcDbLinetypeTableRecord
2
CONTINUOUS
70
64
3
Solid line
72
65
73
0
40
0
0
LTYPE
5
1F5
100
AcDbSymbolTableRecord
100
AcDbLinetypeTableRecord
2
CENTER
70
64
3
____ _ ____ _ ____ _ ____ _ ____ _ ____ _ ____
72
65
73
4
40
0.6
49
0.375
74
0
49
-0.075
74
0
49
0.075
74
0
49
-0.075
74
0
0
LTYPE
5
1F6
100
AcDbSymbolTableRecord
100
AcDbLinetypeTableRecord
2
HIDDEN
70
64
3
- - - - - - - - - - - - - - - - - - - -
72
65
73
2
40
0.2
49
0.1
74
0
49
-0.1
74
0
0
LTYPE
5
1F7
100
AcDbSymbolTableRecord
100
AcDbLinetypeTableRecord
2
PHANTOM
70
64
3
_____ _ _ _____ _ _ _____ _ _ _____
72
65
73
6
40
0.8
49
0.45
74
0
49
-0.05
74
0
49
0.1
74
0
49
-0.05
74
0
49
0.1
74
0
49
-0.05
74
0
0
LTYPE
5
1F8
100
AcDbSymbolTableRecord
100
AcDbLinetypeTableRecord
2
DOT
70
64
3
. . . . . . . . . . . . . . . . . . . .
72
65
73
2
40
0.2
49
0.1
74
0
49
-0.1
74
0
0
LTYPE
5
1F9
100
AcDbSymbolTableRecord
100
AcDbLinetypeTableRecord
2
DASHED
70
64
3
- - - - - - - - - - - - - - - - - - - -
72
65
73
2
40
0.2
49
0.1
74
0
49
-0.1
74
0
0
ENDTAB
0
TABLE
2
LAYER
5
2
100
AcDbSymbolTable
70
36
0
LAYER
5
10
100
AcDbSymbolTableRecord
100
AcDbLayerTableRecord
2
0
70
0
62
7
6
CONTINUOUS
0
LAYER
5
1FA
100
AcDbSymbolTableRecord
100
AcDbLayerTableRecord
2
DEFAULT_1
70
0
62
7
6
CENTER
0
LAYER
5
1FB
100
AcDbSymbolTableRecord
100
AcDbLayerTableRecord
2
DEFAULT_2
70
0
62
8
6
HIDDEN
0
LAYER
5
1FC
100
AcDbSymbolTableRecord
100
AcDbLayerTableRecord
2
DEFAULT_3
70
0
62
7
6
PHANTOM
0
LAYER
5
1FD
100
AcDbSymbolTableRecord
100
AcDbLayerTableRecord
2
_BLACK_HOLE
70
0
62
7
6
CONTINUOUS
0
LAYER
5
1FE
100
AcDbSymbolTableRecord
100
AcDbLayerTableRecord
2
28
70
0
62
7
6
CONTINUOUS
0
LAYER
5
1FF
100
AcDbSymbolTableRecord
100
AcDbLayerTableRecord
2
CURVE
70
0
62
7
6
CONTINUOUS
0
LAYER
5
200
100
AcDbSymbolTableRecord
100
AcDbLayerTableRecord
2
DATUM_CONNECT
70
0
62
7
6
CONTINUOUS
0
LAYER
5
201
100
AcDbSymbolTableRecord
100
AcDbLayerTableRecord
2
DATUM_PLANE
70
0
62
7
6
CONTINUOUS
0
LAYER
5
202
100
AcDbSymbolTableRecord
100
AcDbLayerTableRecord
2
ECADS_FC
70
0
62
7
6
CONTINUOUS
0
LAYER
5
203
100
AcDbSymbolTableRecord
100
AcDbLayerTableRecord
2
ECADS_FS
70
0
62
7
6
CONTINUOUS
0
LAYER
5
204
100
AcDbSymbolTableRecord
100
AcDbLayerTableRecord
2
REF
70
0
62
7
6
CONTINUOUS
0
LAYER
5
205
100
AcDbSymbolTableRecord
100
AcDbLayerTableRecord
2
XSEC_DATUMS
70
0
62
7
6
CONTINUOUS
0
ENDTAB
0
TABLE
2
STYLE
5
3
100
AcDbSymbolTable
70
1
0
STYLE
5
11
100
AcDbSymbolTableRecord
100
AcDbTextStyleTableRecord
2
STANDARD
70
0
40
0.0
41
0.7000000000
50
0.0
71
0
42
0.2
3
txt
4

0
ENDTAB
0
TABLE
2
VIEW
5
6
100
AcDbSymbolTable
70
0
0
ENDTAB
0
TABLE
2
UCS
5
7
100
AcDbSymbolTable
70
0
0
ENDTAB
0
TABLE
2
APPID
5
9
100
AcDbSymbolTable
70
1
0
APPID
5
206
100
AcDbSymbolTableRecord
100
AcDbRegAppTableRecord
2
ACAD
70
0
0
ENDTAB
0
TABLE
2
DIMSTYLE
5
A
100
AcDbSymbolTable
70
1
0
DIMSTYLE
105
207
100
AcDbSymbolTableRecord
100
AcDbDimStyleTableRecord
2
STANDARD
70
0
3

4

5

6

7

40
1.0
41
3.0000000000
42
0.0625
43
0.38
44
0.18
45
0.0
46
0.0
47
0.0100000000
48
0.0100000000
140
3.5000000000
141
0.09
142
0.0
143
25.4
144
1.0000000000
145
0.0
146
1.0000000000
147
0.09
71
1
72
0
73
0
74
0
75
0
76
0
77
1
78
8
170
0
171
2
172
0
173
0
174
0
175
0
176
0
177
0
178
0
270
2
271
2
272
2
273
2
274
2
340
11
275
0
280
0
281
0
282
0
283
1
284
8
285
0
286
0
287
3
288
0
0
ENDTAB
0
TABLE
2
BLOCK_RECORD
5
1
100
AcDbSymbolTable
70
0
0
BLOCK_RECORD
5
1B
100
AcDbSymbolTableRecord
100
AcDbBlockTableRecord
2
*MODEL_SPACE
0
BLOCK_RECORD
5
1C
100
AcDbSymbolTableRecord
100
AcDbBlockTableRecord
2
*PAPER_SPACE
0
ENDTAB
0
ENDSEC
0
SECTION
2
BLOCKS
0
BLOCK
5
1E
100
AcDbEntity
8
0
100
AcDbBlockBegin
2
*MODEL_SPACE
70
0
10
0.0
20
0.0
30
0.0
3
*MODEL_SPACE
1

0
ENDBLK
5
1F
100
AcDbEntity
8
0
100
AcDbBlockEnd
0
BLOCK
5
20
100
AcDbEntity
8
0
100
AcDbBlockBegin
2
*PAPER_SPACE
70
0
10
0.0
20
0.0
30
0.0
3
*PAPER_SPACE
1

0
ENDBLK
5
21
100
AcDbEntity
8
0
100
AcDbBlockEnd
0
ENDSEC
0
SECTION
2
ENTITIES
0
TEXT
5
208
100
AcDbEntity
8
0
100
AcDbText
62
2
6
CONTINUOUS
10
283.6580926310
20
253.3094880840
7
STANDARD
40
10.0000000000
1
140CRA93xxx
41
0.7000000094
72
0
100
AcDbText
0
TEXT
5
209
100
AcDbEntity
8
0
100
AcDbText
62
2
6
CONTINUOUS
10
283.6580926310
20
238.3094880840
7
STANDARD
40
10.0000000000
1
140CRP93xxx
41
0.7000000094
72
0
100
AcDbText
0
LINE
5
20A
100
AcDbEntity
8
0
100
AcDbLine
62
7
6
CONTINUOUS
10
0.0000000000
20
0.0000000000
11
0.0000000000
21
297.0000000000
0
LINE
5
20B
100
AcDbEntity
8
0
100
AcDbLine
62
7
6
CONTINUOUS
10
0.0000000000
20
0.0000000000
11
420.0000000000
21
0.0000000000
0
LINE
5
20C
100
AcDbEntity
8
0
100
AcDbLine
62
7
6
CONTINUOUS
10
0.0000000000
20
297.0000000000
11
420.0000000000
21
297.0000000000
0
LINE
5
20D
100
AcDbEntity
8
0
100
AcDbLine
62
7
6
CONTINUOUS
10
420.0000000000
20
0.0000000000
11
420.0000000000
21
297.0000000000
0
LINE
5
20E
100
AcDbEntity
8
0
100
AcDbLine
62
7
6
CONTINUOUS
10
76.1734768976
20
34.7378630152
11
75.7734768976
21
34.7308809892
0
LINE
5
20F
100
AcDbEntity
8
0
100
AcDbLine
62
7
6
CONTINUOUS
10
66.7032506509
20
27.0750650151
11
66.2954563702
21
27.0750650151
0
LINE
5
210
100
AcDbEntity
8
0
100
AcDbLine
62
7
6
CONTINUOUS
10
44.8537031442
20
27.0750650151
11
48.6535222435
21
27.0750650151
0
LINE
5
211
100
AcDbEntity
8
0
100
AcDbLine
62
7
6
CONTINUOUS
10
62.9034315517
20
27.0750650151
11
66.2356262152
21
27.0750650151
0
LINE
5
212
100
AcDbEntity
8
0
100
AcDbLine
62
7
6
CONTINUOUS
10
68.0199349249
20
27.1050650151
11
67.1777474249
21
27.1050650151
0
LINE
5
213
100
AcDbEntity
8
0
100
AcDbLine
62
7
6
CONTINUOUS
10
66.8569143976
20
27.1050650151
11
65.3329559112
21
27.1050650151
0
LINE
5
214
100
AcDbEntity
8
0
100
AcDbLine
62
7
6
CONTINUOUS
10
65.0121228839
20
27.1050650151
11
63.5683728839
21
27.1050650151
0
LINE
5
215
100
AcDbEntity
8
0
100
AcDbLine
62
7
6
CONTINUOUS
10
63.2475393976
20
27.1050650151
11
62.6860809112
21
27.1050650151
0
LINE
5
216
100
AcDbEntity
8
0
100
AcDbLine
62
7
6
CONTINUOUS
10
62.3652478839
20
27.1050650151
11
60.8011851544
21
27.1050650151
0
LINE
5
217
100
AcDbEntity
8
0
100
AcDbLine
62
7
6
CONTINUOUS
10
60.4803518976
20
27.1050650151
11
58.9964977691
21
27.1050650151
0
LINE
5
218
100
AcDbEntity
8
0
100
AcDbLine
62
7
6
CONTINUOUS
10
58.6756643976
20
27.1050650151
11
57.8334768976
21
27.1050650151
0
LINE
5
219
100
AcDbEntity
8
0
100
AcDbLine
62
7
6
CONTINUOUS
10
48.0423226244
20
27.1050650151
11
43.5533618403
21
27.1050650151
0
LINE
5
21A
100
AcDbEntity
8
0
100
AcDbLine
62
7
6
CONTINUOUS
10
35.8334768976
20
27.3050650151
11
76.1734768976
21
27.3050650151
0
LINE
5
21B
100
AcDbEntity
8
0
100
AcDbLine
62
7
6
CONTINUOUS
10
35.8334768976
20
28.3050650151
11
39.1901987158
21
28.3050650151
0
LINE
5
21C
100
AcDbEntity
8
0
100
AcDbLine
62
9
6
CONTINUOUS
10
35.8334768976
20
31.3050650151
11
39.1901987158
21
31.3050650151
0
LINE
5
21D
100
AcDbEntity
8
0
100
AcDbLine
62
9
6
CONTINUOUS
10
60.8785870372
20
32.1505640949
11
61.8784347323
21
32.1505640949
0
LINE
5
21E
100
AcDbEntity
8
0
100
AcDbLine
62
7
6
CONTINUOUS
10
55.5534768976
20
32.6850650151
11
56.4534768976
21
32.6850650151
0
LINE
5
21F
100
AcDbEntity
8
0
100
AcDbLine
62
7
6
CONTINUOUS
10
60.2239626516
20
33.3350650151
11
56.4659768976
21
33.3350650151
0
LINE
5
220
100
AcDbEntity
8
0
100
AcDbLine
62
7
6
CONTINUOUS
10
51.7829911435
20
33.3350650151
11
55.5409768976
21
33.3350650151
0
LINE
5
221
100
AcDbEntity
8
0
100
AcDbLine
62
7
6
CONTINUOUS
10
54.5159768976
20
33.3725650151
11
55.5409768976
21
33.3725650151
0
LINE
5
222
100
AcDbEntity
8
0
100
AcDbLine
62
7
6
CONTINUOUS
10
56.4659768976
20
33.3725650151
11
57.4909768976
21
33.3725650151
0
LINE
5
223
100
AcDbEntity
8
0
100
AcDbLine
62
7
6
CONTINUOUS
10
54.8534768976
20
33.3850650151
11
55.5534768976
21
33.3850650151
0
LINE
5
224
100
AcDbEntity
8
0
100
AcDbLine
62
7
6
CONTINUOUS
10
56.4659768976
20
33.3850650151
11
57.1534768976
21
33.3850650151
0
LINE
5
225
100
AcDbEntity
8
0
100
AcDbLine
62
7
6
CONTINUOUS
10
57.1534768976
20
34.2850650151
11
56.4534768976
21
34.2850650151
0
LINE
5
226
100
AcDbEntity
8
0
100
AcDbLine
62
7
6
CONTINUOUS
10
55.5409768976
20
34.2850650151
11
54.8534768976
21
34.2850650151
0
LINE
5
227
100
AcDbEntity
8
0
100
AcDbLine
62
7
6
CONTINUOUS
10
57.4909768976
20
34.2975650151
11
56.4659768976
21
34.2975650151
0
LINE
5
228
100
AcDbEntity
8
0
100
AcDbLine
62
7
6
CONTINUOUS
10
55.5409768976
20
34.2975650151
11
54.5159768976
21
34.2975650151
0
LINE
5
229
100
AcDbEntity
8
0
100
AcDbLine
62
7
6
CONTINUOUS
10
35.8334768976
20
34.3050650151
11
39.1378335210
21
34.3050650151
0
LINE
5
22A
100
AcDbEntity
8
0
100
AcDbLine
62
7
6
CONTINUOUS
10
51.7829911435
20
34.3350650151
11
55.5409768976
21
34.3350650151
0
LINE
5
22B
100
AcDbEntity
8
0
100
AcDbLine
62
7
6
CONTINUOUS
10
56.4659768976
20
34.3350650151
11
60.2239626516
21
34.3350650151
0
LINE
5
22C
100
AcDbEntity
8
0
100
AcDbLine
62
7
6
CONTINUOUS
10
72.5734768976
20
34.7308809892
11
75.7734768976
21
34.7308809892
0
LINE
5
22D
100
AcDbEntity
8
0
100
AcDbLine
62
7
6
CONTINUOUS
10
65.2430933077
20
34.7849916905
11
71.1734768976
21
34.7849916905
0
LINE
5
22E
100
AcDbEntity
8
0
100
AcDbLine
62
7
6
CONTINUOUS
10
76.1734768976
20
34.8050650151
11
74.7443970273
21
34.8050650151
0
LINE
5
22F
100
AcDbEntity
8
0
100
AcDbLine
62
7
6
CONTINUOUS
10
56.4534768976
20
34.9850650151
11
55.5534768976
21
34.9850650151
0
LINE
5
230
100
AcDbEntity
8
0
100
AcDbLine
62
7
6
CONTINUOUS
10
72.5734768976
20
34.7308809892
11
72.1734768976
21
34.7378630152
0
LINE
5
231
100
AcDbEntity
8
0
100
AcDbLine
62
7
6
CONTINUOUS
10
39.1035070979
20
39.3716244776
11
38.8534768976
21
39.3585209500
0
LINE
5
232
100
AcDbEntity
8
0
100
AcDbLine
62
9
6
CONTINUOUS
10
74.3993548621
20
35.1501071804
11
64.8779778178
21
35.1501071804
0
LINE
5
233
100
AcDbEntity
8
0
100
AcDbLine
62
7
6
CONTINUOUS
10
35.8334768976
20
35.3050650151
11
38.0025567678
21
35.3050650151
0
LINE
5
234
100
AcDbEntity
8
0
100
AcDbLine
62
9
6
CONTINUOUS
10
74.3822044300
20
36.1499548755
11
64.8779778178
21
36.1499548755
0
LINE
5
235
100
AcDbEntity
8
0
100
AcDbLine
62
7
6
CONTINUOUS
10
38.8534768976
20
39.3050650151
11
39.0534196836
21
39.3050650151
0
LINE
5
236
100
AcDbEntity
8
0
100
AcDbLine
62
7
6
CONTINUOUS
10
39.3475989330
20
40.3096190746
11
74.3822044300
21
40.3096190746
0
LINE
5
237
100
AcDbEntity
8
0
100
AcDbLine
62
7
6
CONTINUOUS
10
72.1734768976
20
34.7675366255
11
71.1734768976
21
34.7849916905
0
LINE
5
238
100
AcDbEntity
8
0
100
AcDbLine
62
7
6
CONTINUOUS
10
38.8534768976
20
51.3050650151
11
39.0534196836
21
51.3050650151
0
LINE
5
239
100
AcDbEntity
8
0
100
AcDbLine
62
7
6
CONTINUOUS
10
38.8534768976
20
51.2516090803
11
39.1035070979
21
51.2385055527
0
LINE
5
23A
100
AcDbEntity
8
0
100
AcDbLine
62
7
6
CONTINUOUS
10
35.8334768976
20
56.3050650151
11
38.0025567678
21
56.3050650151
0
LINE
5
23B
100
AcDbEntity
8
0
100
AcDbLine
62
7
6
CONTINUOUS
10
39.0201641608
20
34.3050650151
11
38.0025567678
21
35.3050650151
0
LINE
5
23C
100
AcDbEntity
8
0
100
AcDbLine
62
9
6
CONTINUOUS
10
35.8334768976
20
61.6455550051
11
39.1640161184
21
61.6455550051
0
LINE
5
23D
100
AcDbEntity
8
0
100
AcDbLine
62
9
6
CONTINUOUS
10
35.8334768976
20
64.2436312165
11
39.1901987158
21
64.2436312165
0
LINE
5
23E
100
AcDbEntity
8
0
100
AcDbLine
62
7
6
CONTINUOUS
10
54.2260933780
20
35.6124485347
11
55.5034768976
21
34.3350650151
0
LINE
5
23F
100
AcDbEntity
8
0
100
AcDbLine
62
7
6
CONTINUOUS
10
56.5034768976
20
33.3350650151
11
57.7808604171
21
32.0576814956
0
LINE
5
240
100
AcDbEntity
8
0
100
AcDbLine
62
7
6
CONTINUOUS
10
55.2005251449
20
69.8950650151
11
57.8186490420
21
69.8950650151
0
LINE
5
241
100
AcDbEntity
8
0
100
AcDbLine
62
7
6
CONTINUOUS
10
58.5083047532
20
69.8950650151
11
61.1264286502
21
69.8950650151
0
LINE
5
242
100
AcDbEntity
8
0
100
AcDbLine
62
7
6
CONTINUOUS
10
63.5634768976
20
73.4702494566
11
63.5998263285
21
73.4702494566
0
LINE
5
243
100
AcDbEntity
8
0
100
AcDbLine
62
9
6
CONTINUOUS
10
63.5634768976
20
73.6288442000
11
63.6271902955
21
73.6288442000
0
LINE
5
244
100
AcDbEntity
8
0
100
AcDbLine
62
9
6
CONTINUOUS
10
63.5634768976
20
74.1281589674
11
63.6924913695
21
74.1281589674
0
LINE
5
245
100
AcDbEntity
8
0
100
AcDbLine
62
7
6
CONTINUOUS
10
63.5634768976
20
74.2450650151
11
63.7017946766
21
74.2450650151
0
LINE
5
246
100
AcDbEntity
8
0
100
AcDbLine
62
7
6
CONTINUOUS
10
63.5634768976
20
75.0450650151
11
63.6921734262
21
75.0450650151
0
LINE
5
247
100
AcDbEntity
8
0
100
AcDbLine
62
9
6
CONTINUOUS
10
61.8784347323
20
32.1505640949
11
62.2435502222
21
31.7854486050
0
LINE
5
248
100
AcDbEntity
8
0
100
AcDbLine
62
9
6
CONTINUOUS
10
64.8779778178
20
35.1501071804
11
65.2430933077
21
34.7849916905
0
LINE
5
249
100
AcDbEntity
8
0
100
AcDbLine
62
7
6
CONTINUOUS
10
76.1734768976
20
277.3050650151
11
76.1471275699
21
277.2787156875
0
LINE
5
24A
100
AcDbEntity
8
0
100
AcDbLine
62
7
6
CONTINUOUS
10
55.2276795186
20
78.3950650151
11
61.0992742765
21
78.3950650151
0
LINE
5
24B
100
AcDbEntity
8
0
100
AcDbLine
62
7
6
CONTINUOUS
10
60.9262207148
20
79.3950650151
11
58.5083047532
21
79.3950650151
0
LINE
5
24C
100
AcDbEntity
8
0
100
AcDbLine
62
7
6
CONTINUOUS
10
57.8186490420
20
79.3950650151
11
55.4007330803
21
79.3950650151
0
LINE
5
24D
100
AcDbEntity
8
0
100
AcDbLine
62
7
6
CONTINUOUS
10
74.3993548621
20
35.1501071804
11
74.7443970273
21
34.8050650151
0
LINE
5
24E
100
AcDbEntity
8
0
100
AcDbLine
62
7
6
CONTINUOUS
10
35.8684057927
20
218.7099939102
11
35.8334768976
21
218.6750650151
0
LINE
5
24F
100
AcDbEntity
8
0
100
AcDbLine
62
7
6
CONTINUOUS
10
41.7872030910
20
205.8387912085
11
41.6034768976
21
205.6550650151
0
LINE
5
250
100
AcDbEntity
8
0
100
AcDbLine
62
9
6
CONTINUOUS
10
62.2435502222
20
213.3246814253
11
62.2234768976
21
213.3046081006
0
LINE
5
251
100
AcDbEntity
8
0
100
AcDbLine
62
9
6
CONTINUOUS
10
65.2430933077
20
210.3251383398
11
65.2230199830
21
210.3050650151
0
LINE
5
252
100
AcDbEntity
8
0
100
AcDbLine
62
7
6
CONTINUOUS
10
38.7865358408
20
193.5529709017
11
38.8534768976
21
193.7206815128
0
LINE
5
253
100
AcDbEntity
8
0
100
AcDbLine
62
7
6
CONTINUOUS
10
75.1401325339
20
210.3792490411
11
75.1034768976
21
210.3425934047
0
LINE
5
254
100
AcDbEntity
8
0
100
AcDbLine
62
7
6
CONTINUOUS
10
59.2800367745
20
124.5189737985
11
57.0469170206
21
124.5189737985
0
LINE
5
255
100
AcDbEntity
8
0
100
AcDbLine
62
7
6
CONTINUOUS
10
55.3118329482
20
125.1950650151
11
57.8186490420
21
125.1950650151
0
LINE
5
256
100
AcDbEntity
8
0
100
AcDbLine
62
7
6
CONTINUOUS
10
58.5083047532
20
125.1950650151
11
61.0151208469
21
125.1950650151
0
LINE
5
257
100
AcDbEntity
8
0
100
AcDbLine
62
7
6
CONTINUOUS
10
39.0200091743
20
148.7278026792
11
39.1640161184
21
143.9645750251
0
LINE
5
258
100
AcDbEntity
8
0
100
AcDbLine
62
7
6
CONTINUOUS
10
39.2076537807
20
27.3050650151
11
39.1901987158
21
28.3050650151
0
LINE
5
259
100
AcDbEntity
8
0
100
AcDbLine
62
7
6
CONTINUOUS
10
35.8334768976
20
27.3050650151
11
35.8334768976
21
217.5550650151
0
LINE
5
25A
100
AcDbEntity
8
0
100
AcDbLine
62
7
6
CONTINUOUS
10
35.8334768976
20
217.5655380541
11
35.8334768976
21
277.3050650151
0
LINE
5
25B
100
AcDbEntity
8
0
100
AcDbLine
62
7
6
CONTINUOUS
10
35.8684057927
20
277.2701361200
11
35.8684057927
21
218.7099939102
0
LINE
5
25C
100
AcDbEntity
8
0
100
AcDbLine
62
7
6
CONTINUOUS
10
37.8534768976
20
205.8387912085
11
37.8534768976
21
193.4713388217
0
LINE
5
25D
100
AcDbEntity
8
0
100
AcDbLine
62
7
6
CONTINUOUS
10
38.0025567678
20
56.3050650151
11
38.0025567678
21
35.3050650151
0
LINE
5
25E
100
AcDbEntity
8
0
100
AcDbLine
62
7
6
CONTINUOUS
10
38.0025567678
20
149.3050650151
11
38.0025567678
21
155.8150650151
0
LINE
5
25F
100
AcDbEntity
8
0
100
AcDbLine
62
7
6
CONTINUOUS
10
38.7865358408
20
205.7571591286
11
38.7865358408
21
193.5529709017
0
LINE
5
260
100
AcDbEntity
8
0
100
AcDbLine
62
7
6
CONTINUOUS
10
38.8534768976
20
51.3050650151
11
38.8534768976
21
39.3050650151
0
LINE
5
261
100
AcDbEntity
8
0
100
AcDbLine
62
7
6
CONTINUOUS
10
38.8534768976
20
193.7206815128
11
38.8534768976
21
205.5894485175
0
LINE
5
262
100
AcDbEntity
8
0
100
AcDbLine
62
7
6
CONTINUOUS
10
39.0200091743
20
155.8063394765
11
39.0200091743
21
148.7278026792
0
LINE
5
263
100
AcDbEntity
8
0
100
AcDbLine
62
7
6
CONTINUOUS
10
39.0200091743
20
56.8823273511
11
39.0200091743
21
51.3050650151
0
LINE
5
264
100
AcDbEntity
8
0
100
AcDbLine
62
7
6
CONTINUOUS
10
39.0200091743
20
39.3050650151
11
39.0200091743
21
34.3050650151
0
LINE
5
265
100
AcDbEntity
8
0
100
AcDbLine
62
7
6
CONTINUOUS
10
39.0534196836
20
51.3050650151
11
39.0534196836
21
51.2411305229
0
LINE
5
266
100
AcDbEntity
8
0
100
AcDbLine
62
7
6
CONTINUOUS
10
39.0534196836
20
39.3689995074
11
39.0534196836
21
39.3050650151
0
LINE
5
267
100
AcDbEntity
8
0
100
AcDbLine
62
7
6
CONTINUOUS
10
39.1035070979
20
51.2385055527
11
39.1035070979
21
39.3716244776
0
LINE
5
268
100
AcDbEntity
8
0
100
AcDbLine
62
7
6
CONTINUOUS
10
39.1901987158
20
141.3664988138
11
39.1901987158
21
64.2436312165
0
LINE
5
269
100
AcDbEntity
8
0
100
AcDbLine
62
7
6
CONTINUOUS
10
39.1901987158
20
31.3050650151
11
39.1901987158
21
28.3050650151
0
LINE
5
26A
100
AcDbEntity
8
0
100
AcDbLine
62
9
6
CONTINUOUS
10
39.3475989330
20
27.3050650151
11
39.3475989330
21
40.3096190746
0
LINE
5
26B
100
AcDbEntity
8
0
100
AcDbLine
62
7
6
CONTINUOUS
10
39.3734768976
20
40.3096190746
11
39.3734768976
21
155.6296190746
0
LINE
5
26C
100
AcDbEntity
8
0
100
AcDbLine
62
7
6
CONTINUOUS
10
63.5634768976
20
129.5450650151
11
63.6973115677
21
129.5450650151
0
LINE
5
26D
100
AcDbEntity
8
0
100
AcDbLine
62
7
6
CONTINUOUS
10
63.5634768976
20
130.3450650151
11
63.6993668243
21
130.3450650151
0
LINE
5
26E
100
AcDbEntity
8
0
100
AcDbLine
62
7
6
CONTINUOUS
10
55.2276795186
20
133.6950650151
11
61.0992742765
21
133.6950650151
0
LINE
5
26F
100
AcDbEntity
8
0
100
AcDbLine
62
7
6
CONTINUOUS
10
61.0501776981
20
134.6950650151
11
58.5083047532
21
134.6950650151
0
LINE
5
270
100
AcDbEntity
8
0
100
AcDbLine
62
7
6
CONTINUOUS
10
57.8186490420
20
134.6950650151
11
55.2767760970
21
134.6950650151
0
LINE
5
271
100
AcDbEntity
8
0
100
AcDbLine
62
9
6
CONTINUOUS
10
40.3474466282
20
27.3050650151
11
40.3474466282
21
40.3096190746
0
LINE
5
272
100
AcDbEntity
8
0
100
AcDbLine
62
7
6
CONTINUOUS
10
41.6034768976
20
193.6550650151
11
41.6034768976
21
205.6550650151
0
LINE
5
273
100
AcDbEntity
8
0
100
AcDbLine
62
7
6
CONTINUOUS
10
41.7872030910
20
193.4713388217
11
41.7872030910
21
205.8387912085
0
LINE
5
274
100
AcDbEntity
8
0
100
AcDbLine
62
7
6
CONTINUOUS
10
43.5533618403
20
27.3050650151
11
43.5533618403
21
27.1050650151
0
LINE
5
275
100
AcDbEntity
8
0
100
AcDbLine
62
7
6
CONTINUOUS
10
44.4911375217
20
27.3050650151
11
44.4911375217
21
27.1050650151
0
LINE
5
276
100
AcDbEntity
8
0
100
AcDbLine
62
9
6
CONTINUOUS
10
45.2705603851
20
27.3050650151
11
45.2705603851
21
27.1050650151
0
LINE
5
277
100
AcDbEntity
8
0
100
AcDbLine
62
9
6
CONTINUOUS
10
46.3963934100
20
27.3050650151
11
46.3963934100
21
27.1050650151
0
LINE
5
278
100
AcDbEntity
8
0
100
AcDbLine
62
7
6
CONTINUOUS
10
46.8408162734
20
27.3050650151
11
46.8408162734
21
27.1050650151
0
LINE
5
279
100
AcDbEntity
8
0
100
AcDbLine
62
7
6
CONTINUOUS
10
47.4435919548
20
27.3050650151
11
47.4435919548
21
27.1050650151
0
LINE
5
27A
100
AcDbEntity
8
0
100
AcDbLine
62
9
6
CONTINUOUS
10
47.9552391368
20
27.3050650151
11
47.9552391368
21
27.1050650151
0
LINE
5
27B
100
AcDbEntity
8
0
100
AcDbLine
62
7
6
CONTINUOUS
10
48.0423226244
20
27.3050650151
11
48.0423226244
21
27.1050650151
0
LINE
5
27C
100
AcDbEntity
8
0
100
AcDbLine
62
7
6
CONTINUOUS
10
48.4610471837
20
27.3050650151
11
48.4610471837
21
27.0750650151
0
LINE
5
27D
100
AcDbEntity
8
0
100
AcDbLine
62
7
6
CONTINUOUS
10
48.6535222435
20
27.0750650151
11
48.6535222435
21
27.3050650151
0
LINE
5
27E
100
AcDbEntity
8
0
100
AcDbLine
62
7
6
CONTINUOUS
10
39.1640161184
20
61.6455550051
11
39.0200091743
21
56.8823273511
0
LINE
5
27F
100
AcDbEntity
8
0
100
AcDbLine
62
9
6
CONTINUOUS
10
35.8334768976
20
141.3664988138
11
39.1901987158
21
141.3664988138
0
LINE
5
280
100
AcDbEntity
8
0
100
AcDbLine
62
9
6
CONTINUOUS
10
35.8334768976
20
143.9645750251
11
39.1640161184
21
143.9645750251
0
LINE
5
281
100
AcDbEntity
8
0
100
AcDbLine
62
7
6
CONTINUOUS
10
38.0025567678
20
149.3050650151
11
39.0200091743
21
148.7278026792
0
LINE
5
282
100
AcDbEntity
8
0
100
AcDbLine
62
7
6
CONTINUOUS
10
55.5046920439
20
34.5781694258
11
55.5146425108
21
34.3350650151
0
LINE
5
283
100
AcDbEntity
8
0
100
AcDbLine
62
7
6
CONTINUOUS
10
56.5022617512
20
33.0919606045
11
56.4923112843
21
33.3350650151
0
LINE
5
284
100
AcDbEntity
8
0
100
AcDbLine
62
7
6
CONTINUOUS
10
55.5534768976
20
34.9850650151
11
55.5130406126
21
36.0768447101
0
LINE
5
285
100
AcDbEntity
8
0
100
AcDbLine
62
7
6
CONTINUOUS
10
56.4534768976
20
32.6850650151
11
56.4939131826
21
31.5932853202
0
LINE
5
286
100
AcDbEntity
8
0
100
AcDbLine
62
7
6
CONTINUOUS
10
54.5159768976
20
34.2975650151
11
54.5159768976
21
33.3725650151
0
LINE
5
287
100
AcDbEntity
8
0
100
AcDbLine
62
7
6
CONTINUOUS
10
54.8534768976
20
34.2850650151
11
54.8534768976
21
33.3850650151
0
LINE
5
288
100
AcDbEntity
8
0
100
AcDbLine
62
9
6
CONTINUOUS
10
55.3065708498
20
69.8950650151
11
55.3065708498
21
69.8280245711
0
LINE
5
289
100
AcDbEntity
8
0
100
AcDbLine
62
7
6
CONTINUOUS
10
55.5409768976
20
33.3725650151
11
55.5409768976
21
33.3350650151
0
LINE
5
28A
100
AcDbEntity
8
0
100
AcDbLine
62
7
6
CONTINUOUS
10
55.5409768976
20
34.2975650151
11
55.5409768976
21
34.3350650151
0
LINE
5
28B
100
AcDbEntity
8
0
100
AcDbLine
62
7
6
CONTINUOUS
10
55.5534768976
20
34.9850650151
11
55.5534768976
21
34.2850650151
0
LINE
5
28C
100
AcDbEntity
8
0
100
AcDbLine
62
7
6
CONTINUOUS
10
55.5534768976
20
33.3850650151
11
55.5534768976
21
32.6850650151
0
LINE
5
28D
100
AcDbEntity
8
0
100
AcDbLine
62
7
6
CONTINUOUS
10
56.4534768976
20
32.6850650151
11
56.4534768976
21
33.3850650151
0
LINE
5
28E
100
AcDbEntity
8
0
100
AcDbLine
62
7
6
CONTINUOUS
10
56.4534768976
20
34.2850650151
11
56.4534768976
21
34.9850650151
0
LINE
5
28F
100
AcDbEntity
8
0
100
AcDbLine
62
7
6
CONTINUOUS
10
56.4659768976
20
33.3725650151
11
56.4659768976
21
33.3350650151
0
LINE
5
290
100
AcDbEntity
8
0
100
AcDbLine
62
7
6
CONTINUOUS
10
56.4659768976
20
34.2975650151
11
56.4659768976
21
34.3350650151
0
LINE
5
291
100
AcDbEntity
8
0
100
AcDbLine
62
9
6
CONTINUOUS
10
56.7003829453
20
69.2325628953
11
56.7003829453
21
69.8950650151
0
LINE
5
292
100
AcDbEntity
8
0
100
AcDbLine
62
9
6
CONTINUOUS
10
56.7003829453
20
79.3950650151
11
56.7003829453
21
79.9375671350
0
LINE
5
293
100
AcDbEntity
8
0
100
AcDbLine
62
9
6
CONTINUOUS
10
56.7003829453
20
134.6950650151
11
56.7003829453
21
135.3075671350
0
LINE
5
294
100
AcDbEntity
8
0
100
AcDbLine
62
7
6
CONTINUOUS
10
35.8334768976
20
149.3050650151
11
38.0025567678
21
149.3050650151
0
LINE
5
295
100
AcDbEntity
8
0
100
AcDbLine
62
7
6
CONTINUOUS
10
39.3734768976
20
155.6296190746
11
39.0200091743
21
155.8063394765
0
LINE
5
296
100
AcDbEntity
8
0
100
AcDbLine
62
7
6
CONTINUOUS
10
57.1534768976
20
33.3850650151
11
57.1534768976
21
34.2850650151
0
LINE
5
297
100
AcDbEntity
8
0
100
AcDbLine
62
9
6
CONTINUOUS
10
57.1996977126
20
69.1226505024
11
57.1996977126
21
69.8950650151
0
LINE
5
298
100
AcDbEntity
8
0
100
AcDbLine
62
9
6
CONTINUOUS
10
57.1996977126
20
79.3950650151
11
57.1996977126
21
80.0474795279
0
LINE
5
299
100
AcDbEntity
8
0
100
AcDbLine
62
9
6
CONTINUOUS
10
57.1996977126
20
134.6950650151
11
57.1996977126
21
135.4174795279
0
LINE
5
29A
100
AcDbEntity
8
0
100
AcDbLine
62
7
6
CONTINUOUS
10
57.2534768976
20
69.1133846365
11
57.2534768976
21
69.8950650151
0
LINE
5
29B
100
AcDbEntity
8
0
100
AcDbLine
62
7
6
CONTINUOUS
10
57.2534768976
20
79.3950650151
11
57.2534768976
21
80.0567453938
0
LINE
5
29C
100
AcDbEntity
8
0
100
AcDbLine
62
7
6
CONTINUOUS
10
57.2534768976
20
134.6950650151
11
57.2534768976
21
135.4267453938
0
LINE
5
29D
100
AcDbEntity
8
0
100
AcDbLine
62
7
6
CONTINUOUS
10
57.4909768976
20
33.3725650151
11
57.4909768976
21
34.2975650151
0
LINE
5
29E
100
AcDbEntity
8
0
100
AcDbLine
62
7
6
CONTINUOUS
10
57.8334768976
20
27.3050650151
11
57.8334768976
21
27.1050650151
0
LINE
5
29F
100
AcDbEntity
8
0
100
AcDbLine
62
7
6
CONTINUOUS
10
57.9136852333
20
27.3050650151
11
57.9136852333
21
27.1050650151
0
LINE
5
2A0
100
AcDbEntity
8
0
100
AcDbLine
62
7
6
CONTINUOUS
10
58.6756643976
20
27.3050650151
11
58.6756643976
21
27.1050650151
0
LINE
5
2A1
100
AcDbEntity
8
0
100
AcDbLine
62
7
6
CONTINUOUS
10
58.9964977691
20
27.3050650151
11
58.9964977691
21
27.1050650151
0
LINE
5
2A2
100
AcDbEntity
8
0
100
AcDbLine
62
7
6
CONTINUOUS
10
59.9589976544
20
27.3050650151
11
59.9589976544
21
27.1050650151
0
LINE
5
2A3
100
AcDbEntity
8
0
100
AcDbLine
62
7
6
CONTINUOUS
10
60.1595186407
20
27.3050650151
11
60.1595186407
21
27.1050650151
0
LINE
5
2A4
100
AcDbEntity
8
0
100
AcDbLine
62
7
6
CONTINUOUS
10
60.3199351544
20
27.3050650151
11
60.3199351544
21
27.1050650151
0
LINE
5
2A5
100
AcDbEntity
8
0
100
AcDbLine
62
7
6
CONTINUOUS
10
60.4402476544
20
27.3050650151
11
60.4402476544
21
27.1050650151
0
LINE
5
2A6
100
AcDbEntity
8
0
100
AcDbLine
62
7
6
CONTINUOUS
10
60.4803518976
20
27.3050650151
11
60.4803518976
21
27.1050650151
0
LINE
5
2A7
100
AcDbEntity
8
0
100
AcDbLine
62
7
6
CONTINUOUS
10
60.8011851544
20
27.3050650151
11
60.8011851544
21
27.1050650151
0
LINE
5
2A8
100
AcDbEntity
8
0
100
AcDbLine
62
7
6
CONTINUOUS
10
60.8412893976
20
27.3050650151
11
60.8412893976
21
27.1050650151
0
LINE
5
2A9
100
AcDbEntity
8
0
100
AcDbLine
62
9
6
CONTINUOUS
10
60.8785870372
20
32.1505640949
11
60.8785870372
21
27.3050650151
0
LINE
5
2AA
100
AcDbEntity
8
0
100
AcDbLine
62
7
6
CONTINUOUS
10
60.9214976544
20
27.3050650151
11
60.9214976544
21
27.1050650151
0
LINE
5
2AB
100
AcDbEntity
8
0
100
AcDbLine
62
7
6
CONTINUOUS
10
61.0534768976
20
69.8472283976
11
61.0534768976
21
69.8950650151
0
LINE
5
2AC
100
AcDbEntity
8
0
100
AcDbLine
62
7
6
CONTINUOUS
10
61.0819143976
20
27.3050650151
11
61.0819143976
21
27.1050650151
0
LINE
5
2AD
100
AcDbEntity
8
0
100
AcDbLine
62
7
6
CONTINUOUS
10
61.2423311407
20
27.3050650151
11
61.2423311407
21
27.1050650151
0
LINE
5
2AE
100
AcDbEntity
8
0
100
AcDbLine
62
7
6
CONTINUOUS
10
61.4428518976
20
27.3050650151
11
61.4428518976
21
27.1050650151
0
LINE
5
2AF
100
AcDbEntity
8
0
100
AcDbLine
62
7
6
CONTINUOUS
10
61.8037893976
20
27.3050650151
11
61.8037893976
21
27.1050650151
0
LINE
5
2B0
100
AcDbEntity
8
0
100
AcDbLine
62
9
6
CONTINUOUS
10
61.8784347323
20
32.1505640949
11
61.8784347323
21
27.3050650151
0
LINE
5
2B1
100
AcDbEntity
8
0
100
AcDbLine
62
7
6
CONTINUOUS
10
62.0043103839
20
27.3050650151
11
62.0043103839
21
27.1050650151
0
LINE
5
2B2
100
AcDbEntity
8
0
100
AcDbLine
62
7
6
CONTINUOUS
10
62.1647268976
20
27.3050650151
11
62.1647268976
21
27.1050650151
0
LINE
5
2B3
100
AcDbEntity
8
0
100
AcDbLine
62
7
6
CONTINUOUS
10
62.2234768976
20
217.5550650151
11
62.2234768976
21
213.3046081006
0
LINE
5
2B4
100
AcDbEntity
8
0
100
AcDbLine
62
7
6
CONTINUOUS
10
62.2435502222
20
217.5349916905
11
62.2435502222
21
213.3246814253
0
LINE
5
2B5
100
AcDbEntity
8
0
100
AcDbLine
62
7
6
CONTINUOUS
10
62.2435502222
20
27.3050650151
11
62.2435502222
21
31.7854486050
0
LINE
5
2B6
100
AcDbEntity
8
0
100
AcDbLine
62
7
6
CONTINUOUS
10
62.3251434112
20
27.3050650151
11
62.3251434112
21
27.1050650151
0
LINE
5
2B7
100
AcDbEntity
8
0
100
AcDbLine
62
7
6
CONTINUOUS
10
62.3652478839
20
27.3050650151
11
62.3652478839
21
27.1050650151
0
LINE
5
2B8
100
AcDbEntity
8
0
100
AcDbLine
62
7
6
CONTINUOUS
10
62.6860809112
20
27.3050650151
11
62.6860809112
21
27.1050650151
0
LINE
5
2B9
100
AcDbEntity
8
0
100
AcDbLine
62
7
6
CONTINUOUS
10
63.2475393976
20
27.3050650151
11
63.2475393976
21
27.1050650151
0
LINE
5
2BA
100
AcDbEntity
8
0
100
AcDbLine
62
7
6
CONTINUOUS
10
63.5634768976
20
73.3168251588
11
63.5634768976
21
75.8533048714
0
LINE
5
2BB
100
AcDbEntity
8
0
100
AcDbLine
62
7
6
CONTINUOUS
10
63.5634768976
20
128.6868251588
11
63.5634768976
21
131.2233048714
0
LINE
5
2BC
100
AcDbEntity
8
0
100
AcDbLine
62
7
6
CONTINUOUS
10
63.5683728839
20
27.3050650151
11
63.5683728839
21
27.1050650151
0
LINE
5
2BD
100
AcDbEntity
8
0
100
AcDbLine
62
9
6
CONTINUOUS
10
64.8779778178
20
36.1499548755
11
64.8779778178
21
35.1501071804
0
LINE
5
2BE
100
AcDbEntity
8
0
100
AcDbLine
62
7
6
CONTINUOUS
10
65.0121228839
20
27.3050650151
11
65.0121228839
21
27.1050650151
0
LINE
5
2BF
100
AcDbEntity
8
0
100
AcDbLine
62
7
6
CONTINUOUS
10
65.3329559112
20
27.3050650151
11
65.3329559112
21
27.1050650151
0
LINE
5
2C0
100
AcDbEntity
8
0
100
AcDbLine
62
7
6
CONTINUOUS
10
55.5534768976
20
32.6850650151
11
55.5130406126
21
31.5932853202
0
LINE
5
2C1
100
AcDbEntity
8
0
100
AcDbLine
62
7
6
CONTINUOUS
10
56.4534768976
20
34.9850650151
11
56.4939131826
21
36.0768447101
0
LINE
5
2C2
100
AcDbEntity
8
0
100
AcDbLine
62
7
6
CONTINUOUS
10
55.5046920439
20
33.0919606045
11
55.5146425108
21
33.3350650151
0
LINE
5
2C3
100
AcDbEntity
8
0
100
AcDbLine
62
7
6
CONTINUOUS
10
56.5022617512
20
34.5781694258
11
56.4923112843
21
34.3350650151
0
LINE
5
2C4
100
AcDbEntity
8
0
100
AcDbLine
62
7
6
CONTINUOUS
10
74.3734768976
20
155.6296190746
11
74.7443970273
21
155.8150650151
0
LINE
5
2C5
100
AcDbEntity
8
0
100
AcDbLine
62
7
6
CONTINUOUS
10
74.3734768976
20
155.6296190746
11
39.3734768976
21
155.6296190746
0
LINE
5
2C6
100
AcDbEntity
8
0
100
AcDbLine
62
7
6
CONTINUOUS
10
38.0025567678
20
155.8150650151
11
74.7443970273
21
155.8150650151
0
LINE
5
2C7
100
AcDbEntity
8
0
100
AcDbLine
62
7
6
CONTINUOUS
10
38.0025567678
20
155.8150650151
11
39.0200091743
21
155.8063394765
0
LINE
5
2C8
100
AcDbEntity
8
0
100
AcDbLine
62
7
6
CONTINUOUS
10
38.7865358408
20
205.7571591286
11
38.8534768976
21
205.5894485175
0
LINE
5
2C9
100
AcDbEntity
8
0
100
AcDbLine
62
7
6
CONTINUOUS
10
66.2954563702
20
27.3050650151
11
66.2954563702
21
27.1050650151
0
LINE
5
2CA
100
AcDbEntity
8
0
100
AcDbLine
62
7
6
CONTINUOUS
10
66.4959768976
20
27.3050650151
11
66.4959768976
21
27.1050650151
0
LINE
5
2CB
100
AcDbEntity
8
0
100
AcDbLine
62
7
6
CONTINUOUS
10
66.6563938702
20
27.3050650151
11
66.6563938702
21
27.1050650151
0
LINE
5
2CC
100
AcDbEntity
8
0
100
AcDbLine
62
7
6
CONTINUOUS
10
66.7767063702
20
27.3050650151
11
66.7767063702
21
27.1050650151
0
LINE
5
2CD
100
AcDbEntity
8
0
100
AcDbLine
62
7
6
CONTINUOUS
10
66.8168099249
20
27.3050650151
11
66.8168099249
21
27.1050650151
0
LINE
5
2CE
100
AcDbEntity
8
0
100
AcDbLine
62
7
6
CONTINUOUS
10
66.8569143976
20
27.3050650151
11
66.8569143976
21
27.1050650151
0
LINE
5
2CF
100
AcDbEntity
8
0
100
AcDbLine
62
7
6
CONTINUOUS
10
67.1777474249
20
27.3050650151
11
67.1777474249
21
27.1050650151
0
LINE
5
2D0
100
AcDbEntity
8
0
100
AcDbLine
62
7
6
CONTINUOUS
10
67.9397268976
20
27.3050650151
11
67.9397268976
21
27.1050650151
0
LINE
5
2D1
100
AcDbEntity
8
0
100
AcDbLine
62
7
6
CONTINUOUS
10
68.0199349249
20
27.3050650151
11
68.0199349249
21
27.1050650151
0
LINE
5
2D2
100
AcDbEntity
8
0
100
AcDbLine
62
7
6
CONTINUOUS
10
71.1734768976
20
217.5349916905
11
71.1734768976
21
210.3251383398
0
LINE
5
2D3
100
AcDbEntity
8
0
100
AcDbLine
62
7
6
CONTINUOUS
10
71.1734768976
20
27.3050650151
11
71.1734768976
21
34.7849916905
0
LINE
5
2D4
100
AcDbEntity
8
0
100
AcDbLine
62
7
6
CONTINUOUS
10
71.4034768976
20
277.2483403745
11
71.4034768976
21
223.4450650151
0
LINE
5
2D5
100
AcDbEntity
8
0
100
AcDbLine
62
7
6
CONTINUOUS
10
72.1734768976
20
217.5175366255
11
72.1734768976
21
210.3425934047
0
LINE
5
2D6
100
AcDbEntity
8
0
100
AcDbLine
62
7
6
CONTINUOUS
10
72.1734768976
20
27.3050650151
11
72.1734768976
21
34.7675366255
0
LINE
5
2D7
100
AcDbEntity
8
0
100
AcDbLine
62
7
6
CONTINUOUS
10
72.5734768976
20
217.4808809892
11
72.5734768976
21
210.3792490411
0
LINE
5
2D8
100
AcDbEntity
8
0
100
AcDbLine
62
7
6
CONTINUOUS
10
72.5734768976
20
27.3050650151
11
72.5734768976
21
34.7308809892
0
LINE
5
2D9
100
AcDbEntity
8
0
100
AcDbLine
62
7
6
CONTINUOUS
10
73.0668212612
20
210.3792490411
11
73.0668212612
21
211.2050650151
0
LINE
5
2DA
100
AcDbEntity
8
0
100
AcDbLine
62
7
6
CONTINUOUS
10
73.1034768976
20
210.3425934047
11
73.1034768976
21
211.2050650151
0
LINE
5
2DB
100
AcDbEntity
8
0
100
AcDbLine
62
7
6
CONTINUOUS
10
74.3734768976
20
155.6296190746
11
74.3734768976
21
40.3096190746
0
LINE
5
2DC
100
AcDbEntity
8
0
100
AcDbLine
62
7
6
CONTINUOUS
10
74.3822044300
20
40.3096190746
11
74.3822044300
21
36.1499548755
0
LINE
5
2DD
100
AcDbEntity
8
0
100
AcDbLine
62
7
6
CONTINUOUS
10
74.7443970273
20
34.8050650151
11
74.7443970273
21
155.8150650151
0
LINE
5
2DE
100
AcDbEntity
8
0
100
AcDbLine
62
7
6
CONTINUOUS
10
75.1034768976
20
210.3425934047
11
75.1034768976
21
211.1876099502
0
LINE
5
2DF
100
AcDbEntity
8
0
100
AcDbLine
62
7
6
CONTINUOUS
10
75.1212420544
20
211.2050650151
11
75.1212420544
21
211.1872998582
0
LINE
5
2E0
100
AcDbEntity
8
0
100
AcDbLine
62
7
6
CONTINUOUS
10
75.1401325339
20
210.3792490411
11
75.1401325339
21
211.2050650151
0
LINE
5
2E1
100
AcDbEntity
8
0
100
AcDbLine
62
7
6
CONTINUOUS
10
75.7734768976
20
217.4808809892
11
75.7734768976
21
210.3792490411
0
LINE
5
2E2
100
AcDbEntity
8
0
100
AcDbLine
62
7
6
CONTINUOUS
10
75.7734768976
20
27.3050650151
11
75.7734768976
21
34.7308809892
0
LINE
5
2E3
100
AcDbEntity
8
0
100
AcDbLine
62
7
6
CONTINUOUS
10
76.1471275699
20
277.2787156875
11
76.1471275699
21
218.7014143428
0
LINE
5
2E4
100
AcDbEntity
8
0
100
AcDbLine
62
7
6
CONTINUOUS
10
76.1734768976
20
27.3050650151
11
76.1734768976
21
277.3050650151
0
LINE
5
2E5
100
AcDbEntity
8
0
100
AcDbLine
62
7
6
CONTINUOUS
10
41.7872030910
20
193.4713388217
11
41.6034768976
21
193.6550650151
0
LINE
5
2E6
100
AcDbEntity
8
0
100
AcDbLine
62
7
6
CONTINUOUS
10
37.8534768976
20
193.4713388217
11
38.7865358408
21
193.5529709017
0
LINE
5
2E7
100
AcDbEntity
8
0
100
AcDbLine
62
7
6
CONTINUOUS
10
37.8534768976
20
193.4713388217
11
41.7872030910
21
193.4713388217
0
LINE
5
2E8
100
AcDbEntity
8
0
100
AcDbLine
62
7
6
CONTINUOUS
10
38.8272863204
20
193.6550650151
11
41.6034768976
21
193.6550650151
0
LINE
5
2E9
100
AcDbEntity
8
0
100
AcDbLine
62
7
6
CONTINUOUS
10
41.6034768976
20
197.0766378904
11
38.8534768976
21
197.0766378904
0
LINE
5
2EA
100
AcDbEntity
8
0
100
AcDbLine
62
7
6
CONTINUOUS
10
41.6034768976
20
202.1566378904
11
38.8534768976
21
202.1566378904
0
LINE
5
2EB
100
AcDbEntity
8
0
100
AcDbLine
62
7
6
CONTINUOUS
10
62.2234768976
20
217.5550650151
11
62.2435502222
21
217.5349916905
0
LINE
5
2EC
100
AcDbEntity
8
0
100
AcDbLine
62
7
6
CONTINUOUS
10
71.1734768976
20
210.3251383398
11
72.1734768976
21
210.3425934047
0
LINE
5
2ED
100
AcDbEntity
8
0
100
AcDbLine
62
7
6
CONTINUOUS
10
72.1734768976
20
210.3722670151
11
72.5734768976
21
210.3792490411
0
LINE
5
2EE
100
AcDbEntity
8
0
100
AcDbLine
62
7
6
CONTINUOUS
10
41.6034768976
20
205.6550650151
11
38.8272863204
21
205.6550650151
0
LINE
5
2EF
100
AcDbEntity
8
0
100
AcDbLine
62
7
6
CONTINUOUS
10
41.7872030910
20
205.8387912085
11
37.8534768976
21
205.8387912085
0
LINE
5
2F0
100
AcDbEntity
8
0
100
AcDbLine
62
7
6
CONTINUOUS
10
76.1734768976
20
210.3050650151
11
65.2230199830
21
210.3050650151
0
LINE
5
2F1
100
AcDbEntity
8
0
100
AcDbLine
62
7
6
CONTINUOUS
10
71.1734768976
20
210.3251383398
11
65.2430933077
21
210.3251383398
0
LINE
5
2F2
100
AcDbEntity
8
0
100
AcDbLine
62
7
6
CONTINUOUS
10
75.7734768976
20
210.3792490411
11
75.1401325339
21
210.3792490411
0
LINE
5
2F3
100
AcDbEntity
8
0
100
AcDbLine
62
7
6
CONTINUOUS
10
73.0668212612
20
210.3792490411
11
72.5734768976
21
210.3792490411
0
LINE
5
2F4
100
AcDbEntity
8
0
100
AcDbLine
62
7
6
CONTINUOUS
10
73.0668212612
20
211.2050650151
11
75.1401325339
21
211.2050650151
0
LINE
5
2F5
100
AcDbEntity
8
0
100
AcDbLine
62
7
6
CONTINUOUS
10
75.7734768976
20
210.3792490411
11
76.1734768976
21
210.3722670151
0
LINE
5
2F6
100
AcDbEntity
8
0
100
AcDbLine
62
7
6
CONTINUOUS
10
74.1034768976
20
211.2050650151
11
75.1212420544
21
211.1872998582
0
LINE
5
2F7
100
AcDbEntity
8
0
100
AcDbLine
62
7
6
CONTINUOUS
10
37.8534768976
20
205.8387912085
11
38.7865358408
21
205.7571591286
0
LINE
5
2F8
100
AcDbEntity
8
0
100
AcDbLine
62
7
6
CONTINUOUS
10
73.0668212612
20
210.3792490411
11
73.1034768976
21
210.3425934047
0
LINE
5
2F9
100
AcDbEntity
8
0
100
AcDbLine
62
7
6
CONTINUOUS
10
71.4034768976
20
223.4450650151
11
36.0949787802
21
218.7101328808
0
LINE
5
2FA
100
AcDbEntity
8
0
100
AcDbLine
62
7
6
CONTINUOUS
10
75.7734768976
20
217.4808809892
11
76.1734768976
21
217.4878630152
0
LINE
5
2FB
100
AcDbEntity
8
0
100
AcDbLine
62
7
6
CONTINUOUS
10
36.0949787802
20
218.7101328808
11
35.8684057927
21
218.7099939102
0
LINE
5
2FC
100
AcDbEntity
8
0
100
AcDbLine
62
7
6
CONTINUOUS
10
72.5734768976
20
217.4808809892
11
75.7734768976
21
217.4808809892
0
LINE
5
2FD
100
AcDbEntity
8
0
100
AcDbLine
62
7
6
CONTINUOUS
10
62.2435502222
20
217.5349916905
11
71.1734768976
21
217.5349916905
0
LINE
5
2FE
100
AcDbEntity
8
0
100
AcDbLine
62
7
6
CONTINUOUS
10
62.2234768976
20
217.5550650151
11
35.8334768976
21
217.5550650151
0
LINE
5
2FF
100
AcDbEntity
8
0
100
AcDbLine
62
7
6
CONTINUOUS
10
76.1734768976
20
217.5655380541
11
35.8334768976
21
217.5655380541
0
LINE
5
300
100
AcDbEntity
8
0
100
AcDbLine
62
7
6
CONTINUOUS
10
35.8334768976
20
218.6750650151
11
76.1734768976
21
218.6750650151
0
LINE
5
301
100
AcDbEntity
8
0
100
AcDbLine
62
7
6
CONTINUOUS
10
76.1471275699
20
218.7014143428
11
36.0949787802
21
218.7101328808
0
LINE
5
302
100
AcDbEntity
8
0
100
AcDbLine
62
7
6
CONTINUOUS
10
72.1734768976
20
217.4878630152
11
72.5734768976
21
217.4808809892
0
LINE
5
303
100
AcDbEntity
8
0
100
AcDbLine
62
7
6
CONTINUOUS
10
71.1734768976
20
217.5349916905
11
72.1734768976
21
217.5175366255
0
LINE
5
304
100
AcDbEntity
8
0
100
AcDbLine
62
7
6
CONTINUOUS
10
76.1734768976
20
218.6750650151
11
71.4034768976
21
223.4450650151
0
LINE
5
305
100
AcDbEntity
8
0
100
AcDbLine
62
7
6
CONTINUOUS
10
38.0025567678
20
56.3050650151
11
39.0200091743
21
56.8823273511
0
LINE
5
306
100
AcDbEntity
8
0
100
AcDbLine
62
7
6
CONTINUOUS
10
35.8684057927
20
277.2701361200
11
35.8334768976
21
277.3050650151
0
LINE
5
307
100
AcDbEntity
8
0
100
AcDbLine
62
7
6
CONTINUOUS
10
57.7808604171
20
35.6124485347
11
56.5034768976
21
34.3350650151
0
LINE
5
308
100
AcDbEntity
8
0
100
AcDbLine
62
7
6
CONTINUOUS
10
55.5034768976
20
33.3350650151
11
54.2260933780
21
32.0576814956
0
LINE
5
309
100
AcDbEntity
8
0
100
AcDbLine
62
7
6
CONTINUOUS
10
76.1471275699
20
277.2787156875
11
71.4034768976
21
277.2483403745
0
LINE
5
30A
100
AcDbEntity
8
0
100
AcDbLine
62
7
6
CONTINUOUS
10
35.8334768976
20
277.3050650151
11
76.1734768976
21
277.3050650151
0
LINE
5
30B
100
AcDbEntity
8
0
100
AcDbLine
62
7
6
CONTINUOUS
10
71.4034768976
20
277.2483403745
11
35.8684057927
21
277.2701361200
0
LINE
5
30C
100
AcDbEntity
8
0
100
AcDbLine
62
7
6
CONTINUOUS
10
140.1977963634
20
29.5068373734
11
137.2933289796
21
29.4814904706
0
LINE
5
30D
100
AcDbEntity
8
0
100
AcDbLine
62
7
6
CONTINUOUS
10
135.1987482868
20
29.4632113418
11
132.2923766936
21
29.4378478211
0
LINE
5
30E
100
AcDbEntity
8
0
100
AcDbLine
62
7
6
CONTINUOUS
10
134.7358392072
20
27.0750650151
11
132.5358392072
21
27.0750650151
0
LINE
5
30F
100
AcDbEntity
8
0
100
AcDbLine
62
7
6
CONTINUOUS
10
199.1945831704
20
27.1050650151
11
194.4985577666
21
27.1050650151
0
LINE
5
310
100
AcDbEntity
8
0
100
AcDbLine
62
7
6
CONTINUOUS
10
126.3458392072
20
27.3050650151
11
132.2458392072
21
27.3050650151
0
LINE
5
311
100
AcDbEntity
8
0
100
AcDbLine
62
7
6
CONTINUOUS
10
135.2458392072
20
27.3050650151
11
137.2458392072
21
27.3050650151
0
LINE
5
312
100
AcDbEntity
8
0
100
AcDbLine
62
7
6
CONTINUOUS
10
140.2458392072
20
27.3050650151
11
142.2458392072
21
27.3050650151
0
LINE
5
313
100
AcDbEntity
8
0
100
AcDbLine
62
7
6
CONTINUOUS
10
145.2458392072
20
27.3050650151
11
147.2458392072
21
27.3050650151
0
LINE
5
314
100
AcDbEntity
8
0
100
AcDbLine
62
7
6
CONTINUOUS
10
150.2458392072
20
27.3050650151
11
152.2458392072
21
27.3050650151
0
LINE
5
315
100
AcDbEntity
8
0
100
AcDbLine
62
7
6
CONTINUOUS
10
155.2458392072
20
27.3050650151
11
157.2458392072
21
27.3050650151
0
LINE
5
316
100
AcDbEntity
8
0
100
AcDbLine
62
7
6
CONTINUOUS
10
160.2458392072
20
27.3050650151
11
162.2458392072
21
27.3050650151
0
LINE
5
317
100
AcDbEntity
8
0
100
AcDbLine
62
7
6
CONTINUOUS
10
165.2458392072
20
27.3050650151
11
167.2458392072
21
27.3050650151
0
LINE
5
318
100
AcDbEntity
8
0
100
AcDbLine
62
7
6
CONTINUOUS
10
170.2458392072
20
27.3050650151
11
172.2458392072
21
27.3050650151
0
LINE
5
319
100
AcDbEntity
8
0
100
AcDbLine
62
7
6
CONTINUOUS
10
175.2458392072
20
27.3050650151
11
177.2458392072
21
27.3050650151
0
LINE
5
31A
100
AcDbEntity
8
0
100
AcDbLine
62
7
6
CONTINUOUS
10
180.2458392072
20
27.3050650151
11
182.2458392072
21
27.3050650151
0
LINE
5
31B
100
AcDbEntity
8
0
100
AcDbLine
62
7
6
CONTINUOUS
10
185.2458392072
20
27.3050650151
11
187.2458392072
21
27.3050650151
0
LINE
5
31C
100
AcDbEntity
8
0
100
AcDbLine
62
7
6
CONTINUOUS
10
190.2458392072
20
27.3050650151
11
227.7958392072
21
27.3050650151
0
LINE
5
31D
100
AcDbEntity
8
0
100
AcDbLine
62
7
6
CONTINUOUS
10
132.2523852305
20
27.6050650151
11
135.2392931839
21
27.6050650151
0
LINE
5
31E
100
AcDbEntity
8
0
100
AcDbLine
62
7
6
CONTINUOUS
10
137.2523852305
20
27.6050650151
11
140.2392931839
21
27.6050650151
0
LINE
5
31F
100
AcDbEntity
8
0
100
AcDbLine
62
7
6
CONTINUOUS
10
142.2523852305
20
27.6050650151
11
145.2392931839
21
27.6050650151
0
LINE
5
320
100
AcDbEntity
8
0
100
AcDbLine
62
7
6
CONTINUOUS
10
147.2523852305
20
27.6050650151
11
150.2392931839
21
27.6050650151
0
LINE
5
321
100
AcDbEntity
8
0
100
AcDbLine
62
7
6
CONTINUOUS
10
152.2523852305
20
27.6050650151
11
155.2392931839
21
27.6050650151
0
LINE
5
322
100
AcDbEntity
8
0
100
AcDbLine
62
7
6
CONTINUOUS
10
157.2523852305
20
27.6050650151
11
160.2392931839
21
27.6050650151
0
LINE
5
323
100
AcDbEntity
8
0
100
AcDbLine
62
7
6
CONTINUOUS
10
162.2523852305
20
27.6050650151
11
165.2392931839
21
27.6050650151
0
LINE
5
324
100
AcDbEntity
8
0
100
AcDbLine
62
7
6
CONTINUOUS
10
167.2523852305
20
27.6050650151
11
170.2392931839
21
27.6050650151
0
LINE
5
325
100
AcDbEntity
8
0
100
AcDbLine
62
7
6
CONTINUOUS
10
172.2523852305
20
27.6050650151
11
175.2392931839
21
27.6050650151
0
LINE
5
326
100
AcDbEntity
8
0
100
AcDbLine
62
7
6
CONTINUOUS
10
177.2523852305
20
27.6050650151
11
180.2392931839
21
27.6050650151
0
LINE
5
327
100
AcDbEntity
8
0
100
AcDbLine
62
7
6
CONTINUOUS
10
182.2523852305
20
27.6050650151
11
185.2392931839
21
27.6050650151
0
LINE
5
328
100
AcDbEntity
8
0
100
AcDbLine
62
7
6
CONTINUOUS
10
187.2523852305
20
27.6050650151
11
190.2392931839
21
27.6050650151
0
LINE
5
329
100
AcDbEntity
8
0
100
AcDbLine
62
7
6
CONTINUOUS
10
190.2349293178
20
27.8050581670
11
187.2567490966
21
27.8050581670
0
LINE
5
32A
100
AcDbEntity
8
0
100
AcDbLine
62
7
6
CONTINUOUS
10
185.2349293178
20
27.8050581670
11
182.2567490966
21
27.8050581670
0
LINE
5
32B
100
AcDbEntity
8
0
100
AcDbLine
62
7
6
CONTINUOUS
10
180.2349293178
20
27.8050581670
11
177.2567490966
21
27.8050581670
0
LINE
5
32C
100
AcDbEntity
8
0
100
AcDbLine
62
7
6
CONTINUOUS
10
175.2349293178
20
27.8050581670
11
172.2567490966
21
27.8050581670
0
LINE
5
32D
100
AcDbEntity
8
0
100
AcDbLine
62
7
6
CONTINUOUS
10
170.2349293178
20
27.8050581670
11
167.2567490966
21
27.8050581670
0
LINE
5
32E
100
AcDbEntity
8
0
100
AcDbLine
62
7
6
CONTINUOUS
10
165.2349293178
20
27.8050581670
11
162.2567490966
21
27.8050581670
0
LINE
5
32F
100
AcDbEntity
8
0
100
AcDbLine
62
7
6
CONTINUOUS
10
160.2349293178
20
27.8050581670
11
157.2567490966
21
27.8050581670
0
LINE
5
330
100
AcDbEntity
8
0
100
AcDbLine
62
7
6
CONTINUOUS
10
155.2349293178
20
27.8050581670
11
152.2567490966
21
27.8050581670
0
LINE
5
331
100
AcDbEntity
8
0
100
AcDbLine
62
7
6
CONTINUOUS
10
150.2349293178
20
27.8050581670
11
147.2567490966
21
27.8050581670
0
LINE
5
332
100
AcDbEntity
8
0
100
AcDbLine
62
7
6
CONTINUOUS
10
145.2349293178
20
27.8050581670
11
142.2567490966
21
27.8050581670
0
LINE
5
333
100
AcDbEntity
8
0
100
AcDbLine
62
7
6
CONTINUOUS
10
140.2349293178
20
27.8050581670
11
137.2567490966
21
27.8050581670
0
LINE
5
334
100
AcDbEntity
8
0
100
AcDbLine
62
7
6
CONTINUOUS
10
135.2349293178
20
27.8050581670
11
132.2567490966
21
27.8050581670
0
LINE
5
335
100
AcDbEntity
8
0
100
AcDbLine
62
7
6
CONTINUOUS
10
135.2240191296
20
28.3050650151
11
137.2676592848
21
28.3050650151
0
LINE
5
336
100
AcDbEntity
8
0
100
AcDbLine
62
7
6
CONTINUOUS
10
140.2240191296
20
28.3050650151
11
142.2676592848
21
28.3050650151
0
LINE
5
337
100
AcDbEntity
8
0
100
AcDbLine
62
7
6
CONTINUOUS
10
145.2240191296
20
28.3050650151
11
147.2676592848
21
28.3050650151
0
LINE
5
338
100
AcDbEntity
8
0
100
AcDbLine
62
7
6
CONTINUOUS
10
150.2240191296
20
28.3050650151
11
152.2676592848
21
28.3050650151
0
LINE
5
339
100
AcDbEntity
8
0
100
AcDbLine
62
7
6
CONTINUOUS
10
155.2240191296
20
28.3050650151
11
157.2676592848
21
28.3050650151
0
LINE
5
33A
100
AcDbEntity
8
0
100
AcDbLine
62
7
6
CONTINUOUS
10
160.2240191296
20
28.3050650151
11
162.2676592848
21
28.3050650151
0
LINE
5
33B
100
AcDbEntity
8
0
100
AcDbLine
62
7
6
CONTINUOUS
10
165.2240191296
20
28.3050650151
11
167.2676592848
21
28.3050650151
0
LINE
5
33C
100
AcDbEntity
8
0
100
AcDbLine
62
7
6
CONTINUOUS
10
170.2240191296
20
28.3050650151
11
172.2676592848
21
28.3050650151
0
LINE
5
33D
100
AcDbEntity
8
0
100
AcDbLine
62
7
6
CONTINUOUS
10
175.2240191296
20
28.3050650151
11
177.2676592848
21
28.3050650151
0
LINE
5
33E
100
AcDbEntity
8
0
100
AcDbLine
62
7
6
CONTINUOUS
10
180.2240191296
20
28.3050650151
11
182.2676592848
21
28.3050650151
0
LINE
5
33F
100
AcDbEntity
8
0
100
AcDbLine
62
7
6
CONTINUOUS
10
185.2240191296
20
28.3050650151
11
187.2676592848
21
28.3050650151
0
LINE
5
340
100
AcDbEntity
8
0
100
AcDbLine
62
7
6
CONTINUOUS
10
126.3458392072
20
31.8350650151
11
122.7958392072
21
31.8350650151
0
LINE
5
341
100
AcDbEntity
8
0
100
AcDbLine
62
7
6
CONTINUOUS
10
215.7958392072
20
34.3050650151
11
222.5458392072
21
34.3050650151
0
LINE
5
342
100
AcDbEntity
8
0
100
AcDbLine
62
9
6
CONTINUOUS
10
212.8760934011
20
31.9917630355
11
224.6958392072
21
31.7854486050
0
LINE
5
343
100
AcDbEntity
8
0
100
AcDbLine
62
7
6
CONTINUOUS
10
122.7958392072
20
31.8350650151
11
121.7958392072
21
32.8350650151
0
LINE
5
344
100
AcDbEntity
8
0
100
AcDbLine
62
7
6
CONTINUOUS
10
126.3458392072
20
35.8350650151
11
122.7958392072
21
35.8350650151
0
LINE
5
345
100
AcDbEntity
8
0
100
AcDbLine
62
7
6
CONTINUOUS
10
190.0276384310
20
37.3050650151
11
187.4640399834
21
37.3050650151
0
LINE
5
346
100
AcDbEntity
8
0
100
AcDbLine
62
7
6
CONTINUOUS
10
185.0276384310
20
37.3050650151
11
182.4640399834
21
37.3050650151
0
LINE
5
347
100
AcDbEntity
8
0
100
AcDbLine
62
7
6
CONTINUOUS
10
180.0276384310
20
37.3050650151
11
177.4640399834
21
37.3050650151
0
LINE
5
348
100
AcDbEntity
8
0
100
AcDbLine
62
7
6
CONTINUOUS
10
175.0276384310
20
37.3050650151
11
172.4640399834
21
37.3050650151
0
LINE
5
349
100
AcDbEntity
8
0
100
AcDbLine
62
7
6
CONTINUOUS
10
170.0276384310
20
37.3050650151
11
167.4640399834
21
37.3050650151
0
LINE
5
34A
100
AcDbEntity
8
0
100
AcDbLine
62
7
6
CONTINUOUS
10
165.0276384310
20
37.3050650151
11
162.4640399834
21
37.3050650151
0
LINE
5
34B
100
AcDbEntity
8
0
100
AcDbLine
62
7
6
CONTINUOUS
10
160.0276384310
20
37.3050650151
11
157.4640399834
21
37.3050650151
0
LINE
5
34C
100
AcDbEntity
8
0
100
AcDbLine
62
7
6
CONTINUOUS
10
155.0276384310
20
37.3050650151
11
152.4640399834
21
37.3050650151
0
LINE
5
34D
100
AcDbEntity
8
0
100
AcDbLine
62
7
6
CONTINUOUS
10
150.0276384310
20
37.3050650151
11
147.4640399834
21
37.3050650151
0
LINE
5
34E
100
AcDbEntity
8
0
100
AcDbLine
62
7
6
CONTINUOUS
10
145.0276384310
20
37.3050650151
11
142.4640399834
21
37.3050650151
0
LINE
5
34F
100
AcDbEntity
8
0
100
AcDbLine
62
7
6
CONTINUOUS
10
140.0276384310
20
37.3050650151
11
137.4640399834
21
37.3050650151
0
LINE
5
350
100
AcDbEntity
8
0
100
AcDbLine
62
7
6
CONTINUOUS
10
135.0276384310
20
37.3050650151
11
132.4640399834
21
37.3050650151
0
LINE
5
351
100
AcDbEntity
8
0
100
AcDbLine
62
7
6
CONTINUOUS
10
217.5910236486
20
39.2002494566
11
220.8006547658
21
39.2002494566
0
LINE
5
352
100
AcDbEntity
8
0
100
AcDbLine
62
7
6
CONTINUOUS
10
217.7623986696
20
39.3716244776
11
220.6319047149
21
39.3689995074
0
LINE
5
353
100
AcDbEntity
8
0
100
AcDbLine
62
7
6
CONTINUOUS
10
223.0544170135
20
34.8136428214
11
227.7958392072
21
34.7308809892
0
LINE
5
354
100
AcDbEntity
8
0
100
AcDbLine
62
7
6
CONTINUOUS
10
131.4258392072
20
251.6150650151
11
134.6458392072
21
254.8350650151
0
LINE
5
355
100
AcDbEntity
8
0
100
AcDbLine
62
7
6
CONTINUOUS
10
131.4258392072
20
251.5632261171
11
134.6610224689
21
254.7984093788
0
LINE
5
356
100
AcDbEntity
8
0
100
AcDbLine
62
7
6
CONTINUOUS
10
220.6319047149
20
51.2411305229
11
217.7623986696
21
51.2385055527
0
LINE
5
357
100
AcDbEntity
8
0
100
AcDbLine
62
7
6
CONTINUOUS
10
220.8006547658
20
51.4098805737
11
217.5910236486
21
51.4098805737
0
LINE
5
358
100
AcDbEntity
8
0
100
AcDbLine
62
7
6
CONTINUOUS
10
141.6423970869
20
240.9916228948
11
141.5665626641
21
240.9157884721
0
LINE
5
359
100
AcDbEntity
8
0
100
AcDbLine
62
7
6
CONTINUOUS
10
133.6961850445
20
65.8979737863
11
136.2058392072
21
66.1175400749
0
LINE
5
35A
100
AcDbEntity
8
0
100
AcDbLine
62
7
6
CONTINUOUS
10
133.6961850445
20
65.1771418848
11
136.4912055054
21
65.1796987170
0
LINE
5
35B
100
AcDbEntity
8
0
100
AcDbLine
62
7
6
CONTINUOUS
10
133.6847560851
20
65.1085071355
11
136.5623970869
21
65.1085071355
0
LINE
5
35C
100
AcDbEntity
8
0
100
AcDbLine
62
7
6
CONTINUOUS
10
136.5623970869
20
65.1085071355
11
136.4912055054
21
65.1796987170
0
LINE
5
35D
100
AcDbEntity
8
0
100
AcDbLine
62
7
6
CONTINUOUS
10
133.6961850445
20
82.4521562440
11
136.2058392072
21
82.2325899554
0
LINE
5
35E
100
AcDbEntity
8
0
100
AcDbLine
62
7
6
CONTINUOUS
10
130.9864993790
20
202.6957251869
11
126.3458392072
21
198.0550650151
0
LINE
5
35F
100
AcDbEntity
8
0
100
AcDbLine
62
7
6
CONTINUOUS
10
136.5623970869
20
83.2416228948
11
133.6847560851
21
83.2416228948
0
LINE
5
360
100
AcDbEntity
8
0
100
AcDbLine
62
7
6
CONTINUOUS
10
136.4912055054
20
83.1704313133
11
133.6961850445
21
83.1729881455
0
LINE
5
361
100
AcDbEntity
8
0
100
AcDbLine
62
7
6
CONTINUOUS
10
121.7958392072
20
32.8354094685
11
121.7958392072
21
34.8347205618
0
LINE
5
362
100
AcDbEntity
8
0
100
AcDbLine
62
7
6
CONTINUOUS
10
223.5458392072
20
56.3050650151
11
214.2958392072
21
61.6455550051
0
LINE
5
363
100
AcDbEntity
8
0
100
AcDbLine
62
7
6
CONTINUOUS
10
122.7958392072
20
31.8350650151
11
122.7958392072
21
35.8350650151
0
LINE
5
364
100
AcDbEntity
8
0
100
AcDbLine
62
7
6
CONTINUOUS
10
126.3458392072
20
198.0550650151
11
126.3458392072
21
161.3232585164
0
LINE
5
365
100
AcDbEntity
8
0
100
AcDbLine
62
7
6
CONTINUOUS
10
126.3458392072
20
137.5268715139
11
126.3458392072
21
27.3050650151
0
LINE
5
366
100
AcDbEntity
8
0
100
AcDbLine
62
7
6
CONTINUOUS
10
126.5358392072
20
137.5268715139
11
126.5358392072
21
161.3232585164
0
LINE
5
367
100
AcDbEntity
8
0
100
AcDbLine
62
7
6
CONTINUOUS
10
128.5358392072
20
161.2850319242
11
128.5358392072
21
137.5650981061
0
LINE
5
368
100
AcDbEntity
8
0
100
AcDbLine
62
7
6
CONTINUOUS
10
131.4258392072
20
203.7563853587
11
131.4258392072
21
277.3050650151
0
LINE
5
369
100
AcDbEntity
8
0
100
AcDbLine
62
7
6
CONTINUOUS
10
138.7647560851
20
222.8585071355
11
138.7769589889
21
222.9317896812
0
LINE
5
36A
100
AcDbEntity
8
0
100
AcDbLine
62
7
6
CONTINUOUS
10
140.9858392072
20
232.3633162701
11
139.2893638323
21
223.7928711126
0
LINE
5
36B
100
AcDbEntity
8
0
100
AcDbLine
62
7
6
CONTINUOUS
10
220.6319047149
20
39.3689995074
11
220.8006547658
21
39.2002494566
0
LINE
5
36C
100
AcDbEntity
8
0
100
AcDbLine
62
7
6
CONTINUOUS
10
133.6847560851
20
83.2416228948
11
133.6961850445
21
83.1729881455
0
LINE
5
36D
100
AcDbEntity
8
0
100
AcDbLine
62
7
6
CONTINUOUS
10
135.2458392072
20
27.3050650151
11
135.0276384310
21
37.3050650151
0
LINE
5
36E
100
AcDbEntity
8
0
100
AcDbLine
62
7
6
CONTINUOUS
10
140.2458392072
20
27.3050650151
11
140.0276384310
21
37.3050650151
0
LINE
5
36F
100
AcDbEntity
8
0
100
AcDbLine
62
7
6
CONTINUOUS
10
132.5358392072
20
27.0750650151
11
132.5358392072
21
27.6050650151
0
LINE
5
370
100
AcDbEntity
8
0
100
AcDbLine
62
7
6
CONTINUOUS
10
133.6847560851
20
83.2416228948
11
133.6847560851
21
65.1085071355
0
LINE
5
371
100
AcDbEntity
8
0
100
AcDbLine
62
7
6
CONTINUOUS
10
133.6961850445
20
83.1729881455
11
133.6961850445
21
65.1771418848
0
LINE
5
372
100
AcDbEntity
8
0
100
AcDbLine
62
7
6
CONTINUOUS
10
134.0058392072
20
65.9250650151
11
134.0058392072
21
82.4250650151
0
LINE
5
373
100
AcDbEntity
8
0
100
AcDbLine
62
7
6
CONTINUOUS
10
134.7358392072
20
27.6050650151
11
134.7358392072
21
27.0750650151
0
LINE
5
374
100
AcDbEntity
8
0
100
AcDbLine
62
7
6
CONTINUOUS
10
134.7858392072
20
139.1015782024
11
134.7858392072
21
159.5485518279
0
LINE
5
375
100
AcDbEntity
8
0
100
AcDbLine
62
7
6
CONTINUOUS
10
134.8358392072
20
161.1750650151
11
134.8358392072
21
137.6750650151
0
LINE
5
376
100
AcDbEntity
8
0
100
AcDbLine
62
9
6
CONTINUOUS
10
135.9058392072
20
72.7703021714
11
135.9058392072
21
82.2588365544
0
LINE
5
377
100
AcDbEntity
8
0
100
AcDbLine
62
7
6
CONTINUOUS
10
136.2058392072
20
66.1175400749
11
136.2058392072
21
82.2325899554
0
LINE
5
378
100
AcDbEntity
8
0
100
AcDbLine
62
7
6
CONTINUOUS
10
136.4912055054
20
65.1796987170
11
136.4912055054
21
83.1704313133
0
LINE
5
379
100
AcDbEntity
8
0
100
AcDbLine
62
7
6
CONTINUOUS
10
136.5623970869
20
65.1085071355
11
136.5623970869
21
83.2416228948
0
LINE
5
37A
100
AcDbEntity
8
0
100
AcDbLine
62
7
6
CONTINUOUS
10
138.7647560851
20
240.9916228948
11
138.7647560851
21
222.8585071355
0
LINE
5
37B
100
AcDbEntity
8
0
100
AcDbLine
62
7
6
CONTINUOUS
10
138.7769589889
20
240.9183403490
11
138.7769589889
21
240.3020885326
0
LINE
5
37C
100
AcDbEntity
8
0
100
AcDbLine
62
7
6
CONTINUOUS
10
138.7769589889
20
223.7480414977
11
138.7769589889
21
222.9317896812
0
LINE
5
37D
100
AcDbEntity
8
0
100
AcDbLine
62
7
6
CONTINUOUS
10
139.0458392072
20
254.8350650151
11
139.0458392072
21
257.9350650151
0
LINE
5
37E
100
AcDbEntity
8
0
100
AcDbLine
62
7
6
CONTINUOUS
10
139.0824948436
20
254.7984093788
11
139.0824948436
21
257.8984507555
0
LINE
5
37F
100
AcDbEntity
8
0
100
AcDbLine
62
7
6
CONTINUOUS
10
139.0858392072
20
223.7750650151
11
139.0858392072
21
240.2750650151
0
LINE
5
380
100
AcDbEntity
8
0
100
AcDbLine
62
7
6
CONTINUOUS
10
132.2458392072
20
27.3050650151
11
132.4640399834
21
37.3050650151
0
LINE
5
381
100
AcDbEntity
8
0
100
AcDbLine
62
7
6
CONTINUOUS
10
137.2458392072
20
27.3050650151
11
137.4640399834
21
37.3050650151
0
LINE
5
382
100
AcDbEntity
8
0
100
AcDbLine
62
7
6
CONTINUOUS
10
217.5910236486
20
51.4098805737
11
217.7623986696
21
51.2385055527
0
LINE
5
383
100
AcDbEntity
8
0
100
AcDbLine
62
7
6
CONTINUOUS
10
145.2458392072
20
27.3050650151
11
145.0276384310
21
37.3050650151
0
LINE
5
384
100
AcDbEntity
8
0
100
AcDbLine
62
7
6
CONTINUOUS
10
150.2458392072
20
27.3050650151
11
150.0276384310
21
37.3050650151
0
LINE
5
385
100
AcDbEntity
8
0
100
AcDbLine
62
9
6
CONTINUOUS
10
140.9858392072
20
232.3633162701
11
140.9858392072
21
240.1088365544
0
LINE
5
386
100
AcDbEntity
8
0
100
AcDbLine
62
7
6
CONTINUOUS
10
141.2858392072
20
223.9675400749
11
141.2858392072
21
240.0825899554
0
LINE
5
387
100
AcDbEntity
8
0
100
AcDbLine
62
7
6
CONTINUOUS
10
141.5665626641
20
222.9343415582
11
141.5665626641
21
240.9157884721
0
LINE
5
388
100
AcDbEntity
8
0
100
AcDbLine
62
7
6
CONTINUOUS
10
141.6423970869
20
222.8585071355
11
141.6423970869
21
240.9916228948
0
LINE
5
389
100
AcDbEntity
8
0
100
AcDbLine
62
7
6
CONTINUOUS
10
142.2458392072
20
27.3050650151
11
142.4640399834
21
37.3050650151
0
LINE
5
38A
100
AcDbEntity
8
0
100
AcDbLine
62
7
6
CONTINUOUS
10
133.6847560851
20
65.1085071355
11
133.6961850445
21
65.1771418848
0
LINE
5
38B
100
AcDbEntity
8
0
100
AcDbLine
62
7
6
CONTINUOUS
10
155.2458392072
20
27.3050650151
11
155.0276384310
21
37.3050650151
0
LINE
5
38C
100
AcDbEntity
8
0
100
AcDbLine
62
7
6
CONTINUOUS
10
160.2458392072
20
27.3050650151
11
160.0276384310
21
37.3050650151
0
LINE
5
38D
100
AcDbEntity
8
0
100
AcDbLine
62
7
6
CONTINUOUS
10
153.3458392072
20
277.3050650151
11
153.5203898565
21
267.3050650151
0
LINE
5
38E
100
AcDbEntity
8
0
100
AcDbLine
62
7
6
CONTINUOUS
10
151.4458392072
20
263.7100949912
11
151.4458392072
21
277.3050650151
0
LINE
5
38F
100
AcDbEntity
8
0
100
AcDbLine
62
7
6
CONTINUOUS
10
151.4824948436
20
277.3050650151
11
151.4824948436
21
263.6967422171
0
LINE
5
390
100
AcDbEntity
8
0
100
AcDbLine
62
7
6
CONTINUOUS
10
156.1712885579
20
267.3050650151
11
156.3458392072
21
277.3050650151
0
LINE
5
391
100
AcDbEntity
8
0
100
AcDbLine
62
7
6
CONTINUOUS
10
147.2458392072
20
27.3050650151
11
147.4640399834
21
37.3050650151
0
LINE
5
392
100
AcDbEntity
8
0
100
AcDbLine
62
7
6
CONTINUOUS
10
152.2458392072
20
27.3050650151
11
152.4640399834
21
37.3050650151
0
LINE
5
393
100
AcDbEntity
8
0
100
AcDbLine
62
7
6
CONTINUOUS
10
135.9058392072
20
72.7703021714
11
134.2102812466
21
65.9429513759
0
LINE
5
394
100
AcDbEntity
8
0
100
AcDbLine
62
7
6
CONTINUOUS
10
138.7647560851
20
240.9916228948
11
138.7769589889
21
240.9183403490
0
LINE
5
395
100
AcDbEntity
8
0
100
AcDbLine
62
7
6
CONTINUOUS
10
165.2458392072
20
27.3050650151
11
165.0276384310
21
37.3050650151
0
LINE
5
396
100
AcDbEntity
8
0
100
AcDbLine
62
7
6
CONTINUOUS
10
170.2458392072
20
27.3050650151
11
170.0276384310
21
37.3050650151
0
LINE
5
397
100
AcDbEntity
8
0
100
AcDbLine
62
7
6
CONTINUOUS
10
158.5203898565
20
267.3050650151
11
158.3458392072
21
277.3050650151
0
LINE
5
398
100
AcDbEntity
8
0
100
AcDbLine
62
7
6
CONTINUOUS
10
163.5203898565
20
267.3050650151
11
163.3458392072
21
277.3050650151
0
LINE
5
399
100
AcDbEntity
8
0
100
AcDbLine
62
7
6
CONTINUOUS
10
161.1712885579
20
267.3050650151
11
161.3458392072
21
277.3050650151
0
LINE
5
39A
100
AcDbEntity
8
0
100
AcDbLine
62
7
6
CONTINUOUS
10
166.1712885579
20
267.3050650151
11
166.3458392072
21
277.3050650151
0
LINE
5
39B
100
AcDbEntity
8
0
100
AcDbLine
62
7
6
CONTINUOUS
10
157.2458392072
20
27.3050650151
11
157.4640399834
21
37.3050650151
0
LINE
5
39C
100
AcDbEntity
8
0
100
AcDbLine
62
7
6
CONTINUOUS
10
162.2458392072
20
27.3050650151
11
162.4640399834
21
37.3050650151
0
LINE
5
39D
100
AcDbEntity
8
0
100
AcDbLine
62
7
6
CONTINUOUS
10
126.5358392072
20
137.7202494566
11
133.8381751634
21
138.1029486676
0
LINE
5
39E
100
AcDbEntity
8
0
100
AcDbLine
62
7
6
CONTINUOUS
10
126.3458392072
20
137.5268715139
11
134.8358392072
21
137.6750650151
0
LINE
5
39F
100
AcDbEntity
8
0
100
AcDbLine
62
7
6
CONTINUOUS
10
175.2458392072
20
27.3050650151
11
175.0276384310
21
37.3050650151
0
LINE
5
3A0
100
AcDbEntity
8
0
100
AcDbLine
62
7
6
CONTINUOUS
10
168.5203898565
20
267.3050650151
11
168.3458392072
21
277.3050650151
0
LINE
5
3A1
100
AcDbEntity
8
0
100
AcDbLine
62
7
6
CONTINUOUS
10
173.5203898565
20
267.3050650151
11
173.3458392072
21
277.3050650151
0
LINE
5
3A2
100
AcDbEntity
8
0
100
AcDbLine
62
7
6
CONTINUOUS
10
171.1712885579
20
267.3050650151
11
171.3458392072
21
277.3050650151
0
LINE
5
3A3
100
AcDbEntity
8
0
100
AcDbLine
62
7
6
CONTINUOUS
10
176.1712885579
20
267.3050650151
11
176.3458392072
21
277.3050650151
0
LINE
5
3A4
100
AcDbEntity
8
0
100
AcDbLine
62
7
6
CONTINUOUS
10
167.2458392072
20
27.3050650151
11
167.4640399834
21
37.3050650151
0
LINE
5
3A5
100
AcDbEntity
8
0
100
AcDbLine
62
7
6
CONTINUOUS
10
172.2458392072
20
27.3050650151
11
172.4640399834
21
37.3050650151
0
LINE
5
3A6
100
AcDbEntity
8
0
100
AcDbLine
62
7
6
CONTINUOUS
10
134.6458392072
20
254.8350650151
11
134.6610224689
21
254.7984093788
0
LINE
5
3A7
100
AcDbEntity
8
0
100
AcDbLine
62
7
6
CONTINUOUS
10
180.2458392072
20
27.3050650151
11
180.0276384310
21
37.3050650151
0
LINE
5
3A8
100
AcDbEntity
8
0
100
AcDbLine
62
7
6
CONTINUOUS
10
185.2458392072
20
27.3050650151
11
185.0276384310
21
37.3050650151
0
LINE
5
3A9
100
AcDbEntity
8
0
100
AcDbLine
62
7
6
CONTINUOUS
10
178.5203898565
20
267.3050650151
11
178.3458392072
21
277.3050650151
0
LINE
5
3AA
100
AcDbEntity
8
0
100
AcDbLine
62
7
6
CONTINUOUS
10
183.5203898565
20
267.3050650151
11
183.3458392072
21
277.3050650151
0
LINE
5
3AB
100
AcDbEntity
8
0
100
AcDbLine
62
7
6
CONTINUOUS
10
181.1712885579
20
267.3050650151
11
181.3458392072
21
277.3050650151
0
LINE
5
3AC
100
AcDbEntity
8
0
100
AcDbLine
62
7
6
CONTINUOUS
10
186.1712885579
20
267.3050650151
11
186.3458392072
21
277.3050650151
0
LINE
5
3AD
100
AcDbEntity
8
0
100
AcDbLine
62
7
6
CONTINUOUS
10
177.2458392072
20
27.3050650151
11
177.4640399834
21
37.3050650151
0
LINE
5
3AE
100
AcDbEntity
8
0
100
AcDbLine
62
7
6
CONTINUOUS
10
182.2458392072
20
27.3050650151
11
182.4640399834
21
37.3050650151
0
LINE
5
3AF
100
AcDbEntity
8
0
100
AcDbLine
62
7
6
CONTINUOUS
10
126.3458392072
20
161.3232585164
11
134.8358392072
21
161.1750650151
0
LINE
5
3B0
100
AcDbEntity
8
0
100
AcDbLine
62
7
6
CONTINUOUS
10
133.8381751634
20
160.5471813627
11
126.5358392072
21
160.9298805737
0
LINE
5
3B1
100
AcDbEntity
8
0
100
AcDbLine
62
7
6
CONTINUOUS
10
190.2458392072
20
27.3050650151
11
190.0276384310
21
37.3050650151
0
LINE
5
3B2
100
AcDbEntity
8
0
100
AcDbLine
62
7
6
CONTINUOUS
10
188.5203898565
20
267.3050650151
11
188.3458392072
21
277.3050650151
0
LINE
5
3B3
100
AcDbEntity
8
0
100
AcDbLine
62
7
6
CONTINUOUS
10
194.4985577666
20
27.3050650151
11
194.4985577666
21
27.1050650151
0
LINE
5
3B4
100
AcDbEntity
8
0
100
AcDbLine
62
7
6
CONTINUOUS
10
195.1945831704
20
27.3050650151
11
195.1945831704
21
27.1050650151
0
LINE
5
3B5
100
AcDbEntity
8
0
100
AcDbLine
62
7
6
CONTINUOUS
10
191.1712885579
20
267.3050650151
11
191.3458392072
21
277.3050650151
0
LINE
5
3B6
100
AcDbEntity
8
0
100
AcDbLine
62
7
6
CONTINUOUS
10
196.1712885579
20
267.3050650151
11
196.3458392072
21
277.3050650151
0
LINE
5
3B7
100
AcDbEntity
8
0
100
AcDbLine
62
7
6
CONTINUOUS
10
187.2458392072
20
27.3050650151
11
187.4640399834
21
37.3050650151
0
LINE
5
3B8
100
AcDbEntity
8
0
100
AcDbLine
62
7
6
CONTINUOUS
10
230.2112456761
20
223.4450650151
11
227.7296250606
21
218.7101328808
0
LINE
5
3B9
100
AcDbEntity
8
0
100
AcDbLine
62
7
6
CONTINUOUS
10
193.5203898565
20
267.3050650151
11
193.3458392072
21
277.3050650151
0
LINE
5
3BA
100
AcDbEntity
8
0
100
AcDbLine
62
7
6
CONTINUOUS
10
198.5203898565
20
267.3050650151
11
198.3458392072
21
277.3050650151
0
LINE
5
3BB
100
AcDbEntity
8
0
100
AcDbLine
62
9
6
CONTINUOUS
10
196.1695831704
20
27.3050650151
11
196.1695831704
21
27.1050650151
0
LINE
5
3BC
100
AcDbEntity
8
0
100
AcDbLine
62
7
6
CONTINUOUS
10
196.9393461499
20
27.3050650151
11
196.9393461499
21
27.1050650151
0
LINE
5
3BD
100
AcDbEntity
8
0
100
AcDbLine
62
7
6
CONTINUOUS
10
197.2873588518
20
27.3050650151
11
197.2873588518
21
27.1050650151
0
LINE
5
3BE
100
AcDbEntity
8
0
100
AcDbLine
62
7
6
CONTINUOUS
10
197.3495831704
20
27.3050650151
11
197.3495831704
21
27.1050650151
0
LINE
5
3BF
100
AcDbEntity
8
0
100
AcDbLine
62
7
6
CONTINUOUS
10
197.5195831704
20
27.3050650151
11
197.5195831704
21
27.1050650151
0
LINE
5
3C0
100
AcDbEntity
8
0
100
AcDbLine
62
9
6
CONTINUOUS
10
198.8695831704
20
27.3050650151
11
198.8695831704
21
27.1050650151
0
LINE
5
3C1
100
AcDbEntity
8
0
100
AcDbLine
62
7
6
CONTINUOUS
10
199.1945831704
20
27.3050650151
11
199.1945831704
21
27.1050650151
0
LINE
5
3C2
100
AcDbEntity
8
0
100
AcDbLine
62
7
6
CONTINUOUS
10
201.1712885579
20
267.3050650151
11
201.3458392072
21
277.3050650151
0
LINE
5
3C3
100
AcDbEntity
8
0
100
AcDbLine
62
7
6
CONTINUOUS
10
206.1712885579
20
267.3050650151
11
206.3458392072
21
277.3050650151
0
LINE
5
3C4
100
AcDbEntity
8
0
100
AcDbLine
62
7
6
CONTINUOUS
10
136.5623970869
20
83.2416228948
11
136.4912055054
21
83.1704313133
0
LINE
5
3C5
100
AcDbEntity
8
0
100
AcDbLine
62
7
6
CONTINUOUS
10
214.2958392072
20
143.9645750251
11
223.5458392072
21
149.3050650151
0
LINE
5
3C6
100
AcDbEntity
8
0
100
AcDbLine
62
7
6
CONTINUOUS
10
141.6423970869
20
222.8585071355
11
141.5665626641
21
222.9343415582
0
LINE
5
3C7
100
AcDbEntity
8
0
100
AcDbLine
62
7
6
CONTINUOUS
10
203.5203898565
20
267.3050650151
11
203.3458392072
21
277.3050650151
0
LINE
5
3C8
100
AcDbEntity
8
0
100
AcDbLine
62
7
6
CONTINUOUS
10
208.5203898565
20
267.3050650151
11
208.3458392072
21
277.3050650151
0
LINE
5
3C9
100
AcDbEntity
8
0
100
AcDbLine
62
7
6
CONTINUOUS
10
212.7958392072
20
28.3050650151
11
212.7958392072
21
31.3050650151
0
LINE
5
3CA
100
AcDbEntity
8
0
100
AcDbLine
62
7
6
CONTINUOUS
10
212.7958392072
20
64.2436312165
11
212.7958392072
21
141.3664988138
0
LINE
5
3CB
100
AcDbEntity
8
0
100
AcDbLine
62
7
6
CONTINUOUS
10
211.3458392072
20
277.3050650151
11
211.1712885579
21
267.3050650151
0
LINE
5
3CC
100
AcDbEntity
8
0
100
AcDbLine
62
7
6
CONTINUOUS
10
217.5910236486
20
51.4098805737
11
217.5910236486
21
39.2002494566
0
LINE
5
3CD
100
AcDbEntity
8
0
100
AcDbLine
62
7
6
CONTINUOUS
10
217.7623986696
20
51.2385055527
11
217.7623986696
21
39.3716244776
0
LINE
5
3CE
100
AcDbEntity
8
0
100
AcDbLine
62
7
6
CONTINUOUS
10
220.6423832723
20
51.2516090803
11
220.6423832723
21
39.3585209500
0
LINE
5
3CF
100
AcDbEntity
8
0
100
AcDbLine
62
7
6
CONTINUOUS
10
220.8006547658
20
39.2002494566
11
220.8006547658
21
51.4098805737
0
LINE
5
3D0
100
AcDbEntity
8
0
100
AcDbLine
62
7
6
CONTINUOUS
10
122.7958392072
20
35.8350650151
11
121.7958392072
21
34.8350650151
0
LINE
5
3D1
100
AcDbEntity
8
0
100
AcDbLine
62
7
6
CONTINUOUS
10
139.0458392072
20
254.8350650151
11
139.0824948436
21
254.7984093788
0
LINE
5
3D2
100
AcDbEntity
8
0
100
AcDbLine
62
7
6
CONTINUOUS
10
222.9458392072
20
217.5655380541
11
222.9458392072
21
277.3050650151
0
LINE
5
3D3
100
AcDbEntity
8
0
100
AcDbLine
62
7
6
CONTINUOUS
10
223.5458392072
20
34.8050650151
11
223.5458392072
21
217.5550650151
0
LINE
5
3D4
100
AcDbEntity
8
0
100
AcDbLine
62
7
6
CONTINUOUS
10
223.7112456761
20
277.3050650151
11
223.7112456761
21
218.6750650151
0
LINE
5
3D5
100
AcDbEntity
8
0
100
AcDbLine
62
7
6
CONTINUOUS
10
224.6958392072
20
217.5349916905
11
224.6958392072
21
210.3251383398
0
LINE
5
3D6
100
AcDbEntity
8
0
100
AcDbLine
62
7
6
CONTINUOUS
10
224.6958392072
20
27.3050650151
11
224.6958392072
21
34.7849916905
0
LINE
5
3D7
100
AcDbEntity
8
0
100
AcDbLine
62
7
6
CONTINUOUS
10
225.6958392072
20
217.5175366255
11
225.6958392072
21
210.3425934047
0
LINE
5
3D8
100
AcDbEntity
8
0
100
AcDbLine
62
7
6
CONTINUOUS
10
225.6958392072
20
27.3050650151
11
225.6958392072
21
34.7675366255
0
LINE
5
3D9
100
AcDbEntity
8
0
100
AcDbLine
62
7
6
CONTINUOUS
10
227.3958392072
20
217.4878630152
11
227.3958392072
21
210.3722670151
0
LINE
5
3DA
100
AcDbEntity
8
0
100
AcDbLine
62
7
6
CONTINUOUS
10
227.3958392072
20
27.3050650151
11
227.3958392072
21
34.7378630152
0
LINE
5
3DB
100
AcDbEntity
8
0
100
AcDbLine
62
7
6
CONTINUOUS
10
227.7137006167
20
277.2701361200
11
227.7137006167
21
218.7099939102
0
LINE
5
3DC
100
AcDbEntity
8
0
100
AcDbLine
62
7
6
CONTINUOUS
10
227.7958392072
20
217.4808809892
11
227.7958392072
21
210.3792490411
0
LINE
5
3DD
100
AcDbEntity
8
0
100
AcDbLine
62
7
6
CONTINUOUS
10
227.7958392072
20
27.3050650151
11
227.7958392072
21
34.7308809892
0
LINE
5
3DE
100
AcDbEntity
8
0
100
AcDbLine
62
7
6
CONTINUOUS
10
230.2112456761
20
277.2483403745
11
230.2112456761
21
223.4450650151
0
LINE
5
3DF
100
AcDbEntity
8
0
100
AcDbLine
62
7
6
CONTINUOUS
10
223.5458392072
20
210.3050650151
11
227.7958392072
21
210.3792490411
0
LINE
5
3E0
100
AcDbEntity
8
0
100
AcDbLine
62
9
6
CONTINUOUS
10
224.6958392072
20
213.3246814253
11
223.5458392072
21
213.3046081006
0
LINE
5
3E1
100
AcDbEntity
8
0
100
AcDbLine
62
7
6
CONTINUOUS
10
227.7137006167
20
218.7099939102
11
223.7112456761
21
218.6750650151
0
LINE
5
3E2
100
AcDbEntity
8
0
100
AcDbLine
62
7
6
CONTINUOUS
10
138.7769589889
20
222.9317896812
11
141.5665626641
21
222.9343415582
0
LINE
5
3E3
100
AcDbEntity
8
0
100
AcDbLine
62
7
6
CONTINUOUS
10
138.7647560851
20
222.8585071355
11
141.6423970869
21
222.8585071355
0
LINE
5
3E4
100
AcDbEntity
8
0
100
AcDbLine
62
7
6
CONTINUOUS
10
223.7112456761
20
219.5400650151
11
222.9458392072
21
219.5467446162
0
LINE
5
3E5
100
AcDbEntity
8
0
100
AcDbLine
62
7
6
CONTINUOUS
10
222.9458392072
20
217.5655380541
11
227.7958392072
21
217.4808809892
0
LINE
5
3E6
100
AcDbEntity
8
0
100
AcDbLine
62
7
6
CONTINUOUS
10
138.7769589889
20
223.7480414977
11
141.2858392072
21
223.9675400749
0
LINE
5
3E7
100
AcDbEntity
8
0
100
AcDbLine
62
7
6
CONTINUOUS
10
141.6423970869
20
240.9916228948
11
138.7647560851
21
240.9916228948
0
LINE
5
3E8
100
AcDbEntity
8
0
100
AcDbLine
62
7
6
CONTINUOUS
10
141.5665626641
20
240.9157884721
11
138.7769589889
21
240.9183403490
0
LINE
5
3E9
100
AcDbEntity
8
0
100
AcDbLine
62
7
6
CONTINUOUS
10
138.7769589889
20
240.3020885326
11
141.2858392072
21
240.0825899554
0
LINE
5
3EA
100
AcDbEntity
8
0
100
AcDbLine
62
7
6
CONTINUOUS
10
151.4458392072
20
263.7100949912
11
151.4824948436
21
263.6967422171
0
LINE
5
3EB
100
AcDbEntity
8
0
100
AcDbLine
62
7
6
CONTINUOUS
10
220.6319047149
20
51.2411305229
11
220.8006547658
21
51.4098805737
0
LINE
5
3EC
100
AcDbEntity
8
0
100
AcDbLine
62
7
6
CONTINUOUS
10
217.5910236486
20
39.2002494566
11
217.7623986696
21
39.3716244776
0
LINE
5
3ED
100
AcDbEntity
8
0
100
AcDbLine
62
7
6
CONTINUOUS
10
134.6610224689
20
254.7984093788
11
139.0824948436
21
254.7984093788
0
LINE
5
3EE
100
AcDbEntity
8
0
100
AcDbLine
62
7
6
CONTINUOUS
10
134.6458392072
20
254.8350650151
11
139.0458392072
21
254.8350650151
0
LINE
5
3EF
100
AcDbEntity
8
0
100
AcDbLine
62
7
6
CONTINUOUS
10
211.7958392072
20
27.3050650151
11
212.7958392072
21
28.3050650151
0
LINE
5
3F0
100
AcDbEntity
8
0
100
AcDbLine
62
7
6
CONTINUOUS
10
222.5458392072
20
34.3050650151
11
223.5458392072
21
35.3050650151
0
LINE
5
3F1
100
AcDbEntity
8
0
100
AcDbLine
62
7
6
CONTINUOUS
10
153.5203898565
20
267.3050650151
11
156.1712885579
21
267.3050650151
0
LINE
5
3F2
100
AcDbEntity
8
0
100
AcDbLine
62
7
6
CONTINUOUS
10
158.5203898565
20
267.3050650151
11
161.1712885579
21
267.3050650151
0
LINE
5
3F3
100
AcDbEntity
8
0
100
AcDbLine
62
7
6
CONTINUOUS
10
163.5203898565
20
267.3050650151
11
166.1712885579
21
267.3050650151
0
LINE
5
3F4
100
AcDbEntity
8
0
100
AcDbLine
62
7
6
CONTINUOUS
10
168.5203898565
20
267.3050650151
11
171.1712885579
21
267.3050650151
0
LINE
5
3F5
100
AcDbEntity
8
0
100
AcDbLine
62
7
6
CONTINUOUS
10
173.5203898565
20
267.3050650151
11
176.1712885579
21
267.3050650151
0
LINE
5
3F6
100
AcDbEntity
8
0
100
AcDbLine
62
7
6
CONTINUOUS
10
178.5203898565
20
267.3050650151
11
181.1712885579
21
267.3050650151
0
LINE
5
3F7
100
AcDbEntity
8
0
100
AcDbLine
62
7
6
CONTINUOUS
10
183.5203898565
20
267.3050650151
11
186.1712885579
21
267.3050650151
0
LINE
5
3F8
100
AcDbEntity
8
0
100
AcDbLine
62
7
6
CONTINUOUS
10
188.5203898565
20
267.3050650151
11
191.1712885579
21
267.3050650151
0
LINE
5
3F9
100
AcDbEntity
8
0
100
AcDbLine
62
7
6
CONTINUOUS
10
193.5203898565
20
267.3050650151
11
196.1712885579
21
267.3050650151
0
LINE
5
3FA
100
AcDbEntity
8
0
100
AcDbLine
62
7
6
CONTINUOUS
10
198.5203898565
20
267.3050650151
11
201.1712885579
21
267.3050650151
0
LINE
5
3FB
100
AcDbEntity
8
0
100
AcDbLine
62
7
6
CONTINUOUS
10
203.5203898565
20
267.3050650151
11
206.1712885579
21
267.3050650151
0
LINE
5
3FC
100
AcDbEntity
8
0
100
AcDbLine
62
7
6
CONTINUOUS
10
208.5203898565
20
267.3050650151
11
211.1712885579
21
267.3050650151
0
LINE
5
3FD
100
AcDbEntity
8
0
100
AcDbLine
62
7
6
CONTINUOUS
10
223.7112456761
20
276.4400650151
11
222.9458392072
21
276.4333854141
0
LINE
5
3FE
100
AcDbEntity
8
0
100
AcDbLine
62
7
6
CONTINUOUS
10
137.1500457267
20
276.2317313992
11
140.9416326877
21
276.2317313992
0
LINE
5
3FF
100
AcDbEntity
8
0
100
AcDbLine
62
7
6
CONTINUOUS
10
208.3632942721
20
276.3050650151
11
206.3283841423
21
276.3050650151
0
LINE
5
400
100
AcDbEntity
8
0
100
AcDbLine
62
7
6
CONTINUOUS
10
203.3632942721
20
276.3050650151
11
201.3283841423
21
276.3050650151
0
LINE
5
401
100
AcDbEntity
8
0
100
AcDbLine
62
7
6
CONTINUOUS
10
198.3632942721
20
276.3050650151
11
196.3283841423
21
276.3050650151
0
LINE
5
402
100
AcDbEntity
8
0
100
AcDbLine
62
7
6
CONTINUOUS
10
193.3632942721
20
276.3050650151
11
191.3283841423
21
276.3050650151
0
LINE
5
403
100
AcDbEntity
8
0
100
AcDbLine
62
7
6
CONTINUOUS
10
188.3632942721
20
276.3050650151
11
186.3283841423
21
276.3050650151
0
LINE
5
404
100
AcDbEntity
8
0
100
AcDbLine
62
7
6
CONTINUOUS
10
183.3632942721
20
276.3050650151
11
181.3283841423
21
276.3050650151
0
LINE
5
405
100
AcDbEntity
8
0
100
AcDbLine
62
7
6
CONTINUOUS
10
178.3632942721
20
276.3050650151
11
176.3283841423
21
276.3050650151
0
LINE
5
406
100
AcDbEntity
8
0
100
AcDbLine
62
7
6
CONTINUOUS
10
173.3632942721
20
276.3050650151
11
171.3283841423
21
276.3050650151
0
LINE
5
407
100
AcDbEntity
8
0
100
AcDbLine
62
7
6
CONTINUOUS
10
168.3632942721
20
276.3050650151
11
166.3283841423
21
276.3050650151
0
LINE
5
408
100
AcDbEntity
8
0
100
AcDbLine
62
7
6
CONTINUOUS
10
163.3632942721
20
276.3050650151
11
161.3283841423
21
276.3050650151
0
LINE
5
409
100
AcDbEntity
8
0
100
AcDbLine
62
7
6
CONTINUOUS
10
158.3632942721
20
276.3050650151
11
156.3283841423
21
276.3050650151
0
LINE
5
40A
100
AcDbEntity
8
0
100
AcDbLine
62
7
6
CONTINUOUS
10
137.1220148909
20
276.3050650151
11
140.9696635235
21
276.3050650151
0
LINE
5
40B
100
AcDbEntity
8
0
100
AcDbLine
62
7
6
CONTINUOUS
10
153.3545670055
20
276.8050497836
11
156.3371114089
21
276.8050497836
0
LINE
5
40C
100
AcDbEntity
8
0
100
AcDbLine
62
7
6
CONTINUOUS
10
158.3545670055
20
276.8050497836
11
161.3371114089
21
276.8050497836
0
LINE
5
40D
100
AcDbEntity
8
0
100
AcDbLine
62
7
6
CONTINUOUS
10
163.3545670055
20
276.8050497836
11
166.3371114089
21
276.8050497836
0
LINE
5
40E
100
AcDbEntity
8
0
100
AcDbLine
62
7
6
CONTINUOUS
10
168.3545670055
20
276.8050497836
11
171.3371114089
21
276.8050497836
0
LINE
5
40F
100
AcDbEntity
8
0
100
AcDbLine
62
7
6
CONTINUOUS
10
173.3545670055
20
276.8050497836
11
176.3371114089
21
276.8050497836
0
LINE
5
410
100
AcDbEntity
8
0
100
AcDbLine
62
7
6
CONTINUOUS
10
178.3545670055
20
276.8050497836
11
181.3371114089
21
276.8050497836
0
LINE
5
411
100
AcDbEntity
8
0
100
AcDbLine
62
7
6
CONTINUOUS
10
183.3545670055
20
276.8050497836
11
186.3371114089
21
276.8050497836
0
LINE
5
412
100
AcDbEntity
8
0
100
AcDbLine
62
7
6
CONTINUOUS
10
188.3545670055
20
276.8050497836
11
191.3371114089
21
276.8050497836
0
LINE
5
413
100
AcDbEntity
8
0
100
AcDbLine
62
7
6
CONTINUOUS
10
193.3545670055
20
276.8050497836
11
196.3371114089
21
276.8050497836
0
LINE
5
414
100
AcDbEntity
8
0
100
AcDbLine
62
7
6
CONTINUOUS
10
198.3545670055
20
276.8050497836
11
201.3371114089
21
276.8050497836
0
LINE
5
415
100
AcDbEntity
8
0
100
AcDbLine
62
7
6
CONTINUOUS
10
203.3545670055
20
276.8050497836
11
206.3371114089
21
276.8050497836
0
LINE
5
416
100
AcDbEntity
8
0
100
AcDbLine
62
7
6
CONTINUOUS
10
208.3545670055
20
276.8050497836
11
211.3371114089
21
276.8050497836
0
LINE
5
417
100
AcDbEntity
8
0
100
AcDbLine
62
7
6
CONTINUOUS
10
211.3406026877
20
277.0050650151
11
208.3510757267
21
277.0050650151
0
LINE
5
418
100
AcDbEntity
8
0
100
AcDbLine
62
7
6
CONTINUOUS
10
206.3406026877
20
277.0050650151
11
203.3510757267
21
277.0050650151
0
LINE
5
419
100
AcDbEntity
8
0
100
AcDbLine
62
7
6
CONTINUOUS
10
201.3406026877
20
277.0050650151
11
198.3510757267
21
277.0050650151
0
LINE
5
41A
100
AcDbEntity
8
0
100
AcDbLine
62
7
6
CONTINUOUS
10
196.3406026877
20
277.0050650151
11
193.3510757267
21
277.0050650151
0
LINE
5
41B
100
AcDbEntity
8
0
100
AcDbLine
62
7
6
CONTINUOUS
10
191.3406026877
20
277.0050650151
11
188.3510757267
21
277.0050650151
0
LINE
5
41C
100
AcDbEntity
8
0
100
AcDbLine
62
7
6
CONTINUOUS
10
186.3406026877
20
277.0050650151
11
183.3510757267
21
277.0050650151
0
LINE
5
41D
100
AcDbEntity
8
0
100
AcDbLine
62
7
6
CONTINUOUS
10
181.3406026877
20
277.0050650151
11
178.3510757267
21
277.0050650151
0
LINE
5
41E
100
AcDbEntity
8
0
100
AcDbLine
62
7
6
CONTINUOUS
10
176.3406026877
20
277.0050650151
11
173.3510757267
21
277.0050650151
0
LINE
5
41F
100
AcDbEntity
8
0
100
AcDbLine
62
7
6
CONTINUOUS
10
171.3406026877
20
277.0050650151
11
168.3510757267
21
277.0050650151
0
LINE
5
420
100
AcDbEntity
8
0
100
AcDbLine
62
7
6
CONTINUOUS
10
166.3406026877
20
277.0050650151
11
163.3510757267
21
277.0050650151
0
LINE
5
421
100
AcDbEntity
8
0
100
AcDbLine
62
7
6
CONTINUOUS
10
161.3406026877
20
277.0050650151
11
158.3510757267
21
277.0050650151
0
LINE
5
422
100
AcDbEntity
8
0
100
AcDbLine
62
7
6
CONTINUOUS
10
156.3406026877
20
277.0050650151
11
153.3510757267
21
277.0050650151
0
LINE
5
423
100
AcDbEntity
8
0
100
AcDbLine
62
7
6
CONTINUOUS
10
222.9458392072
20
277.3050650151
11
211.3458392072
21
277.3050650151
0
LINE
5
424
100
AcDbEntity
8
0
100
AcDbLine
62
7
6
CONTINUOUS
10
208.3458392072
20
277.3050650151
11
206.3458392072
21
277.3050650151
0
LINE
5
425
100
AcDbEntity
8
0
100
AcDbLine
62
7
6
CONTINUOUS
10
203.3458392072
20
277.3050650151
11
201.3458392072
21
277.3050650151
0
LINE
5
426
100
AcDbEntity
8
0
100
AcDbLine
62
7
6
CONTINUOUS
10
198.3458392072
20
277.3050650151
11
196.3458392072
21
277.3050650151
0
LINE
5
427
100
AcDbEntity
8
0
100
AcDbLine
62
7
6
CONTINUOUS
10
193.3458392072
20
277.3050650151
11
191.3458392072
21
277.3050650151
0
LINE
5
428
100
AcDbEntity
8
0
100
AcDbLine
62
7
6
CONTINUOUS
10
188.3458392072
20
277.3050650151
11
186.3458392072
21
277.3050650151
0
LINE
5
429
100
AcDbEntity
8
0
100
AcDbLine
62
7
6
CONTINUOUS
10
183.3458392072
20
277.3050650151
11
181.3458392072
21
277.3050650151
0
LINE
5
42A
100
AcDbEntity
8
0
100
AcDbLine
62
7
6
CONTINUOUS
10
178.3458392072
20
277.3050650151
11
176.3458392072
21
277.3050650151
0
LINE
5
42B
100
AcDbEntity
8
0
100
AcDbLine
62
7
6
CONTINUOUS
10
173.3458392072
20
277.3050650151
11
171.3458392072
21
277.3050650151
0
LINE
5
42C
100
AcDbEntity
8
0
100
AcDbLine
62
7
6
CONTINUOUS
10
168.3458392072
20
277.3050650151
11
166.3458392072
21
277.3050650151
0
LINE
5
42D
100
AcDbEntity
8
0
100
AcDbLine
62
7
6
CONTINUOUS
10
163.3458392072
20
277.3050650151
11
161.3458392072
21
277.3050650151
0
LINE
5
42E
100
AcDbEntity
8
0
100
AcDbLine
62
7
6
CONTINUOUS
10
158.3458392072
20
277.3050650151
11
156.3458392072
21
277.3050650151
0
LINE
5
42F
100
AcDbEntity
8
0
100
AcDbLine
62
7
6
CONTINUOUS
10
131.4258392072
20
277.3050650151
11
153.3458392072
21
277.3050650151
0
LINE
5
430
100
AcDbEntity
8
0
100
AcDbLine
62
7
6
CONTINUOUS
10
230.2112456761
20
277.2483403745
11
223.7112456761
21
277.3050650151
0
CIRCLE
5
431
100
AcDbEntity
8
0
100
AcDbCircle
62
7
6
CONTINUOUS
10
56.0034768976
20
33.8350650151
40
4.2500000000
0
CIRCLE
5
432
100
AcDbEntity
8
0
100
AcDbCircle
62
7
6
CONTINUOUS
10
58.1634768976
20
74.6450650151
40
4.7625000000
0
ARC
5
433
100
AcDbEntity
8
0
100
AcDbCircle
62
7
6
CONTINUOUS
10
58.1634768976
20
74.6450650151
40
4.0005000000
100
AcDbArc
50
110.3834185758
51
69.6165814242
0
CIRCLE
5
434
100
AcDbEntity
8
0
100
AcDbCircle
62
7
6
CONTINUOUS
10
58.1634768976
20
129.9450650151
40
4.7625000000
0
ARC
5
435
100
AcDbEntity
8
0
100
AcDbCircle
62
7
6
CONTINUOUS
10
58.1634768976
20
129.9450650151
40
4.0005000000
100
AcDbArc
50
110.3834185758
51
69.6165814242
0
CIRCLE
5
436
100
AcDbEntity
8
0
100
AcDbCircle
62
7
6
CONTINUOUS
10
58.1634768976
20
74.5850650151
40
5.5500000000
0
CIRCLE
5
437
100
AcDbEntity
8
0
100
AcDbCircle
62
7
6
CONTINUOUS
10
58.1634768976
20
129.9550650151
40
5.5500000000
0
CIRCLE
5
438
100
AcDbEntity
8
0
100
AcDbCircle
62
7
6
CONTINUOUS
10
56.0034768976
20
33.8350650151
40
4.4000000000
0
CIRCLE
5
439
100
AcDbEntity
8
0
100
AcDbCircle
62
7
6
CONTINUOUS
10
56.0034768976
20
33.8350650151
40
4.6096311171
0
ARC
5
43A
100
AcDbEntity
8
0
100
AcDbCircle
62
7
6
CONTINUOUS
10
133.7858392072
20
139.1015782024
40
1.0000000000
100
AcDbArc
50
273.0000000000
51
360.0000000000
0
ARC
5
43B
100
AcDbEntity
8
0
100
AcDbCircle
62
7
6
CONTINUOUS
10
133.7858392072
20
159.5485518279
40
1.0000000000
100
AcDbArc
50
0.0000000000
51
87.0000000000
0
ARC
5
43C
100
AcDbEntity
8
0
100
AcDbCircle
62
7
6
CONTINUOUS
10
215.7958392072
20
141.3664988138
40
3.0000000000
100
AcDbArc
50
120.0000000000
51
180.0000000000
0
ARC
5
43D
100
AcDbEntity
8
0
100
AcDbCircle
62
7
6
CONTINUOUS
10
215.7958392072
20
64.2436312165
40
3.0000000000
100
AcDbArc
50
180.0000000000
51
240.0000000000
0
ARC
5
43E
100
AcDbEntity
8
0
100
AcDbCircle
62
7
6
CONTINUOUS
10
215.7958392072
20
31.3050650151
40
3.0000000000
100
AcDbArc
50
90.0000000000
51
180.0000000000
0
ARC
5
43F
100
AcDbEntity
8
0
100
AcDbCircle
62
7
6
CONTINUOUS
10
129.9258392072
20
203.7563853587
40
1.5000000000
100
AcDbArc
50
315.0000000000
51
360.0000000000
0
ARC
5
440
100
AcDbEntity
8
0
100
AcDbCircle
62
7
6
CONTINUOUS
10
139.0458392072
20
274.1350650151
40
16.2366556363
100
AcDbArc
50
270.1293502239
51
319.9926212045
0
ARC
5
441
100
AcDbEntity
8
0
100
AcDbCircle
62
7
6
CONTINUOUS
10
139.0458392072
20
274.1350650151
40
16.2000000000
100
AcDbArc
50
270.0000000000
51
319.9454487635
0
ARC
5
442
100
AcDbEntity
8
0
100
AcDbCircle
62
7
6
CONTINUOUS
10
139.0458392072
20
274.1350650151
40
2.8266663841
100
AcDbArc
50
132.1197023263
51
47.8802976737
0
ARC
5
443
100
AcDbEntity
8
0
100
AcDbCircle
62
7
6
CONTINUOUS
10
139.0458392072
20
274.1350650151
40
2.9000000000
100
AcDbArc
50
131.5587523445
51
48.4412476555
0
SPLINE
5
444
100
AcDbEntity
8
0
100
AcDbSpline
62
7
6
CONTINUOUS
70
0
71
3
72
14
73
10
74
8
42
0.0000001000
43
0.0000001000
44
0.0000000001
12
0.0131325916
22
-1.4986433366
32
0.0000000000
13
0.0038473285
23
-1.4986959376
33
0.0000000000
40
0.0000000000
40
0.0000000000
40
0.0000000000
40
0.0000000000
40
0.1530820895
40
0.2966986830
40
0.4349631331
40
0.5722298290
40
0.7118808956
40
0.8549409705
40
1.0000000000
40
1.0000000000
40
1.0000000000
40
1.0000000000
10
56.4939131826
20
36.0768447101
30
0.0000000000
10
56.4945833041
20
36.0003728923
30
0.0000000000
10
56.4958044223
20
35.8521570323
30
0.0000000000
10
56.4973819438
20
35.6348695199
30
0.0000000000
10
56.4987133448
20
35.4254813643
30
0.0000000000
10
56.4998541593
20
35.2180731621
30
0.0000000000
10
56.5008314160
20
35.0082683622
30
0.0000000000
10
56.5016470439
20
34.7945700513
30
0.0000000000
10
56.5020757213
20
34.6506358852
30
0.0000000000
10
56.5022617512
20
34.5781694258
30
0.0000000000
11
56.4939131826
21
36.0768447101
31
0.0000000000
11
56.4958047652
21
35.8474282465
31
0.0000000000
11
56.4973684023
21
35.6321956119
31
0.0000000000
11
56.4986867695
21
35.4249827533
31
0.0000000000
11
56.4998189741
21
35.2192641515
31
0.0000000000
11
56.5007944947
21
35.0099712492
31
0.0000000000
11
56.5016134801
21
34.7955685538
31
0.0000000000
11
56.5022617512
21
34.5781694258
31
0.0000000000
0
SPLINE
5
445
100
AcDbEntity
8
0
100
AcDbSpline
62
7
6
CONTINUOUS
70
0
71
3
72
10
73
6
74
4
42
0.0000001000
43
0.0000001000
44
0.0000000001
12
0.9802660700
22
0.0410954637
32
0.0000000000
13
0.9802660700
23
-0.0410954637
33
0.0000000000
40
0.0000000000
40
0.0000000000
40
0.0000000000
40
0.0000000000
40
0.3330275928
40
0.6669124769
40
1.0000000000
40
1.0000000000
40
1.0000000000
40
1.0000000000
10
55.5130406126
20
36.0768447101
30
0.0000000000
10
55.6218591624
20
36.0814066845
30
0.0000000000
10
55.8399170588
20
36.0874874974
30
0.0000000000
10
56.1669975303
20
36.0874883157
30
0.0000000000
10
56.3850750501
20
36.0814075055
30
0.0000000000
10
56.4939131826
20
36.0768447101
30
0.0000000000
11
55.5130406126
21
36.0768447101
31
0.0000000000
11
55.8396557423
21
36.0859635194
31
0.0000000000
11
56.1672392536
21
36.0859643401
31
0.0000000000
11
56.4939131826
21
36.0768447101
31
0.0000000000
0
SPLINE
5
446
100
AcDbEntity
8
0
100
AcDbSpline
62
7
6
CONTINUOUS
70
0
71
3
72
18
73
14
74
12
42
0.0000001000
43
0.0000001000
44
0.0000000001
12
0.0038473286
22
1.4986959633
32
0.0000000000
13
0.0131325918
23
1.4986433623
33
0.0000000000
40
0.0000000000
40
0.0000000000
40
0.0000000000
40
0.0000000000
40
0.1381055468
40
0.2640800588
40
0.3789055465
40
0.4835542043
40
0.5790305547
40
0.6663180500
40
0.7460362144
40
0.8182545540
40
0.8833039928
40
0.9430608541
40
1.0000000000
40
1.0000000000
40
1.0000000000
40
1.0000000000
10
55.5046920439
20
34.5781694258
30
0.0000000000
10
55.5048691563
20
34.6471621677
30
0.0000000000
10
55.5052594644
20
34.7790872810
30
0.0000000000
10
55.5059647780
20
34.9683746779
30
0.0000000000
10
55.5067310032
20
35.1409477288
30
0.0000000000
10
55.5075338068
20
35.2982845554
30
0.0000000000
10
55.5083546512
20
35.4418640101
30
0.0000000000
10
55.5091791375
20
35.5729887664
30
0.0000000000
10
55.5099939404
20
35.6924944017
30
0.0000000000
10
55.5107861513
20
35.8008905201
30
0.0000000000
10
55.5115497759
20
35.8993145626
30
0.0000000000
10
55.5122918902
20
35.9901055533
30
0.0000000000
10
55.5127913597
20
36.0484008857
30
0.0000000000
10
55.5130406126
20
36.0768447101
30
0.0000000000
11
55.5046920439
21
34.5781694258
31
0.0000000000
11
55.5053050892
21
34.7851474255
31
0.0000000000
11
55.5060090331
21
34.9739442278
31
0.0000000000
11
55.5067734563
21
35.1460315919
31
0.0000000000
11
55.5075739865
21
35.3028665867
31
0.0000000000
11
55.5083922601
21
35.4459547394
31
0.0000000000
11
55.5092149993
21
35.5767700002
31
0.0000000000
11
55.5100297306
21
35.6962409070
31
0.0000000000
11
55.5108208662
21
35.8044717061
31
0.0000000000
11
55.5115773231
21
35.9019584239
31
0.0000000000
11
55.5123094186
21
35.9915130935
31
0.0000000000
11
55.5130406126
21
36.0768447101
31
0.0000000000
0
SPLINE
5
447
100
AcDbEntity
8
0
100
AcDbSpline
62
7
6
CONTINUOUS
70
0
71
3
72
14
73
10
74
8
42
0.0000001000
43
0.0000001000
44
0.0000000001
12
1.3383013227
22
-0.9572768240
32
0.0000000000
13
1.2199841230
23
-1.1041141642
33
0.0000000000
40
0.0000000000
40
0.0000000000
40
0.0000000000
40
0.0000000000
40
0.1433810805
40
0.2899162980
40
0.4379225687
40
0.5849273690
40
0.7286571994
40
0.8674787569
40
1.0000000000
40
1.0000000000
40
1.0000000000
40
1.0000000000
10
54.2260933780
20
35.6124485347
30
0.0000000000
10
54.2900557412
20
35.5666967396
30
0.0000000000
10
54.4185370406
20
35.4729916958
30
0.0000000000
10
54.6100457430
20
35.3280044437
30
0.0000000000
10
54.8005537427
20
35.1784634558
30
0.0000000000
10
54.9873060596
20
35.0266877813
30
0.0000000000
10
55.1677123380
20
34.8751419156
30
0.0000000000
10
55.3397575273
20
34.7260379898
30
0.0000000000
10
55.4508007730
20
34.6269422864
30
0.0000000000
10
55.5046920439
20
34.5781694258
30
0.0000000000
11
54.2260933780
21
35.6124485347
31
0.0000000000
11
54.4167240442
21
35.4734534085
31
0.0000000000
11
54.6089755709
21
35.3279377166
31
0.0000000000
11
54.8005550597
21
35.1775852727
31
0.0000000000
11
54.9882784524
21
35.0250448203
31
0.0000000000
11
55.1693724263
21
34.8729403717
31
0.0000000000
11
55.3419955232
21
34.7233499726
31
0.0000000000
11
55.5046920439
21
34.5781694258
31
0.0000000000
0
SPLINE
5
448
100
AcDbEntity
8
0
100
AcDbSpline
62
7
6
CONTINUOUS
70
0
71
3
72
15
73
11
74
9
42
0.0000001000
43
0.0000001000
44
0.0000000001
12
-1.1028891663
22
1.2188876166
32
0.0000000000
13
-0.9563256238
23
1.3369715167
33
0.0000000000
40
0.0000000000
40
0.0000000000
40
0.0000000000
40
0.0000000000
40
0.1194424261
40
0.2375457393
40
0.3533933347
40
0.4684955676
40
0.5870126046
40
0.7131379735
40
0.8504645545
40
1.0000000000
40
1.0000000000
40
1.0000000000
40
1.0000000000
10
55.2592728670
20
34.3350650151
30
0.0000000000
10
55.2153622811
20
34.3835939798
30
0.0000000000
10
55.1286390194
20
34.4806578868
30
0.0000000000
10
55.0014640960
20
34.6266818023
30
0.0000000000
10
54.8776906952
20
34.7724944454
30
0.0000000000
10
54.7556417326
20
34.9200478885
30
0.0000000000
10
54.6320127656
20
35.0735815299
30
0.0000000000
10
54.5030589311
20
35.2384375025
30
0.0000000000
10
54.3664368915
20
35.4188404517
30
0.0000000000
10
54.2737615707
20
35.5458069909
30
0.0000000000
10
54.2260933780
20
35.6124485347
30
0.0000000000
11
55.2592728670
21
34.3350650151
31
0.0000000000
11
55.1284631783
21
34.4814809468
31
0.0000000000
11
55.0009665582
21
34.6278841144
31
0.0000000000
11
54.8777375327
21
34.7730665400
31
0.0000000000
11
54.7571510967
21
34.9188647091
31
0.0000000000
11
54.6349750591
21
35.0706105825
31
0.0000000000
11
54.5072504118
21
35.2339188582
31
0.0000000000
11
54.3709851318
21
35.4138873418
31
0.0000000000
11
54.2260933780
21
35.6124485347
31
0.0000000000
0
SPLINE
5
449
100
AcDbEntity
8
0
100
AcDbSpline
62
7
6
CONTINUOUS
70
0
71
3
72
15
73
11
74
9
42
0.0000001000
43
0.0000001000
44
0.0000000001
12
0.9563256647
22
1.3369715739
32
0.0000000000
13
1.1028892135
23
1.2188876688
33
0.0000000000
40
0.0000000000
40
0.0000000000
40
0.0000000000
40
0.0000000000
40
0.1483044396
40
0.2844129961
40
0.4100069847
40
0.5287168676
40
0.6446515949
40
0.7616197665
40
0.8805204504
40
1.0000000000
40
1.0000000000
40
1.0000000000
40
1.0000000000
10
54.2260933780
20
32.0576814956
30
0.0000000000
10
54.2733691586
20
32.1237744356
30
0.0000000000
10
54.3652432361
20
32.2496641445
30
0.0000000000
10
54.5008391828
20
32.4287953667
30
0.0000000000
10
54.6292152644
20
32.5930203397
30
0.0000000000
10
54.7529634803
20
32.7468054952
30
0.0000000000
10
54.8757227605
20
32.8952974720
30
0.0000000000
10
55.0004491907
20
33.0422781279
30
0.0000000000
10
55.1283209012
20
33.1891159021
30
0.0000000000
10
55.2153486315
20
33.2865209653
30
0.0000000000
10
55.2592728670
20
33.3350650151
30
0.0000000000
11
54.2260933780
21
32.0576814956
31
0.0000000000
11
54.3697772262
21
32.2546191435
31
0.0000000000
11
54.5047942966
21
32.4330213756
31
0.0000000000
11
54.6319291590
21
32.5956820223
31
0.0000000000
11
54.7542539931
21
32.7477150665
31
0.0000000000
11
54.8756737173
21
32.8945998946
31
0.0000000000
11
55.0000723193
21
33.0412056679
31
0.0000000000
11
55.1284228051
21
33.1886033120
31
0.0000000000
11
55.2592728670
21
33.3350650151
31
0.0000000000
0
SPLINE
5
44A
100
AcDbEntity
8
0
100
AcDbSpline
62
7
6
CONTINUOUS
70
0
71
3
72
14
73
10
74
8
42
0.0000001000
43
0.0000001000
44
0.0000000001
12
-1.2199837722
22
-1.1041138467
32
0.0000000000
13
-1.3383009378
23
-0.9572765487
33
0.0000000000
40
0.0000000000
40
0.0000000000
40
0.0000000000
40
0.0000000000
40
0.1288756862
40
0.2633323329
40
0.4013542681
40
0.5415574752
40
0.6856222347
40
0.8373044806
40
1.0000000000
40
1.0000000000
40
1.0000000000
40
1.0000000000
10
55.5046920439
20
33.0919606045
30
0.0000000000
10
55.4522832953
20
33.0445294613
30
0.0000000000
10
55.3445369394
20
32.9483387623
30
0.0000000000
10
55.1782687777
20
32.8040589014
30
0.0000000000
10
55.0051239959
20
32.6582600269
30
0.0000000000
10
54.8256571090
20
32.5118296106
30
0.0000000000
10
54.6379507707
20
32.3636932284
30
0.0000000000
10
54.4378702184
20
32.2113823981
30
0.0000000000
10
54.2986719001
20
32.1095963640
30
0.0000000000
10
54.2260933780
20
32.0576814956
30
0.0000000000
11
55.5046920439
21
33.0919606045
31
0.0000000000
11
55.3464986218
21
32.9507432058
31
0.0000000000
11
55.1793946319
21
32.8057510227
31
0.0000000000
11
55.0056677206
21
32.6594786482
31
0.0000000000
11
54.8269121322
21
32.5136493532
31
0.0000000000
11
54.6408188816
21
32.3668126017
31
0.0000000000
11
54.4422129120
21
32.2156609432
31
0.0000000000
11
54.2260933780
21
32.0576814956
31
0.0000000000
0
SPLINE
5
44B
100
AcDbEntity
8
0
100
AcDbSpline
62
7
6
CONTINUOUS
70
0
71
3
72
14
73
10
74
8
42
0.0000001000
43
0.0000001000
44
0.0000000001
12
-0.0131325916
22
1.4986433366
32
0.0000000000
13
-0.0038473285
23
1.4986959376
33
0.0000000000
40
0.0000000000
40
0.0000000000
40
0.0000000000
40
0.0000000000
40
0.1530820895
40
0.2966986830
40
0.4349631331
40
0.5722298290
40
0.7118808956
40
0.8549409705
40
1.0000000000
40
1.0000000000
40
1.0000000000
40
1.0000000000
10
55.5130406126
20
31.5932853202
30
0.0000000000
10
55.5123704910
20
31.6697571380
30
0.0000000000
10
55.5111493729
20
31.8179729980
30
0.0000000000
10
55.5095718513
20
32.0352605104
30
0.0000000000
10
55.5082404503
20
32.2446486659
30
0.0000000000
10
55.5070996358
20
32.4520568682
30
0.0000000000
10
55.5061223791
20
32.6618616681
30
0.0000000000
10
55.5053067512
20
32.8755599790
30
0.0000000000
10
55.5048780738
20
33.0194941451
30
0.0000000000
10
55.5046920439
20
33.0919606045
30
0.0000000000
11
55.5130406126
21
31.5932853202
31
0.0000000000
11
55.5111490299
21
31.8227017838
31
0.0000000000
11
55.5095853928
21
32.0379344184
31
0.0000000000
11
55.5082670256
21
32.2451472769
31
0.0000000000
11
55.5071348210
21
32.4508658787
31
0.0000000000
11
55.5061593004
21
32.6601587811
31
0.0000000000
11
55.5053403150
21
32.8745614765
31
0.0000000000
11
55.5046920439
21
33.0919606045
31
0.0000000000
0
SPLINE
5
44C
100
AcDbEntity
8
0
100
AcDbSpline
62
7
6
CONTINUOUS
70
0
71
3
72
10
73
6
74
4
42
0.0000001000
43
0.0000001000
44
0.0000000001
12
-0.9802660700
22
-0.0410954637
32
0.0000000000
13
-0.9802660700
23
0.0410954637
33
0.0000000000
40
0.0000000000
40
0.0000000000
40
0.0000000000
40
0.0000000000
40
0.3330275928
40
0.6669124769
40
1.0000000000
40
1.0000000000
40
1.0000000000
40
1.0000000000
10
56.4939131826
20
31.5932853202
30
0.0000000000
10
56.3850946327
20
31.5887233458
30
0.0000000000
10
56.1670367363
20
31.5826425329
30
0.0000000000
10
55.8399562648
20
31.5826417146
30
0.0000000000
10
55.6218787450
20
31.5887225248
30
0.0000000000
10
55.5130406126
20
31.5932853202
30
0.0000000000
11
56.4939131826
21
31.5932853202
31
0.0000000000
11
56.1672980528
21
31.5841665109
31
0.0000000000
11
55.8397145415
21
31.5841656902
31
0.0000000000
11
55.5130406126
21
31.5932853202
31
0.0000000000
0
SPLINE
5
44D
100
AcDbEntity
8
0
100
AcDbSpline
62
7
6
CONTINUOUS
70
0
71
3
72
18
73
14
74
12
42
0.0000001000
43
0.0000001000
44
0.0000000001
12
-0.0038473286
22
-1.4986959633
32
0.0000000000
13
-0.0131325918
23
-1.4986433623
33
0.0000000000
40
0.0000000000
40
0.0000000000
40
0.0000000000
40
0.0000000000
40
0.1381055468
40
0.2640800588
40
0.3789055465
40
0.4835542043
40
0.5790305547
40
0.6663180500
40
0.7460362144
40
0.8182545540
40
0.8833039928
40
0.9430608541
40
1.0000000000
40
1.0000000000
40
1.0000000000
40
1.0000000000
10
56.5022617512
20
33.0919606045
30
0.0000000000
10
56.5020846388
20
33.0229678626
30
0.0000000000
10
56.5016943307
20
32.8910427493
30
0.0000000000
10
56.5009890171
20
32.7017553524
30
0.0000000000
10
56.5002227919
20
32.5291823014
30
0.0000000000
10
56.4994199883
20
32.3718454749
30
0.0000000000
10
56.4985991439
20
32.2282660202
30
0.0000000000
10
56.4977746576
20
32.0971412639
30
0.0000000000
10
56.4969598547
20
31.9776356286
30
0.0000000000
10
56.4961676438
20
31.8692395102
30
0.0000000000
10
56.4954040193
20
31.7708154677
30
0.0000000000
10
56.4946619049
20
31.6800244770
30
0.0000000000
10
56.4941624354
20
31.6217291446
30
0.0000000000
10
56.4939131826
20
31.5932853202
30
0.0000000000
11
56.5022617512
21
33.0919606045
31
0.0000000000
11
56.5016487059
21
32.8849826048
31
0.0000000000
11
56.5009447620
21
32.6961858025
31
0.0000000000
11
56.5001803388
21
32.5240984384
31
0.0000000000
11
56.4993798086
21
32.3672634435
31
0.0000000000
11
56.4985615350
21
32.2241752909
31
0.0000000000
11
56.4977387958
21
32.0933600301
31
0.0000000000
11
56.4969240645
21
31.9738891233
31
0.0000000000
11
56.4961329289
21
31.8656583242
31
0.0000000000
11
56.4953764720
21
31.7681716064
31
0.0000000000
11
56.4946443765
21
31.6786169368
31
0.0000000000
11
56.4939131826
21
31.5932853202
31
0.0000000000
0
SPLINE
5
44E
100
AcDbEntity
8
0
100
AcDbSpline
62
7
6
CONTINUOUS
70
0
71
3
72
14
73
10
74
8
42
0.0000001000
43
0.0000001000
44
0.0000000001
12
-1.3383009797
22
0.9572765787
32
0.0000000000
13
-1.2199838104
23
1.1041138813
33
0.0000000000
40
0.0000000000
40
0.0000000000
40
0.0000000000
40
0.0000000000
40
0.1617220844
40
0.3127198204
40
0.4564733647
40
0.5968437746
40
0.7354071069
40
0.8706533216
40
1.0000000000
40
1.0000000000
40
1.0000000000
40
1.0000000000
10
57.7808604171
20
32.0576814956
30
0.0000000000
10
57.7087161424
20
32.1092857502
30
0.0000000000
10
57.5702457240
20
32.2105262382
30
0.0000000000
10
57.3710005514
20
32.3621511133
30
0.0000000000
10
57.1836198006
20
32.5099664301
30
0.0000000000
10
57.0039528457
20
32.6564964740
30
0.0000000000
10
56.8301548107
20
32.8027954540
30
0.0000000000
10
56.6631265959
20
32.9477076157
30
0.0000000000
10
56.5548620358
20
33.0443561167
30
0.0000000000
10
56.5022617512
20
33.0919606045
30
0.0000000000
11
57.7808604171
21
32.0576814956
31
0.0000000000
11
57.5660244287
21
32.2147026954
31
0.0000000000
11
57.3682909310
21
32.3651409806
31
0.0000000000
11
57.1825688136
21
32.5116214045
31
0.0000000000
11
57.0035689554
21
32.6575865050
31
0.0000000000
11
56.8291357972
21
32.8044031957
31
0.0000000000
11
56.6610368683
21
32.9502310844
31
0.0000000000
11
56.5022617512
21
33.0919606045
31
0.0000000000
0
SPLINE
5
44F
100
AcDbEntity
8
0
100
AcDbSpline
62
7
6
CONTINUOUS
70
0
71
3
72
15
73
11
74
9
42
0.0000001000
43
0.0000001000
44
0.0000000001
12
1.1028891655
22
-1.2188876157
32
0.0000000000
13
0.9563256231
23
-1.3369715157
33
0.0000000000
40
0.0000000000
40
0.0000000000
40
0.0000000000
40
0.0000000000
40
0.1194251453
40
0.2375394086
40
0.3534637214
40
0.4685169918
40
0.5869625331
40
0.7129878486
40
0.8505067841
40
1.0000000000
40
1.0000000000
40
1.0000000000
40
1.0000000000
10
56.7476809281
20
33.3350650151
30
0.0000000000
10
56.7915851610
20
33.2865430716
30
0.0000000000
10
56.8783061989
20
33.1894818313
30
0.0000000000
10
57.0055066384
20
33.0434289936
30
0.0000000000
10
57.1292932639
20
32.8975997466
30
0.0000000000
10
57.2513261876
20
32.7500641486
30
0.0000000000
10
57.3748796137
20
32.5966248187
30
0.0000000000
10
57.5038423771
20
32.4317613790
30
0.0000000000
10
57.6404822153
20
32.2513374469
30
0.0000000000
10
57.7332056861
20
32.1243042194
30
0.0000000000
10
57.7808604171
20
32.0576814956
30
0.0000000000
11
56.7476809281
21
33.3350650151
31
0.0000000000
11
56.8784718257
21
33.1886703870
31
0.0000000000
11
57.0059804525
21
33.0422538073
31
0.0000000000
11
57.1292905725
21
32.8969748044
31
0.0000000000
11
57.2498249682
21
32.7512380394
31
0.0000000000
11
57.3719275527
21
32.5995839086
31
0.0000000000
11
57.4995527944
21
32.4364066819
31
0.0000000000
11
57.6360101049
21
32.2561869954
31
0.0000000000
11
57.7808604171
21
32.0576814956
31
0.0000000000
0
SPLINE
5
450
100
AcDbEntity
8
0
100
AcDbSpline
62
7
6
CONTINUOUS
70
0
71
3
72
15
73
11
74
9
42
0.0000001000
43
0.0000001000
44
0.0000000001
12
-0.9563256641
22
-1.3369715729
32
0.0000000000
13
-1.1028892128
23
-1.2188876679
33
0.0000000000
40
0.0000000000
40
0.0000000000
40
0.0000000000
40
0.0000000000
40
0.1482629495
40
0.2845619549
40
0.4100552272
40
0.5286972488
40
0.6445746117
40
0.7616455415
40
0.8805404114
40
1.0000000000
40
1.0000000000
40
1.0000000000
40
1.0000000000
10
57.7808604171
20
35.6124485347
30
0.0000000000
10
57.7335978626
20
35.5463740851
30
0.0000000000
10
57.6416760079
20
35.4204182065
30
0.0000000000
10
57.5060628862
20
35.2412667871
30
0.0000000000
10
57.3776775537
20
35.0770338564
30
0.0000000000
10
57.2540067122
20
34.9233453553
30
0.0000000000
10
57.1312560853
20
34.7748622073
30
0.0000000000
10
57.0065160195
20
34.6278646635
30
0.0000000000
10
56.8786162472
20
34.4809953938
30
0.0000000000
10
56.7915978253
20
34.3836009549
30
0.0000000000
10
56.7476809281
20
34.3350650151
30
0.0000000000
11
57.7808604171
21
35.6124485347
31
0.0000000000
11
57.6372172765
21
35.4155656108
31
0.0000000000
11
57.5020101357
21
35.2369146200
31
0.0000000000
11
57.3749753439
21
35.0743858848
31
0.0000000000
11
57.2527201873
21
34.9224399530
31
0.0000000000
11
57.1313613311
21
34.7756271506
31
0.0000000000
11
57.0068538571
21
34.6288922313
31
0.0000000000
11
56.8785092847
21
34.4815021107
31
0.0000000000
11
56.7476809281
21
34.3350650151
31
0.0000000000
0
SPLINE
5
451
100
AcDbEntity
8
0
100
AcDbSpline
62
7
6
CONTINUOUS
70
0
71
3
72
14
73
10
74
8
42
0.0000001000
43
0.0000001000
44
0.0000000001
12
1.2199837027
22
1.1041137839
32
0.0000000000
13
1.3383008616
23
0.9572764942
33
0.0000000000
40
0.0000000000
40
0.0000000000
40
0.0000000000
40
0.0000000000
40
0.1273304181
40
0.2604678137
40
0.3976870803
40
0.5380471765
40
0.6830375410
40
0.8360155538
40
1.0000000000
40
1.0000000000
40
1.0000000000
40
1.0000000000
10
56.5022617512
20
34.5781694258
30
0.0000000000
10
56.5540420962
20
34.6250318491
30
0.0000000000
10
56.6606085487
20
34.7201847705
30
0.0000000000
10
56.8253234721
20
34.8631853166
30
0.0000000000
10
56.9975916081
20
35.0083517185
30
0.0000000000
10
57.1771180902
20
35.1549518396
30
0.0000000000
10
57.3657957078
20
35.3039633350
30
0.0000000000
10
57.5673724765
20
35.4574877599
30
0.0000000000
10
57.7077069085
20
35.5601223828
30
0.0000000000
10
57.7808604171
20
35.6124485347
30
0.0000000000
11
56.5022617512
21
34.5781694258
31
0.0000000000
11
56.6585468924
21
34.7177064181
31
0.0000000000
11
56.8239770888
21
34.8613153835
31
0.0000000000
11
56.9966413342
21
35.0067992471
31
0.0000000000
11
57.1755378093
21
35.1528641729
31
0.0000000000
11
57.3627743949
21
35.3007105755
31
0.0000000000
11
57.5630415168
21
35.4532000353
31
0.0000000000
11
57.7808604171
21
35.6124485347
31
0.0000000000
0
SPLINE
5
452
100
AcDbEntity
8
0
100
AcDbSpline
62
7
6
CONTINUOUS
70
0
71
3
72
22
73
18
74
16
42
0.0000001000
43
0.0000001000
44
0.0000000001
12
0.0000000000
22
-2.0009745890
32
0.0000000000
13
0.0000000000
23
2.0009745890
33
0.0000000000
40
0.0000000000
40
0.0000000000
40
0.0000000000
40
0.0000000000
40
0.0110656459
40
0.0434496414
40
0.0956218761
40
0.1657209095
40
0.2500100330
40
0.3457508292
40
0.4475916730
40
0.5524083270
40
0.6542491708
40
0.7499899670
40
0.8342790905
40
0.9043781239
40
0.9565503586
40
0.9889343541
40
1.0000000000
40
1.0000000000
40
1.0000000000
40
1.0000000000
10
75.1034768976
20
34.7675366255
30
0.0000000000
10
75.1034768976
20
34.7601559335
30
0.0000000000
10
75.0574937052
20
34.7695334912
30
0.0000000000
10
75.0098721116
20
34.7554217688
30
0.0000000000
10
74.8979456413
20
34.7586744927
30
0.0000000000
10
74.7638631619
20
34.7535676196
30
0.0000000000
10
74.5957302437
20
34.7524315532
30
0.0000000000
10
74.4081565713
20
34.7507135627
30
0.0000000000
10
74.2063246565
20
34.7500635252
30
0.0000000000
10
74.0006291386
20
34.7500635252
30
0.0000000000
10
73.7987972238
20
34.7507135627
30
0.0000000000
10
73.6112235514
20
34.7524315532
30
0.0000000000
10
73.4430906332
20
34.7535676196
30
0.0000000000
10
73.3090081538
20
34.7586744927
30
0.0000000000
10
73.1970816835
20
34.7554217688
30
0.0000000000
10
73.1494600899
20
34.7695334912
30
0.0000000000
10
73.1034768976
20
34.7601559335
30
0.0000000000
10
73.1034768976
20
34.7675366255
30
0.0000000000
11
75.1034768976
21
34.7675366255
31
0.0000000000
11
75.0816341225
21
34.7639083039
31
0.0000000000
11
75.0169278142
21
34.7604333057
31
0.0000000000
11
74.9125801668
21
34.7572788689
31
0.0000000000
11
74.7723401202
21
34.7545607835
31
0.0000000000
11
74.6036932841
21
34.7524222772
31
0.0000000000
11
74.4121241665
21
34.7509337768
31
0.0000000000
11
74.2083446281
21
34.7501778047
31
0.0000000000
11
73.9986091670
21
34.7501778047
31
0.0000000000
11
73.7948296286
21
34.7509337768
31
0.0000000000
11
73.6032605110
21
34.7524222772
31
0.0000000000
11
73.4346136749
21
34.7545607835
31
0.0000000000
11
73.2943736283
21
34.7572788689
31
0.0000000000
11
73.1900259809
21
34.7604333057
31
0.0000000000
11
73.1253196726
21
34.7639083039
31
0.0000000000
11
73.1034768976
21
34.7675366255
31
0.0000000000
0
SPLINE
5
453
100
AcDbEntity
8
0
100
AcDbSpline
62
9
6
CONTINUOUS
70
0
71
3
72
18
73
14
74
12
42
0.0000001000
43
0.0000001000
44
0.0000000001
12
-6.2769760862
22
-0.0003188875
32
0.0000000000
13
-0.0002407516
23
-6.2769760897
33
0.0000000000
40
0.0000000000
40
0.0000000000
40
0.0000000000
40
0.0000000000
40
0.0896248987
40
0.1805651100
40
0.2720418825
40
0.3634338707
40
0.4544779991
40
0.5453847151
40
0.6363981543
40
0.7277533279
40
0.8192345408
40
0.9102502840
40
1.0000000000
40
1.0000000000
40
1.0000000000
40
1.0000000000
10
64.8779778178
20
36.1499548755
30
0.0000000000
10
64.6904533691
20
36.1499453488
30
0.0000000000
10
64.3121171568
20
36.1233116212
30
0.0000000000
10
63.7538745462
20
36.0030345970
30
0.0000000000
10
63.2149050725
20
35.8029919110
30
0.0000000000
10
62.7099657504
20
35.5277535805
30
0.0000000000
10
62.2504723827
20
35.1839515998
30
0.0000000000
10
61.8452040850
20
34.7787706103
30
0.0000000000
10
61.5013784228
20
34.3194737278
30
0.0000000000
10
61.2260556259
20
33.8147331981
30
0.0000000000
10
61.0258111401
20
33.2757417241
30
0.0000000000
10
60.9052987720
20
32.7171074112
30
0.0000000000
10
60.8785942396
20
32.3383497021
30
0.0000000000
10
60.8785870372
20
32.1505640949
30
0.0000000000
11
64.8779778178
21
36.1499548755
31
0.0000000000
11
64.3167968316
21
36.1103989491
31
0.0000000000
11
63.7587671812
21
35.9901938591
31
0.0000000000
11
63.2204573945
21
35.7903805482
31
0.0000000000
11
62.7167603811
21
35.5158241346
31
0.0000000000
11
62.2591850941
21
35.1734554383
31
0.0000000000
11
61.8556529422
21
34.7700100656
31
0.0000000000
11
61.5132903327
21
34.3126708337
31
0.0000000000
11
61.2386968989
21
33.8092572120
31
0.0000000000
11
61.0387031347
21
33.2709847077
31
0.0000000000
11
60.9182539209
21
32.7125226763
31
0.0000000000
11
60.8785870372
21
32.1505640949
31
0.0000000000
0
SPLINE
5
454
100
AcDbEntity
8
0
100
AcDbSpline
62
7
6
CONTINUOUS
70
0
71
3
72
17
73
13
74
11
42
0.0000001000
43
0.0000001000
44
0.0000000001
12
-4.7068930184
22
0.0000000000
32
0.0000000000
13
-0.0000000000
23
4.7068930184
33
0.0000000000
40
0.0000000000
40
0.0000000000
40
0.0000000000
40
0.0000000000
40
0.0993904611
40
0.1997837495
40
0.2997680069
40
0.3991342784
40
0.4996388340
40
0.6001410793
40
0.6995070431
40
0.7996096919
40
0.9002685967
40
1.0000000000
40
1.0000000000
40
1.0000000000
40
1.0000000000
10
65.2230199830
20
210.3050650151
30
0.0000000000
10
65.0670798939
20
210.3050650151
30
0.0000000000
10
64.7530798669
20
210.3295996751
30
0.0000000000
10
64.2938632643
20
210.4395313308
30
0.0000000000
10
63.8574866468
20
210.6200702842
30
0.0000000000
10
63.4545081754
20
210.8665204137
30
0.0000000000
10
63.0943497631
20
211.1735111414
30
0.0000000000
10
62.7869493642
20
211.5333193022
30
0.0000000000
10
62.5399443653
20
211.9361714727
30
0.0000000000
10
62.3587145833
20
212.3729213151
30
0.0000000000
10
62.2481711858
20
212.8331757882
30
0.0000000000
10
62.2234768976
20
213.1481330853
30
0.0000000000
10
62.2234768976
20
213.3046081006
30
0.0000000000
11
65.2230199830
21
210.3050650151
31
0.0000000000
11
64.7566236008
21
210.3415371569
31
0.0000000000
11
64.2970631581
21
210.4515312190
31
0.0000000000
11
63.8621994858
21
210.6314541359
31
0.0000000000
11
63.4631947201
21
210.8754715177
31
0.0000000000
11
63.1031734333
21
211.1823499982
31
0.0000000000
11
62.7958921610
21
211.5420132576
31
0.0000000000
11
62.5514204372
21
211.9407381091
31
0.0000000000
11
62.3708283165
21
212.3759276902
31
0.0000000000
11
62.2601996975
21
212.8366216587
31
0.0000000000
11
62.2234768976
21
213.3046081006
31
0.0000000000
0
SPLINE
5
455
100
AcDbEntity
8
0
100
AcDbSpline
62
9
6
CONTINUOUS
70
0
71
3
72
18
73
14
74
12
42
0.0000001000
43
0.0000001000
44
0.0000000001
12
-4.7079057514
22
0.0003519286
32
0.0000000000
13
0.0003826907
23
-4.7079057490
33
0.0000000000
40
0.0000000000
40
0.0000000000
40
0.0000000000
40
0.0000000000
40
0.0897543848
40
0.1806727155
40
0.2721188630
40
0.3634726674
40
0.4544735633
40
0.5453406584
40
0.6363193567
40
0.7276451118
40
0.8191039597
40
0.9101050762
40
1.0000000000
40
1.0000000000
40
1.0000000000
40
1.0000000000
10
64.8779778178
20
35.1501071804
30
0.0000000000
10
64.7371260897
20
35.1501177094
30
0.0000000000
10
64.4531910371
20
35.1301237789
30
0.0000000000
10
64.0343826715
20
35.0398593058
30
0.0000000000
10
63.6302845172
20
34.8898447599
30
0.0000000000
10
63.2517267811
20
34.6834841869
30
0.0000000000
10
62.9072454825
20
34.4257399269
30
0.0000000000
10
62.6034028017
20
34.1219860655
30
0.0000000000
10
62.3455996689
20
33.7776485601
30
0.0000000000
10
62.1391356568
20
33.3992157399
30
0.0000000000
10
61.9889377427
20
32.9950719087
30
0.0000000000
10
61.8984748988
20
32.5759237801
30
0.0000000000
10
61.8784232650
20
32.2916363711
30
0.0000000000
10
61.8784347323
20
32.1505640949
30
0.0000000000
11
64.8779778178
21
35.1501071804
31
0.0000000000
11
64.4564684294
21
35.1203965724
31
0.0000000000
11
64.0380386592
21
35.0302276671
31
0.0000000000
11
63.6344358029
21
34.8803875140
31
0.0000000000
11
63.2568126308
21
34.6745382118
31
0.0000000000
11
62.9137798201
21
34.4178763564
31
0.0000000000
11
62.6112397546
21
34.1154247463
31
0.0000000000
11
62.3545342452
21
33.7725551421
31
0.0000000000
11
62.1486162599
21
33.3951198396
31
0.0000000000
11
61.9986094135
21
32.9915151194
31
0.0000000000
11
61.9082385275
21
32.5727301983
31
0.0000000000
11
61.8784347323
21
32.1505640949
31
0.0000000000
0
SPLINE
5
456
100
AcDbEntity
8
0
100
AcDbSpline
62
7
6
CONTINUOUS
70
0
71
3
72
14
73
10
74
8
42
0.0000001000
43
0.0000001000
44
0.0000000001
12
0.0785180852
22
-2.5970936133
32
0.0000000000
13
-0.0000000000
23
-2.5982802632
33
0.0000000000
40
0.0000000000
40
0.0000000000
40
0.0000000000
40
0.0000000000
40
0.0966820686
40
0.2147012127
40
0.3500873225
40
0.4985984278
40
0.6596804131
40
0.8288443356
40
1.0000000000
40
1.0000000000
40
1.0000000000
40
1.0000000000
10
39.1640161184
20
143.9645750251
30
0.0000000000
10
39.1665465487
20
143.8808775642
30
0.0000000000
10
39.1711473641
20
143.6949806164
30
0.0000000000
10
39.1767245792
20
143.3918225295
30
0.0000000000
10
39.1814792827
20
143.0437567522
30
0.0000000000
10
39.1853069558
20
142.6583815153
30
0.0000000000
10
39.1881128128
20
142.2437420737
30
0.0000000000
10
39.1898194667
20
141.8094843121
30
0.0000000000
10
39.1901987158
20
141.5147356087
30
0.0000000000
10
39.1901987158
20
141.3664988138
30
0.0000000000
11
39.1640161184
21
143.9645750251
31
0.0000000000
11
39.1704507680
21
143.7134503396
31
0.0000000000
11
39.1762225029
21
143.4068578496
31
0.0000000000
11
39.1811155912
21
143.0551208254
31
0.0000000000
11
39.1850035377
21
142.6692669390
31
0.0000000000
11
39.1878724048
21
142.2507406284
31
0.0000000000
11
39.1896201807
21
141.8112088223
31
0.0000000000
11
39.1901987158
21
141.3664988138
31
0.0000000000
0
SPLINE
5
457
100
AcDbEntity
8
0
100
AcDbSpline
62
7
6
CONTINUOUS
70
0
71
3
72
14
73
10
74
8
42
0.0000001000
43
0.0000001000
44
0.0000000001
12
0.0000000000
22
-2.5982802635
32
0.0000000000
13
-0.0785180852
23
-2.5970936136
33
0.0000000000
40
0.0000000000
40
0.0000000000
40
0.0000000000
40
0.0000000000
40
0.1711762377
40
0.3403778579
40
0.5014996558
40
0.6500027010
40
0.7853435507
40
0.9033309339
40
1.0000000000
40
1.0000000000
40
1.0000000000
40
1.0000000000
10
39.1901987158
20
64.2436312165
30
0.0000000000
10
39.1901987158
20
64.0953766032
30
0.0000000000
10
39.1898193565
20
63.8005774316
30
0.0000000000
10
39.1881120988
20
63.3662347218
30
0.0000000000
10
39.1853052502
20
62.9515351346
30
0.0000000000
10
39.1814768682
20
62.5661716038
30
0.0000000000
10
39.1767224174
20
62.2181795187
30
0.0000000000
10
39.1711461892
20
61.9150993962
30
0.0000000000
10
39.1665462084
20
61.7292412098
30
0.0000000000
10
39.1640161184
20
61.6455550051
30
0.0000000000
11
39.1901987158
21
64.2436312165
31
0.0000000000
11
39.1896200408
21
63.7988677530
31
0.0000000000
11
39.1878715895
21
63.3592379996
31
0.0000000000
11
39.1850013930
21
62.9406082512
31
0.0000000000
11
39.1811128107
21
62.5547753146
31
0.0000000000
11
39.1762206196
21
62.2031558877
31
0.0000000000
11
39.1704500275
21
61.8966459144
31
0.0000000000
11
39.1640161184
21
61.6455550051
31
0.0000000000
0
SPLINE
5
458
100
AcDbEntity
8
0
100
AcDbSpline
62
7
6
CONTINUOUS
70
0
71
3
72
17
73
13
74
11
42
0.0000001000
43
0.0000001000
44
0.0000000001
12
3.0015917217
22
0.0000000000
32
0.0000000000
13
-0.0000000000
23
-3.0015917217
33
0.0000000000
40
0.0000000000
40
0.0000000000
40
0.0000000000
40
0.0000000000
40
0.0124724426
40
0.0492892148
40
0.1094067753
40
0.1908729987
40
0.2932944076
40
0.4133159238
40
0.5463417251
40
0.6913199485
40
0.8445273039
40
1.0000000000
40
1.0000000000
40
1.0000000000
40
1.0000000000
10
39.1378335210
20
34.3050650151
30
0.0000000000
10
39.1503125812
20
34.3050650151
30
0.0000000000
10
39.1390149739
20
34.2277851666
30
0.0000000000
10
39.1620049410
20
34.1453718039
30
0.0000000000
10
39.1599762507
20
33.9521061871
30
0.0000000000
10
39.1704885807
20
33.7144047163
30
0.0000000000
10
39.1750917606
20
33.4080111475
30
0.0000000000
10
39.1807688825
20
33.0532017982
30
0.0000000000
10
39.1847985585
20
32.6547295783
30
0.0000000000
10
39.1879196473
20
32.2233777745
30
0.0000000000
10
39.1897787214
20
31.7694588930
30
0.0000000000
10
39.1901987158
20
31.4606202010
30
0.0000000000
10
39.1901987158
20
31.3050650151
30
0.0000000000
11
39.1378335210
21
34.3050650151
31
0.0000000000
11
39.1459815638
21
34.2685252850
31
0.0000000000
11
39.1540112849
21
34.1583084774
31
0.0000000000
11
39.1616090301
21
33.9780201272
31
0.0000000000
11
39.1685775400
21
33.7335910991
31
0.0000000000
11
39.1748640496
21
33.4262281285
31
0.0000000000
11
39.1802283633
21
33.0660124792
31
0.0000000000
11
39.1844938336
21
32.6667461192
31
0.0000000000
11
39.1876387514
21
32.2315920483
31
0.0000000000
11
39.1895612861
21
31.7717301374
31
0.0000000000
11
39.1901987158
21
31.3050650151
31
0.0000000000
0
SPLINE
5
459
100
AcDbEntity
8
0
100
AcDbSpline
62
7
6
CONTINUOUS
70
0
71
3
72
17
73
13
74
11
42
0.0000001000
43
0.0000001000
44
0.0000000001
12
0.0000000000
22
-4.7068930201
32
0.0000000000
13
4.7068930201
23
0.0000000000
33
0.0000000000
40
0.0000000000
40
0.0000000000
40
0.0000000000
40
0.0000000000
40
0.0993979100
40
0.1998098071
40
0.2998130709
40
0.3991672083
40
0.4996599136
40
0.6001640184
40
0.6995318531
40
0.7996123088
40
0.9002618896
40
1.0000000000
40
1.0000000000
40
1.0000000000
40
1.0000000000
10
62.2435502222
20
213.3246814253
30
0.0000000000
10
62.2435502222
20
213.1687296490
30
0.0000000000
10
62.2680899290
20
212.8546886154
30
0.0000000000
10
62.3780503740
20
212.3954051712
30
0.0000000000
10
62.5586294505
20
211.9590007980
30
0.0000000000
10
62.8050999599
20
211.5560446441
30
0.0000000000
10
63.1120830591
20
211.1959261628
30
0.0000000000
10
63.4718922016
20
210.8885464673
30
0.0000000000
10
63.8747290040
20
210.6415717566
30
0.0000000000
10
64.3114387197
20
210.4603696911
30
0.0000000000
10
64.7716544714
20
210.3498339881
30
0.0000000000
10
65.0866077691
20
210.3251383398
30
0.0000000000
10
65.2430933077
20
210.3251383398
30
0.0000000000
11
62.2435502222
21
213.3246814253
31
0.0000000000
11
62.2800278313
21
212.8582503020
31
0.0000000000
11
62.3900544017
21
212.3986075770
31
0.0000000000
11
62.5700358672
21
211.9636713140
31
0.0000000000
11
62.8140479427
21
211.5647302516
31
0.0000000000
11
63.1209055436
21
211.2047644595
31
0.0000000000
11
63.4805861049
21
210.8974899643
31
0.0000000000
11
63.8793276521
21
210.6530286238
31
0.0000000000
11
64.3144246479
21
210.4724859334
31
0.0000000000
11
64.7750755867
21
210.3618660794
31
0.0000000000
11
65.2430933077
21
210.3251383398
31
0.0000000000
0
SPLINE
5
45A
100
AcDbEntity
8
0
100
AcDbSpline
62
7
6
CONTINUOUS
70
0
71
3
72
22
73
18
74
16
42
0.0000001000
43
0.0000001000
44
0.0000000001
12
0.0000000000
22
-2.0009745873
32
0.0000000000
13
0.0000000000
23
2.0009745873
33
0.0000000000
40
0.0000000000
40
0.0000000000
40
0.0000000000
40
0.0000000000
40
0.0110657594
40
0.0434505288
40
0.0956227231
40
0.1657228232
40
0.2500114844
40
0.3457519115
40
0.4475924071
40
0.5524075929
40
0.6542480885
40
0.7499885156
40
0.8342771768
40
0.9043772769
40
0.9565494712
40
0.9889342406
40
1.0000000000
40
1.0000000000
40
1.0000000000
40
1.0000000000
10
73.1034768976
20
210.3425934047
30
0.0000000000
10
73.1034768976
20
210.3352126370
30
0.0000000000
10
73.1494610073
20
210.3445904089
30
0.0000000000
10
73.1970829115
20
210.3304784967
30
0.0000000000
10
73.3090106176
20
210.3337312381
30
0.0000000000
10
73.4430934487
20
210.3286243602
30
0.0000000000
10
73.6112265142
20
210.3274883026
30
0.0000000000
10
73.7987994047
20
210.3257703316
30
0.0000000000
10
74.0006298599
20
210.3251203050
30
0.0000000000
10
74.2063239353
20
210.3251203050
30
0.0000000000
10
74.4081543904
20
210.3257703316
30
0.0000000000
10
74.5957272809
20
210.3274883026
30
0.0000000000
10
74.7638603464
20
210.3286243602
30
0.0000000000
10
74.8979431775
20
210.3337312381
30
0.0000000000
10
75.0098708836
20
210.3304784967
30
0.0000000000
10
75.0574927878
20
210.3445904089
30
0.0000000000
10
75.1034768976
20
210.3352126370
30
0.0000000000
10
75.1034768976
20
210.3425934047
30
0.0000000000
11
73.1034768976
21
210.3425934047
31
0.0000000000
11
73.1253198996
21
210.3389650645
31
0.0000000000
11
73.1900277562
21
210.3354900154
31
0.0000000000
11
73.2943753233
21
210.3323356073
31
0.0000000000
11
73.4346175041
21
210.3296175026
31
0.0000000000
11
73.6032634157
21
210.3274790271
31
0.0000000000
11
73.7948317944
21
210.3259905437
31
0.0000000000
11
73.9986106360
21
210.3252345812
31
0.0000000000
11
74.2083431591
21
210.3252345812
31
0.0000000000
11
74.4121220007
21
210.3259905437
31
0.0000000000
11
74.6036903794
21
210.3274790271
31
0.0000000000
11
74.7723362910
21
210.3296175026
31
0.0000000000
11
74.9125784718
21
210.3323356073
31
0.0000000000
11
75.0169260389
21
210.3354900154
31
0.0000000000
11
75.0816338955
21
210.3389650645
31
0.0000000000
11
75.1034768976
21
210.3425934047
31
0.0000000000
0
SPLINE
5
45B
100
AcDbEntity
8
0
100
AcDbSpline
62
7
6
CONTINUOUS
70
0
71
3
72
17
73
13
74
11
42
0.0000001000
43
0.0000001000
44
0.0000000001
12
-4.7068930201
22
0.0000000000
32
0.0000000000
13
0.0000000000
23
-4.7068930201
33
0.0000000000
40
0.0000000000
40
0.0000000000
40
0.0000000000
40
0.0000000000
40
0.0994574002
40
0.1999183585
40
0.2999683225
40
0.3994029375
40
0.4999769818
40
0.6005443326
40
0.6999718588
40
0.8000455982
40
0.9005301889
40
1.0000000000
40
1.0000000000
40
1.0000000000
40
1.0000000000
10
65.2430933077
20
34.7849916905
30
0.0000000000
10
65.0870481935
20
34.7849916905
30
0.0000000000
10
64.7728358665
20
34.7604238322
30
0.0000000000
10
64.3133273903
20
34.6503452005
30
0.0000000000
10
63.8767023541
20
34.4695686791
30
0.0000000000
10
63.4735391548
20
34.2228010502
30
0.0000000000
10
63.1132820905
20
33.9154290089
30
0.0000000000
10
62.8058894856
20
33.5552045341
30
0.0000000000
10
62.5590780884
20
33.1520501026
30
0.0000000000
10
62.3782439022
20
32.7153790766
30
0.0000000000
10
62.2681255937
20
32.2557822741
30
0.0000000000
10
62.2435502222
20
31.9415131916
30
0.0000000000
10
62.2435502222
20
31.7854486050
30
0.0000000000
11
65.2430933077
21
34.7849916905
31
0.0000000000
11
64.7763847320
21
34.7484704033
31
0.0000000000
11
64.3165319868
21
34.6383292625
31
0.0000000000
11
63.8814300088
21
34.4581734067
31
0.0000000000
11
63.4822409740
21
34.2138408217
31
0.0000000000
11
63.1221174888
21
33.9065781210
31
0.0000000000
11
62.8148472426
21
33.5465024902
31
0.0000000000
11
62.5704967160
21
33.1473635587
31
0.0000000000
11
62.3902652141
21
32.7121717826
31
0.0000000000
11
62.2800806250
21
32.2522150630
31
0.0000000000
11
62.2435502222
21
31.7854486050
31
0.0000000000
0
SPLINE
5
45C
100
AcDbEntity
8
0
100
AcDbSpline
62
7
6
CONTINUOUS
70
0
71
3
72
22
73
18
74
16
42
0.0000001000
43
0.0000001000
44
0.0000000001
12
0.0000000000
22
2.0009745890
32
0.0000000000
13
0.0000000000
23
-2.0009745890
33
0.0000000000
40
0.0000000000
40
0.0000000000
40
0.0000000000
40
0.0000000000
40
0.0110656459
40
0.0434496414
40
0.0956218761
40
0.1657209095
40
0.2500100330
40
0.3457508292
40
0.4475916730
40
0.5524083270
40
0.6542491708
40
0.7499899670
40
0.8342790905
40
0.9043781239
40
0.9565503586
40
0.9889343541
40
1.0000000000
40
1.0000000000
40
1.0000000000
40
1.0000000000
10
73.1034768976
20
34.7675366255
30
0.0000000000
10
73.1034768976
20
34.7749173176
30
0.0000000000
10
73.1494600899
20
34.7655397599
30
0.0000000000
10
73.1970816835
20
34.7796514823
30
0.0000000000
10
73.3090081538
20
34.7763987583
30
0.0000000000
10
73.4430906332
20
34.7815056315
30
0.0000000000
10
73.6112235514
20
34.7826416979
30
0.0000000000
10
73.7987972238
20
34.7843596884
30
0.0000000000
10
74.0006291386
20
34.7850097259
30
0.0000000000
10
74.2063246565
20
34.7850097259
30
0.0000000000
10
74.4081565713
20
34.7843596884
30
0.0000000000
10
74.5957302437
20
34.7826416979
30
0.0000000000
10
74.7638631619
20
34.7815056315
30
0.0000000000
10
74.8979456413
20
34.7763987583
30
0.0000000000
10
75.0098721116
20
34.7796514823
30
0.0000000000
10
75.0574937052
20
34.7655397599
30
0.0000000000
10
75.1034768976
20
34.7749173176
30
0.0000000000
10
75.1034768976
20
34.7675366255
30
0.0000000000
11
73.1034768976
21
34.7675366255
31
0.0000000000
11
73.1253196726
21
34.7711649472
31
0.0000000000
11
73.1900259809
21
34.7746399454
31
0.0000000000
11
73.2943736283
21
34.7777943822
31
0.0000000000
11
73.4346136749
21
34.7805124676
31
0.0000000000
11
73.6032605110
21
34.7826509739
31
0.0000000000
11
73.7948296286
21
34.7841394743
31
0.0000000000
11
73.9986091670
21
34.7848954464
31
0.0000000000
11
74.2083446281
21
34.7848954464
31
0.0000000000
11
74.4121241665
21
34.7841394743
31
0.0000000000
11
74.6036932841
21
34.7826509739
31
0.0000000000
11
74.7723401202
21
34.7805124676
31
0.0000000000
11
74.9125801668
21
34.7777943822
31
0.0000000000
11
75.0169278142
21
34.7746399454
31
0.0000000000
11
75.0816341225
21
34.7711649472
31
0.0000000000
11
75.1034768976
21
34.7675366255
31
0.0000000000
0
SPLINE
5
45D
100
AcDbEntity
8
0
100
AcDbSpline
62
7
6
CONTINUOUS
70
0
71
3
72
15
73
11
74
9
42
0.0000001000
43
0.0000001000
44
0.0000000001
12
0.0000000000
22
-1.0002889746
32
0.0000000000
13
0.7073111171
23
-0.7073111171
33
0.0000000000
40
0.0000000000
40
0.0000000000
40
0.0000000000
40
0.0000000000
40
0.1921294358
40
0.3777722256
40
0.5489492646
40
0.7007121547
40
0.8257641511
40
0.9188892882
40
0.9777640363
40
1.0000000000
40
1.0000000000
40
1.0000000000
40
1.0000000000
10
74.3822044300
20
36.1499548755
30
0.0000000000
10
74.3822044300
20
36.0858932234
30
0.0000000000
10
74.3824255054
20
35.9599400263
30
0.0000000000
10
74.3833114237
20
35.7768746416
30
0.0000000000
10
74.3849950515
20
35.6074063100
30
0.0000000000
10
74.3865371648
20
35.4577319442
30
0.0000000000
10
74.3903903478
20
35.3352796433
30
0.0000000000
10
74.3897834630
20
35.2408400741
30
0.0000000000
10
74.3987817530
20
35.1867443034
30
0.0000000000
10
74.3941122806
20
35.1553497618
30
0.0000000000
10
74.3993548621
20
35.1501071804
30
0.0000000000
11
74.3822044300
21
36.1499548755
31
0.0000000000
11
74.3825298138
21
35.9577701946
31
0.0000000000
11
74.3834986331
21
35.7720762860
31
0.0000000000
11
74.3850712838
21
35.6008570035
31
0.0000000000
11
74.3872093241
21
35.4490653145
31
0.0000000000
11
74.3898193295
21
35.3240044136
31
0.0000000000
11
74.3927799607
21
35.2308994261
31
0.0000000000
11
74.3960067426
21
35.1720961317
31
0.0000000000
11
74.3993548621
21
35.1501071804
31
0.0000000000
0
SPLINE
5
45E
100
AcDbEntity
8
0
100
AcDbSpline
62
7
6
CONTINUOUS
70
0
71
3
72
33
73
29
74
27
42
0.0000001000
43
0.0000001000
44
0.0000000001
12
0.0000000000
22
1.6521213606
32
0.0000000000
13
-0.3208043771
23
-1.6206756436
33
0.0000000000
40
0.0000000000
40
0.0000000000
40
0.0000000000
40
0.0000000000
40
0.0705260135
40
0.1364648725
40
0.1978919917
40
0.2549070121
40
0.3075979694
40
0.3562404467
40
0.4016512871
40
0.4438684007
40
0.4825178410
40
0.5176052254
40
0.5494240271
40
0.5784666473
40
0.6053188875
40
0.6305216913
40
0.6543302284
40
0.6757119686
40
0.6949343173
40
0.7192932972
40
0.7471090363
40
0.7759426756
40
0.8068567523
40
0.8400600815
40
0.8758121148
40
0.9143259250
40
0.9557205704
40
1.0000000000
40
1.0000000000
40
1.0000000000
40
1.0000000000
10
141.2858392072
20
231.7442791042
30
0.0000000000
10
141.2858392072
20
231.7831182820
30
0.0000000000
10
141.2855517810
20
231.8582708850
30
0.0000000000
10
141.2842205825
20
231.9672445921
30
0.0000000000
10
141.2820685501
20
232.0687631932
30
0.0000000000
10
141.2791580798
20
232.1629640563
30
0.0000000000
10
141.2755457827
20
232.2500945881
30
0.0000000000
10
141.2712617432
20
232.3307961100
30
0.0000000000
10
141.2663090208
20
232.4056798863
30
0.0000000000
10
141.2606841464
20
232.4749972862
30
0.0000000000
10
141.2544149083
20
232.5385479048
30
0.0000000000
10
141.2475258109
20
232.5962775251
30
0.0000000000
10
141.2399727207
20
232.6485674899
30
0.0000000000
10
141.2315906323
20
232.6961938396
30
0.0000000000
10
141.2220441857
20
232.7396909873
30
0.0000000000
10
141.2106323665
20
232.7804271848
30
0.0000000000
10
141.1963475321
20
232.8148691078
30
0.0000000000
10
141.1756836230
20
232.8500336485
30
0.0000000000
10
141.1334178744
20
232.8409628440
30
0.0000000000
10
141.1133464387
20
232.8054139093
30
0.0000000000
10
141.0930056386
20
232.7661936653
30
0.0000000000
10
141.0759147345
20
232.7208717105
30
0.0000000000
10
141.0598359778
20
232.6723215516
30
0.0000000000
10
141.0445217978
20
232.6194695816
30
0.0000000000
10
141.0295362938
20
232.5622145542
30
0.0000000000
10
141.0147388488
20
232.5002562488
30
0.0000000000
10
141.0000278464
20
232.4334636184
30
0.0000000000
10
140.9905742188
20
232.3872371344
30
0.0000000000
10
140.9858392072
20
232.3633162701
30
0.0000000000
11
141.2858392072
21
231.7442791042
31
0.0000000000
11
141.2853737038
21
231.8607957077
31
0.0000000000
11
141.2840214314
21
231.9697263119
31
0.0000000000
11
141.2818470803
21
232.0711880718
31
0.0000000000
11
141.2789125234
21
232.1653380825
31
0.0000000000
11
141.2752785846
21
232.2523140570
31
0.0000000000
11
141.2709875047
21
232.3325626877
31
0.0000000000
11
141.2659999990
21
232.4074209422
31
0.0000000000
11
141.2603153472
21
232.4769366935
31
0.0000000000
11
141.2539954587
21
232.5404767350
31
0.0000000000
11
141.2470649060
21
232.5980295632
31
0.0000000000
11
141.2394740121
21
232.6500471356
31
0.0000000000
11
141.2310470112
21
232.6972832613
31
0.0000000000
11
141.2213969362
21
232.7405841387
31
0.0000000000
11
141.2097421875
21
232.7805578477
31
0.0000000000
11
141.1943764834
21
232.8167670359
31
0.0000000000
11
141.1712774442
21
232.8434935443
31
0.0000000000
11
141.1398924832
21
232.8386424883
31
0.0000000000
11
141.1146597236
21
232.8072914652
31
0.0000000000
11
141.0940248727
21
232.7662297700
31
0.0000000000
11
141.0766297397
21
232.7218827091
31
0.0000000000
11
141.0605246958
21
232.6734145622
31
0.0000000000
11
141.0451348866
21
232.6207616727
31
0.0000000000
11
141.0301193493
21
232.5636354228
31
0.0000000000
11
141.0152834116
21
232.5017596862
31
0.0000000000
11
141.0005318453
21
232.4349806207
31
0.0000000000
11
140.9858392072
21
232.3633162701
31
0.0000000000
0
SPLINE
5
45F
100
AcDbEntity
8
0
100
AcDbSpline
62
7
6
CONTINUOUS
70
0
71
3
72
28
73
24
74
22
42
0.0000001000
43
0.0000001000
44
0.0000000001
12
0.0000000000
22
1.3417942203
32
0.0000000000
13
-0.3234075872
23
-1.3022362544
33
0.0000000000
40
0.0000000000
40
0.0000000000
40
0.0000000000
40
0.0000000000
40
0.0803433688
40
0.1547260799
40
0.2233269493
40
0.2865009600
40
0.3446515654
40
0.3981551726
40
0.4483461716
40
0.4953563418
40
0.5382922726
40
0.5768749634
40
0.6116870918
40
0.6436670026
40
0.6711635152
40
0.6973586356
40
0.7311281957
40
0.7683729088
40
0.8079012233
40
0.8506629928
40
0.8969139140
40
0.9467506258
40
1.0000000000
40
1.0000000000
40
1.0000000000
40
1.0000000000
10
136.2058392072
20
72.2769006531
30
0.0000000000
10
136.2058392072
20
72.3128354091
30
0.0000000000
10
136.2054541416
20
72.3820398002
30
0.0000000000
10
136.2036579411
20
72.4819125796
30
0.0000000000
10
136.2007544436
20
72.5740770012
30
0.0000000000
10
136.1968141786
20
72.6589359428
30
0.0000000000
10
136.1918792611
20
72.7369790232
30
0.0000000000
10
136.1859242101
20
72.8091254477
30
0.0000000000
10
136.1788418093
20
72.8761679232
30
0.0000000000
10
136.1704940509
20
72.9382867059
30
0.0000000000
10
136.1606935111
20
72.9949895397
30
0.0000000000
10
136.1493807157
20
73.0456710769
30
0.0000000000
10
136.1353236516
20
73.0911855389
30
0.0000000000
10
136.1189287693
20
73.1286407510
30
0.0000000000
10
136.0899820928
20
73.1621270155
30
0.0000000000
10
136.0471071745
20
73.1452634250
30
0.0000000000
10
136.0234045165
20
73.1087044085
30
0.0000000000
10
135.9997879416
20
73.0651945554
30
0.0000000000
10
135.9793832866
20
73.0157042405
30
0.0000000000
10
135.9599702362
20
72.9615844276
30
0.0000000000
10
135.9413283813
20
72.9023291212
30
0.0000000000
10
135.9231107724
20
72.8380627086
30
0.0000000000
10
135.9115796244
20
72.7934165933
30
0.0000000000
10
135.9058392072
20
72.7703021714
30
0.0000000000
11
136.2058392072
21
72.2769006531
31
0.0000000000
11
136.2052075892
21
72.3847030707
31
0.0000000000
11
136.2033776819
21
72.4844925858
31
0.0000000000
11
136.2004400744
21
72.5764939489
31
0.0000000000
11
136.1964638793
21
72.6611671630
31
0.0000000000
11
136.1914886192
21
72.7390345265
31
0.0000000000
11
136.1855207253
21
72.8105768750
31
0.0000000000
11
136.1783664665
21
72.8775417857
31
0.0000000000
11
136.1698414520
21
72.9400410259
31
0.0000000000
11
136.1598867774
21
72.9967856552
31
0.0000000000
11
136.1482807523
21
73.0472379728
31
0.0000000000
11
136.1342113720
21
73.0917794502
31
0.0000000000
11
136.1153291710
21
73.1303121638
31
0.0000000000
11
136.0873972500
21
73.1544166003
31
0.0000000000
11
136.0536397143
21
73.1446266514
31
0.0000000000
11
136.0247366505
21
73.1097300588
31
0.0000000000
11
136.0010517063
21
73.0657243986
31
0.0000000000
11
135.9803088082
21
73.0169099206
31
0.0000000000
11
135.9608416220
21
72.9629358007
31
0.0000000000
11
135.9420829596
21
72.9037795735
31
0.0000000000
11
135.9237711616
21
72.8394650589
31
0.0000000000
11
135.9058392072
21
72.7703021714
31
0.0000000000
0
SPLINE
5
460
100
AcDbEntity
8
0
100
AcDbSpline
62
7
6
CONTINUOUS
70
0
71
3
72
10
73
6
74
4
42
0.0000001000
43
0.0000001000
44
0.0000000001
12
0.0366349556
22
-0.0366349556
32
0.0000000000
13
0.0366762855
23
-0.0365935790
33
0.0000000000
40
0.0000000000
40
0.0000000000
40
0.0000000000
40
0.0000000000
40
0.3331675637
40
0.6665008332
40
1.0000000000
40
1.0000000000
40
1.0000000000
40
1.0000000000
10
139.0458392072
20
257.9350650151
30
0.0000000000
10
139.0499077335
20
257.9309964888
30
0.0000000000
10
139.0580483428
20
257.9228589457
30
0.0000000000
10
139.0702668894
20
257.9106541919
30
0.0000000000
10
139.0784176733
20
257.9025187315
30
0.0000000000
10
139.0824948436
20
257.8984507555
30
0.0000000000
11
139.0458392072
21
257.9350650151
31
0.0000000000
11
139.0580470840
21
257.9228617346
31
0.0000000000
11
139.0702656272
21
257.9106569826
31
0.0000000000
11
139.0824948436
21
257.8984507555
31
0.0000000000
0
SPLINE
5
461
100
AcDbEntity
8
0
100
AcDbSpline
62
7
6
CONTINUOUS
70
0
71
3
72
10
73
6
74
4
42
0.0000001000
43
0.0000001000
44
0.0000000001
12
0.0278524353
22
-0.0734016333
32
0.0000000000
13
0.0282114167
23
-0.0732644108
33
0.0000000000
40
0.0000000000
40
0.0000000000
40
0.0000000000
40
0.0000000000
40
0.3338872812
40
0.6672203120
40
1.0000000000
40
1.0000000000
40
1.0000000000
40
1.0000000000
10
137.1220148909
20
276.3050650151
30
0.0000000000
10
137.1251147489
20
276.2968957246
30
0.0000000000
10
137.1313224076
20
276.2805756671
30
0.0000000000
10
137.1406658424
20
276.2561310247
30
0.0000000000
10
137.1469163312
20
276.2398583685
30
0.0000000000
10
137.1500457267
20
276.2317313992
30
0.0000000000
11
137.1220148909
21
276.3050650151
31
0.0000000000
11
137.1313341929
21
276.2805646383
31
0.0000000000
11
137.1406777006
21
276.2561200604
31
0.0000000000
11
137.1500457267
21
276.2317313992
31
0.0000000000
0
SPLINE
5
462
100
AcDbEntity
8
0
100
AcDbSpline
62
7
6
CONTINUOUS
70
0
71
3
72
10
73
6
74
4
42
0.0000001000
43
0.0000001000
44
0.0000000001
12
-0.0278524353
22
-0.0734016333
32
0.0000000000
13
-0.0282114167
23
-0.0732644108
33
0.0000000000
40
0.0000000000
40
0.0000000000
40
0.0000000000
40
0.0000000000
40
0.3338872812
40
0.6672203120
40
1.0000000000
40
1.0000000000
40
1.0000000000
40
1.0000000000
10
140.9696635235
20
276.3050650151
30
0.0000000000
10
140.9665636655
20
276.2968957246
30
0.0000000000
10
140.9603560068
20
276.2805756671
30
0.0000000000
10
140.9510125720
20
276.2561310247
30
0.0000000000
10
140.9447620832
20
276.2398583685
30
0.0000000000
10
140.9416326877
20
276.2317313992
30
0.0000000000
11
140.9696635235
21
276.3050650151
31
0.0000000000
11
140.9603442215
21
276.2805646383
31
0.0000000000
11
140.9510007138
21
276.2561200604
31
0.0000000000
11
140.9416326877
21
276.2317313992
31
0.0000000000
0
ENDSEC
0
SECTION
2
OBJECTS
0
DICTIONARY
5
463
100
AcDbDictionary
3
ACAD_GROUP
350
464
3
ACAD_MLINESTYLE
350
465
0
DICTIONARY
5
464
102
{ACAD_REACTORS
330
463
102
}
100
AcDbDictionary
0
DICTIONARY
5
465
102
{ACAD_REACTORS
330
463
102
}
100
AcDbDictionary
3
STANDARD
350
466
0
MLINESTYLE
5
466
102
{ACAD_REACTORS
330
465
102
}
100
AcDbMlineStyle
2
STANDARD
70
0
3

62
256
51
90.0
52
90.0
71
2
49
0.5
62
256
6
BYLAYER
49
-0.5
62
256
6
BYLAYER
0
ENDSEC
0
EOF
