  0
SECTION
  2
HEADER
  9
$ACADVER
  1
AC1009
  9
$INSBASE
 10
0.0
 20
0.0
 30
0.0
  9
$EXTMIN
 10
2121.21593
 20
409.629392
 30
0.0
  9
$EXTMAX
 10
2422.387771
 20
1079.629392
 30
0.0
  9
$LIMMIN
 10
0.0
 20
0.0
  9
$LIMMAX
 10
210.0
 20
297.0
  9
$ORTHOMODE
 70
     1
  9
$REGENMODE
 70
     1
  9
$FILLMODE
 70
     1
  9
$QTEXTMODE
 70
     0
  9
$MIRRTEXT
 70
     1
  9
$DRAGMODE
 70
     2
  9
$LTSCALE
 40
5.0
  9
$OSMODE
 70
     0
  9
$ATTMODE
 70
     1
  9
$TEXTSIZE
 40
0.2
  9
$TRACEWID
 40
0.05
  9
$TEXTSTYLE
  7
STANDARD
  9
$CLAYER
  8
0
  9
$CELTYPE
  6
BYLAYER
  9
$CECOLOR
 62
   256
  9
$DIMSCALE
 40
1.0
  9
$DIMASZ
 40
5.0
  9
$DIMEXO
 40
0.0625
  9
$DIMDLI
 40
0.38
  9
$DIMRND
 40
0.01
  9
$DIMDLE
 40
0.0
  9
$DIMEXE
 40
0.18
  9
$DIMTP
 40
0.0
  9
$DIMTM
 40
0.0
  9
$DIMTXT
 40
4.0
  9
$DIMCEN
 40
0.09
  9
$DIMTSZ
 40
0.0
  9
$DIMTOL
 70
     0
  9
$DIMLIM
 70
     0
  9
$DIMTIH
 70
     0
  9
$DIMTOH
 70
     0
  9
$DIMSE1
 70
     0
  9
$DIMSE2
 70
     0
  9
$DIMTAD
 70
     1
  9
$DIMZIN
 70
    12
  9
$DIMBLK
  1

  9
$DIMASO
 70
     1
  9
$DIMSHO
 70
     1
  9
$DIMPOST
  1

  9
$DIMAPOST
  1

  9
$DIMALT
 70
     0
  9
$DIMALTD
 70
     2
  9
$DIMALTF
 40
25.4
  9
$DIMLFAC
 40
1.0
  9
$DIMTOFL
 70
     1
  9
$DIMTVP
 40
0.0
  9
$DIMTIX
 70
     0
  9
$DIMSOXD
 70
     0
  9
$DIMSAH
 70
     0
  9
$DIMBLK1
  1

  9
$DIMBLK2
  1

  9
$DIMSTYLE
  2
SC_STAND
  9
$DIMCLRD
 70
     0
  9
$DIMCLRE
 70
     0
  9
$DIMCLRT
 70
     0
  9
$DIMTFAC
 40
1.0
  9
$DIMGAP
 40
1.0
  9
$LUNITS
 70
     2
  9
$LUPREC
 70
     4
  9
$SKETCHINC
 40
0.1
  9
$FILLETRAD
 40
0.0
  9
$AUNITS
 70
     0
  9
$AUPREC
 70
     0
  9
$MENU
  1
.
  9
$ELEVATION
 40
0.0
  9
$PELEVATION
 40
0.0
  9
$THICKNESS
 40
0.0
  9
$LIMCHECK
 70
     0
  9
$BLIPMODE
 70
     0
  9
$CHAMFERA
 40
0.0
  9
$CHAMFERB
 40
0.0
  9
$SKPOLY
 70
     0
  9
$TDCREATE
 40
2452082.615375
  9
$TDUPDATE
 40
2452312.704624
  9
$TDINDWG
 40
0.322455
  9
$TDUSRTIMER
 40
0.322455
  9
$USRTIMER
 70
     1
  9
$ANGBASE
 50
0.0
  9
$ANGDIR
 70
     0
  9
$PDMODE
 70
     0
  9
$PDSIZE
 40
0.0
  9
$PLINEWID
 40
0.0
  9
$COORDS
 70
     1
  9
$SPLFRAME
 70
     0
  9
$SPLINETYPE
 70
     6
  9
$SPLINESEGS
 70
     8
  9
$ATTDIA
 70
     0
  9
$ATTREQ
 70
     1
  9
$HANDLING
 70
     1
  9
$HANDSEED
  5
227DB
  9
$SURFTAB1
 70
     6
  9
$SURFTAB2
 70
     6
  9
$SURFTYPE
 70
     6
  9
$SURFU
 70
     6
  9
$SURFV
 70
     6
  9
$UCSNAME
  2

  9
$UCSORG
 10
0.0
 20
0.0
 30
0.0
  9
$UCSXDIR
 10
1.0
 20
0.0
 30
0.0
  9
$UCSYDIR
 10
0.0
 20
1.0
 30
0.0
  9
$PUCSNAME
  2

  9
$PUCSORG
 10
0.0
 20
0.0
 30
0.0
  9
$PUCSXDIR
 10
1.0
 20
0.0
 30
0.0
  9
$PUCSYDIR
 10
0.0
 20
1.0
 30
0.0
  9
$USERI1
 70
     0
  9
$USERI2
 70
     0
  9
$USERI3
 70
     0
  9
$USERI4
 70
     0
  9
$USERI5
 70
     0
  9
$USERR1
 40
0.0
  9
$USERR2
 40
0.0
  9
$USERR3
 40
0.0
  9
$USERR4
 40
0.0
  9
$USERR5
 40
0.0
  9
$WORLDVIEW
 70
     1
  9
$SHADEDGE
 70
     3
  9
$SHADEDIF
 70
    70
  9
$TILEMODE
 70
     1
  9
$MAXACTVP
 70
    48
  9
$PLIMCHECK
 70
     0
  9
$PEXTMIN
 10
1.000000E+020
 20
1.000000E+020
 30
1.000000E+020
  9
$PEXTMAX
 10
-1.000000E+020
 20
-1.000000E+020
 30
-1.000000E+020
  9
$PLIMMIN
 10
0.0
 20
0.0
  9
$PLIMMAX
 10
12.0
 20
9.0
  9
$UNITMODE
 70
     0
  9
$VISRETAIN
 70
     1
  9
$PLINEGEN
 70
     0
  9
$PSLTSCALE
 70
     1
  0
ENDSEC
  0
SECTION
  2
TABLES
  0
TABLE
  2
VPORT
 70
     2
  0
VPORT
  2
*ACTIVE
 70
     0
 10
0.0
 20
0.0
 11
1.0
 21
1.0
 12
2271.83509
 22
744.646104
 13
0.0
 23
0.0
 14
1.0
 24
1.0
 15
0.0
 25
0.0
 16
0.0
 26
0.0
 36
1.0
 17
0.0
 27
0.0
 37
0.0
 40
681.917693
 41
1.838384
 42
50.0
 43
0.0
 44
0.0
 50
0.0
 51
0.0
 71
     0
 72
  1000
 73
     1
 74
     1
 75
     0
 76
     0
 77
     0
 78
     0
  0
ENDTAB
  0
TABLE
  2
LTYPE
 70
     1
  0
LTYPE
  2
CONTINUOUS
 70
     0
  3
Solid line
 72
    65
 73
     0
 40
0.0
  0
ENDTAB
  0
TABLE
  2
LAYER
 70
     2
  0
LAYER
  2
0
 70
     0
 62
     7
  6
CONTINUOUS
  0
LAYER
  2
ALPHA
 70
     0
 62
   254
  6
CONTINUOUS
  0
ENDTAB
  0
TABLE
  2
STYLE
 70
     1
  0
STYLE
  2
STANDARD
 70
     0
 40
0.0
 41
1.0
 50
0.0
 71
     0
 42
0.2
  3
txt
  4

  0
ENDTAB
  0
TABLE
  2
VIEW
 70
     0
  0
ENDTAB
  0
TABLE
  2
UCS
 70
     0
  0
ENDTAB
  0
TABLE
  2
APPID
 70
     3
  0
APPID
  2
ACAD
 70
     0
  0
APPID
  2
AVE_RENDER
 70
     0
  0
APPID
  2
AVE_MATERIAL
 70
     0
  0
ENDTAB
  0
TABLE
  2
DIMSTYLE
 70
     2
  0
DIMSTYLE
  2
STANDARD
 70
     0
  3

  4

  5

  6

  7

 40
1.0
 41
0.18
 42
0.0625
 43
0.38
 44
0.18
 45
0.0
 46
0.0
 47
0.0
 48
0.0
140
0.18
141
0.09
142
0.0
143
25.4
144
1.0
145
0.0
146
1.0
147
0.09
 71
     0
 72
     0
 73
     1
 74
     1
 75
     0
 76
     0
 77
     0
 78
     0
170
     0
171
     2
172
     0
173
     0
174
     0
175
     0
176
     0
177
     0
178
     0
  0
DIMSTYLE
  2
SC_STAND
 70
     0
  3

  4

  5

  6

  7

 40
1.0
 41
4.0
 42
0.0625
 43
0.38
 44
0.18
 45
0.01
 46
0.0
 47
0.0
 48
0.0
140
4.0
141
0.09
142
0.0
143
25.4
144
1.0
145
0.0
146
1.0
147
1.0
 71
     0
 72
     0
 73
     0
 74
     0
 75
     0
 76
     0
 77
     1
 78
    12
170
     0
171
     2
172
     1
173
     0
174
     0
175
     0
176
     0
177
     0
178
     0
  0
ENDTAB
  0
ENDSEC
  0
SECTION
  2
BLOCKS
  0
BLOCK
  8
0
  2
$MODEL_SPACE
 70
     0
 10
0.0
 20
0.0
 30
0.0
  3
$MODEL_SPACE
  1

  0
ENDBLK
  5
22583
  8
0
  0
BLOCK
 67
     1
  8
0
  2
$PAPER_SPACE
 70
     0
 10
0.0
 20
0.0
 30
0.0
  3
$PAPER_SPACE
  1

  0
ENDBLK
  5
22581
 67
     1
  8
0
  0
BLOCK
  8
0
  2
SCH_ISO
 70
     0
 10
0.0
 20
0.0
 30
0.0
  3
SCH_ISO
  1

  0
ENDBLK
  5
13A
  8
0
  0
ENDSEC
  0
SECTION
  2
ENTITIES
  0
INSERT
  5
13C
  8
ALPHA
 62
   255
  2
SCH_ISO
 10
0.0
 20
0.0
 30
0.0
  0
LINE
  5
1EA23
  8
ALPHA
 10
2417.61593
 20
413.629392
 30
0.0
 11
2417.61593
 21
1075.629392
 31
0.0
  0
LINE
  5
1EA24
  8
ALPHA
 10
2415.61593
 20
763.279392
 30
0.0
 11
2415.61593
 21
974.479392
 31
0.0
  0
LINE
  5
1EA25
  8
ALPHA
 10
2415.41593
 20
773.679392
 30
0.0
 11
2415.41593
 21
763.279392
 31
0.0
  0
LINE
  5
1EA26
  8
ALPHA
 10
2415.11593
 20
972.979392
 30
0.0
 11
2415.11593
 21
765.279392
 31
0.0
  0
LINE
  5
1EA27
  8
ALPHA
 10
2413.61593
 20
972.979392
 30
0.0
 11
2413.61593
 21
765.279392
 31
0.0
  0
LINE
  5
1EA28
  8
ALPHA
 10
2409.61593
 20
813.629392
 30
0.0
 11
2409.61593
 21
412.629392
 31
0.0
  0
LINE
  5
1EA29
  8
ALPHA
 10
2267.21593
 20
756.629392
 30
0.0
 11
2267.21593
 21
921.629392
 31
0.0
  0
LINE
  5
1EA2A
  8
ALPHA
 10
2266.21593
 20
921.114819
 30
0.0
 11
2266.21593
 21
757.147965
 31
0.0
  0
LINE
  5
1EA2B
  8
ALPHA
 10
2125.21593
 20
1079.629392
 30
0.0
 11
2125.21593
 21
409.629392
 31
0.0
  0
LINE
  5
1EA2C
  8
ALPHA
 10
2121.21593
 20
1079.629392
 30
0.0
 11
2121.21593
 21
409.629392
 31
0.0
  0
LINE
  5
201AD
  8
ALPHA
 10
2388.61593
 20
1079.629392
 30
0.0
 11
2269.21593
 21
1079.629392
 31
0.0
  0
LINE
  5
2073F
  8
ALPHA
 10
2267.21593
 20
945.629392
 30
0.0
 11
2267.21593
 21
1040.629392
 31
0.0
  0
LINE
  5
20740
  8
ALPHA
 10
2266.21593
 20
982.629392
 30
0.0
 11
2266.21593
 21
946.147965
 31
0.0
  0
LINE
  5
20741
  8
ALPHA
 10
2121.21593
 20
1079.629392
 30
0.0
 11
2263.21593
 21
1079.629392
 31
0.0
  0
CIRCLE
  5
20742
  8
ALPHA
 10
2181.21593
 20
1049.629392
 30
0.0
 40
15.0
  0
LINE
  5
20743
  8
ALPHA
 10
2256.21593
 20
1043.629392
 30
0.0
 11
2256.21593
 21
1050.24784
 31
0.0
  0
LINE
  5
20744
  8
ALPHA
 10
2254.704357
 20
1044.286392
 30
0.0
 11
2254.704357
 21
1060.976392
 31
0.0
  0
LINE
  5
20745
  8
ALPHA
 10
2253.290143
 20
1044.286392
 30
0.0
 11
2253.290143
 21
1060.976392
 31
0.0
  0
LINE
  5
20746
  8
ALPHA
 10
2252.461716
 20
1060.976392
 30
0.0
 11
2252.461716
 21
1044.286392
 31
0.0
  0
LINE
  5
20747
  8
ALPHA
 10
2251.047502
 20
1044.286392
 30
0.0
 11
2251.047502
 21
1060.976392
 31
0.0
  0
CIRCLE
  5
20748
  8
ALPHA
 10
2261.71593
 20
1052.629392
 30
0.0
 40
6.0
  0
ARC
  5
20749
  8
ALPHA
 10
2259.962228
 20
1053.641892
 30
0.0
 40
0.775
 50
70.924786
 51
232.89912
  0
ARC
  5
2074A
  8
ALPHA
 10
2259.962228
 20
1051.616892
 30
0.0
 40
0.775
 50
127.10088
 51
292.89912
  0
LINE
  5
2074B
  8
ALPHA
 10
2259.766566
 20
1065.147965
 30
0.0
 11
2260.285139
 21
1064.629392
 31
0.0
  0
LINE
  5
2074C
  8
ALPHA
 10
2259.21593
 20
1064.629392
 30
0.0
 11
2267.21593
 21
1064.629392
 31
0.0
  0
LINE
  5
2074D
  8
ALPHA
 10
2258.87593
 20
1065.147965
 30
0.0
 11
2266.21593
 21
1065.147965
 31
0.0
  0
LINE
  5
2074E
  8
ALPHA
 10
2258.87593
 20
1066.562178
 30
0.0
 11
2266.21593
 21
1066.562178
 31
0.0
  0
LINE
  5
2074F
  8
ALPHA
 10
2266.21593
 20
1067.390605
 30
0.0
 11
2258.87593
 21
1067.390605
 31
0.0
  0
LINE
  5
20750
  8
ALPHA
 10
2258.87593
 20
1068.804819
 30
0.0
 11
2266.21593
 21
1068.804819
 31
0.0
  0
ARC
  5
20751
  8
ALPHA
 10
2258.87593
 20
1060.976392
 30
0.0
 40
6.414214
 50
90.0
 51
180.0
  0
ARC
  5
20752
  8
ALPHA
 10
2258.87593
 20
1060.976392
 30
0.0
 40
7.828427
 50
90.0
 51
180.0
  0
LINE
  5
20753
  8
ALPHA
 10
2258.87593
 20
1068.804819
 30
0.0
 11
2258.87593
 21
1065.147965
 31
0.0
  0
ARC
  5
20754
  8
ALPHA
 10
2258.87593
 20
1060.976392
 30
0.0
 40
4.171573
 50
90.0
 51
180.0
  0
ARC
  5
20755
  8
ALPHA
 10
2258.87593
 20
1060.976392
 30
0.0
 40
5.585786
 50
90.0
 51
180.0
  0
ARC
  5
20756
  8
ALPHA
 10
2259.196456
 20
1052.629392
 30
0.0
 40
0.494474
 50
307.10088
 51
52.89912
  0
LINE
  5
20757
  8
ALPHA
 10
2256.21593
 20
1055.010944
 30
0.0
 11
2256.21593
 21
1061.629392
 31
0.0
  0
LINE
  5
20758
  8
ALPHA
 10
2256.21593
 20
1061.629392
 30
0.0
 11
2259.21593
 21
1064.629392
 31
0.0
  0
LINE
  5
20759
  8
ALPHA
 10
2251.047502
 20
1060.976392
 30
0.0
 11
2254.704357
 21
1060.976392
 31
0.0
  0
LINE
  5
2075A
  8
ALPHA
 10
2266.21593
 20
1076.629392
 30
0.0
 11
2266.21593
 21
1065.147965
 31
0.0
  0
LINE
  5
2075B
  8
ALPHA
 10
2263.21593
 20
1079.629392
 30
0.0
 11
2266.21593
 21
1076.629392
 31
0.0
  0
LINE
  5
2075C
  8
ALPHA
 10
2269.21593
 20
1079.629392
 30
0.0
 11
2266.21593
 21
1076.629392
 31
0.0
  0
ARC
  5
2075D
  8
ALPHA
 10
2262.832553
 20
1050.540695
 30
0.0
 40
0.343438
 50
59.523001
 51
176.735168
  0
ARC
  5
2075E
  8
ALPHA
 10
2261.71593
 20
1050.604392
 30
0.0
 40
0.775
 50
187.10088
 51
356.735168
  0
ARC
  5
2075F
  8
ALPHA
 10
2260.456193
 20
1050.447464
 30
0.0
 40
0.494474
 50
7.10088
 51
112.89912
  0
ARC
  5
20760
  8
ALPHA
 10
2260.441022
 20
1055.026501
 30
0.0
 40
0.690055
 50
250.924786
 51
351.211257
  0
ARC
  5
20761
  8
ALPHA
 10
2261.71593
 20
1054.829392
 30
0.0
 40
0.6
 50
12.828196
 51
171.211257
  0
ARC
  5
20762
  8
ALPHA
 10
2263.178366
 20
1055.162406
 30
0.0
 40
0.899873
 50
192.828196
 51
287.171804
  0
ARC
  5
20763
  8
ALPHA
 10
2263.621185
 20
1053.729392
 30
0.0
 40
0.6
 50
312.828196
 51
107.171804
  0
ARC
  5
20764
  8
ALPHA
 10
2264.640803
 20
1052.629392
 30
0.0
 40
0.899873
 50
132.828196
 51
222.188131
  0
ARC
  5
20765
  8
ALPHA
 10
2263.399816
 20
1051.504602
 30
0.0
 40
0.775
 50
239.523001
 51
42.188131
  0
LINE
  5
20766
  8
ALPHA
 10
2267.21593
 20
1064.629392
 30
0.0
 11
2267.21593
 21
1067.629392
 31
0.0
  0
LINE
  5
20767
  8
ALPHA
 10
2266.21593
 20
1064.629392
 30
0.0
 11
2266.21593
 21
1065.147965
 31
0.0
  0
LINE
  5
20768
  8
ALPHA
 10
2262.61593
 20
1054.459956
 30
0.0
 11
2262.61593
 21
1058.561508
 31
0.0
  0
LINE
  5
20769
  8
ALPHA
 10
2262.61593
 20
1046.697276
 30
0.0
 11
2262.61593
 21
1050.807199
 31
0.0
  0
LINE
  5
2076A
  8
ALPHA
 10
2260.81593
 20
1050.786718
 30
0.0
 11
2260.81593
 21
1046.697276
 31
0.0
  0
LINE
  5
2076B
  8
ALPHA
 10
2260.81593
 20
1058.561508
 30
0.0
 11
2260.81593
 21
1054.447174
 31
0.0
  0
LINE
  5
2076C
  8
ALPHA
 10
2267.21593
 20
1067.629392
 30
0.0
 11
2266.21593
 21
1067.629392
 31
0.0
  0
LINE
  5
2076D
  8
ALPHA
 10
2266.21593
 20
984.629392
 30
0.0
 11
2266.21593
 21
1024.629392
 31
0.0
  0
LINE
  5
2076E
  8
ALPHA
 10
2262.21593
 20
984.629392
 30
0.0
 11
2262.21593
 21
1024.629392
 31
0.0
  0
LINE
  5
2076F
  8
ALPHA
 10
2266.21593
 20
1036.457965
 30
0.0
 11
2258.87593
 21
1036.457965
 31
0.0
  0
LINE
  5
20770
  8
ALPHA
 10
2258.87593
 20
1037.872178
 30
0.0
 11
2266.21593
 21
1037.872178
 31
0.0
  0
LINE
  5
20771
  8
ALPHA
 10
2266.21593
 20
1038.700605
 30
0.0
 11
2258.87593
 21
1038.700605
 31
0.0
  0
LINE
  5
20772
  8
ALPHA
 10
2266.21593
 20
1040.114819
 30
0.0
 11
2258.87593
 21
1040.114819
 31
0.0
  0
LINE
  5
20773
  8
ALPHA
 10
2259.21593
 20
1040.629392
 30
0.0
 11
2267.21593
 21
1040.629392
 31
0.0
  0
ARC
  5
20774
  8
ALPHA
 10
2258.87593
 20
1044.286392
 30
0.0
 40
4.171573
 50
180.0
 51
270.0
  0
ARC
  5
20775
  8
ALPHA
 10
2258.87593
 20
1044.286392
 30
0.0
 40
5.585786
 50
180.0
 51
270.0
  0
ARC
  5
20776
  8
ALPHA
 10
2258.87593
 20
1044.286392
 30
0.0
 40
6.414214
 50
180.0
 51
270.0
  0
ARC
  5
20777
  8
ALPHA
 10
2258.87593
 20
1044.286392
 30
0.0
 40
7.828427
 50
180.0
 51
270.0
  0
LINE
  5
20778
  8
ALPHA
 10
2258.87593
 20
1040.114819
 30
0.0
 11
2258.87593
 21
1036.457965
 31
0.0
  0
LINE
  5
20779
  8
ALPHA
 10
2256.21593
 20
1043.629392
 30
0.0
 11
2259.21593
 21
1040.629392
 31
0.0
  0
LINE
  5
2077A
  8
ALPHA
 10
2251.047502
 20
1044.286392
 30
0.0
 11
2254.704357
 21
1044.286392
 31
0.0
  0
LINE
  5
2077B
  8
ALPHA
 10
2266.21593
 20
1040.114819
 30
0.0
 11
2266.21593
 21
1026.629392
 31
0.0
  0
LINE
  5
2077C
  8
ALPHA
 10
2266.21593
 20
1040.114819
 30
0.0
 11
2266.21593
 21
1040.629392
 31
0.0
  0
LINE
  5
2077D
  8
ALPHA
 10
2261.21593
 20
1026.629392
 30
0.0
 11
2261.21593
 21
1024.629392
 31
0.0
  0
LINE
  5
2077E
  8
ALPHA
 10
2261.21593
 20
1024.629392
 30
0.0
 11
2267.21593
 21
1024.629392
 31
0.0
  0
LINE
  5
2077F
  8
ALPHA
 10
2266.21593
 20
1026.629392
 30
0.0
 11
2261.21593
 21
1026.629392
 31
0.0
  0
LINE
  5
20780
  8
ALPHA
 10
2261.21593
 20
984.629392
 30
0.0
 11
2261.21593
 21
982.629392
 31
0.0
  0
LINE
  5
20781
  8
ALPHA
 10
2266.21593
 20
982.629392
 30
0.0
 11
2261.21593
 21
982.629392
 31
0.0
  0
LINE
  5
20782
  8
ALPHA
 10
2261.21593
 20
984.629392
 30
0.0
 11
2267.21593
 21
984.629392
 31
0.0
  0
CIRCLE
  5
20783
  8
ALPHA
 10
2261.71593
 20
933.629392
 30
0.0
 40
6.0
  0
ARC
  5
20784
  8
ALPHA
 10
2259.962228
 20
934.641892
 30
0.0
 40
0.775
 50
70.924786
 51
232.89912
  0
ARC
  5
20785
  8
ALPHA
 10
2259.962228
 20
932.616892
 30
0.0
 40
0.775
 50
127.10088
 51
292.89912
  0
LINE
  5
20786
  8
ALPHA
 10
2266.21593
 20
917.457965
 30
0.0
 11
2258.87593
 21
917.457965
 31
0.0
  0
LINE
  5
20787
  8
ALPHA
 10
2258.87593
 20
918.872178
 30
0.0
 11
2266.21593
 21
918.872178
 31
0.0
  0
LINE
  5
20788
  8
ALPHA
 10
2266.21593
 20
919.700605
 30
0.0
 11
2258.87593
 21
919.700605
 31
0.0
  0
LINE
  5
20789
  8
ALPHA
 10
2266.21593
 20
921.114819
 30
0.0
 11
2258.87593
 21
921.114819
 31
0.0
  0
LINE
  5
2078A
  8
ALPHA
 10
2259.21593
 20
921.629392
 30
0.0
 11
2267.21593
 21
921.629392
 31
0.0
  0
LINE
  5
2078B
  8
ALPHA
 10
2259.21593
 20
945.629392
 30
0.0
 11
2267.21593
 21
945.629392
 31
0.0
  0
LINE
  5
2078C
  8
ALPHA
 10
2258.87593
 20
946.147965
 30
0.0
 11
2266.21593
 21
946.147965
 31
0.0
  0
LINE
  5
2078D
  8
ALPHA
 10
2258.87593
 20
947.562178
 30
0.0
 11
2266.21593
 21
947.562178
 31
0.0
  0
LINE
  5
2078E
  8
ALPHA
 10
2266.21593
 20
948.390605
 30
0.0
 11
2258.87593
 21
948.390605
 31
0.0
  0
LINE
  5
2078F
  8
ALPHA
 10
2258.87593
 20
949.804819
 30
0.0
 11
2266.21593
 21
949.804819
 31
0.0
  0
LINE
  5
20790
  8
ALPHA
 10
2256.21593
 20
924.629392
 30
0.0
 11
2256.21593
 21
931.24784
 31
0.0
  0
LINE
  5
20791
  8
ALPHA
 10
2254.704357
 20
925.286392
 30
0.0
 11
2254.704357
 21
941.976392
 31
0.0
  0
LINE
  5
20792
  8
ALPHA
 10
2253.290143
 20
925.286392
 30
0.0
 11
2253.290143
 21
941.976392
 31
0.0
  0
LINE
  5
20793
  8
ALPHA
 10
2252.461716
 20
941.976392
 30
0.0
 11
2252.461716
 21
925.286392
 31
0.0
  0
LINE
  5
20794
  8
ALPHA
 10
2251.047502
 20
925.286392
 30
0.0
 11
2251.047502
 21
941.976392
 31
0.0
  0
ARC
  5
20795
  8
ALPHA
 10
2258.87593
 20
941.976392
 30
0.0
 40
4.171573
 50
90.0
 51
180.0
  0
ARC
  5
20796
  8
ALPHA
 10
2258.87593
 20
941.976392
 30
0.0
 40
5.585786
 50
90.0
 51
180.0
  0
ARC
  5
20797
  8
ALPHA
 10
2258.87593
 20
941.976392
 30
0.0
 40
6.414214
 50
90.0
 51
180.0
  0
ARC
  5
20798
  8
ALPHA
 10
2258.87593
 20
941.976392
 30
0.0
 40
7.828427
 50
90.0
 51
180.0
  0
ARC
  5
20799
  8
ALPHA
 10
2259.196456
 20
933.629392
 30
0.0
 40
0.494474
 50
307.10088
 51
52.89912
  0
LINE
  5
2079A
  8
ALPHA
 10
2258.87593
 20
949.804819
 30
0.0
 11
2258.87593
 21
946.147965
 31
0.0
  0
LINE
  5
2079B
  8
ALPHA
 10
2256.21593
 20
936.010944
 30
0.0
 11
2256.21593
 21
942.629392
 31
0.0
  0
LINE
  5
2079C
  8
ALPHA
 10
2254.704357
 20
935.69018
 30
0.0
 11
2255.801154
 21
934.593382
 31
0.0
  0
LINE
  5
2079D
  8
ALPHA
 10
2256.21593
 20
942.629392
 30
0.0
 11
2259.21593
 21
945.629392
 31
0.0
  0
LINE
  5
2079E
  8
ALPHA
 10
2251.047502
 20
941.976392
 30
0.0
 11
2254.704357
 21
941.976392
 31
0.0
  0
ARC
  5
2079F
  8
ALPHA
 10
2258.87593
 20
925.286392
 30
0.0
 40
4.171573
 50
180.0
 51
270.0
  0
ARC
  5
207A0
  8
ALPHA
 10
2258.87593
 20
925.286392
 30
0.0
 40
5.585786
 50
180.0
 51
270.0
  0
ARC
  5
207A1
  8
ALPHA
 10
2258.87593
 20
925.286392
 30
0.0
 40
6.414214
 50
180.0
 51
270.0
  0
ARC
  5
207A2
  8
ALPHA
 10
2258.87593
 20
925.286392
 30
0.0
 40
7.828427
 50
180.0
 51
270.0
  0
LINE
  5
207A3
  8
ALPHA
 10
2258.87593
 20
921.114819
 30
0.0
 11
2258.87593
 21
917.457965
 31
0.0
  0
LINE
  5
207A4
  8
ALPHA
 10
2256.21593
 20
924.629392
 30
0.0
 11
2259.21593
 21
921.629392
 31
0.0
  0
LINE
  5
207A5
  8
ALPHA
 10
2251.047502
 20
925.286392
 30
0.0
 11
2254.704357
 21
925.286392
 31
0.0
  0
LINE
  5
207A6
  8
ALPHA
 10
2262.61593
 20
927.697276
 30
0.0
 11
2262.61593
 21
931.807199
 31
0.0
  0
LINE
  5
207A7
  8
ALPHA
 10
2260.81593
 20
931.786718
 30
0.0
 11
2260.81593
 21
927.697276
 31
0.0
  0
ARC
  5
207A8
  8
ALPHA
 10
2262.832553
 20
931.540695
 30
0.0
 40
0.343438
 50
59.523001
 51
176.735168
  0
ARC
  5
207A9
  8
ALPHA
 10
2261.71593
 20
931.604392
 30
0.0
 40
0.775
 50
187.10088
 51
356.735168
  0
ARC
  5
207AA
  8
ALPHA
 10
2260.456193
 20
931.447464
 30
0.0
 40
0.494474
 50
7.10088
 51
112.89912
  0
ARC
  5
207AB
  8
ALPHA
 10
2260.441022
 20
936.026501
 30
0.0
 40
0.690055
 50
250.924786
 51
351.211257
  0
ARC
  5
207AC
  8
ALPHA
 10
2261.71593
 20
935.829392
 30
0.0
 40
0.6
 50
12.828196
 51
171.211257
  0
ARC
  5
207AD
  8
ALPHA
 10
2263.178366
 20
936.162406
 30
0.0
 40
0.899873
 50
192.828196
 51
287.171804
  0
ARC
  5
207AE
  8
ALPHA
 10
2263.621185
 20
934.729392
 30
0.0
 40
0.6
 50
312.828196
 51
107.171804
  0
ARC
  5
207AF
  8
ALPHA
 10
2264.640803
 20
933.629392
 30
0.0
 40
0.899873
 50
132.828196
 51
222.188131
  0
ARC
  5
207B0
  8
ALPHA
 10
2263.399816
 20
932.504602
 30
0.0
 40
0.775
 50
239.523001
 51
42.188131
  0
LINE
  5
207B1
  8
ALPHA
 10
2266.21593
 20
945.629392
 30
0.0
 11
2266.21593
 21
946.147965
 31
0.0
  0
LINE
  5
207B2
  8
ALPHA
 10
2262.61593
 20
935.459956
 30
0.0
 11
2262.61593
 21
939.561508
 31
0.0
  0
LINE
  5
207B3
  8
ALPHA
 10
2260.81593
 20
939.561508
 30
0.0
 11
2260.81593
 21
935.447174
 31
0.0
  0
LINE
  5
207B4
  8
ALPHA
 10
2266.21593
 20
921.114819
 30
0.0
 11
2266.21593
 21
921.629392
 31
0.0
  0
LINE
  5
20B68
  8
ALPHA
 10
2420.71593
 20
965.91711
 30
0.0
 11
2420.71593
 21
828.05229
 31
0.0
  0
LINE
  5
20B69
  8
ALPHA
 10
2418.751702
 20
842.886836
 30
0.0
 11
2418.751702
 21
965.951293
 31
0.0
  0
LINE
  5
20B6A
  8
ALPHA
 10
2409.61593
 20
1076.629392
 30
0.0
 11
2409.61593
 21
833.629392
 31
0.0
  0
POLYLINE
  5
20B6B
  8
ALPHA
 66
     1
 10
0.0
 20
0.0
 30
0.0
  0
VERTEX
  5
22588
  8
ALPHA
 10
2417.61593
 20
951.63744
 30
0.0
  0
VERTEX
  5
22589
  8
ALPHA
 10
2417.705633
 20
951.862742
 30
0.0
  0
VERTEX
  5
2258A
  8
ALPHA
 10
2417.823474
 20
952.205497
 30
0.0
  0
VERTEX
  5
2258B
  8
ALPHA
 10
2417.916572
 20
952.519865
 30
0.0
  0
VERTEX
  5
2258C
  8
ALPHA
 10
2417.989554
 20
952.807096
 30
0.0
  0
VERTEX
  5
2258D
  8
ALPHA
 10
2418.046417
 20
953.069434
 30
0.0
  0
VERTEX
  5
2258E
  8
ALPHA
 10
2418.090454
 20
953.309593
 30
0.0
  0
VERTEX
  5
2258F
  8
ALPHA
 10
2418.124281
 20
953.530312
 30
0.0
  0
VERTEX
  5
22590
  8
ALPHA
 10
2418.149934
 20
953.734081
 30
0.0
  0
SEQEND
  5
22591
  8
ALPHA
  0
ARC
  5
20B76
  8
ALPHA
 10
2416.01593
 20
1048.129392
 30
0.0
 40
6.5
 50
326.944269
 51
342.10306
  0
LINE
  5
20B77
  8
ALPHA
 10
2421.463842
 20
1044.583937
 30
0.0
 11
2421.463842
 21
1047.529392
 31
0.0
  0
LINE
  5
20B78
  8
ALPHA
 10
2420.625702
 20
1052.129392
 30
0.0
 11
2420.625702
 21
1044.129392
 31
0.0
  0
LINE
  5
20B79
  8
ALPHA
 10
2419.41593
 20
1052.129322
 30
0.0
 11
2419.41593
 21
1044.129462
 31
0.0
  0
LINE
  5
20B7A
  8
ALPHA
 10
2418.61593
 20
1044.129462
 30
0.0
 11
2418.61593
 21
1052.129322
 31
0.0
  0
LINE
  5
20B7B
  8
ALPHA
 10
2413.61593
 20
1076.629392
 30
0.0
 11
2413.61593
 21
972.979392
 31
0.0
  0
LINE
  5
20B7C
  8
ALPHA
 10
2388.61593
 20
1076.629392
 30
0.0
 11
2413.61593
 21
1076.629392
 31
0.0
  0
LINE
  5
20B7D
  8
ALPHA
 10
2388.61593
 20
1079.629392
 30
0.0
 11
2388.61593
 21
1076.629392
 31
0.0
  0
ARC
  5
20B7E
  8
ALPHA
 10
2413.61593
 20
1075.629392
 30
0.0
 40
2.0
 50
0.0
 51
90.0
  0
ARC
  5
20B7F
  8
ALPHA
 10
2413.61593
 20
1075.629392
 30
0.0
 40
4.0
 50
0.0
 51
90.0
  0
LINE
  5
20B80
  8
ALPHA
 10
2415.61593
 20
1072.629392
 30
0.0
 11
2415.61593
 21
1075.629392
 31
0.0
  0
LINE
  5
20B81
  8
ALPHA
 10
2413.61593
 20
1077.629392
 30
0.0
 11
2413.61593
 21
1079.629392
 31
0.0
  0
LINE
  5
20B82
  8
ALPHA
 10
2396.61593
 20
1077.629392
 30
0.0
 11
2396.61593
 21
1079.629392
 31
0.0
  0
LINE
  5
20B83
  8
ALPHA
 10
2393.61593
 20
1077.629392
 30
0.0
 11
2393.61593
 21
1079.629392
 31
0.0
  0
LINE
  5
20B84
  8
ALPHA
 10
2417.61593
 20
1072.629392
 30
0.0
 11
2413.61593
 21
1072.629392
 31
0.0
  0
LINE
  5
20B85
  8
ALPHA
 10
2415.61593
 20
1074.629392
 30
0.0
 11
2417.61593
 21
1074.629392
 31
0.0
  0
LINE
  5
20B86
  8
ALPHA
 10
2415.61593
 20
1075.629392
 30
0.0
 11
2417.61593
 21
1075.629392
 31
0.0
  0
LINE
  5
20B87
  8
ALPHA
 10
2393.61593
 20
1077.629392
 30
0.0
 11
2413.61593
 21
1077.629392
 31
0.0
  0
LINE
  5
20B88
  8
ALPHA
 10
2393.61593
 20
1079.629392
 30
0.0
 11
2413.61593
 21
1079.629392
 31
0.0
  0
ARC
  5
20B89
  8
ALPHA
 10
2420.625702
 20
1051.129392
 30
0.0
 40
1.0
 50
33.055731
 51
90.0
  0
ARC
  5
20B8A
  8
ALPHA
 10
2416.01593
 20
1048.129392
 30
0.0
 40
6.5
 50
17.89694
 51
33.055731
  0
LINE
  5
20B8B
  8
ALPHA
 10
2422.321143
 20
1049.676503
 30
0.0
 11
2422.282508
 21
1049.829392
 31
0.0
  0
LINE
  5
20B8C
  8
ALPHA
 10
2422.282508
 20
1049.829392
 30
0.0
 11
2422.200596
 21
1050.129392
 31
0.0
  0
POLYLINE
  5
20B8D
  8
ALPHA
 66
     1
 10
0.0
 20
0.0
 30
0.0
  0
VERTEX
  5
22592
  8
ALPHA
 10
2422.201057
 20
1049.100859
 30
0.0
  0
VERTEX
  5
22593
  8
ALPHA
 10
2422.201757
 20
1049.170854
 30
0.0
  0
VERTEX
  5
22594
  8
ALPHA
 10
2422.208613
 20
1049.226614
 30
0.0
  0
VERTEX
  5
22595
  8
ALPHA
 10
2422.221237
 20
1049.263856
 30
0.0
  0
VERTEX
  5
22596
  8
ALPHA
 10
2422.238804
 20
1049.279139
 30
0.0
  0
VERTEX
  5
22597
  8
ALPHA
 10
2422.241654
 20
1049.279392
 30
0.0
  0
SEQEND
  5
22598
  8
ALPHA
  0
LINE
  5
20B95
  8
ALPHA
 10
2421.463842
 20
1051.674846
 30
0.0
 11
2421.463842
 21
1048.729392
 31
0.0
  0
LINE
  5
20B96
  8
ALPHA
 10
2421.41593
 20
1047.529392
 30
0.0
 11
2421.41593
 21
1048.729392
 31
0.0
  0
POLYLINE
  5
20B97
  8
ALPHA
 66
     1
 10
0.0
 20
0.0
 30
0.0
  0
VERTEX
  5
22599
  8
ALPHA
 10
2422.201756
 20
1047.087937
 30
0.0
  0
VERTEX
  5
2259A
  8
ALPHA
 10
2422.201058
 20
1047.157933
 30
0.0
  0
VERTEX
  5
2259B
  8
ALPHA
 10
2422.206554
 20
1047.237293
 30
0.0
  0
VERTEX
  5
2259C
  8
ALPHA
 10
2422.217944
 20
1047.32055
 30
0.0
  0
VERTEX
  5
2259D
  8
ALPHA
 10
2422.2345
 20
1047.401466
 30
0.0
  0
VERTEX
  5
2259E
  8
ALPHA
 10
2422.2551
 20
1047.473686
 30
0.0
  0
VERTEX
  5
2259F
  8
ALPHA
 10
2422.277456
 20
1047.529392
 30
0.0
  0
SEQEND
  5
225A0
  8
ALPHA
  0
LINE
  5
20BA0
  8
ALPHA
 10
2422.200596
 20
1046.129392
 30
0.0
 11
2422.282508
 21
1046.429392
 31
0.0
  0
LINE
  5
20BA1
  8
ALPHA
 10
2422.282508
 20
1046.429392
 30
0.0
 11
2422.321034
 21
1046.581848
 31
0.0
  0
POLYLINE
  5
20BA2
  8
ALPHA
 66
     1
 10
0.0
 20
0.0
 30
0.0
  0
VERTEX
  5
225A1
  8
ALPHA
 10
2422.321034
 20
1046.581848
 30
0.0
  0
VERTEX
  5
225A2
  8
ALPHA
 10
2422.34876
 20
1046.709737
 30
0.0
  0
VERTEX
  5
225A3
  8
ALPHA
 10
2422.367952
 20
1046.815913
 30
0.0
  0
VERTEX
  5
225A4
  8
ALPHA
 10
2422.380531
 20
1046.905491
 30
0.0
  0
VERTEX
  5
225A5
  8
ALPHA
 10
2422.387282
 20
1046.982217
 30
0.0
  0
VERTEX
  5
225A6
  8
ALPHA
 10
2422.387771
 20
1047.043283
 30
0.0
  0
VERTEX
  5
225A7
  8
ALPHA
 10
2422.381723
 20
1047.085889
 30
0.0
  0
VERTEX
  5
225A8
  8
ALPHA
 10
2422.369047
 20
1047.108023
 30
0.0
  0
VERTEX
  5
225A9
  8
ALPHA
 10
2422.360335
 20
1047.110886
 30
0.0
  0
SEQEND
  5
225AA
  8
ALPHA
  0
POLYLINE
  5
20BAD
  8
ALPHA
 66
     1
 10
0.0
 20
0.0
 30
0.0
  0
VERTEX
  5
225AB
  8
ALPHA
 10
2422.282508
 20
1047.019584
 30
0.0
  0
VERTEX
  5
225AC
  8
ALPHA
 10
2422.260037
 20
1046.988305
 30
0.0
  0
VERTEX
  5
225AD
  8
ALPHA
 10
2422.241654
 20
1046.979392
 30
0.0
  0
SEQEND
  5
225AE
  8
ALPHA
  0
POLYLINE
  5
20BB2
  8
ALPHA
 66
     1
 10
0.0
 20
0.0
 30
0.0
  0
VERTEX
  5
225AF
  8
ALPHA
 10
2422.277456
 20
1048.729392
 30
0.0
  0
VERTEX
  5
225B0
  8
ALPHA
 10
2422.255098
 20
1048.785104
 30
0.0
  0
VERTEX
  5
225B1
  8
ALPHA
 10
2422.234498
 20
1048.857326
 30
0.0
  0
VERTEX
  5
225B2
  8
ALPHA
 10
2422.217942
 20
1048.938241
 30
0.0
  0
VERTEX
  5
225B3
  8
ALPHA
 10
2422.206553
 20
1049.021497
 30
0.0
  0
VERTEX
  5
225B4
  8
ALPHA
 10
2422.201057
 20
1049.100859
 30
0.0
  0
SEQEND
  5
225B5
  8
ALPHA
  0
POLYLINE
  5
20BBA
  8
ALPHA
 66
     1
 10
0.0
 20
0.0
 30
0.0
  0
VERTEX
  5
225B6
  8
ALPHA
 10
2422.360335
 20
1047.110886
 30
0.0
  0
VERTEX
  5
225B7
  8
ALPHA
 10
2422.348764
 20
1047.107509
 30
0.0
  0
VERTEX
  5
225B8
  8
ALPHA
 10
2422.319844
 20
1047.079297
 30
0.0
  0
VERTEX
  5
225B9
  8
ALPHA
 10
2422.282508
 20
1047.019584
 30
0.0
  0
SEQEND
  5
225BA
  8
ALPHA
  0
POLYLINE
  5
20BC0
  8
ALPHA
 66
     1
 10
0.0
 20
0.0
 30
0.0
  0
VERTEX
  5
225BB
  8
ALPHA
 10
2422.360329
 20
1049.147897
 30
0.0
  0
VERTEX
  5
225BC
  8
ALPHA
 10
2422.368775
 20
1049.150572
 30
0.0
  0
VERTEX
  5
225BD
  8
ALPHA
 10
2422.38155
 20
1049.172299
 30
0.0
  0
VERTEX
  5
225BE
  8
ALPHA
 10
2422.387722
 20
1049.21458
 30
0.0
  0
VERTEX
  5
225BF
  8
ALPHA
 10
2422.387349
 20
1049.275283
 30
0.0
  0
VERTEX
  5
225C0
  8
ALPHA
 10
2422.380733
 20
1049.351549
 30
0.0
  0
VERTEX
  5
225C1
  8
ALPHA
 10
2422.36827
 20
1049.440894
 30
0.0
  0
VERTEX
  5
225C2
  8
ALPHA
 10
2422.349096
 20
1049.54735
 30
0.0
  0
VERTEX
  5
225C3
  8
ALPHA
 10
2422.321143
 20
1049.676503
 30
0.0
  0
SEQEND
  5
225C4
  8
ALPHA
  0
POLYLINE
  5
20BCB
  8
ALPHA
 66
     1
 10
0.0
 20
0.0
 30
0.0
  0
VERTEX
  5
225C5
  8
ALPHA
 10
2422.282508
 20
1049.239199
 30
0.0
  0
VERTEX
  5
225C6
  8
ALPHA
 10
2422.319711
 20
1049.179661
 30
0.0
  0
VERTEX
  5
225C7
  8
ALPHA
 10
2422.348511
 20
1049.151415
 30
0.0
  0
VERTEX
  5
225C8
  8
ALPHA
 10
2422.360329
 20
1049.147897
 30
0.0
  0
SEQEND
  5
225C9
  8
ALPHA
  0
POLYLINE
  5
20BD1
  8
ALPHA
 66
     1
 10
0.0
 20
0.0
 30
0.0
  0
VERTEX
  5
225CA
  8
ALPHA
 10
2422.241654
 20
1046.979392
 30
0.0
  0
VERTEX
  5
225CB
  8
ALPHA
 10
2422.238803
 20
1046.979645
 30
0.0
  0
VERTEX
  5
225CC
  8
ALPHA
 10
2422.221235
 20
1046.994929
 30
0.0
  0
VERTEX
  5
225CD
  8
ALPHA
 10
2422.208612
 20
1047.032173
 30
0.0
  0
VERTEX
  5
225CE
  8
ALPHA
 10
2422.201756
 20
1047.087937
 30
0.0
  0
SEQEND
  5
225CF
  8
ALPHA
  0
LINE
  5
20BD8
  8
ALPHA
 10
2422.212879
 20
1047.019584
 30
0.0
 11
2422.282508
 21
1047.019584
 31
0.0
  0
LINE
  5
20BD9
  8
ALPHA
 10
2422.359324
 20
1047.110887
 30
0.0
 11
2422.201527
 21
1047.110887
 31
0.0
  0
LINE
  5
20BDA
  8
ALPHA
 10
2421.41593
 20
1047.529392
 30
0.0
 11
2422.277456
 21
1047.529392
 31
0.0
  0
LINE
  5
20BDB
  8
ALPHA
 10
2422.277456
 20
1048.729392
 30
0.0
 11
2421.41593
 21
1048.729392
 31
0.0
  0
LINE
  5
20BDC
  8
ALPHA
 10
2422.359336
 20
1049.147896
 30
0.0
 11
2422.201527
 21
1049.147896
 31
0.0
  0
LINE
  5
20BDD
  8
ALPHA
 10
2422.212879
 20
1049.239199
 30
0.0
 11
2422.282508
 21
1049.239199
 31
0.0
  0
LINE
  5
20BDE
  8
ALPHA
 10
2419.41593
 20
1051.429392
 30
0.0
 11
2418.61593
 21
1051.429392
 31
0.0
  0
LINE
  5
20BDF
  8
ALPHA
 10
2418.61593
 20
1052.129392
 30
0.0
 11
2417.61593
 21
1052.129392
 31
0.0
  0
LINE
  5
20BE0
  8
ALPHA
 10
2420.625702
 20
1052.129392
 30
0.0
 11
2419.41593
 21
1052.129392
 31
0.0
  0
POLYLINE
  5
20BE1
  8
ALPHA
 66
     1
 10
0.0
 20
0.0
 30
0.0
  0
VERTEX
  5
225D0
  8
ALPHA
 10
2422.241654
 20
1049.279392
 30
0.0
  0
VERTEX
  5
225D1
  8
ALPHA
 10
2422.260038
 20
1049.270477
 30
0.0
  0
VERTEX
  5
225D2
  8
ALPHA
 10
2422.282508
 20
1049.239199
 30
0.0
  0
SEQEND
  5
225D3
  8
ALPHA
  0
LINE
  5
20BE6
  8
ALPHA
 10
2417.71593
 20
1033.979392
 30
0.0
 11
2417.71593
 21
1008.979392
 31
0.0
  0
ARC
  5
20BE7
  8
ALPHA
 10
2420.625702
 20
1045.129392
 30
0.0
 40
1.0
 50
270.0
 51
326.944269
  0
LINE
  5
20BE8
  8
ALPHA
 10
2417.71593
 20
1031.979392
 30
0.0
 11
2417.61593
 21
1031.979392
 31
0.0
  0
LINE
  5
20BE9
  8
ALPHA
 10
2417.71593
 20
1033.979392
 30
0.0
 11
2417.61593
 21
1033.979392
 31
0.0
  0
LINE
  5
20BEA
  8
ALPHA
 10
2418.61593
 20
1044.129392
 30
0.0
 11
2417.61593
 21
1044.129392
 31
0.0
  0
LINE
  5
20BEB
  8
ALPHA
 10
2420.625702
 20
1044.129392
 30
0.0
 11
2419.41593
 21
1044.129392
 31
0.0
  0
LINE
  5
20BEC
  8
ALPHA
 10
2419.41593
 20
1044.829392
 30
0.0
 11
2418.61593
 21
1044.829392
 31
0.0
  0
LINE
  5
20BED
  8
ALPHA
 10
2417.71593
 20
1008.979392
 30
0.0
 11
2417.61593
 21
1008.979392
 31
0.0
  0
LINE
  5
20BEE
  8
ALPHA
 10
2417.71593
 20
1010.979392
 30
0.0
 11
2417.61593
 21
1010.979392
 31
0.0
  0
LINE
  5
20BEF
  8
ALPHA
 10
2417.71593
 20
982.979392
 30
0.0
 11
2417.71593
 21
973.979392
 31
0.0
  0
LINE
  5
20BF0
  8
ALPHA
 10
2417.61593
 20
982.979392
 30
0.0
 11
2417.71593
 21
982.979392
 31
0.0
  0
ARC
  5
20BF1
  8
ALPHA
 10
2419.21593
 20
965.91711
 30
0.0
 40
1.5
 50
0.0
 51
89.0
  0
LINE
  5
20BF2
  8
ALPHA
 10
2418.143005
 20
954.813535
 30
0.0
 11
2418.135067
 21
954.892245
 31
0.0
  0
POLYLINE
  5
20BF3
  8
ALPHA
 66
     1
 10
0.0
 20
0.0
 30
0.0
  0
VERTEX
  5
225D4
  8
ALPHA
 10
2418.101666
 20
953.774987
 30
0.0
  0
VERTEX
  5
225D5
  8
ALPHA
 10
2418.09592
 20
953.822791
 30
0.0
  0
VERTEX
  5
225D6
  8
ALPHA
 10
2418.09289
 20
953.888816
 30
0.0
  0
SEQEND
  5
225D7
  8
ALPHA
  0
LINE
  5
20BF8
  8
ALPHA
 10
2418.149946
 20
955.524593
 30
0.0
 11
2418.124543
 21
955.726411
 31
0.0
  0
POLYLINE
  5
20BF9
  8
ALPHA
 66
     1
 10
0.0
 20
0.0
 30
0.0
  0
VERTEX
  5
225D8
  8
ALPHA
 10
2418.124543
 20
955.726411
 30
0.0
  0
VERTEX
  5
225D9
  8
ALPHA
 10
2418.091375
 20
955.94368
 30
0.0
  0
VERTEX
  5
225DA
  8
ALPHA
 10
2418.047542
 20
956.183691
 30
0.0
  0
VERTEX
  5
225DB
  8
ALPHA
 10
2417.990656
 20
956.446979
 30
0.0
  0
VERTEX
  5
225DC
  8
ALPHA
 10
2417.917423
 20
956.735812
 30
0.0
  0
VERTEX
  5
225DD
  8
ALPHA
 10
2417.823884
 20
957.052001
 30
0.0
  0
VERTEX
  5
225DE
  8
ALPHA
 10
2417.705514
 20
957.396363
 30
0.0
  0
VERTEX
  5
225DF
  8
ALPHA
 10
2417.61593
 20
957.621294
 30
0.0
  0
SEQEND
  5
225E0
  8
ALPHA
  0
LINE
  5
20C03
  8
ALPHA
 10
2418.135067
 20
954.892245
 30
0.0
 11
2418.123445
 21
954.967384
 31
0.0
  0
POLYLINE
  5
20C04
  8
ALPHA
 66
     1
 10
0.0
 20
0.0
 30
0.0
  0
VERTEX
  5
225E1
  8
ALPHA
 10
2418.1325
 20
954.855638
 30
0.0
  0
VERTEX
  5
225E2
  8
ALPHA
 10
2418.140198
 20
954.806559
 30
0.0
  0
VERTEX
  5
225E3
  8
ALPHA
 10
2418.145589
 20
954.75176
 30
0.0
  0
VERTEX
  5
225E4
  8
ALPHA
 10
2418.148802
 20
954.693469
 30
0.0
  0
SEQEND
  5
225E5
  8
ALPHA
  0
POLYLINE
  5
20C0A
  8
ALPHA
 66
     1
 10
0.0
 20
0.0
 30
0.0
  0
VERTEX
  5
225E6
  8
ALPHA
 10
2418.1325
 20
954.855638
 30
0.0
  0
VERTEX
  5
225E7
  8
ALPHA
 10
2418.121001
 20
954.924038
 30
0.0
  0
VERTEX
  5
225E8
  8
ALPHA
 10
2418.110554
 20
955.007422
 30
0.0
  0
VERTEX
  5
225E9
  8
ALPHA
 10
2418.102146
 20
955.098121
 30
0.0
  0
VERTEX
  5
225EA
  8
ALPHA
 10
2418.096288
 20
955.188915
 30
0.0
  0
VERTEX
  5
225EB
  8
ALPHA
 10
2418.093023
 20
955.278828
 30
0.0
  0
VERTEX
  5
225EC
  8
ALPHA
 10
2418.092725
 20
955.361142
 30
0.0
  0
SEQEND
  5
225ED
  8
ALPHA
  0
POLYLINE
  5
20C13
  8
ALPHA
 66
     1
 10
0.0
 20
0.0
 30
0.0
  0
VERTEX
  5
225EE
  8
ALPHA
 10
2418.149386
 20
954.595312
 30
0.0
  0
VERTEX
  5
225EF
  8
ALPHA
 10
2418.148874
 20
954.566618
 30
0.0
  0
VERTEX
  5
225F0
  8
ALPHA
 10
2418.145588
 20
954.507012
 30
0.0
  0
VERTEX
  5
225F1
  8
ALPHA
 10
2418.140197
 20
954.452217
 30
0.0
  0
VERTEX
  5
225F2
  8
ALPHA
 10
2418.1325
 20
954.403145
 30
0.0
  0
SEQEND
  5
225F3
  8
ALPHA
  0
POLYLINE
  5
20C1A
  8
ALPHA
 66
     1
 10
0.0
 20
0.0
 30
0.0
  0
VERTEX
  5
225F4
  8
ALPHA
 10
2418.149952
 20
955.524541
 30
0.0
  0
VERTEX
  5
225F5
  8
ALPHA
 10
2418.149395
 20
955.492365
 30
0.0
  0
VERTEX
  5
225F6
  8
ALPHA
 10
2418.146771
 20
955.468595
 30
0.0
  0
SEQEND
  5
225F7
  8
ALPHA
  0
LINE
  5
20C1F
  8
ALPHA
 10
2418.149867
 20
954.636473
 30
0.0
 11
2418.14893
 21
954.556307
 31
0.0
  0
POLYLINE
  5
20C20
  8
ALPHA
 66
     1
 10
0.0
 20
0.0
 30
0.0
  0
VERTEX
  5
225F8
  8
ALPHA
 10
2418.09289
 20
953.888816
 30
0.0
  0
VERTEX
  5
225F9
  8
ALPHA
 10
2418.092853
 20
953.97107
 30
0.0
  0
VERTEX
  5
225FA
  8
ALPHA
 10
2418.095891
 20
954.061854
 30
0.0
  0
VERTEX
  5
225FB
  8
ALPHA
 10
2418.101661
 20
954.154388
 30
0.0
  0
VERTEX
  5
225FC
  8
ALPHA
 10
2418.110173
 20
954.247808
 30
0.0
  0
VERTEX
  5
225FD
  8
ALPHA
 10
2418.120805
 20
954.333386
 30
0.0
  0
VERTEX
  5
225FE
  8
ALPHA
 10
2418.1325
 20
954.403145
 30
0.0
  0
SEQEND
  5
225FF
  8
ALPHA
  0
POLYLINE
  5
20C29
  8
ALPHA
 66
     1
 10
0.0
 20
0.0
 30
0.0
  0
VERTEX
  5
22600
  8
ALPHA
 10
2418.149934
 20
953.734081
 30
0.0
  0
VERTEX
  5
22601
  8
ALPHA
 10
2418.149586
 20
953.758606
 30
0.0
  0
VERTEX
  5
22602
  8
ALPHA
 10
2418.147635
 20
953.774711
 30
0.0
  0
VERTEX
  5
22603
  8
ALPHA
 10
2418.144029
 20
953.781316
 30
0.0
  0
VERTEX
  5
22604
  8
ALPHA
 10
2418.14338
 20
953.781424
 30
0.0
  0
SEQEND
  5
22605
  8
ALPHA
  0
LINE
  5
20C30
  8
ALPHA
 10
2418.149015
 20
954.684277
 30
0.0
 11
2418.149867
 21
954.636473
 31
0.0
  0
POLYLINE
  5
20C31
  8
ALPHA
 66
     1
 10
0.0
 20
0.0
 30
0.0
  0
VERTEX
  5
22606
  8
ALPHA
 10
2418.092921
 20
955.307164
 30
0.0
  0
VERTEX
  5
22607
  8
ALPHA
 10
2418.09392
 20
955.256615
 30
0.0
  0
VERTEX
  5
22608
  8
ALPHA
 10
2418.09799
 20
955.180802
 30
0.0
  0
VERTEX
  5
22609
  8
ALPHA
 10
2418.104605
 20
955.103061
 30
0.0
  0
VERTEX
  5
2260A
  8
ALPHA
 10
2418.11339
 20
955.029442
 30
0.0
  0
VERTEX
  5
2260B
  8
ALPHA
 10
2418.123445
 20
954.967384
 30
0.0
  0
SEQEND
  5
2260C
  8
ALPHA
  0
POLYLINE
  5
20C39
  8
ALPHA
 66
     1
 10
0.0
 20
0.0
 30
0.0
  0
VERTEX
  5
2260D
  8
ALPHA
 10
2418.149015
 20
954.684277
 30
0.0
  0
VERTEX
  5
2260E
  8
ALPHA
 10
2418.147943
 20
954.730569
 30
0.0
  0
VERTEX
  5
2260F
  8
ALPHA
 10
2418.143005
 20
954.813535
 30
0.0
  0
SEQEND
  5
22610
  8
ALPHA
  0
POLYLINE
  5
20C3E
  8
ALPHA
 66
     1
 10
0.0
 20
0.0
 30
0.0
  0
VERTEX
  5
22611
  8
ALPHA
 10
2415.11593
 20
963.140341
 30
0.0
  0
VERTEX
  5
22612
  8
ALPHA
 10
2415.14212
 20
962.849745
 30
0.0
  0
VERTEX
  5
22613
  8
ALPHA
 10
2415.18527
 20
961.902834
 30
0.0
  0
VERTEX
  5
22614
  8
ALPHA
 10
2415.189973
 20
960.88751
 30
0.0
  0
VERTEX
  5
22615
  8
ALPHA
 10
2415.15306
 20
959.882092
 30
0.0
  0
VERTEX
  5
22616
  8
ALPHA
 10
2415.11593
 20
959.43872
 30
0.0
  0
SEQEND
  5
22617
  8
ALPHA
  0
POLYLINE
  5
20C46
  8
ALPHA
 66
     1
 10
0.0
 20
0.0
 30
0.0
  0
VERTEX
  5
22618
  8
ALPHA
 10
2418.127775
 20
954.315861
 30
0.0
  0
VERTEX
  5
22619
  8
ALPHA
 10
2418.116563
 20
954.237646
 30
0.0
  0
VERTEX
  5
2261A
  8
ALPHA
 10
2418.106736
 20
954.147303
 30
0.0
  0
VERTEX
  5
2261B
  8
ALPHA
 10
2418.099238
 20
954.053358
 30
0.0
  0
VERTEX
  5
2261C
  8
ALPHA
 10
2418.094498
 20
953.963365
 30
0.0
  0
VERTEX
  5
2261D
  8
ALPHA
 10
2418.092887
 20
953.894741
 30
0.0
  0
SEQEND
  5
2261E
  8
ALPHA
  0
LINE
  5
20C4E
  8
ALPHA
 10
2418.127775
 20
954.315861
 30
0.0
 11
2418.138037
 21
954.392029
 31
0.0
  0
LINE
  5
20C4F
  8
ALPHA
 10
2418.09536
 20
955.428291
 30
0.0
 11
2418.100632
 21
955.477818
 31
0.0
  0
POLYLINE
  5
20C50
  8
ALPHA
 66
     1
 10
0.0
 20
0.0
 30
0.0
  0
VERTEX
  5
2261F
  8
ALPHA
 10
2418.138037
 20
954.392029
 30
0.0
  0
VERTEX
  5
22620
  8
ALPHA
 10
2418.144941
 20
954.471946
 30
0.0
  0
VERTEX
  5
22621
  8
ALPHA
 10
2418.14893
 20
954.556307
 30
0.0
  0
SEQEND
  5
22622
  8
ALPHA
  0
LINE
  5
20C55
  8
ALPHA
 10
2418.092725
 20
955.361142
 30
0.0
 11
2418.09536
 21
955.428291
 31
0.0
  0
LINE
  5
20C56
  8
ALPHA
 10
2418.101142
 20
955.452991
 30
0.0
 11
2418.098007
 21
955.438616
 31
0.0
  0
POLYLINE
  5
20C57
  8
ALPHA
 66
     1
 10
0.0
 20
0.0
 30
0.0
  0
VERTEX
  5
22623
  8
ALPHA
 10
2418.100632
 20
955.477818
 30
0.0
  0
VERTEX
  5
22624
  8
ALPHA
 10
2418.108578
 20
955.508634
 30
0.0
  0
VERTEX
  5
22625
  8
ALPHA
 10
2418.116863
 20
955.516892
 30
0.0
  0
SEQEND
  5
22626
  8
ALPHA
  0
POLYLINE
  5
20C5C
  8
ALPHA
 66
     1
 10
0.0
 20
0.0
 30
0.0
  0
VERTEX
  5
22627
  8
ALPHA
 10
2418.146771
 20
955.468595
 30
0.0
  0
VERTEX
  5
22628
  8
ALPHA
 10
2418.141745
 20
955.45509
 30
0.0
  0
VERTEX
  5
22629
  8
ALPHA
 10
2418.137895
 20
955.452991
 30
0.0
  0
SEQEND
  5
2262A
  8
ALPHA
  0
POLYLINE
  5
20C61
  8
ALPHA
 66
     1
 10
0.0
 20
0.0
 30
0.0
  0
VERTEX
  5
2262B
  8
ALPHA
 10
2415.61593
 20
965.613102
 30
0.0
  0
VERTEX
  5
2262C
  8
ALPHA
 10
2415.601522
 20
965.571173
 30
0.0
  0
VERTEX
  5
2262D
  8
ALPHA
 10
2415.248783
 20
965.243718
 30
0.0
  0
VERTEX
  5
2262E
  8
ALPHA
 10
2415.11593
 20
965.203381
 30
0.0
  0
SEQEND
  5
2262F
  8
ALPHA
  0
POLYLINE
  5
20C67
  8
ALPHA
 66
     1
 10
0.0
 20
0.0
 30
0.0
  0
VERTEX
  5
22630
  8
ALPHA
 10
2418.1325
 20
953.763972
 30
0.0
  0
VERTEX
  5
22631
  8
ALPHA
 10
2418.120744
 20
953.743425
 30
0.0
  0
VERTEX
  5
22632
  8
ALPHA
 10
2418.116861
 20
953.741892
 30
0.0
  0
SEQEND
  5
22633
  8
ALPHA
  0
POLYLINE
  5
20C6C
  8
ALPHA
 66
     1
 10
0.0
 20
0.0
 30
0.0
  0
VERTEX
  5
22634
  8
ALPHA
 10
2418.14338
 20
953.781424
 30
0.0
  0
VERTEX
  5
22635
  8
ALPHA
 10
2418.138879
 20
953.777615
 30
0.0
  0
VERTEX
  5
22636
  8
ALPHA
 10
2418.1325
 20
953.763972
 30
0.0
  0
SEQEND
  5
22637
  8
ALPHA
  0
POLYLINE
  5
20C71
  8
ALPHA
 66
     1
 10
0.0
 20
0.0
 30
0.0
  0
VERTEX
  5
22638
  8
ALPHA
 10
2418.141804
 20
955.484999
 30
0.0
  0
VERTEX
  5
22639
  8
ALPHA
 10
2418.144705
 20
955.48689
 30
0.0
  0
VERTEX
  5
2263A
  8
ALPHA
 10
2418.148462
 20
955.500304
 30
0.0
  0
VERTEX
  5
2263B
  8
ALPHA
 10
2418.149946
 20
955.524593
 30
0.0
  0
SEQEND
  5
2263C
  8
ALPHA
  0
LINE
  5
20C77
  8
ALPHA
 10
2418.110121
 20
953.747193
 30
0.0
 11
2418.101666
 21
953.774987
 31
0.0
  0
LINE
  5
20C78
  8
ALPHA
 10
2418.1325
 20
953.763972
 30
0.0
 11
2418.105017
 21
953.763972
 31
0.0
  0
LINE
  5
20C79
  8
ALPHA
 10
2418.100892
 20
953.781424
 30
0.0
 11
2418.143287
 21
953.781424
 31
0.0
  0
LINE
  5
20C7A
  8
ALPHA
 10
2418.127775
 20
954.315861
 30
0.0
 11
2418.118628
 21
954.315861
 31
0.0
  0
LINE
  5
20C7B
  8
ALPHA
 10
2418.123445
 20
954.967384
 30
0.0
 11
2418.115571
 21
954.967384
 31
0.0
  0
LINE
  5
20C7C
  8
ALPHA
 10
2418.097989
 20
955.452991
 30
0.0
 11
2418.137551
 21
955.452991
 31
0.0
  0
LINE
  5
20C7D
  8
ALPHA
 10
2418.102484
 20
955.484999
 30
0.0
 11
2418.141504
 21
955.484999
 31
0.0
  0
LINE
  5
20C7E
  8
ALPHA
 10
2418.129932
 20
955.501142
 30
0.0
 11
2418.106646
 21
955.501142
 31
0.0
  0
LINE
  5
20C7F
  8
ALPHA
 10
2415.61593
 20
958.629392
 30
0.0
 11
2415.11593
 21
958.629392
 31
0.0
  0
LINE
  5
20C80
  8
ALPHA
 10
2418.129932
 20
955.501142
 30
0.0
 11
2418.138499
 21
955.486666
 31
0.0
  0
POLYLINE
  5
20C81
  8
ALPHA
 66
     1
 10
0.0
 20
0.0
 30
0.0
  0
VERTEX
  5
2263D
  8
ALPHA
 10
2418.116863
 20
955.516892
 30
0.0
  0
VERTEX
  5
2263E
  8
ALPHA
 10
2418.11866
 20
955.51655
 30
0.0
  0
VERTEX
  5
2263F
  8
ALPHA
 10
2418.129932
 20
955.501142
 30
0.0
  0
SEQEND
  5
22640
  8
ALPHA
  0
LINE
  5
20C86
  8
ALPHA
 10
2417.61593
 20
965.971059
 30
0.0
 11
2418.751702
 21
965.951293
 31
0.0
  0
LINE
  5
20C87
  8
ALPHA
 10
2417.61593
 20
967.445267
 30
0.0
 11
2419.242108
 21
967.416882
 31
0.0
  0
LINE
  5
20C88
  8
ALPHA
 10
2415.61593
 20
967.480177
 30
0.0
 11
2415.11593
 21
967.488904
 31
0.0
  0
LINE
  5
20C89
  8
ALPHA
 10
2413.61593
 20
969.979392
 30
0.0
 11
2415.11593
 21
969.979392
 31
0.0
  0
LINE
  5
20C8A
  8
ALPHA
 10
2415.61593
 20
972.479392
 30
0.0
 11
2417.61593
 21
972.479392
 31
0.0
  0
LINE
  5
20C8B
  8
ALPHA
 10
2413.61593
 20
972.979392
 30
0.0
 11
2415.11593
 21
972.979392
 31
0.0
  0
LINE
  5
20C8C
  8
ALPHA
 10
2413.61593
 20
974.479392
 30
0.0
 11
2417.61593
 21
974.479392
 31
0.0
  0
POLYLINE
  5
20C8D
  8
ALPHA
 66
     1
 10
0.0
 20
0.0
 30
0.0
  0
VERTEX
  5
22641
  8
ALPHA
 10
2415.11593
 20
967.100834
 30
0.0
  0
VERTEX
  5
22642
  8
ALPHA
 10
2415.249489
 20
966.992732
 30
0.0
  0
VERTEX
  5
22643
  8
ALPHA
 10
2415.459463
 20
966.753573
 30
0.0
  0
VERTEX
  5
22644
  8
ALPHA
 10
2415.61593
 20
966.475022
 30
0.0
  0
SEQEND
  5
22645
  8
ALPHA
  0
LINE
  5
20C93
  8
ALPHA
 10
2418.116861
 20
953.741892
 30
0.0
 11
2418.110121
 21
953.747193
 31
0.0
  0
LINE
  5
20C94
  8
ALPHA
 10
2418.138499
 20
955.486666
 30
0.0
 11
2418.141804
 21
955.484999
 31
0.0
  0
POLYLINE
  5
20C95
  8
ALPHA
 66
     1
 10
0.0
 20
0.0
 30
0.0
  0
VERTEX
  5
22646
  8
ALPHA
 10
2417.61593
 20
967.374149
 30
0.0
  0
VERTEX
  5
22647
  8
ALPHA
 10
2417.833739
 20
967.327651
 30
0.0
  0
VERTEX
  5
22648
  8
ALPHA
 10
2418.318364
 20
966.998842
 30
0.0
  0
VERTEX
  5
22649
  8
ALPHA
 10
2418.640331
 20
966.514056
 30
0.0
  0
VERTEX
  5
2264A
  8
ALPHA
 10
2418.751702
 20
965.951293
 30
0.0
  0
SEQEND
  5
2264B
  8
ALPHA
  0
LINE
  5
20C9C
  8
ALPHA
 10
2415.61593
 20
950.629392
 30
0.0
 11
2415.11593
 21
950.629392
 31
0.0
  0
LINE
  5
20C9D
  8
ALPHA
 10
2336.96593
 20
814.129392
 30
0.0
 11
2314.81593
 21
814.129392
 31
0.0
  0
LINE
  5
20C9E
  8
ALPHA
 10
2326.825702
 20
819.629392
 30
0.0
 11
2325.31593
 21
819.629392
 31
0.0
  0
LINE
  5
20C9F
  8
ALPHA
 10
2326.825702
 20
827.629392
 30
0.0
 11
2325.31593
 21
827.629392
 31
0.0
  0
LINE
  5
20CA0
  8
ALPHA
 10
2314.81593
 20
833.129392
 30
0.0
 11
2336.96593
 21
833.129392
 31
0.0
  0
LINE
  5
20CA1
  8
ALPHA
 10
2325.61593
 20
827.629345
 30
0.0
 11
2325.61593
 21
819.629439
 31
0.0
  0
LINE
  5
20CA2
  8
ALPHA
 10
2325.31593
 20
829.629392
 30
0.0
 11
2325.31593
 21
817.629392
 31
0.0
  0
LINE
  5
20CA3
  8
ALPHA
 10
2321.31593
 20
829.629392
 30
0.0
 11
2321.31593
 21
817.629392
 31
0.0
  0
LINE
  5
20CA4
  8
ALPHA
 10
2320.31593
 20
833.129392
 30
0.0
 11
2320.31593
 21
831.536892
 31
0.0
  0
LINE
  5
20CA5
  8
ALPHA
 10
2319.81593
 20
816.129392
 30
0.0
 11
2319.81593
 21
831.129392
 31
0.0
  0
LINE
  5
20CA6
  8
ALPHA
 10
2315.81593
 20
816.129392
 30
0.0
 11
2315.81593
 21
831.129392
 31
0.0
  0
LINE
  5
20CA7
  8
ALPHA
 10
2314.81593
 20
831.129392
 30
0.0
 11
2314.81593
 21
833.129392
 31
0.0
  0
LINE
  5
20CA8
  8
ALPHA
 10
2314.81593
 20
814.129392
 30
0.0
 11
2314.81593
 21
816.129392
 31
0.0
  0
LINE
  5
20CA9
  8
ALPHA
 10
2314.81593
 20
816.129392
 30
0.0
 11
2319.81593
 21
816.129392
 31
0.0
  0
LINE
  5
20CAA
  8
ALPHA
 10
2321.31593
 20
817.629392
 30
0.0
 11
2325.31593
 21
817.629392
 31
0.0
  0
LINE
  5
20CAB
  8
ALPHA
 10
2319.81593
 20
818.629392
 30
0.0
 11
2321.31593
 21
818.629392
 31
0.0
  0
LINE
  5
20CAC
  8
ALPHA
 10
2325.61593
 20
820.329392
 30
0.0
 11
2325.31593
 21
820.329392
 31
0.0
  0
LINE
  5
20CAD
  8
ALPHA
 10
2321.31593
 20
821.629392
 30
0.0
 11
2319.81593
 21
821.629392
 31
0.0
  0
LINE
  5
20CAE
  8
ALPHA
 10
2321.31593
 20
825.629392
 30
0.0
 11
2319.81593
 21
825.629392
 31
0.0
  0
LINE
  5
20CAF
  8
ALPHA
 10
2325.61593
 20
826.929392
 30
0.0
 11
2325.31593
 21
826.929392
 31
0.0
  0
LINE
  5
20CB0
  8
ALPHA
 10
2319.81593
 20
828.629392
 30
0.0
 11
2321.31593
 21
828.629392
 31
0.0
  0
LINE
  5
20CB1
  8
ALPHA
 10
2321.31593
 20
829.629392
 30
0.0
 11
2325.31593
 21
829.629392
 31
0.0
  0
LINE
  5
20CB2
  8
ALPHA
 10
2314.81593
 20
831.129392
 30
0.0
 11
2319.81593
 21
831.129392
 31
0.0
  0
LINE
  5
20CB3
  8
ALPHA
 10
2320.31593
 20
831.536892
 30
0.0
 11
2314.81593
 21
831.536892
 31
0.0
  0
ARC
  5
20CB4
  8
ALPHA
 10
2326.825702
 20
826.629392
 30
0.0
 40
1.0
 50
33.055731
 51
90.0
  0
ARC
  5
20CB5
  8
ALPHA
 10
2326.825702
 20
820.629392
 30
0.0
 40
1.0
 50
270.0
 51
326.944269
  0
ARC
  5
20CB6
  8
ALPHA
 10
2322.21593
 20
823.629392
 30
0.0
 40
6.5
 50
17.920149
 51
33.055731
  0
ARC
  5
20CB7
  8
ALPHA
 10
2322.21593
 20
823.629392
 30
0.0
 40
6.5
 50
326.944269
 51
342.079851
  0
ARC
  5
20CB8
  8
ALPHA
 10
2328.325702
 20
826.629392
 30
0.0
 40
1.0
 50
33.055731
 51
90.0
  0
ARC
  5
20CB9
  8
ALPHA
 10
2328.325702
 20
820.629392
 30
0.0
 40
1.0
 50
270.0
 51
326.944269
  0
ARC
  5
20CBA
  8
ALPHA
 10
2323.71593
 20
823.629392
 30
0.0
 40
6.5
 50
17.920149
 51
33.055731
  0
ARC
  5
20CBB
  8
ALPHA
 10
2323.71593
 20
823.629392
 30
0.0
 40
6.5
 50
326.944269
 51
342.079851
  0
LINE
  5
20CBC
  8
ALPHA
 10
2330.019176
 20
825.184879
 30
0.0
 11
2329.982508
 21
825.329392
 31
0.0
  0
LINE
  5
20CBD
  8
ALPHA
 10
2328.519176
 20
825.184879
 30
0.0
 11
2328.482508
 21
825.329392
 31
0.0
  0
LINE
  5
20CBE
  8
ALPHA
 10
2329.982508
 20
825.329392
 30
0.0
 11
2329.900596
 21
825.629392
 31
0.0
  0
LINE
  5
20CBF
  8
ALPHA
 10
2328.482508
 20
825.329392
 30
0.0
 11
2328.400596
 21
825.629392
 31
0.0
  0
POLYLINE
  5
20CC0
  8
ALPHA
 66
     1
 10
0.0
 20
0.0
 30
0.0
  0
VERTEX
  5
2264C
  8
ALPHA
 10
2330.019125
 20
822.073701
 30
0.0
  0
VERTEX
  5
2264D
  8
ALPHA
 10
2330.04563
 20
822.194154
 30
0.0
  0
VERTEX
  5
2264E
  8
ALPHA
 10
2330.064405
 20
822.294477
 30
0.0
  0
VERTEX
  5
2264F
  8
ALPHA
 10
2330.077413
 20
822.380344
 30
0.0
  0
VERTEX
  5
22650
  8
ALPHA
 10
2330.085499
 20
822.455585
 30
0.0
  0
VERTEX
  5
22651
  8
ALPHA
 10
2330.088347
 20
822.517204
 30
0.0
  0
VERTEX
  5
22652
  8
ALPHA
 10
2330.085998
 20
822.563848
 30
0.0
  0
VERTEX
  5
22653
  8
ALPHA
 10
2330.078406
 20
822.595244
 30
0.0
  0
VERTEX
  5
22654
  8
ALPHA
 10
2330.065265
 20
822.610014
 30
0.0
  0
VERTEX
  5
22655
  8
ALPHA
 10
2330.060297
 20
822.610886
 30
0.0
  0
SEQEND
  5
22656
  8
ALPHA
  0
POLYLINE
  5
20CCC
  8
ALPHA
 66
     1
 10
0.0
 20
0.0
 30
0.0
  0
VERTEX
  5
22657
  8
ALPHA
 10
2329.901058
 20
824.600841
 30
0.0
  0
VERTEX
  5
22658
  8
ALPHA
 10
2329.901753
 20
824.670785
 30
0.0
  0
VERTEX
  5
22659
  8
ALPHA
 10
2329.908594
 20
824.726523
 30
0.0
  0
VERTEX
  5
2265A
  8
ALPHA
 10
2329.92119
 20
824.763774
 30
0.0
  0
VERTEX
  5
2265B
  8
ALPHA
 10
2329.938738
 20
824.779127
 30
0.0
  0
VERTEX
  5
2265C
  8
ALPHA
 10
2329.941653
 20
824.779392
 30
0.0
  0
SEQEND
  5
2265D
  8
ALPHA
  0
POLYLINE
  5
20CD4
  8
ALPHA
 66
     1
 10
0.0
 20
0.0
 30
0.0
  0
VERTEX
  5
2265E
  8
ALPHA
 10
2328.401058
 20
824.600841
 30
0.0
  0
VERTEX
  5
2265F
  8
ALPHA
 10
2328.401753
 20
824.670785
 30
0.0
  0
VERTEX
  5
22660
  8
ALPHA
 10
2328.408594
 20
824.726523
 30
0.0
  0
VERTEX
  5
22661
  8
ALPHA
 10
2328.42119
 20
824.763774
 30
0.0
  0
VERTEX
  5
22662
  8
ALPHA
 10
2328.438738
 20
824.779127
 30
0.0
  0
VERTEX
  5
22663
  8
ALPHA
 10
2328.441653
 20
824.779392
 30
0.0
  0
SEQEND
  5
22664
  8
ALPHA
  0
LINE
  5
20CDC
  8
ALPHA
 10
2336.96593
 20
833.129392
 30
0.0
 11
2336.96593
 21
814.129392
 31
0.0
  0
LINE
  5
20CDD
  8
ALPHA
 10
2329.163842
 20
827.174846
 30
0.0
 11
2329.163842
 21
824.229392
 31
0.0
  0
LINE
  5
20CDE
  8
ALPHA
 10
2329.163842
 20
820.083937
 30
0.0
 11
2329.163842
 21
823.029392
 31
0.0
  0
LINE
  5
20CDF
  8
ALPHA
 10
2329.11593
 20
823.029392
 30
0.0
 11
2329.11593
 21
824.229392
 31
0.0
  0
LINE
  5
20CE0
  8
ALPHA
 10
2328.325702
 20
824.229392
 30
0.0
 11
2328.325702
 21
823.029392
 31
0.0
  0
LINE
  5
20CE1
  8
ALPHA
 10
2328.325702
 20
827.629392
 30
0.0
 11
2328.325702
 21
825.815545
 31
0.0
  0
LINE
  5
20CE2
  8
ALPHA
 10
2328.325702
 20
819.629392
 30
0.0
 11
2328.325702
 21
821.443238
 31
0.0
  0
LINE
  5
20CE3
  8
ALPHA
 10
2327.663842
 20
827.174846
 30
0.0
 11
2327.663842
 21
824.229392
 31
0.0
  0
LINE
  5
20CE4
  8
ALPHA
 10
2327.663842
 20
820.083937
 30
0.0
 11
2327.663842
 21
823.029392
 31
0.0
  0
LINE
  5
20CE5
  8
ALPHA
 10
2327.61593
 20
823.029392
 30
0.0
 11
2327.61593
 21
824.229392
 31
0.0
  0
LINE
  5
20CE6
  8
ALPHA
 10
2327.11593
 20
827.629345
 30
0.0
 11
2327.11593
 21
827.581194
 31
0.0
  0
LINE
  5
20CE7
  8
ALPHA
 10
2327.11593
 20
819.629439
 30
0.0
 11
2327.11593
 21
819.677589
 31
0.0
  0
LINE
  5
20CE8
  8
ALPHA
 10
2326.825702
 20
827.629392
 30
0.0
 11
2326.825702
 21
819.629392
 31
0.0
  0
POLYLINE
  5
20CE9
  8
ALPHA
 66
     1
 10
0.0
 20
0.0
 30
0.0
  0
VERTEX
  5
22665
  8
ALPHA
 10
2329.901752
 20
822.588003
 30
0.0
  0
VERTEX
  5
22666
  8
ALPHA
 10
2329.901058
 20
822.657949
 30
0.0
  0
VERTEX
  5
22667
  8
ALPHA
 10
2329.906548
 20
822.737242
 30
0.0
  0
VERTEX
  5
22668
  8
ALPHA
 10
2329.917918
 20
822.8204
 30
0.0
  0
VERTEX
  5
22669
  8
ALPHA
 10
2329.934458
 20
822.90129
 30
0.0
  0
VERTEX
  5
2266A
  8
ALPHA
 10
2329.955048
 20
822.973532
 30
0.0
  0
VERTEX
  5
2266B
  8
ALPHA
 10
2329.977456
 20
823.029392
 30
0.0
  0
SEQEND
  5
2266C
  8
ALPHA
  0
POLYLINE
  5
20CF2
  8
ALPHA
 66
     1
 10
0.0
 20
0.0
 30
0.0
  0
VERTEX
  5
2266D
  8
ALPHA
 10
2328.401752
 20
822.588003
 30
0.0
  0
VERTEX
  5
2266E
  8
ALPHA
 10
2328.401058
 20
822.657949
 30
0.0
  0
VERTEX
  5
2266F
  8
ALPHA
 10
2328.406548
 20
822.737242
 30
0.0
  0
VERTEX
  5
22670
  8
ALPHA
 10
2328.417918
 20
822.8204
 30
0.0
  0
VERTEX
  5
22671
  8
ALPHA
 10
2328.434458
 20
822.90129
 30
0.0
  0
VERTEX
  5
22672
  8
ALPHA
 10
2328.455048
 20
822.973532
 30
0.0
  0
VERTEX
  5
22673
  8
ALPHA
 10
2328.477456
 20
823.029392
 30
0.0
  0
SEQEND
  5
22674
  8
ALPHA
  0
LINE
  5
20CFB
  8
ALPHA
 10
2329.900596
 20
821.629392
 30
0.0
 11
2329.982508
 21
821.929392
 31
0.0
  0
LINE
  5
20CFC
  8
ALPHA
 10
2328.400596
 20
821.629392
 30
0.0
 11
2328.482508
 21
821.929392
 31
0.0
  0
LINE
  5
20CFD
  8
ALPHA
 10
2329.982508
 20
821.929392
 30
0.0
 11
2330.019125
 21
822.073701
 31
0.0
  0
LINE
  5
20CFE
  8
ALPHA
 10
2328.482508
 20
821.929392
 30
0.0
 11
2328.519125
 21
822.073701
 31
0.0
  0
POLYLINE
  5
20CFF
  8
ALPHA
 66
     1
 10
0.0
 20
0.0
 30
0.0
  0
VERTEX
  5
22675
  8
ALPHA
 10
2328.519125
 20
822.073701
 30
0.0
  0
VERTEX
  5
22676
  8
ALPHA
 10
2328.54563
 20
822.194154
 30
0.0
  0
VERTEX
  5
22677
  8
ALPHA
 10
2328.564405
 20
822.294477
 30
0.0
  0
VERTEX
  5
22678
  8
ALPHA
 10
2328.577413
 20
822.380344
 30
0.0
  0
VERTEX
  5
22679
  8
ALPHA
 10
2328.585499
 20
822.455585
 30
0.0
  0
VERTEX
  5
2267A
  8
ALPHA
 10
2328.588347
 20
822.517204
 30
0.0
  0
VERTEX
  5
2267B
  8
ALPHA
 10
2328.585998
 20
822.563848
 30
0.0
  0
VERTEX
  5
2267C
  8
ALPHA
 10
2328.578406
 20
822.595244
 30
0.0
  0
VERTEX
  5
2267D
  8
ALPHA
 10
2328.565265
 20
822.610014
 30
0.0
  0
VERTEX
  5
2267E
  8
ALPHA
 10
2328.560297
 20
822.610886
 30
0.0
  0
SEQEND
  5
2267F
  8
ALPHA
  0
POLYLINE
  5
20D0B
  8
ALPHA
 66
     1
 10
0.0
 20
0.0
 30
0.0
  0
VERTEX
  5
22680
  8
ALPHA
 10
2329.982508
 20
822.519584
 30
0.0
  0
VERTEX
  5
22681
  8
ALPHA
 10
2329.959967
 20
822.48824
 30
0.0
  0
VERTEX
  5
22682
  8
ALPHA
 10
2329.941653
 20
822.479392
 30
0.0
  0
SEQEND
  5
22683
  8
ALPHA
  0
POLYLINE
  5
20D10
  8
ALPHA
 66
     1
 10
0.0
 20
0.0
 30
0.0
  0
VERTEX
  5
22684
  8
ALPHA
 10
2328.482508
 20
822.519584
 30
0.0
  0
VERTEX
  5
22685
  8
ALPHA
 10
2328.459967
 20
822.48824
 30
0.0
  0
VERTEX
  5
22686
  8
ALPHA
 10
2328.441653
 20
822.479392
 30
0.0
  0
SEQEND
  5
22687
  8
ALPHA
  0
POLYLINE
  5
20D15
  8
ALPHA
 66
     1
 10
0.0
 20
0.0
 30
0.0
  0
VERTEX
  5
22688
  8
ALPHA
 10
2330.060297
 20
822.610886
 30
0.0
  0
VERTEX
  5
22689
  8
ALPHA
 10
2330.045481
 20
822.605505
 30
0.0
  0
VERTEX
  5
2268A
  8
ALPHA
 10
2330.017978
 20
822.57682
 30
0.0
  0
VERTEX
  5
2268B
  8
ALPHA
 10
2329.982508
 20
822.519584
 30
0.0
  0
SEQEND
  5
2268C
  8
ALPHA
  0
POLYLINE
  5
20D1B
  8
ALPHA
 66
     1
 10
0.0
 20
0.0
 30
0.0
  0
VERTEX
  5
2268D
  8
ALPHA
 10
2328.560297
 20
822.610886
 30
0.0
  0
VERTEX
  5
2268E
  8
ALPHA
 10
2328.545481
 20
822.605505
 30
0.0
  0
VERTEX
  5
2268F
  8
ALPHA
 10
2328.517978
 20
822.57682
 30
0.0
  0
VERTEX
  5
22690
  8
ALPHA
 10
2328.482508
 20
822.519584
 30
0.0
  0
SEQEND
  5
22691
  8
ALPHA
  0
POLYLINE
  5
20D21
  8
ALPHA
 66
     1
 10
0.0
 20
0.0
 30
0.0
  0
VERTEX
  5
22692
  8
ALPHA
 10
2328.477456
 20
824.229392
 30
0.0
  0
VERTEX
  5
22693
  8
ALPHA
 10
2328.455045
 20
824.285259
 30
0.0
  0
VERTEX
  5
22694
  8
ALPHA
 10
2328.434456
 20
824.3575
 30
0.0
  0
VERTEX
  5
22695
  8
ALPHA
 10
2328.417917
 20
824.438389
 30
0.0
  0
VERTEX
  5
22696
  8
ALPHA
 10
2328.406548
 20
824.521545
 30
0.0
  0
VERTEX
  5
22697
  8
ALPHA
 10
2328.401058
 20
824.600841
 30
0.0
  0
SEQEND
  5
22698
  8
ALPHA
  0
POLYLINE
  5
20D29
  8
ALPHA
 66
     1
 10
0.0
 20
0.0
 30
0.0
  0
VERTEX
  5
22699
  8
ALPHA
 10
2330.060278
 20
824.647897
 30
0.0
  0
VERTEX
  5
2269A
  8
ALPHA
 10
2330.064784
 20
824.648606
 30
0.0
  0
VERTEX
  5
2269B
  8
ALPHA
 10
2330.078102
 20
824.662859
 30
0.0
  0
VERTEX
  5
2269C
  8
ALPHA
 10
2330.085883
 20
824.694036
 30
0.0
  0
VERTEX
  5
2269D
  8
ALPHA
 10
2330.088349
 20
824.740936
 30
0.0
  0
VERTEX
  5
2269E
  8
ALPHA
 10
2330.085494
 20
824.803263
 30
0.0
  0
VERTEX
  5
2269F
  8
ALPHA
 10
2330.077339
 20
824.879003
 30
0.0
  0
VERTEX
  5
226A0
  8
ALPHA
 10
2330.064348
 20
824.964638
 30
0.0
  0
VERTEX
  5
226A1
  8
ALPHA
 10
2330.045663
 20
825.064468
 30
0.0
  0
VERTEX
  5
226A2
  8
ALPHA
 10
2330.019176
 20
825.184879
 30
0.0
  0
SEQEND
  5
226A3
  8
ALPHA
  0
POLYLINE
  5
20D35
  8
ALPHA
 66
     1
 10
0.0
 20
0.0
 30
0.0
  0
VERTEX
  5
226A4
  8
ALPHA
 10
2328.560278
 20
824.647897
 30
0.0
  0
VERTEX
  5
226A5
  8
ALPHA
 10
2328.564784
 20
824.648606
 30
0.0
  0
VERTEX
  5
226A6
  8
ALPHA
 10
2328.578102
 20
824.662859
 30
0.0
  0
VERTEX
  5
226A7
  8
ALPHA
 10
2328.585883
 20
824.694036
 30
0.0
  0
VERTEX
  5
226A8
  8
ALPHA
 10
2328.588349
 20
824.740936
 30
0.0
  0
VERTEX
  5
226A9
  8
ALPHA
 10
2328.585494
 20
824.803263
 30
0.0
  0
VERTEX
  5
226AA
  8
ALPHA
 10
2328.577339
 20
824.879003
 30
0.0
  0
VERTEX
  5
226AB
  8
ALPHA
 10
2328.564348
 20
824.964638
 30
0.0
  0
VERTEX
  5
226AC
  8
ALPHA
 10
2328.545663
 20
825.064468
 30
0.0
  0
VERTEX
  5
226AD
  8
ALPHA
 10
2328.519176
 20
825.184879
 30
0.0
  0
SEQEND
  5
226AE
  8
ALPHA
  0
POLYLINE
  5
20D41
  8
ALPHA
 66
     1
 10
0.0
 20
0.0
 30
0.0
  0
VERTEX
  5
226AF
  8
ALPHA
 10
2329.977456
 20
824.229392
 30
0.0
  0
VERTEX
  5
226B0
  8
ALPHA
 10
2329.955045
 20
824.285259
 30
0.0
  0
VERTEX
  5
226B1
  8
ALPHA
 10
2329.934456
 20
824.3575
 30
0.0
  0
VERTEX
  5
226B2
  8
ALPHA
 10
2329.917917
 20
824.438389
 30
0.0
  0
VERTEX
  5
226B3
  8
ALPHA
 10
2329.906548
 20
824.521545
 30
0.0
  0
VERTEX
  5
226B4
  8
ALPHA
 10
2329.901058
 20
824.600841
 30
0.0
  0
SEQEND
  5
226B5
  8
ALPHA
  0
POLYLINE
  5
20D49
  8
ALPHA
 66
     1
 10
0.0
 20
0.0
 30
0.0
  0
VERTEX
  5
226B6
  8
ALPHA
 10
2328.482508
 20
824.739199
 30
0.0
  0
VERTEX
  5
226B7
  8
ALPHA
 10
2328.517603
 20
824.682469
 30
0.0
  0
VERTEX
  5
226B8
  8
ALPHA
 10
2328.544954
 20
824.653636
 30
0.0
  0
VERTEX
  5
226B9
  8
ALPHA
 10
2328.560278
 20
824.647897
 30
0.0
  0
SEQEND
  5
226BA
  8
ALPHA
  0
POLYLINE
  5
20D4F
  8
ALPHA
 66
     1
 10
0.0
 20
0.0
 30
0.0
  0
VERTEX
  5
226BB
  8
ALPHA
 10
2329.982508
 20
824.739199
 30
0.0
  0
VERTEX
  5
226BC
  8
ALPHA
 10
2330.017603
 20
824.682469
 30
0.0
  0
VERTEX
  5
226BD
  8
ALPHA
 10
2330.044954
 20
824.653636
 30
0.0
  0
VERTEX
  5
226BE
  8
ALPHA
 10
2330.060278
 20
824.647897
 30
0.0
  0
SEQEND
  5
226BF
  8
ALPHA
  0
POLYLINE
  5
20D55
  8
ALPHA
 66
     1
 10
0.0
 20
0.0
 30
0.0
  0
VERTEX
  5
226C0
  8
ALPHA
 10
2328.441653
 20
824.779392
 30
0.0
  0
VERTEX
  5
226C1
  8
ALPHA
 10
2328.459968
 20
824.770542
 30
0.0
  0
VERTEX
  5
226C2
  8
ALPHA
 10
2328.482508
 20
824.739199
 30
0.0
  0
SEQEND
  5
226C3
  8
ALPHA
  0
POLYLINE
  5
20D5A
  8
ALPHA
 66
     1
 10
0.0
 20
0.0
 30
0.0
  0
VERTEX
  5
226C4
  8
ALPHA
 10
2329.941653
 20
824.779392
 30
0.0
  0
VERTEX
  5
226C5
  8
ALPHA
 10
2329.959968
 20
824.770542
 30
0.0
  0
VERTEX
  5
226C6
  8
ALPHA
 10
2329.982508
 20
824.739199
 30
0.0
  0
SEQEND
  5
226C7
  8
ALPHA
  0
POLYLINE
  5
20D5F
  8
ALPHA
 66
     1
 10
0.0
 20
0.0
 30
0.0
  0
VERTEX
  5
226C8
  8
ALPHA
 10
2328.441653
 20
822.479392
 30
0.0
  0
VERTEX
  5
226C9
  8
ALPHA
 10
2328.438738
 20
822.479657
 30
0.0
  0
VERTEX
  5
226CA
  8
ALPHA
 10
2328.421189
 20
822.49501
 30
0.0
  0
VERTEX
  5
226CB
  8
ALPHA
 10
2328.408593
 20
822.532263
 30
0.0
  0
VERTEX
  5
226CC
  8
ALPHA
 10
2328.401752
 20
822.588003
 30
0.0
  0
SEQEND
  5
226CD
  8
ALPHA
  0
POLYLINE
  5
20D66
  8
ALPHA
 66
     1
 10
0.0
 20
0.0
 30
0.0
  0
VERTEX
  5
226CE
  8
ALPHA
 10
2329.941653
 20
822.479392
 30
0.0
  0
VERTEX
  5
226CF
  8
ALPHA
 10
2329.938738
 20
822.479657
 30
0.0
  0
VERTEX
  5
226D0
  8
ALPHA
 10
2329.921189
 20
822.49501
 30
0.0
  0
VERTEX
  5
226D1
  8
ALPHA
 10
2329.908593
 20
822.532263
 30
0.0
  0
VERTEX
  5
226D2
  8
ALPHA
 10
2329.901752
 20
822.588003
 30
0.0
  0
SEQEND
  5
226D3
  8
ALPHA
  0
LINE
  5
20D6D
  8
ALPHA
 10
2328.325702
 20
819.629392
 30
0.0
 11
2327.11593
 21
819.629392
 31
0.0
  0
LINE
  5
20D6E
  8
ALPHA
 10
2329.91288
 20
822.519584
 30
0.0
 11
2329.982508
 21
822.519584
 31
0.0
  0
LINE
  5
20D6F
  8
ALPHA
 10
2328.41288
 20
822.519584
 30
0.0
 11
2328.482508
 21
822.519584
 31
0.0
  0
LINE
  5
20D70
  8
ALPHA
 10
2328.559586
 20
822.610887
 30
0.0
 11
2328.401525
 21
822.610887
 31
0.0
  0
LINE
  5
20D71
  8
ALPHA
 10
2330.059586
 20
822.610887
 30
0.0
 11
2329.901525
 21
822.610887
 31
0.0
  0
LINE
  5
20D72
  8
ALPHA
 10
2329.11593
 20
823.029392
 30
0.0
 11
2329.977456
 21
823.029392
 31
0.0
  0
LINE
  5
20D73
  8
ALPHA
 10
2327.61593
 20
823.029392
 30
0.0
 11
2328.477456
 21
823.029392
 31
0.0
  0
LINE
  5
20D74
  8
ALPHA
 10
2328.477456
 20
824.229392
 30
0.0
 11
2327.61593
 21
824.229392
 31
0.0
  0
LINE
  5
20D75
  8
ALPHA
 10
2329.977456
 20
824.229392
 30
0.0
 11
2329.11593
 21
824.229392
 31
0.0
  0
LINE
  5
20D76
  8
ALPHA
 10
2328.559626
 20
824.647896
 30
0.0
 11
2328.401525
 21
824.647896
 31
0.0
  0
LINE
  5
20D77
  8
ALPHA
 10
2330.059626
 20
824.647896
 30
0.0
 11
2329.901525
 21
824.647896
 31
0.0
  0
LINE
  5
20D78
  8
ALPHA
 10
2329.91288
 20
824.739199
 30
0.0
 11
2329.982508
 21
824.739199
 31
0.0
  0
LINE
  5
20D79
  8
ALPHA
 10
2328.41288
 20
824.739199
 30
0.0
 11
2328.482508
 21
824.739199
 31
0.0
  0
LINE
  5
20D7A
  8
ALPHA
 10
2328.325702
 20
827.629392
 30
0.0
 11
2327.11593
 21
827.629392
 31
0.0
  0
LINE
  5
20D7B
  8
ALPHA
 10
2420.71593
 20
828.00777
 30
0.0
 11
2420.71593
 21
781.532404
 31
0.0
  0
POLYLINE
  5
20D7C
  8
ALPHA
 66
     1
 10
0.0
 20
0.0
 30
0.0
  0
VERTEX
  5
226D4
  8
ALPHA
 10
2418.751702
 20
842.886836
 30
0.0
  0
VERTEX
  5
226D5
  8
ALPHA
 10
2418.804907
 20
839.797969
 30
0.0
  0
VERTEX
  5
226D6
  8
ALPHA
 10
2418.892577
 20
837.08318
 30
0.0
  0
VERTEX
  5
226D7
  8
ALPHA
 10
2419.018927
 20
834.54259
 30
0.0
  0
SEQEND
  5
226D8
  8
ALPHA
  0
LINE
  5
20D82
  8
ALPHA
 10
2420.71593
 20
842.90465
 30
0.0
 11
2418.751702
 21
842.886836
 31
0.0
  0
LINE
  5
20D83
  8
ALPHA
 10
2412.11593
 20
833.629392
 30
0.0
 11
2412.11593
 21
813.629392
 31
0.0
  0
POLYLINE
  5
20D84
  8
ALPHA
 66
     1
 10
0.0
 20
0.0
 30
0.0
  0
VERTEX
  5
226D9
  8
ALPHA
 10
2419.018927
 20
834.54259
 30
0.0
  0
VERTEX
  5
226DA
  8
ALPHA
 10
2419.215494
 20
831.766519
 30
0.0
  0
VERTEX
  5
226DB
  8
ALPHA
 10
2419.463104
 20
829.410169
 30
0.0
  0
VERTEX
  5
226DC
  8
ALPHA
 10
2419.737996
 20
827.555798
 30
0.0
  0
VERTEX
  5
226DD
  8
ALPHA
 10
2420.020292
 20
826.268946
 30
0.0
  0
VERTEX
  5
226DE
  8
ALPHA
 10
2420.284263
 20
825.611943
 30
0.0
  0
VERTEX
  5
226DF
  8
ALPHA
 10
2420.419694
 20
825.520472
 30
0.0
  0
SEQEND
  5
226E0
  8
ALPHA
  0
LINE
  5
20D8D
  8
ALPHA
 10
2409.11593
 20
813.629392
 30
0.0
 11
2409.11593
 21
833.629392
 31
0.0
  0
LINE
  5
20D8E
  8
ALPHA
 10
2420.419694
 20
825.520361
 30
0.0
 11
2420.71593
 21
825.561994
 31
0.0
  0
LINE
  5
20D8F
  8
ALPHA
 10
2409.11593
 20
813.629392
 30
0.0
 11
2413.61593
 21
813.629392
 31
0.0
  0
LINE
  5
20D90
  8
ALPHA
 10
2409.11593
 20
833.629392
 30
0.0
 11
2413.61593
 21
833.629392
 31
0.0
  0
LINE
  5
20D91
  8
ALPHA
 10
2420.71593
 20
834.679392
 30
0.0
 11
2419.018927
 21
834.54259
 31
0.0
  0
POLYLINE
  5
20D92
  8
ALPHA
 66
     1
 10
0.0
 20
0.0
 30
0.0
  0
VERTEX
  5
226E1
  8
ALPHA
 10
2415.11593
 20
805.937607
 30
0.0
  0
VERTEX
  5
226E2
  8
ALPHA
 10
2415.230569
 20
806.251142
 30
0.0
  0
VERTEX
  5
226E3
  8
ALPHA
 10
2415.428917
 20
806.424763
 30
0.0
  0
VERTEX
  5
226E4
  8
ALPHA
 10
2415.61593
 20
806.25145
 30
0.0
  0
SEQEND
  5
226E5
  8
ALPHA
  0
POLYLINE
  5
20D98
  8
ALPHA
 66
     1
 10
0.0
 20
0.0
 30
0.0
  0
VERTEX
  5
226E6
  8
ALPHA
 10
2415.61593
 20
796.30391
 30
0.0
  0
VERTEX
  5
226E7
  8
ALPHA
 10
2415.425177
 20
796.134022
 30
0.0
  0
VERTEX
  5
226E8
  8
ALPHA
 10
2415.226639
 20
796.314703
 30
0.0
  0
VERTEX
  5
226E9
  8
ALPHA
 10
2415.11593
 20
796.622504
 30
0.0
  0
SEQEND
  5
226EA
  8
ALPHA
  0
ARC
  5
20D9E
  8
ALPHA
 10
2419.215892
 20
781.536715
 30
0.0
 40
1.5
 50
271.0
 51
360.0
  0
LINE
  5
20D9F
  8
ALPHA
 10
2418.127775
 20
783.315861
 30
0.0
 11
2418.138037
 21
783.392029
 31
0.0
  0
LINE
  5
20DA0
  8
ALPHA
 10
2418.09536
 20
784.428291
 30
0.0
 11
2418.100632
 21
784.477818
 31
0.0
  0
POLYLINE
  5
20DA1
  8
ALPHA
 66
     1
 10
0.0
 20
0.0
 30
0.0
  0
VERTEX
  5
226EB
  8
ALPHA
 10
2418.138037
 20
783.392029
 30
0.0
  0
VERTEX
  5
226EC
  8
ALPHA
 10
2418.144941
 20
783.471946
 30
0.0
  0
VERTEX
  5
226ED
  8
ALPHA
 10
2418.14893
 20
783.556307
 30
0.0
  0
SEQEND
  5
226EE
  8
ALPHA
  0
LINE
  5
20DA6
  8
ALPHA
 10
2418.092725
 20
784.361142
 30
0.0
 11
2418.09536
 21
784.428291
 31
0.0
  0
POLYLINE
  5
20DA7
  8
ALPHA
 66
     1
 10
0.0
 20
0.0
 30
0.0
  0
VERTEX
  5
226EF
  8
ALPHA
 10
2418.149386
 20
783.595312
 30
0.0
  0
VERTEX
  5
226F0
  8
ALPHA
 10
2418.148874
 20
783.566618
 30
0.0
  0
VERTEX
  5
226F1
  8
ALPHA
 10
2418.145588
 20
783.507012
 30
0.0
  0
VERTEX
  5
226F2
  8
ALPHA
 10
2418.140197
 20
783.452217
 30
0.0
  0
VERTEX
  5
226F3
  8
ALPHA
 10
2418.1325
 20
783.403145
 30
0.0
  0
SEQEND
  5
226F4
  8
ALPHA
  0
POLYLINE
  5
20DAE
  8
ALPHA
 66
     1
 10
0.0
 20
0.0
 30
0.0
  0
VERTEX
  5
226F5
  8
ALPHA
 10
2418.149952
 20
784.524541
 30
0.0
  0
VERTEX
  5
226F6
  8
ALPHA
 10
2418.149395
 20
784.492365
 30
0.0
  0
VERTEX
  5
226F7
  8
ALPHA
 10
2418.146771
 20
784.468595
 30
0.0
  0
SEQEND
  5
226F8
  8
ALPHA
  0
LINE
  5
20DB3
  8
ALPHA
 10
2418.149867
 20
783.636473
 30
0.0
 11
2418.14893
 21
783.556307
 31
0.0
  0
LINE
  5
20DB4
  8
ALPHA
 10
2415.51593
 20
778.779279
 30
0.0
 11
2415.51593
 21
773.779504
 31
0.0
  0
POLYLINE
  5
20DB5
  8
ALPHA
 66
     1
 10
0.0
 20
0.0
 30
0.0
  0
VERTEX
  5
226F9
  8
ALPHA
 10
2418.09289
 20
782.888816
 30
0.0
  0
VERTEX
  5
226FA
  8
ALPHA
 10
2418.092853
 20
782.97107
 30
0.0
  0
VERTEX
  5
226FB
  8
ALPHA
 10
2418.095891
 20
783.061854
 30
0.0
  0
VERTEX
  5
226FC
  8
ALPHA
 10
2418.101661
 20
783.154388
 30
0.0
  0
VERTEX
  5
226FD
  8
ALPHA
 10
2418.110173
 20
783.247808
 30
0.0
  0
VERTEX
  5
226FE
  8
ALPHA
 10
2418.120805
 20
783.333386
 30
0.0
  0
VERTEX
  5
226FF
  8
ALPHA
 10
2418.1325
 20
783.403145
 30
0.0
  0
SEQEND
  5
22700
  8
ALPHA
  0
POLYLINE
  5
20DBE
  8
ALPHA
 66
     1
 10
0.0
 20
0.0
 30
0.0
  0
VERTEX
  5
22701
  8
ALPHA
 10
2418.149934
 20
782.734081
 30
0.0
  0
VERTEX
  5
22702
  8
ALPHA
 10
2418.149586
 20
782.758606
 30
0.0
  0
VERTEX
  5
22703
  8
ALPHA
 10
2418.147635
 20
782.774711
 30
0.0
  0
VERTEX
  5
22704
  8
ALPHA
 10
2418.144029
 20
782.781316
 30
0.0
  0
VERTEX
  5
22705
  8
ALPHA
 10
2418.14338
 20
782.781424
 30
0.0
  0
SEQEND
  5
22706
  8
ALPHA
  0
LINE
  5
20DC5
  8
ALPHA
 10
2418.149015
 20
783.684277
 30
0.0
 11
2418.149867
 21
783.636473
 31
0.0
  0
POLYLINE
  5
20DC6
  8
ALPHA
 66
     1
 10
0.0
 20
0.0
 30
0.0
  0
VERTEX
  5
22707
  8
ALPHA
 10
2418.092921
 20
784.307164
 30
0.0
  0
VERTEX
  5
22708
  8
ALPHA
 10
2418.09392
 20
784.256615
 30
0.0
  0
VERTEX
  5
22709
  8
ALPHA
 10
2418.09799
 20
784.180802
 30
0.0
  0
VERTEX
  5
2270A
  8
ALPHA
 10
2418.104605
 20
784.103061
 30
0.0
  0
VERTEX
  5
2270B
  8
ALPHA
 10
2418.11339
 20
784.029442
 30
0.0
  0
VERTEX
  5
2270C
  8
ALPHA
 10
2418.123445
 20
783.967384
 30
0.0
  0
SEQEND
  5
2270D
  8
ALPHA
  0
POLYLINE
  5
20DCE
  8
ALPHA
 66
     1
 10
0.0
 20
0.0
 30
0.0
  0
VERTEX
  5
2270E
  8
ALPHA
 10
2418.149015
 20
783.684277
 30
0.0
  0
VERTEX
  5
2270F
  8
ALPHA
 10
2418.147943
 20
783.730569
 30
0.0
  0
VERTEX
  5
22710
  8
ALPHA
 10
2418.143005
 20
783.813535
 30
0.0
  0
SEQEND
  5
22711
  8
ALPHA
  0
LINE
  5
20DD3
  8
ALPHA
 10
2418.143005
 20
783.813535
 30
0.0
 11
2418.135067
 21
783.892245
 31
0.0
  0
POLYLINE
  5
20DD4
  8
ALPHA
 66
     1
 10
0.0
 20
0.0
 30
0.0
  0
VERTEX
  5
22712
  8
ALPHA
 10
2418.101666
 20
782.774987
 30
0.0
  0
VERTEX
  5
22713
  8
ALPHA
 10
2418.09592
 20
782.822791
 30
0.0
  0
VERTEX
  5
22714
  8
ALPHA
 10
2418.09289
 20
782.888816
 30
0.0
  0
SEQEND
  5
22715
  8
ALPHA
  0
LINE
  5
20DD9
  8
ALPHA
 10
2418.149946
 20
784.524593
 30
0.0
 11
2418.124543
 21
784.726411
 31
0.0
  0
POLYLINE
  5
20DDA
  8
ALPHA
 66
     1
 10
0.0
 20
0.0
 30
0.0
  0
VERTEX
  5
22716
  8
ALPHA
 10
2418.124543
 20
784.726411
 30
0.0
  0
VERTEX
  5
22717
  8
ALPHA
 10
2418.091375
 20
784.94368
 30
0.0
  0
VERTEX
  5
22718
  8
ALPHA
 10
2418.047542
 20
785.183691
 30
0.0
  0
VERTEX
  5
22719
  8
ALPHA
 10
2417.990656
 20
785.446979
 30
0.0
  0
VERTEX
  5
2271A
  8
ALPHA
 10
2417.917423
 20
785.735812
 30
0.0
  0
VERTEX
  5
2271B
  8
ALPHA
 10
2417.823884
 20
786.052001
 30
0.0
  0
VERTEX
  5
2271C
  8
ALPHA
 10
2417.705514
 20
786.396363
 30
0.0
  0
VERTEX
  5
2271D
  8
ALPHA
 10
2417.61593
 20
786.621294
 30
0.0
  0
SEQEND
  5
2271E
  8
ALPHA
  0
LINE
  5
20DE4
  8
ALPHA
 10
2418.135067
 20
783.892245
 30
0.0
 11
2418.123445
 21
783.967384
 31
0.0
  0
POLYLINE
  5
20DE5
  8
ALPHA
 66
     1
 10
0.0
 20
0.0
 30
0.0
  0
VERTEX
  5
2271F
  8
ALPHA
 10
2418.1325
 20
783.855638
 30
0.0
  0
VERTEX
  5
22720
  8
ALPHA
 10
2418.140198
 20
783.806559
 30
0.0
  0
VERTEX
  5
22721
  8
ALPHA
 10
2418.145589
 20
783.75176
 30
0.0
  0
VERTEX
  5
22722
  8
ALPHA
 10
2418.148802
 20
783.693469
 30
0.0
  0
SEQEND
  5
22723
  8
ALPHA
  0
POLYLINE
  5
20DEB
  8
ALPHA
 66
     1
 10
0.0
 20
0.0
 30
0.0
  0
VERTEX
  5
22724
  8
ALPHA
 10
2418.1325
 20
783.855638
 30
0.0
  0
VERTEX
  5
22725
  8
ALPHA
 10
2418.121001
 20
783.924038
 30
0.0
  0
VERTEX
  5
22726
  8
ALPHA
 10
2418.110554
 20
784.007422
 30
0.0
  0
VERTEX
  5
22727
  8
ALPHA
 10
2418.102146
 20
784.098121
 30
0.0
  0
VERTEX
  5
22728
  8
ALPHA
 10
2418.096288
 20
784.188915
 30
0.0
  0
VERTEX
  5
22729
  8
ALPHA
 10
2418.093023
 20
784.278828
 30
0.0
  0
VERTEX
  5
2272A
  8
ALPHA
 10
2418.092725
 20
784.361142
 30
0.0
  0
SEQEND
  5
2272B
  8
ALPHA
  0
POLYLINE
  5
20DF4
  8
ALPHA
 66
     1
 10
0.0
 20
0.0
 30
0.0
  0
VERTEX
  5
2272C
  8
ALPHA
 10
2417.61593
 20
780.63744
 30
0.0
  0
VERTEX
  5
2272D
  8
ALPHA
 10
2417.705633
 20
780.862742
 30
0.0
  0
VERTEX
  5
2272E
  8
ALPHA
 10
2417.823474
 20
781.205497
 30
0.0
  0
VERTEX
  5
2272F
  8
ALPHA
 10
2417.916572
 20
781.519865
 30
0.0
  0
VERTEX
  5
22730
  8
ALPHA
 10
2417.989554
 20
781.807096
 30
0.0
  0
VERTEX
  5
22731
  8
ALPHA
 10
2418.046417
 20
782.069434
 30
0.0
  0
VERTEX
  5
22732
  8
ALPHA
 10
2418.090454
 20
782.309593
 30
0.0
  0
VERTEX
  5
22733
  8
ALPHA
 10
2418.124281
 20
782.530312
 30
0.0
  0
VERTEX
  5
22734
  8
ALPHA
 10
2418.149934
 20
782.734081
 30
0.0
  0
SEQEND
  5
22735
  8
ALPHA
  0
POLYLINE
  5
20DFF
  8
ALPHA
 66
     1
 10
0.0
 20
0.0
 30
0.0
  0
VERTEX
  5
22736
  8
ALPHA
 10
2418.146771
 20
784.468595
 30
0.0
  0
VERTEX
  5
22737
  8
ALPHA
 10
2418.141745
 20
784.45509
 30
0.0
  0
VERTEX
  5
22738
  8
ALPHA
 10
2418.137895
 20
784.452991
 30
0.0
  0
SEQEND
  5
22739
  8
ALPHA
  0
POLYLINE
  5
20E04
  8
ALPHA
 66
     1
 10
0.0
 20
0.0
 30
0.0
  0
VERTEX
  5
2273A
  8
ALPHA
 10
2418.100632
 20
784.477818
 30
0.0
  0
VERTEX
  5
2273B
  8
ALPHA
 10
2418.108578
 20
784.508634
 30
0.0
  0
VERTEX
  5
2273C
  8
ALPHA
 10
2418.116863
 20
784.516892
 30
0.0
  0
SEQEND
  5
2273D
  8
ALPHA
  0
LINE
  5
20E09
  8
ALPHA
 10
2418.101142
 20
784.452991
 30
0.0
 11
2418.098007
 21
784.438616
 31
0.0
  0
POLYLINE
  5
20E0A
  8
ALPHA
 66
     1
 10
0.0
 20
0.0
 30
0.0
  0
VERTEX
  5
2273E
  8
ALPHA
 10
2418.127775
 20
783.315861
 30
0.0
  0
VERTEX
  5
2273F
  8
ALPHA
 10
2418.116563
 20
783.237646
 30
0.0
  0
VERTEX
  5
22740
  8
ALPHA
 10
2418.106736
 20
783.147303
 30
0.0
  0
VERTEX
  5
22741
  8
ALPHA
 10
2418.099238
 20
783.053358
 30
0.0
  0
VERTEX
  5
22742
  8
ALPHA
 10
2418.094498
 20
782.963365
 30
0.0
  0
VERTEX
  5
22743
  8
ALPHA
 10
2418.092887
 20
782.894741
 30
0.0
  0
SEQEND
  5
22744
  8
ALPHA
  0
POLYLINE
  5
20E12
  8
ALPHA
 66
     1
 10
0.0
 20
0.0
 30
0.0
  0
VERTEX
  5
22745
  8
ALPHA
 10
2418.1325
 20
782.763972
 30
0.0
  0
VERTEX
  5
22746
  8
ALPHA
 10
2418.120744
 20
782.743425
 30
0.0
  0
VERTEX
  5
22747
  8
ALPHA
 10
2418.116861
 20
782.741892
 30
0.0
  0
SEQEND
  5
22748
  8
ALPHA
  0
POLYLINE
  5
20E17
  8
ALPHA
 66
     1
 10
0.0
 20
0.0
 30
0.0
  0
VERTEX
  5
22749
  8
ALPHA
 10
2418.14338
 20
782.781424
 30
0.0
  0
VERTEX
  5
2274A
  8
ALPHA
 10
2418.138879
 20
782.777615
 30
0.0
  0
VERTEX
  5
2274B
  8
ALPHA
 10
2418.1325
 20
782.763972
 30
0.0
  0
SEQEND
  5
2274C
  8
ALPHA
  0
LINE
  5
20E1C
  8
ALPHA
 10
2415.11593
 20
773.379392
 30
0.0
 11
2415.51593
 21
773.779392
 31
0.0
  0
POLYLINE
  5
20E1D
  8
ALPHA
 66
     1
 10
0.0
 20
0.0
 30
0.0
  0
VERTEX
  5
2274D
  8
ALPHA
 10
2418.141804
 20
784.484999
 30
0.0
  0
VERTEX
  5
2274E
  8
ALPHA
 10
2418.144705
 20
784.48689
 30
0.0
  0
VERTEX
  5
2274F
  8
ALPHA
 10
2418.148462
 20
784.500304
 30
0.0
  0
VERTEX
  5
22750
  8
ALPHA
 10
2418.149946
 20
784.524593
 30
0.0
  0
SEQEND
  5
22751
  8
ALPHA
  0
LINE
  5
20E23
  8
ALPHA
 10
2413.61593
 20
768.279392
 30
0.0
 11
2415.11593
 21
768.279392
 31
0.0
  0
LINE
  5
20E24
  8
ALPHA
 10
2415.61593
 20
779.629392
 30
0.0
 11
2415.11593
 21
779.629392
 31
0.0
  0
LINE
  5
20E25
  8
ALPHA
 10
2418.1325
 20
782.763972
 30
0.0
 11
2418.105017
 21
782.763972
 31
0.0
  0
LINE
  5
20E26
  8
ALPHA
 10
2418.100892
 20
782.781424
 30
0.0
 11
2418.143287
 21
782.781424
 31
0.0
  0
LINE
  5
20E27
  8
ALPHA
 10
2418.127775
 20
783.315861
 30
0.0
 11
2418.118628
 21
783.315861
 31
0.0
  0
LINE
  5
20E28
  8
ALPHA
 10
2418.123445
 20
783.967384
 30
0.0
 11
2418.115571
 21
783.967384
 31
0.0
  0
LINE
  5
20E29
  8
ALPHA
 10
2418.097989
 20
784.452991
 30
0.0
 11
2418.137551
 21
784.452991
 31
0.0
  0
LINE
  5
20E2A
  8
ALPHA
 10
2418.102484
 20
784.484999
 30
0.0
 11
2418.141504
 21
784.484999
 31
0.0
  0
LINE
  5
20E2B
  8
ALPHA
 10
2418.129932
 20
784.501142
 30
0.0
 11
2418.106646
 21
784.501142
 31
0.0
  0
LINE
  5
20E2C
  8
ALPHA
 10
2415.61593
 20
787.629392
 30
0.0
 11
2415.11593
 21
787.629392
 31
0.0
  0
LINE
  5
20E2D
  8
ALPHA
 10
2417.907087
 20
781.487835
 30
0.0
 11
2420.71593
 21
781.536708
 31
0.0
  0
LINE
  5
20E2E
  8
ALPHA
 10
2419.241686
 20
780.036937
 30
0.0
 11
2417.61593
 21
780.008559
 31
0.0
  0
POLYLINE
  5
20E2F
  8
ALPHA
 66
     1
 10
0.0
 20
0.0
 30
0.0
  0
VERTEX
  5
22752
  8
ALPHA
 10
2418.116863
 20
784.516892
 30
0.0
  0
VERTEX
  5
22753
  8
ALPHA
 10
2418.11866
 20
784.51655
 30
0.0
  0
VERTEX
  5
22754
  8
ALPHA
 10
2418.129932
 20
784.501142
 30
0.0
  0
SEQEND
  5
22755
  8
ALPHA
  0
LINE
  5
20E34
  8
ALPHA
 10
2418.138499
 20
784.486666
 30
0.0
 11
2418.141804
 21
784.484999
 31
0.0
  0
LINE
  5
20E35
  8
ALPHA
 10
2415.11593
 20
779.179392
 30
0.0
 11
2415.51593
 21
778.779392
 31
0.0
  0
LINE
  5
20E36
  8
ALPHA
 10
2418.116861
 20
782.741892
 30
0.0
 11
2418.110121
 21
782.747193
 31
0.0
  0
LINE
  5
20E37
  8
ALPHA
 10
2418.110121
 20
782.747193
 30
0.0
 11
2418.101666
 21
782.774987
 31
0.0
  0
LINE
  5
20E38
  8
ALPHA
 10
2418.129932
 20
784.501142
 30
0.0
 11
2418.138499
 21
784.486666
 31
0.0
  0
LINE
  5
20E98
  8
ALPHA
 10
2388.61593
 20
409.629392
 30
0.0
 11
2269.21593
 21
409.629392
 31
0.0
  0
LINE
  5
20E99
  8
ALPHA
 10
2267.21593
 20
567.629392
 30
0.0
 11
2267.21593
 21
732.629392
 31
0.0
  0
LINE
  5
20E9A
  8
ALPHA
 10
2266.21593
 20
632.629392
 30
0.0
 11
2266.21593
 21
568.147965
 31
0.0
  0
LINE
  5
20E9B
  8
ALPHA
 10
2266.21593
 20
674.629392
 30
0.0
 11
2266.21593
 21
634.629392
 31
0.0
  0
LINE
  5
20E9C
  8
ALPHA
 10
2262.21593
 20
634.629392
 30
0.0
 11
2262.21593
 21
674.629392
 31
0.0
  0
LINE
  5
20E9D
  8
ALPHA
 10
2266.21593
 20
732.114819
 30
0.0
 11
2266.21593
 21
676.629392
 31
0.0
  0
CIRCLE
  5
20E9E
  8
ALPHA
 10
2261.71593
 20
744.629392
 30
0.0
 40
6.0
  0
ARC
  5
20E9F
  8
ALPHA
 10
2259.962228
 20
745.641892
 30
0.0
 40
0.775
 50
70.924786
 51
232.89912
  0
ARC
  5
20EA0
  8
ALPHA
 10
2259.962228
 20
743.616892
 30
0.0
 40
0.775
 50
127.10088
 51
292.89912
  0
LINE
  5
20EA1
  8
ALPHA
 10
2266.21593
 20
728.457965
 30
0.0
 11
2258.87593
 21
728.457965
 31
0.0
  0
LINE
  5
20EA2
  8
ALPHA
 10
2258.87593
 20
729.872178
 30
0.0
 11
2266.21593
 21
729.872178
 31
0.0
  0
LINE
  5
20EA3
  8
ALPHA
 10
2266.21593
 20
730.700605
 30
0.0
 11
2258.87593
 21
730.700605
 31
0.0
  0
LINE
  5
20EA4
  8
ALPHA
 10
2266.21593
 20
732.114819
 30
0.0
 11
2258.87593
 21
732.114819
 31
0.0
  0
LINE
  5
20EA5
  8
ALPHA
 10
2259.21593
 20
732.629392
 30
0.0
 11
2267.21593
 21
732.629392
 31
0.0
  0
LINE
  5
20EA6
  8
ALPHA
 10
2259.21593
 20
756.629392
 30
0.0
 11
2267.21593
 21
756.629392
 31
0.0
  0
LINE
  5
20EA7
  8
ALPHA
 10
2258.87593
 20
757.147965
 30
0.0
 11
2266.21593
 21
757.147965
 31
0.0
  0
LINE
  5
20EA8
  8
ALPHA
 10
2258.87593
 20
758.562178
 30
0.0
 11
2266.21593
 21
758.562178
 31
0.0
  0
LINE
  5
20EA9
  8
ALPHA
 10
2266.21593
 20
759.390605
 30
0.0
 11
2258.87593
 21
759.390605
 31
0.0
  0
LINE
  5
20EAA
  8
ALPHA
 10
2258.87593
 20
760.804819
 30
0.0
 11
2266.21593
 21
760.804819
 31
0.0
  0
LINE
  5
20EAB
  8
ALPHA
 10
2254.704357
 20
736.286392
 30
0.0
 11
2254.704357
 21
752.976392
 31
0.0
  0
LINE
  5
20EAC
  8
ALPHA
 10
2253.290143
 20
736.286392
 30
0.0
 11
2253.290143
 21
752.976392
 31
0.0
  0
LINE
  5
20EAD
  8
ALPHA
 10
2252.461716
 20
752.976392
 30
0.0
 11
2252.461716
 21
736.286392
 31
0.0
  0
LINE
  5
20EAE
  8
ALPHA
 10
2251.047502
 20
736.286392
 30
0.0
 11
2251.047502
 21
752.976392
 31
0.0
  0
ARC
  5
20EAF
  8
ALPHA
 10
2258.87593
 20
752.976392
 30
0.0
 40
4.171573
 50
90.0
 51
180.0
  0
ARC
  5
20EB0
  8
ALPHA
 10
2258.87593
 20
752.976392
 30
0.0
 40
5.585786
 50
90.0
 51
180.0
  0
ARC
  5
20EB1
  8
ALPHA
 10
2258.87593
 20
752.976392
 30
0.0
 40
6.414214
 50
90.0
 51
180.0
  0
ARC
  5
20EB2
  8
ALPHA
 10
2258.87593
 20
752.976392
 30
0.0
 40
7.828427
 50
90.0
 51
180.0
  0
ARC
  5
20EB3
  8
ALPHA
 10
2259.196456
 20
744.629392
 30
0.0
 40
0.494474
 50
307.10088
 51
52.89912
  0
LINE
  5
20EB4
  8
ALPHA
 10
2251.047502
 20
752.976392
 30
0.0
 11
2254.704357
 21
752.976392
 31
0.0
  0
LINE
  5
20EB5
  8
ALPHA
 10
2256.21593
 20
753.629392
 30
0.0
 11
2259.21593
 21
756.629392
 31
0.0
  0
LINE
  5
20EB6
  8
ALPHA
 10
2258.87593
 20
760.804819
 30
0.0
 11
2258.87593
 21
757.147965
 31
0.0
  0
LINE
  5
20EB7
  8
ALPHA
 10
2256.21593
 20
747.010944
 30
0.0
 11
2256.21593
 21
753.629392
 31
0.0
  0
ARC
  5
20EB8
  8
ALPHA
 10
2258.87593
 20
736.286392
 30
0.0
 40
4.171573
 50
180.0
 51
270.0
  0
ARC
  5
20EB9
  8
ALPHA
 10
2258.87593
 20
736.286392
 30
0.0
 40
5.585786
 50
180.0
 51
270.0
  0
ARC
  5
20EBA
  8
ALPHA
 10
2258.87593
 20
736.286392
 30
0.0
 40
6.414214
 50
180.0
 51
270.0
  0
ARC
  5
20EBB
  8
ALPHA
 10
2258.87593
 20
736.286392
 30
0.0
 40
7.828427
 50
180.0
 51
270.0
  0
LINE
  5
20EBC
  8
ALPHA
 10
2256.21593
 20
735.629392
 30
0.0
 11
2259.21593
 21
732.629392
 31
0.0
  0
LINE
  5
20EBD
  8
ALPHA
 10
2251.047502
 20
736.286392
 30
0.0
 11
2254.704357
 21
736.286392
 31
0.0
  0
LINE
  5
20EBE
  8
ALPHA
 10
2258.87593
 20
732.114819
 30
0.0
 11
2258.87593
 21
728.457965
 31
0.0
  0
LINE
  5
20EBF
  8
ALPHA
 10
2256.21593
 20
735.629392
 30
0.0
 11
2256.21593
 21
742.24784
 31
0.0
  0
ARC
  5
20EC0
  8
ALPHA
 10
2263.399816
 20
743.504602
 30
0.0
 40
0.775
 50
239.523001
 51
42.188131
  0
ARC
  5
20EC1
  8
ALPHA
 10
2260.441022
 20
747.026501
 30
0.0
 40
0.690055
 50
250.924786
 51
351.211257
  0
ARC
  5
20EC2
  8
ALPHA
 10
2261.71593
 20
746.829392
 30
0.0
 40
0.6
 50
12.828196
 51
171.211257
  0
ARC
  5
20EC3
  8
ALPHA
 10
2263.178366
 20
747.162406
 30
0.0
 40
0.899873
 50
192.828196
 51
287.171804
  0
ARC
  5
20EC4
  8
ALPHA
 10
2263.621185
 20
745.729392
 30
0.0
 40
0.6
 50
312.828196
 51
107.171804
  0
ARC
  5
20EC5
  8
ALPHA
 10
2264.640803
 20
744.629392
 30
0.0
 40
0.899873
 50
132.828196
 51
222.188131
  0
LINE
  5
20EC6
  8
ALPHA
 10
2266.21593
 20
756.629392
 30
0.0
 11
2266.21593
 21
757.147965
 31
0.0
  0
LINE
  5
20EC7
  8
ALPHA
 10
2262.61593
 20
746.459956
 30
0.0
 11
2262.61593
 21
750.561508
 31
0.0
  0
LINE
  5
20EC8
  8
ALPHA
 10
2260.81593
 20
750.561508
 30
0.0
 11
2260.81593
 21
746.447174
 31
0.0
  0
ARC
  5
20EC9
  8
ALPHA
 10
2262.832553
 20
742.540695
 30
0.0
 40
0.343438
 50
59.523001
 51
176.735168
  0
ARC
  5
20ECA
  8
ALPHA
 10
2261.71593
 20
742.604392
 30
0.0
 40
0.775
 50
187.10088
 51
356.735168
  0
ARC
  5
20ECB
  8
ALPHA
 10
2260.456193
 20
742.447464
 30
0.0
 40
0.494474
 50
7.10088
 51
112.89912
  0
LINE
  5
20ECC
  8
ALPHA
 10
2266.21593
 20
732.114819
 30
0.0
 11
2266.21593
 21
732.629392
 31
0.0
  0
LINE
  5
20ECD
  8
ALPHA
 10
2262.61593
 20
738.697276
 30
0.0
 11
2262.61593
 21
742.807199
 31
0.0
  0
LINE
  5
20ECE
  8
ALPHA
 10
2260.81593
 20
742.786718
 30
0.0
 11
2260.81593
 21
738.697276
 31
0.0
  0
LINE
  5
20ECF
  8
ALPHA
 10
2261.21593
 20
674.629392
 30
0.0
 11
2267.21593
 21
674.629392
 31
0.0
  0
LINE
  5
20ED0
  8
ALPHA
 10
2266.21593
 20
676.629392
 30
0.0
 11
2261.21593
 21
676.629392
 31
0.0
  0
LINE
  5
20ED1
  8
ALPHA
 10
2261.21593
 20
676.629392
 30
0.0
 11
2261.21593
 21
674.629392
 31
0.0
  0
LINE
  5
20ED2
  8
ALPHA
 10
2266.21593
 20
632.629392
 30
0.0
 11
2261.21593
 21
632.629392
 31
0.0
  0
LINE
  5
20ED3
  8
ALPHA
 10
2261.21593
 20
634.629392
 30
0.0
 11
2267.21593
 21
634.629392
 31
0.0
  0
LINE
  5
20ED4
  8
ALPHA
 10
2261.21593
 20
634.629392
 30
0.0
 11
2261.21593
 21
632.629392
 31
0.0
  0
LINE
  5
20ED5
  8
ALPHA
 10
2266.71593
 20
621.229392
 30
0.0
 11
2266.71593
 21
596.229392
 31
0.0
  0
LINE
  5
20ED6
  8
ALPHA
 10
2266.71593
 20
607.229392
 30
0.0
 11
2267.21593
 21
607.229392
 31
0.0
  0
LINE
  5
20ED7
  8
ALPHA
 10
2266.21593
 20
618.229392
 30
0.0
 11
2266.71593
 21
618.229392
 31
0.0
  0
LINE
  5
20ED8
  8
ALPHA
 10
2266.21593
 20
621.229392
 30
0.0
 11
2267.21593
 21
621.229392
 31
0.0
  0
ARC
  5
20ED9
  8
ALPHA
 10
2262.71593
 20
596.229392
 30
0.0
 40
4.0
 50
332.371993
 51
0.0
  0
LINE
  5
20EDA
  8
ALPHA
 10
2266.21593
 20
596.229392
 30
0.0
 11
2266.71593
 21
596.229392
 31
0.0
  0
LINE
  5
20EDB
  8
ALPHA
 10
2121.21593
 20
409.629392
 30
0.0
 11
2263.21593
 21
409.629392
 31
0.0
  0
LINE
  5
20EDC
  8
ALPHA
 10
2267.21593
 20
448.629392
 30
0.0
 11
2267.21593
 21
543.629392
 31
0.0
  0
LINE
  5
20EDD
  8
ALPHA
 10
2266.21593
 20
543.114819
 30
0.0
 11
2266.21593
 21
449.147965
 31
0.0
  0
CIRCLE
  5
20EDE
  8
ALPHA
 10
2261.71593
 20
555.629392
 30
0.0
 40
6.0
  0
ARC
  5
20EDF
  8
ALPHA
 10
2259.962228
 20
556.641892
 30
0.0
 40
0.775
 50
70.924786
 51
232.89912
  0
ARC
  5
20EE0
  8
ALPHA
 10
2259.962228
 20
554.616892
 30
0.0
 40
0.775
 50
127.10088
 51
292.89912
  0
LINE
  5
20EE1
  8
ALPHA
 10
2266.21593
 20
539.457965
 30
0.0
 11
2258.87593
 21
539.457965
 31
0.0
  0
LINE
  5
20EE2
  8
ALPHA
 10
2258.87593
 20
540.872178
 30
0.0
 11
2266.21593
 21
540.872178
 31
0.0
  0
LINE
  5
20EE3
  8
ALPHA
 10
2266.21593
 20
541.700605
 30
0.0
 11
2258.87593
 21
541.700605
 31
0.0
  0
LINE
  5
20EE4
  8
ALPHA
 10
2266.21593
 20
543.114819
 30
0.0
 11
2258.87593
 21
543.114819
 31
0.0
  0
LINE
  5
20EE5
  8
ALPHA
 10
2259.21593
 20
543.629392
 30
0.0
 11
2267.21593
 21
543.629392
 31
0.0
  0
LINE
  5
20EE6
  8
ALPHA
 10
2259.21593
 20
567.629392
 30
0.0
 11
2267.21593
 21
567.629392
 31
0.0
  0
LINE
  5
20EE7
  8
ALPHA
 10
2258.87593
 20
568.147965
 30
0.0
 11
2266.21593
 21
568.147965
 31
0.0
  0
LINE
  5
20EE8
  8
ALPHA
 10
2258.87593
 20
569.562178
 30
0.0
 11
2266.21593
 21
569.562178
 31
0.0
  0
LINE
  5
20EE9
  8
ALPHA
 10
2266.21593
 20
570.390605
 30
0.0
 11
2258.87593
 21
570.390605
 31
0.0
  0
LINE
  5
20EEA
  8
ALPHA
 10
2258.87593
 20
571.804819
 30
0.0
 11
2266.21593
 21
571.804819
 31
0.0
  0
LINE
  5
20EEB
  8
ALPHA
 10
2254.704357
 20
547.286392
 30
0.0
 11
2254.704357
 21
563.976392
 31
0.0
  0
LINE
  5
20EEC
  8
ALPHA
 10
2253.290143
 20
547.286392
 30
0.0
 11
2253.290143
 21
563.976392
 31
0.0
  0
LINE
  5
20EED
  8
ALPHA
 10
2252.461716
 20
563.976392
 30
0.0
 11
2252.461716
 21
547.286392
 31
0.0
  0
LINE
  5
20EEE
  8
ALPHA
 10
2251.047502
 20
547.286392
 30
0.0
 11
2251.047502
 21
563.976392
 31
0.0
  0
ARC
  5
20EEF
  8
ALPHA
 10
2258.87593
 20
563.976392
 30
0.0
 40
4.171573
 50
90.0
 51
180.0
  0
ARC
  5
20EF0
  8
ALPHA
 10
2258.87593
 20
563.976392
 30
0.0
 40
7.828427
 50
90.0
 51
180.0
  0
ARC
  5
20EF1
  8
ALPHA
 10
2258.87593
 20
563.976392
 30
0.0
 40
5.585786
 50
90.0
 51
180.0
  0
ARC
  5
20EF2
  8
ALPHA
 10
2258.87593
 20
563.976392
 30
0.0
 40
6.414214
 50
90.0
 51
180.0
  0
LINE
  5
20EF3
  8
ALPHA
 10
2251.047502
 20
563.976392
 30
0.0
 11
2254.704357
 21
563.976392
 31
0.0
  0
LINE
  5
20EF4
  8
ALPHA
 10
2256.21593
 20
564.629392
 30
0.0
 11
2259.21593
 21
567.629392
 31
0.0
  0
LINE
  5
20EF5
  8
ALPHA
 10
2258.87593
 20
571.804819
 30
0.0
 11
2258.87593
 21
568.147965
 31
0.0
  0
LINE
  5
20EF6
  8
ALPHA
 10
2256.21593
 20
558.010944
 30
0.0
 11
2256.21593
 21
564.629392
 31
0.0
  0
ARC
  5
20EF7
  8
ALPHA
 10
2258.87593
 20
547.286392
 30
0.0
 40
4.171573
 50
180.0
 51
270.0
  0
ARC
  5
20EF8
  8
ALPHA
 10
2258.87593
 20
547.286392
 30
0.0
 40
7.828427
 50
180.0
 51
270.0
  0
ARC
  5
20EF9
  8
ALPHA
 10
2258.87593
 20
547.286392
 30
0.0
 40
5.585786
 50
180.0
 51
270.0
  0
ARC
  5
20EFA
  8
ALPHA
 10
2258.87593
 20
547.286392
 30
0.0
 40
6.414214
 50
180.0
 51
270.0
  0
ARC
  5
20EFB
  8
ALPHA
 10
2259.196456
 20
555.629392
 30
0.0
 40
0.494474
 50
307.10088
 51
52.89912
  0
LINE
  5
20EFC
  8
ALPHA
 10
2251.047502
 20
547.286392
 30
0.0
 11
2254.704357
 21
547.286392
 31
0.0
  0
LINE
  5
20EFD
  8
ALPHA
 10
2256.21593
 20
546.629392
 30
0.0
 11
2259.21593
 21
543.629392
 31
0.0
  0
LINE
  5
20EFE
  8
ALPHA
 10
2258.87593
 20
543.114819
 30
0.0
 11
2258.87593
 21
539.457965
 31
0.0
  0
LINE
  5
20EFF
  8
ALPHA
 10
2256.21593
 20
546.629392
 30
0.0
 11
2256.21593
 21
553.24784
 31
0.0
  0
ARC
  5
20F00
  8
ALPHA
 10
2260.441022
 20
558.026501
 30
0.0
 40
0.690055
 50
250.924786
 51
351.211257
  0
ARC
  5
20F01
  8
ALPHA
 10
2263.178366
 20
558.162406
 30
0.0
 40
0.899873
 50
192.828196
 51
287.171804
  0
ARC
  5
20F02
  8
ALPHA
 10
2263.621185
 20
556.729392
 30
0.0
 40
0.6
 50
312.828196
 51
107.171804
  0
LINE
  5
20F03
  8
ALPHA
 10
2262.61593
 20
557.459956
 30
0.0
 11
2262.61593
 21
561.561508
 31
0.0
  0
LINE
  5
20F04
  8
ALPHA
 10
2260.81593
 20
561.561508
 30
0.0
 11
2260.81593
 21
557.447174
 31
0.0
  0
ARC
  5
20F05
  8
ALPHA
 10
2261.71593
 20
557.829392
 30
0.0
 40
0.6
 50
12.828196
 51
171.211257
  0
LINE
  5
20F06
  8
ALPHA
 10
2266.21593
 20
567.629392
 30
0.0
 11
2266.21593
 21
568.147965
 31
0.0
  0
ARC
  5
20F07
  8
ALPHA
 10
2262.832553
 20
553.540695
 30
0.0
 40
0.343438
 50
59.523001
 51
176.735168
  0
ARC
  5
20F08
  8
ALPHA
 10
2261.71593
 20
553.604392
 30
0.0
 40
0.775
 50
187.10088
 51
356.735168
  0
ARC
  5
20F09
  8
ALPHA
 10
2260.456193
 20
553.447464
 30
0.0
 40
0.494474
 50
7.10088
 51
112.89912
  0
ARC
  5
20F0A
  8
ALPHA
 10
2264.640803
 20
555.629392
 30
0.0
 40
0.899873
 50
132.828196
 51
222.188131
  0
ARC
  5
20F0B
  8
ALPHA
 10
2263.399816
 20
554.504602
 30
0.0
 40
0.775
 50
239.523001
 51
42.188131
  0
LINE
  5
20F0C
  8
ALPHA
 10
2266.21593
 20
543.114819
 30
0.0
 11
2266.21593
 21
543.629392
 31
0.0
  0
LINE
  5
20F0D
  8
ALPHA
 10
2262.61593
 20
549.697276
 30
0.0
 11
2262.61593
 21
553.807199
 31
0.0
  0
LINE
  5
20F0E
  8
ALPHA
 10
2260.81593
 20
553.786718
 30
0.0
 11
2260.81593
 21
549.697276
 31
0.0
  0
CIRCLE
  5
20F0F
  8
ALPHA
 10
2181.21593
 20
439.629392
 30
0.0
 40
15.0
  0
CIRCLE
  5
20F10
  8
ALPHA
 10
2261.71593
 20
436.629392
 30
0.0
 40
6.0
  0
LINE
  5
20F11
  8
ALPHA
 10
2262.61593
 20
438.459956
 30
0.0
 11
2262.61593
 21
442.561508
 31
0.0
  0
LINE
  5
20F12
  8
ALPHA
 10
2260.81593
 20
442.561508
 30
0.0
 11
2260.81593
 21
438.447174
 31
0.0
  0
LINE
  5
20F13
  8
ALPHA
 10
2256.21593
 20
439.010944
 30
0.0
 11
2256.21593
 21
445.629392
 31
0.0
  0
LINE
  5
20F14
  8
ALPHA
 10
2254.704357
 20
428.286392
 30
0.0
 11
2254.704357
 21
444.976392
 31
0.0
  0
LINE
  5
20F15
  8
ALPHA
 10
2253.290143
 20
428.286392
 30
0.0
 11
2253.290143
 21
444.976392
 31
0.0
  0
LINE
  5
20F16
  8
ALPHA
 10
2252.461716
 20
444.976392
 30
0.0
 11
2252.461716
 21
428.286392
 31
0.0
  0
LINE
  5
20F17
  8
ALPHA
 10
2251.047502
 20
428.286392
 30
0.0
 11
2251.047502
 21
444.976392
 31
0.0
  0
LINE
  5
20F18
  8
ALPHA
 10
2259.21593
 20
448.629392
 30
0.0
 11
2267.21593
 21
448.629392
 31
0.0
  0
LINE
  5
20F19
  8
ALPHA
 10
2258.87593
 20
449.147965
 30
0.0
 11
2266.21593
 21
449.147965
 31
0.0
  0
LINE
  5
20F1A
  8
ALPHA
 10
2258.87593
 20
450.562178
 30
0.0
 11
2266.21593
 21
450.562178
 31
0.0
  0
LINE
  5
20F1B
  8
ALPHA
 10
2266.21593
 20
451.390605
 30
0.0
 11
2258.87593
 21
451.390605
 31
0.0
  0
LINE
  5
20F1C
  8
ALPHA
 10
2258.87593
 20
452.804819
 30
0.0
 11
2266.21593
 21
452.804819
 31
0.0
  0
ARC
  5
20F1D
  8
ALPHA
 10
2258.87593
 20
444.976392
 30
0.0
 40
4.171573
 50
90.0
 51
180.0
  0
ARC
  5
20F1E
  8
ALPHA
 10
2258.87593
 20
444.976392
 30
0.0
 40
7.828427
 50
90.0
 51
180.0
  0
ARC
  5
20F1F
  8
ALPHA
 10
2258.87593
 20
444.976392
 30
0.0
 40
5.585786
 50
90.0
 51
180.0
  0
ARC
  5
20F20
  8
ALPHA
 10
2258.87593
 20
444.976392
 30
0.0
 40
6.414214
 50
90.0
 51
180.0
  0
LINE
  5
20F21
  8
ALPHA
 10
2251.047502
 20
444.976392
 30
0.0
 11
2254.704357
 21
444.976392
 31
0.0
  0
LINE
  5
20F22
  8
ALPHA
 10
2256.21593
 20
445.629392
 30
0.0
 11
2259.21593
 21
448.629392
 31
0.0
  0
LINE
  5
20F23
  8
ALPHA
 10
2258.87593
 20
452.804819
 30
0.0
 11
2258.87593
 21
449.147965
 31
0.0
  0
LINE
  5
20F24
  8
ALPHA
 10
2266.21593
 20
448.629392
 30
0.0
 11
2266.21593
 21
449.147965
 31
0.0
  0
ARC
  5
20F25
  8
ALPHA
 10
2259.962228
 20
437.641892
 30
0.0
 40
0.775
 50
70.924786
 51
232.89912
  0
ARC
  5
20F26
  8
ALPHA
 10
2259.962228
 20
435.616892
 30
0.0
 40
0.775
 50
127.10088
 51
292.89912
  0
LINE
  5
20F27
  8
ALPHA
 10
2266.21593
 20
420.457965
 30
0.0
 11
2258.87593
 21
420.457965
 31
0.0
  0
LINE
  5
20F28
  8
ALPHA
 10
2258.87593
 20
421.872178
 30
0.0
 11
2266.21593
 21
421.872178
 31
0.0
  0
LINE
  5
20F29
  8
ALPHA
 10
2266.21593
 20
422.700605
 30
0.0
 11
2258.87593
 21
422.700605
 31
0.0
  0
LINE
  5
20F2A
  8
ALPHA
 10
2266.21593
 20
424.114819
 30
0.0
 11
2258.87593
 21
424.114819
 31
0.0
  0
LINE
  5
20F2B
  8
ALPHA
 10
2259.21593
 20
424.629392
 30
0.0
 11
2267.21593
 21
424.629392
 31
0.0
  0
ARC
  5
20F2C
  8
ALPHA
 10
2258.87593
 20
428.286392
 30
0.0
 40
4.171573
 50
180.0
 51
270.0
  0
ARC
  5
20F2D
  8
ALPHA
 10
2258.87593
 20
428.286392
 30
0.0
 40
7.828427
 50
180.0
 51
270.0
  0
ARC
  5
20F2E
  8
ALPHA
 10
2258.87593
 20
428.286392
 30
0.0
 40
5.585786
 50
180.0
 51
270.0
  0
ARC
  5
20F2F
  8
ALPHA
 10
2258.87593
 20
428.286392
 30
0.0
 40
6.414214
 50
180.0
 51
270.0
  0
ARC
  5
20F30
  8
ALPHA
 10
2259.196456
 20
436.629392
 30
0.0
 40
0.494474
 50
307.10088
 51
52.89912
  0
LINE
  5
20F31
  8
ALPHA
 10
2251.047502
 20
428.286392
 30
0.0
 11
2254.704357
 21
428.286392
 31
0.0
  0
LINE
  5
20F32
  8
ALPHA
 10
2256.21593
 20
427.629392
 30
0.0
 11
2259.21593
 21
424.629392
 31
0.0
  0
LINE
  5
20F33
  8
ALPHA
 10
2258.87593
 20
424.114819
 30
0.0
 11
2258.87593
 21
420.457965
 31
0.0
  0
LINE
  5
20F34
  8
ALPHA
 10
2256.21593
 20
427.629392
 30
0.0
 11
2256.21593
 21
434.24784
 31
0.0
  0
LINE
  5
20F35
  8
ALPHA
 10
2266.21593
 20
424.114819
 30
0.0
 11
2266.21593
 21
412.629392
 31
0.0
  0
ARC
  5
20F36
  8
ALPHA
 10
2262.832553
 20
434.540695
 30
0.0
 40
0.343438
 50
59.523001
 51
176.735168
  0
ARC
  5
20F37
  8
ALPHA
 10
2261.71593
 20
434.604392
 30
0.0
 40
0.775
 50
187.10088
 51
356.735168
  0
ARC
  5
20F38
  8
ALPHA
 10
2260.456193
 20
434.447464
 30
0.0
 40
0.494474
 50
7.10088
 51
112.89912
  0
ARC
  5
20F39
  8
ALPHA
 10
2260.441022
 20
439.026501
 30
0.0
 40
0.690055
 50
250.924786
 51
351.211257
  0
ARC
  5
20F3A
  8
ALPHA
 10
2261.71593
 20
438.829392
 30
0.0
 40
0.6
 50
12.828196
 51
171.211257
  0
ARC
  5
20F3B
  8
ALPHA
 10
2263.178366
 20
439.162406
 30
0.0
 40
0.899873
 50
192.828196
 51
287.171804
  0
ARC
  5
20F3C
  8
ALPHA
 10
2263.621185
 20
437.729392
 30
0.0
 40
0.6
 50
312.828196
 51
107.171804
  0
ARC
  5
20F3D
  8
ALPHA
 10
2264.640803
 20
436.629392
 30
0.0
 40
0.899873
 50
132.828196
 51
222.188131
  0
ARC
  5
20F3E
  8
ALPHA
 10
2263.399816
 20
435.504602
 30
0.0
 40
0.775
 50
239.523001
 51
42.188131
  0
LINE
  5
20F3F
  8
ALPHA
 10
2266.21593
 20
421.629392
 30
0.0
 11
2267.21593
 21
421.629392
 31
0.0
  0
LINE
  5
20F40
  8
ALPHA
 10
2267.21593
 20
421.629392
 30
0.0
 11
2267.21593
 21
424.629392
 31
0.0
  0
LINE
  5
20F41
  8
ALPHA
 10
2266.21593
 20
424.114819
 30
0.0
 11
2266.21593
 21
424.629392
 31
0.0
  0
LINE
  5
20F42
  8
ALPHA
 10
2262.61593
 20
430.697276
 30
0.0
 11
2262.61593
 21
434.807199
 31
0.0
  0
LINE
  5
20F43
  8
ALPHA
 10
2260.81593
 20
434.786718
 30
0.0
 11
2260.81593
 21
430.697276
 31
0.0
  0
LINE
  5
20F44
  8
ALPHA
 10
2269.21593
 20
409.629392
 30
0.0
 11
2266.21593
 21
412.629392
 31
0.0
  0
LINE
  5
20F45
  8
ALPHA
 10
2263.21593
 20
409.629392
 30
0.0
 11
2266.21593
 21
412.629392
 31
0.0
  0
LINE
  5
21282
  8
ALPHA
 10
2413.61593
 20
765.279392
 30
0.0
 11
2413.61593
 21
412.629392
 31
0.0
  0
LINE
  5
21283
  8
ALPHA
 10
2421.41593
 20
720.029392
 30
0.0
 11
2421.41593
 21
721.229392
 31
0.0
  0
LINE
  5
21284
  8
ALPHA
 10
2420.625702
 20
724.629392
 30
0.0
 11
2420.625702
 21
716.629392
 31
0.0
  0
LINE
  5
21285
  8
ALPHA
 10
2419.41593
 20
724.629322
 30
0.0
 11
2419.41593
 21
716.629462
 31
0.0
  0
LINE
  5
21286
  8
ALPHA
 10
2418.61593
 20
716.629462
 30
0.0
 11
2418.61593
 21
724.629322
 31
0.0
  0
LINE
  5
21287
  8
ALPHA
 10
2417.61593
 20
763.279392
 30
0.0
 11
2413.61593
 21
763.279392
 31
0.0
  0
LINE
  5
21288
  8
ALPHA
 10
2415.61593
 20
765.279392
 30
0.0
 11
2417.61593
 21
765.279392
 31
0.0
  0
LINE
  5
21289
  8
ALPHA
 10
2413.61593
 20
765.279392
 30
0.0
 11
2415.11593
 21
765.279392
 31
0.0
  0
ARC
  5
2128A
  8
ALPHA
 10
2420.625702
 20
723.629392
 30
0.0
 40
1.0
 50
33.055731
 51
90.0
  0
ARC
  5
2128B
  8
ALPHA
 10
2416.01593
 20
720.629392
 30
0.0
 40
6.5
 50
17.89694
 51
33.055731
  0
POLYLINE
  5
2128C
  8
ALPHA
 66
     1
 10
0.0
 20
0.0
 30
0.0
  0
VERTEX
  5
22756
  8
ALPHA
 10
2422.201057
 20
721.600859
 30
0.0
  0
VERTEX
  5
22757
  8
ALPHA
 10
2422.201757
 20
721.670854
 30
0.0
  0
VERTEX
  5
22758
  8
ALPHA
 10
2422.208613
 20
721.726614
 30
0.0
  0
VERTEX
  5
22759
  8
ALPHA
 10
2422.221237
 20
721.763856
 30
0.0
  0
VERTEX
  5
2275A
  8
ALPHA
 10
2422.238804
 20
721.779139
 30
0.0
  0
VERTEX
  5
2275B
  8
ALPHA
 10
2422.241654
 20
721.779392
 30
0.0
  0
SEQEND
  5
2275C
  8
ALPHA
  0
LINE
  5
21294
  8
ALPHA
 10
2421.463842
 20
724.174846
 30
0.0
 11
2421.463842
 21
721.229392
 31
0.0
  0
LINE
  5
21295
  8
ALPHA
 10
2422.321143
 20
722.176503
 30
0.0
 11
2422.282508
 21
722.329392
 31
0.0
  0
LINE
  5
21296
  8
ALPHA
 10
2422.282508
 20
722.329392
 30
0.0
 11
2422.207829
 21
722.603034
 31
0.0
  0
LINE
  5
21297
  8
ALPHA
 10
2422.200596
 20
722.629392
 30
0.0
 11
2422.207829
 21
722.603034
 31
0.0
  0
POLYLINE
  5
21298
  8
ALPHA
 66
     1
 10
0.0
 20
0.0
 30
0.0
  0
VERTEX
  5
2275D
  8
ALPHA
 10
2422.360329
 20
721.647897
 30
0.0
  0
VERTEX
  5
2275E
  8
ALPHA
 10
2422.368775
 20
721.650572
 30
0.0
  0
VERTEX
  5
2275F
  8
ALPHA
 10
2422.38155
 20
721.672299
 30
0.0
  0
VERTEX
  5
22760
  8
ALPHA
 10
2422.387722
 20
721.71458
 30
0.0
  0
VERTEX
  5
22761
  8
ALPHA
 10
2422.387349
 20
721.775283
 30
0.0
  0
VERTEX
  5
22762
  8
ALPHA
 10
2422.380733
 20
721.851549
 30
0.0
  0
VERTEX
  5
22763
  8
ALPHA
 10
2422.36827
 20
721.940894
 30
0.0
  0
VERTEX
  5
22764
  8
ALPHA
 10
2422.349096
 20
722.04735
 30
0.0
  0
VERTEX
  5
22765
  8
ALPHA
 10
2422.321143
 20
722.176503
 30
0.0
  0
SEQEND
  5
22766
  8
ALPHA
  0
LINE
  5
212A3
  8
ALPHA
 10
2422.277456
 20
721.229392
 30
0.0
 11
2421.41593
 21
721.229392
 31
0.0
  0
LINE
  5
212A4
  8
ALPHA
 10
2422.359336
 20
721.647896
 30
0.0
 11
2422.201527
 21
721.647896
 31
0.0
  0
LINE
  5
212A5
  8
ALPHA
 10
2422.212879
 20
721.739199
 30
0.0
 11
2422.282508
 21
721.739199
 31
0.0
  0
LINE
  5
212A6
  8
ALPHA
 10
2419.41593
 20
723.929392
 30
0.0
 11
2418.61593
 21
723.929392
 31
0.0
  0
LINE
  5
212A7
  8
ALPHA
 10
2418.61593
 20
724.629392
 30
0.0
 11
2417.61593
 21
724.629392
 31
0.0
  0
LINE
  5
212A8
  8
ALPHA
 10
2420.625702
 20
724.629392
 30
0.0
 11
2419.41593
 21
724.629392
 31
0.0
  0
POLYLINE
  5
212A9
  8
ALPHA
 66
     1
 10
0.0
 20
0.0
 30
0.0
  0
VERTEX
  5
22767
  8
ALPHA
 10
2422.241654
 20
721.779392
 30
0.0
  0
VERTEX
  5
22768
  8
ALPHA
 10
2422.260038
 20
721.770477
 30
0.0
  0
VERTEX
  5
22769
  8
ALPHA
 10
2422.282508
 20
721.739199
 30
0.0
  0
SEQEND
  5
2276A
  8
ALPHA
  0
POLYLINE
  5
212AE
  8
ALPHA
 66
     1
 10
0.0
 20
0.0
 30
0.0
  0
VERTEX
  5
2276B
  8
ALPHA
 10
2422.277456
 20
721.229392
 30
0.0
  0
VERTEX
  5
2276C
  8
ALPHA
 10
2422.255098
 20
721.285104
 30
0.0
  0
VERTEX
  5
2276D
  8
ALPHA
 10
2422.234498
 20
721.357326
 30
0.0
  0
VERTEX
  5
2276E
  8
ALPHA
 10
2422.217942
 20
721.438241
 30
0.0
  0
VERTEX
  5
2276F
  8
ALPHA
 10
2422.206553
 20
721.521497
 30
0.0
  0
VERTEX
  5
22770
  8
ALPHA
 10
2422.201057
 20
721.600859
 30
0.0
  0
SEQEND
  5
22771
  8
ALPHA
  0
POLYLINE
  5
212B6
  8
ALPHA
 66
     1
 10
0.0
 20
0.0
 30
0.0
  0
VERTEX
  5
22772
  8
ALPHA
 10
2422.282508
 20
721.739199
 30
0.0
  0
VERTEX
  5
22773
  8
ALPHA
 10
2422.319711
 20
721.679661
 30
0.0
  0
VERTEX
  5
22774
  8
ALPHA
 10
2422.348511
 20
721.651415
 30
0.0
  0
VERTEX
  5
22775
  8
ALPHA
 10
2422.360329
 20
721.647897
 30
0.0
  0
SEQEND
  5
22776
  8
ALPHA
  0
ARC
  5
212BC
  8
ALPHA
 10
2420.625702
 20
717.629392
 30
0.0
 40
1.0
 50
270.0
 51
326.944269
  0
ARC
  5
212BD
  8
ALPHA
 10
2416.01593
 20
720.629392
 30
0.0
 40
6.5
 50
326.944269
 51
342.10306
  0
LINE
  5
212BE
  8
ALPHA
 10
2422.200596
 20
718.629392
 30
0.0
 11
2422.282508
 21
718.929392
 31
0.0
  0
LINE
  5
212BF
  8
ALPHA
 10
2422.282508
 20
718.929392
 30
0.0
 11
2422.321034
 21
719.081848
 31
0.0
  0
POLYLINE
  5
212C0
  8
ALPHA
 66
     1
 10
0.0
 20
0.0
 30
0.0
  0
VERTEX
  5
22777
  8
ALPHA
 10
2422.321034
 20
719.081848
 30
0.0
  0
VERTEX
  5
22778
  8
ALPHA
 10
2422.34876
 20
719.209737
 30
0.0
  0
VERTEX
  5
22779
  8
ALPHA
 10
2422.367952
 20
719.315913
 30
0.0
  0
VERTEX
  5
2277A
  8
ALPHA
 10
2422.380531
 20
719.405491
 30
0.0
  0
VERTEX
  5
2277B
  8
ALPHA
 10
2422.387282
 20
719.482217
 30
0.0
  0
VERTEX
  5
2277C
  8
ALPHA
 10
2422.387771
 20
719.543283
 30
0.0
  0
VERTEX
  5
2277D
  8
ALPHA
 10
2422.381723
 20
719.585889
 30
0.0
  0
VERTEX
  5
2277E
  8
ALPHA
 10
2422.369047
 20
719.608023
 30
0.0
  0
VERTEX
  5
2277F
  8
ALPHA
 10
2422.360335
 20
719.610886
 30
0.0
  0
SEQEND
  5
22780
  8
ALPHA
  0
LINE
  5
212CB
  8
ALPHA
 10
2421.463842
 20
717.083937
 30
0.0
 11
2421.463842
 21
720.029392
 31
0.0
  0
POLYLINE
  5
212CC
  8
ALPHA
 66
     1
 10
0.0
 20
0.0
 30
0.0
  0
VERTEX
  5
22781
  8
ALPHA
 10
2422.201756
 20
719.587937
 30
0.0
  0
VERTEX
  5
22782
  8
ALPHA
 10
2422.201058
 20
719.657933
 30
0.0
  0
VERTEX
  5
22783
  8
ALPHA
 10
2422.206554
 20
719.737293
 30
0.0
  0
VERTEX
  5
22784
  8
ALPHA
 10
2422.217944
 20
719.82055
 30
0.0
  0
VERTEX
  5
22785
  8
ALPHA
 10
2422.2345
 20
719.901466
 30
0.0
  0
VERTEX
  5
22786
  8
ALPHA
 10
2422.2551
 20
719.973686
 30
0.0
  0
VERTEX
  5
22787
  8
ALPHA
 10
2422.277456
 20
720.029392
 30
0.0
  0
SEQEND
  5
22788
  8
ALPHA
  0
POLYLINE
  5
212D5
  8
ALPHA
 66
     1
 10
0.0
 20
0.0
 30
0.0
  0
VERTEX
  5
22789
  8
ALPHA
 10
2422.282508
 20
719.519584
 30
0.0
  0
VERTEX
  5
2278A
  8
ALPHA
 10
2422.260037
 20
719.488305
 30
0.0
  0
VERTEX
  5
2278B
  8
ALPHA
 10
2422.241654
 20
719.479392
 30
0.0
  0
SEQEND
  5
2278C
  8
ALPHA
  0
POLYLINE
  5
212DA
  8
ALPHA
 66
     1
 10
0.0
 20
0.0
 30
0.0
  0
VERTEX
  5
2278D
  8
ALPHA
 10
2422.360335
 20
719.610886
 30
0.0
  0
VERTEX
  5
2278E
  8
ALPHA
 10
2422.348764
 20
719.607509
 30
0.0
  0
VERTEX
  5
2278F
  8
ALPHA
 10
2422.319844
 20
719.579297
 30
0.0
  0
VERTEX
  5
22790
  8
ALPHA
 10
2422.282508
 20
719.519584
 30
0.0
  0
SEQEND
  5
22791
  8
ALPHA
  0
POLYLINE
  5
212E0
  8
ALPHA
 66
     1
 10
0.0
 20
0.0
 30
0.0
  0
VERTEX
  5
22792
  8
ALPHA
 10
2422.241654
 20
719.479392
 30
0.0
  0
VERTEX
  5
22793
  8
ALPHA
 10
2422.238803
 20
719.479645
 30
0.0
  0
VERTEX
  5
22794
  8
ALPHA
 10
2422.221235
 20
719.494929
 30
0.0
  0
VERTEX
  5
22795
  8
ALPHA
 10
2422.208612
 20
719.532173
 30
0.0
  0
VERTEX
  5
22796
  8
ALPHA
 10
2422.201756
 20
719.587937
 30
0.0
  0
SEQEND
  5
22797
  8
ALPHA
  0
LINE
  5
212E7
  8
ALPHA
 10
2418.61593
 20
716.629392
 30
0.0
 11
2417.61593
 21
716.629392
 31
0.0
  0
LINE
  5
212E8
  8
ALPHA
 10
2420.625702
 20
716.629392
 30
0.0
 11
2419.41593
 21
716.629392
 31
0.0
  0
LINE
  5
212E9
  8
ALPHA
 10
2419.41593
 20
717.329392
 30
0.0
 11
2418.61593
 21
717.329392
 31
0.0
  0
LINE
  5
212EA
  8
ALPHA
 10
2422.212879
 20
719.519584
 30
0.0
 11
2422.282508
 21
719.519584
 31
0.0
  0
LINE
  5
212EB
  8
ALPHA
 10
2422.359324
 20
719.610887
 30
0.0
 11
2422.201527
 21
719.610887
 31
0.0
  0
LINE
  5
212EC
  8
ALPHA
 10
2421.41593
 20
720.029392
 30
0.0
 11
2422.277456
 21
720.029392
 31
0.0
  0
LINE
  5
212ED
  8
ALPHA
 10
2421.463842
 20
462.083937
 30
0.0
 11
2421.463842
 21
465.029392
 31
0.0
  0
LINE
  5
212EE
  8
ALPHA
 10
2420.625702
 20
469.629392
 30
0.0
 11
2420.625702
 21
461.629392
 31
0.0
  0
LINE
  5
212EF
  8
ALPHA
 10
2419.41593
 20
469.629322
 30
0.0
 11
2419.41593
 21
461.629462
 31
0.0
  0
LINE
  5
212F0
  8
ALPHA
 10
2418.61593
 20
461.629462
 30
0.0
 11
2418.61593
 21
469.629322
 31
0.0
  0
POLYLINE
  5
212F1
  8
ALPHA
 66
     1
 10
0.0
 20
0.0
 30
0.0
  0
VERTEX
  5
22798
  8
ALPHA
 10
2422.201756
 20
464.587937
 30
0.0
  0
VERTEX
  5
22799
  8
ALPHA
 10
2422.201058
 20
464.657933
 30
0.0
  0
VERTEX
  5
2279A
  8
ALPHA
 10
2422.206554
 20
464.737293
 30
0.0
  0
VERTEX
  5
2279B
  8
ALPHA
 10
2422.217944
 20
464.82055
 30
0.0
  0
VERTEX
  5
2279C
  8
ALPHA
 10
2422.2345
 20
464.901466
 30
0.0
  0
VERTEX
  5
2279D
  8
ALPHA
 10
2422.2551
 20
464.973686
 30
0.0
  0
VERTEX
  5
2279E
  8
ALPHA
 10
2422.277456
 20
465.029392
 30
0.0
  0
SEQEND
  5
2279F
  8
ALPHA
  0
ARC
  5
212FA
  8
ALPHA
 10
2420.625702
 20
468.629392
 30
0.0
 40
1.0
 50
33.055731
 51
90.0
  0
ARC
  5
212FB
  8
ALPHA
 10
2416.01593
 20
465.629392
 30
0.0
 40
6.5
 50
17.89694
 51
33.055731
  0
POLYLINE
  5
212FC
  8
ALPHA
 66
     1
 10
0.0
 20
0.0
 30
0.0
  0
VERTEX
  5
227A0
  8
ALPHA
 10
2422.360329
 20
466.647897
 30
0.0
  0
VERTEX
  5
227A1
  8
ALPHA
 10
2422.368775
 20
466.650572
 30
0.0
  0
VERTEX
  5
227A2
  8
ALPHA
 10
2422.38155
 20
466.672299
 30
0.0
  0
VERTEX
  5
227A3
  8
ALPHA
 10
2422.387722
 20
466.71458
 30
0.0
  0
VERTEX
  5
227A4
  8
ALPHA
 10
2422.387349
 20
466.775283
 30
0.0
  0
VERTEX
  5
227A5
  8
ALPHA
 10
2422.380733
 20
466.851549
 30
0.0
  0
VERTEX
  5
227A6
  8
ALPHA
 10
2422.36827
 20
466.940894
 30
0.0
  0
VERTEX
  5
227A7
  8
ALPHA
 10
2422.349096
 20
467.04735
 30
0.0
  0
VERTEX
  5
227A8
  8
ALPHA
 10
2422.321143
 20
467.176503
 30
0.0
  0
SEQEND
  5
227A9
  8
ALPHA
  0
LINE
  5
21307
  8
ALPHA
 10
2421.41593
 20
465.029392
 30
0.0
 11
2422.277456
 21
465.029392
 31
0.0
  0
LINE
  5
21308
  8
ALPHA
 10
2422.277456
 20
466.229392
 30
0.0
 11
2421.41593
 21
466.229392
 31
0.0
  0
LINE
  5
21309
  8
ALPHA
 10
2422.359336
 20
466.647896
 30
0.0
 11
2422.201527
 21
466.647896
 31
0.0
  0
LINE
  5
2130A
  8
ALPHA
 10
2422.212879
 20
466.739199
 30
0.0
 11
2422.282508
 21
466.739199
 31
0.0
  0
LINE
  5
2130B
  8
ALPHA
 10
2419.41593
 20
468.929392
 30
0.0
 11
2418.61593
 21
468.929392
 31
0.0
  0
LINE
  5
2130C
  8
ALPHA
 10
2418.61593
 20
469.629392
 30
0.0
 11
2417.61593
 21
469.629392
 31
0.0
  0
LINE
  5
2130D
  8
ALPHA
 10
2420.625702
 20
469.629392
 30
0.0
 11
2419.41593
 21
469.629392
 31
0.0
  0
POLYLINE
  5
2130E
  8
ALPHA
 66
     1
 10
0.0
 20
0.0
 30
0.0
  0
VERTEX
  5
227AA
  8
ALPHA
 10
2422.241654
 20
466.779392
 30
0.0
  0
VERTEX
  5
227AB
  8
ALPHA
 10
2422.260038
 20
466.770477
 30
0.0
  0
VERTEX
  5
227AC
  8
ALPHA
 10
2422.282508
 20
466.739199
 30
0.0
  0
SEQEND
  5
227AD
  8
ALPHA
  0
POLYLINE
  5
21313
  8
ALPHA
 66
     1
 10
0.0
 20
0.0
 30
0.0
  0
VERTEX
  5
227AE
  8
ALPHA
 10
2422.201057
 20
466.600859
 30
0.0
  0
VERTEX
  5
227AF
  8
ALPHA
 10
2422.201757
 20
466.670854
 30
0.0
  0
VERTEX
  5
227B0
  8
ALPHA
 10
2422.208613
 20
466.726614
 30
0.0
  0
VERTEX
  5
227B1
  8
ALPHA
 10
2422.221237
 20
466.763856
 30
0.0
  0
VERTEX
  5
227B2
  8
ALPHA
 10
2422.238804
 20
466.779139
 30
0.0
  0
VERTEX
  5
227B3
  8
ALPHA
 10
2422.241654
 20
466.779392
 30
0.0
  0
SEQEND
  5
227B4
  8
ALPHA
  0
LINE
  5
2131B
  8
ALPHA
 10
2421.463842
 20
469.174846
 30
0.0
 11
2421.463842
 21
466.229392
 31
0.0
  0
LINE
  5
2131C
  8
ALPHA
 10
2421.41593
 20
465.029392
 30
0.0
 11
2421.41593
 21
466.229392
 31
0.0
  0
LINE
  5
2131D
  8
ALPHA
 10
2422.321143
 20
467.176503
 30
0.0
 11
2422.282508
 21
467.329392
 31
0.0
  0
LINE
  5
2131E
  8
ALPHA
 10
2422.282508
 20
467.329392
 30
0.0
 11
2422.207829
 21
467.603034
 31
0.0
  0
LINE
  5
2131F
  8
ALPHA
 10
2422.200596
 20
467.629392
 30
0.0
 11
2422.207829
 21
467.603034
 31
0.0
  0
POLYLINE
  5
21320
  8
ALPHA
 66
     1
 10
0.0
 20
0.0
 30
0.0
  0
VERTEX
  5
227B5
  8
ALPHA
 10
2422.282508
 20
466.739199
 30
0.0
  0
VERTEX
  5
227B6
  8
ALPHA
 10
2422.319711
 20
466.679661
 30
0.0
  0
VERTEX
  5
227B7
  8
ALPHA
 10
2422.348511
 20
466.651415
 30
0.0
  0
VERTEX
  5
227B8
  8
ALPHA
 10
2422.360329
 20
466.647897
 30
0.0
  0
SEQEND
  5
227B9
  8
ALPHA
  0
POLYLINE
  5
21326
  8
ALPHA
 66
     1
 10
0.0
 20
0.0
 30
0.0
  0
VERTEX
  5
227BA
  8
ALPHA
 10
2422.277456
 20
466.229392
 30
0.0
  0
VERTEX
  5
227BB
  8
ALPHA
 10
2422.255098
 20
466.285104
 30
0.0
  0
VERTEX
  5
227BC
  8
ALPHA
 10
2422.234498
 20
466.357326
 30
0.0
  0
VERTEX
  5
227BD
  8
ALPHA
 10
2422.217942
 20
466.438241
 30
0.0
  0
VERTEX
  5
227BE
  8
ALPHA
 10
2422.206553
 20
466.521497
 30
0.0
  0
VERTEX
  5
227BF
  8
ALPHA
 10
2422.201057
 20
466.600859
 30
0.0
  0
SEQEND
  5
227C0
  8
ALPHA
  0
ARC
  5
2132E
  8
ALPHA
 10
2420.625702
 20
462.629392
 30
0.0
 40
1.0
 50
270.0
 51
326.944269
  0
ARC
  5
2132F
  8
ALPHA
 10
2416.01593
 20
465.629392
 30
0.0
 40
6.5
 50
326.944269
 51
342.10306
  0
POLYLINE
  5
21330
  8
ALPHA
 66
     1
 10
0.0
 20
0.0
 30
0.0
  0
VERTEX
  5
227C1
  8
ALPHA
 10
2422.360335
 20
464.610886
 30
0.0
  0
VERTEX
  5
227C2
  8
ALPHA
 10
2422.348764
 20
464.607509
 30
0.0
  0
VERTEX
  5
227C3
  8
ALPHA
 10
2422.319844
 20
464.579297
 30
0.0
  0
VERTEX
  5
227C4
  8
ALPHA
 10
2422.282508
 20
464.519584
 30
0.0
  0
SEQEND
  5
227C5
  8
ALPHA
  0
LINE
  5
21336
  8
ALPHA
 10
2418.61593
 20
461.629392
 30
0.0
 11
2417.61593
 21
461.629392
 31
0.0
  0
LINE
  5
21337
  8
ALPHA
 10
2420.625702
 20
461.629392
 30
0.0
 11
2419.41593
 21
461.629392
 31
0.0
  0
LINE
  5
21338
  8
ALPHA
 10
2419.41593
 20
462.329392
 30
0.0
 11
2418.61593
 21
462.329392
 31
0.0
  0
LINE
  5
21339
  8
ALPHA
 10
2422.212879
 20
464.519584
 30
0.0
 11
2422.282508
 21
464.519584
 31
0.0
  0
LINE
  5
2133A
  8
ALPHA
 10
2422.359324
 20
464.610887
 30
0.0
 11
2422.201527
 21
464.610887
 31
0.0
  0
POLYLINE
  5
2133B
  8
ALPHA
 66
     1
 10
0.0
 20
0.0
 30
0.0
  0
VERTEX
  5
227C6
  8
ALPHA
 10
2422.282508
 20
464.519584
 30
0.0
  0
VERTEX
  5
227C7
  8
ALPHA
 10
2422.260037
 20
464.488305
 30
0.0
  0
VERTEX
  5
227C8
  8
ALPHA
 10
2422.241654
 20
464.479392
 30
0.0
  0
SEQEND
  5
227C9
  8
ALPHA
  0
POLYLINE
  5
21340
  8
ALPHA
 66
     1
 10
0.0
 20
0.0
 30
0.0
  0
VERTEX
  5
227CA
  8
ALPHA
 10
2422.241654
 20
464.479392
 30
0.0
  0
VERTEX
  5
227CB
  8
ALPHA
 10
2422.238803
 20
464.479645
 30
0.0
  0
VERTEX
  5
227CC
  8
ALPHA
 10
2422.221235
 20
464.494929
 30
0.0
  0
VERTEX
  5
227CD
  8
ALPHA
 10
2422.208612
 20
464.532173
 30
0.0
  0
VERTEX
  5
227CE
  8
ALPHA
 10
2422.201756
 20
464.587937
 30
0.0
  0
SEQEND
  5
227CF
  8
ALPHA
  0
LINE
  5
21347
  8
ALPHA
 10
2422.200596
 20
463.629392
 30
0.0
 11
2422.282508
 21
463.929392
 31
0.0
  0
LINE
  5
21348
  8
ALPHA
 10
2422.282508
 20
463.929392
 30
0.0
 11
2422.321034
 21
464.081848
 31
0.0
  0
POLYLINE
  5
21349
  8
ALPHA
 66
     1
 10
0.0
 20
0.0
 30
0.0
  0
VERTEX
  5
227D0
  8
ALPHA
 10
2422.321034
 20
464.081848
 30
0.0
  0
VERTEX
  5
227D1
  8
ALPHA
 10
2422.34876
 20
464.209737
 30
0.0
  0
VERTEX
  5
227D2
  8
ALPHA
 10
2422.367952
 20
464.315913
 30
0.0
  0
VERTEX
  5
227D3
  8
ALPHA
 10
2422.380531
 20
464.405491
 30
0.0
  0
VERTEX
  5
227D4
  8
ALPHA
 10
2422.387282
 20
464.482217
 30
0.0
  0
VERTEX
  5
227D5
  8
ALPHA
 10
2422.387771
 20
464.543283
 30
0.0
  0
VERTEX
  5
227D6
  8
ALPHA
 10
2422.381723
 20
464.585889
 30
0.0
  0
VERTEX
  5
227D7
  8
ALPHA
 10
2422.369047
 20
464.608023
 30
0.0
  0
VERTEX
  5
227D8
  8
ALPHA
 10
2422.360335
 20
464.610886
 30
0.0
  0
SEQEND
  5
227D9
  8
ALPHA
  0
LINE
  5
21354
  8
ALPHA
 10
2388.61593
 20
412.629392
 30
0.0
 11
2413.61593
 21
412.629392
 31
0.0
  0
LINE
  5
21355
  8
ALPHA
 10
2388.61593
 20
409.629392
 30
0.0
 11
2388.61593
 21
412.629392
 31
0.0
  0
ARC
  5
21356
  8
ALPHA
 10
2413.61593
 20
413.629392
 30
0.0
 40
2.0
 50
270.0
 51
0.0
  0
ARC
  5
21357
  8
ALPHA
 10
2413.61593
 20
413.629392
 30
0.0
 40
4.0
 50
270.0
 51
0.0
  0
LINE
  5
21358
  8
ALPHA
 10
2393.61593
 20
409.629392
 30
0.0
 11
2413.61593
 21
409.629392
 31
0.0
  0
LINE
  5
21359
  8
ALPHA
 10
2393.61593
 20
411.629392
 30
0.0
 11
2413.61593
 21
411.629392
 31
0.0
  0
LINE
  5
2135A
  8
ALPHA
 10
2415.61593
 20
413.629392
 30
0.0
 11
2417.61593
 21
413.629392
 31
0.0
  0
LINE
  5
2135B
  8
ALPHA
 10
2415.61593
 20
414.629392
 30
0.0
 11
2417.61593
 21
414.629392
 31
0.0
  0
LINE
  5
2135C
  8
ALPHA
 10
2413.61593
 20
416.629392
 30
0.0
 11
2417.61593
 21
416.629392
 31
0.0
  0
LINE
  5
2135D
  8
ALPHA
 10
2415.61593
 20
413.629392
 30
0.0
 11
2415.61593
 21
416.629392
 31
0.0
  0
LINE
  5
2135E
  8
ALPHA
 10
2413.61593
 20
411.629392
 30
0.0
 11
2413.61593
 21
409.629392
 31
0.0
  0
LINE
  5
2135F
  8
ALPHA
 10
2396.61593
 20
411.629392
 30
0.0
 11
2396.61593
 21
409.629392
 31
0.0
  0
LINE
  5
21360
  8
ALPHA
 10
2393.61593
 20
411.629392
 30
0.0
 11
2393.61593
 21
409.629392
 31
0.0
  0
ENDSEC
  0
EOF
