  0
SECTION
  2
HEADER
  9
$ACADVER
  1
AC1014
  9
$ACADMAINTVER
 70
     0
  9
$DWGCODEPAGE
  3
ANSI_1252
  9
$INSBASE
 10
93.894301
 20
236.06014
 30
0.0
  9
$EXTMIN
 10
8.286294
 20
107.64362
 30
0.0
  9
$EXTMAX
 10
79.886294
 20
167.14362
 30
0.0
  9
$LIMMIN
 10
0.0
 20
0.0
  9
$LIMMAX
 10
210.0
 20
297.0
  9
$ORTHOMODE
 70
     0
  9
$REGENMODE
 70
     1
  9
$FILLMODE
 70
     1
  9
$QTEXTMODE
 70
     0
  9
$MIRRTEXT
 70
     0
  9
$DRAGMODE
 70
     1
  9
$LTSCALE
 40
7.0
  9
$OSMODE
 70
  4095
  9
$ATTMODE
 70
     1
  9
$TEXTSIZE
 40
2.5
  9
$TRACEWID
 40
0.05
  9
$TEXTSTYLE
  7
STANDARD
  9
$CLAYER
  8
ALPHA
  9
$CELTYPE
  6
BYLAYER
  9
$CECOLOR
 62
   256
  9
$CELTSCALE
 40
1.0
  9
$DELOBJ
 70
     1
  9
$DISPSILH
 70
     0
  9
$DIMSCALE
 40
1.0
  9
$DIMASZ
 40
3.0
  9
$DIMEXO
 40
0.0625
  9
$DIMDLI
 40
0.38
  9
$DIMRND
 40
0.01
  9
$DIMDLE
 40
0.0
  9
$DIMEXE
 40
0.18
  9
$DIMTP
 40
0.0
  9
$DIMTM
 40
0.0
  9
$DIMTXT
 40
2.5
  9
$DIMCEN
 40
0.09
  9
$DIMTSZ
 40
0.0
  9
$DIMTOL
 70
     0
  9
$DIMLIM
 70
     0
  9
$DIMTIH
 70
     0
  9
$DIMTOH
 70
     0
  9
$DIMSE1
 70
     0
  9
$DIMSE2
 70
     0
  9
$DIMTAD
 70
     1
  9
$DIMZIN
 70
    12
  9
$DIMBLK
  1

  9
$DIMASO
 70
     1
  9
$DIMSHO
 70
     0
  9
$DIMPOST
  1

  9
$DIMAPOST
  1

  9
$DIMALT
 70
     0
  9
$DIMALTD
 70
     2
  9
$DIMALTF
 40
25.4
  9
$DIMLFAC
 40
1.0
  9
$DIMTOFL
 70
     1
  9
$DIMTVP
 40
0.0
  9
$DIMTIX
 70
     0
  9
$DIMSOXD
 70
     0
  9
$DIMSAH
 70
     0
  9
$DIMBLK1
  1

  9
$DIMBLK2
  1

  9
$DIMSTYLE
  2
SC_STAND
  9
$DIMCLRD
 70
     0
  9
$DIMCLRE
 70
     0
  9
$DIMCLRT
 70
     0
  9
$DIMTFAC
 40
1.0
  9
$DIMGAP
 40
1.0
  9
$DIMJUST
 70
     0
  9
$DIMSD1
 70
     0
  9
$DIMSD2
 70
     0
  9
$DIMTOLJ
 70
     1
  9
$DIMTZIN
 70
    12
  9
$DIMALTZ
 70
    12
  9
$DIMALTTZ
 70
    12
  9
$DIMFIT
 70
     5
  9
$DIMUPT
 70
     0
  9
$DIMUNIT
 70
     2
  9
$DIMDEC
 70
     3
  9
$DIMTDEC
 70
     3
  9
$DIMALTU
 70
     2
  9
$DIMALTTD
 70
     2
  9
$DIMTXSTY
  7
STANDARD
  9
$DIMAUNIT
 70
     0
  9
$LUNITS
 70
     2
  9
$LUPREC
 70
     3
  9
$SKETCHINC
 40
0.1
  9
$FILLETRAD
 40
0.0625
  9
$AUNITS
 70
     0
  9
$AUPREC
 70
     0
  9
$MENU
  1
ACAD
  9
$ELEVATION
 40
0.0
  9
$PELEVATION
 40
0.0
  9
$THICKNESS
 40
0.0
  9
$LIMCHECK
 70
     0
  9
$BLIPMODE
 70
     1
  9
$CHAMFERA
 40
0.0
  9
$CHAMFERB
 40
0.0
  9
$CHAMFERC
 40
0.0
  9
$CHAMFERD
 40
0.0
  9
$SKPOLY
 70
     0
  9
$TDCREATE
 40
2450953.590960648
  9
$TDUPDATE
 40
2453110.698890150
  9
$TDINDWG
 40
0.0036775579
  9
$TDUSRTIMER
 40
0.0036775579
  9
$USRTIMER
 70
     1
  9
$ANGBASE
 50
0.0
  9
$ANGDIR
 70
     0
  9
$PDMODE
 70
     0
  9
$PDSIZE
 40
0.0
  9
$PLINEWID
 40
0.0
  9
$COORDS
 70
     0
  9
$SPLFRAME
 70
     0
  9
$SPLINETYPE
 70
     6
  9
$SPLINESEGS
 70
     8
  9
$ATTDIA
 70
     0
  9
$ATTREQ
 70
     1
  9
$HANDLING
 70
     1
  9
$HANDSEED
  5
DB7
  9
$SURFTAB1
 70
     6
  9
$SURFTAB2
 70
     6
  9
$SURFTYPE
 70
     6
  9
$SURFU
 70
     6
  9
$SURFV
 70
     6
  9
$UCSNAME
  2

  9
$UCSORG
 10
0.0
 20
0.0
 30
0.0
  9
$UCSXDIR
 10
1.0
 20
0.0
 30
0.0
  9
$UCSYDIR
 10
0.0
 20
1.0
 30
0.0
  9
$PUCSNAME
  2

  9
$PUCSORG
 10
0.0
 20
0.0
 30
0.0
  9
$PUCSXDIR
 10
1.0
 20
0.0
 30
0.0
  9
$PUCSYDIR
 10
0.0
 20
1.0
 30
0.0
  9
$USERI1
 70
     0
  9
$USERI2
 70
     0
  9
$USERI3
 70
     0
  9
$USERI4
 70
     0
  9
$USERI5
 70
     0
  9
$USERR1
 40
0.0
  9
$USERR2
 40
0.0
  9
$USERR3
 40
0.0
  9
$USERR4
 40
0.0
  9
$USERR5
 40
0.0
  9
$WORLDVIEW
 70
     1
  9
$SHADEDGE
 70
     3
  9
$SHADEDIF
 70
    70
  9
$TILEMODE
 70
     1
  9
$MAXACTVP
 70
    32
  9
$PINSBASE
 10
0.0
 20
0.0
 30
0.0
  9
$PLIMCHECK
 70
     0
  9
$PEXTMIN
 10
-3.174999
 20
-3.175
 30
0.0
  9
$PEXTMAX
 10
203.812116
 20
370.276807
 30
0.0
  9
$PLIMMIN
 10
-3.175
 20
-3.175
  9
$PLIMMAX
 10
203.812115
 20
370.276807
  9
$UNITMODE
 70
     0
  9
$VISRETAIN
 70
     0
  9
$PLINEGEN
 70
     0
  9
$PSLTSCALE
 70
     1
  9
$TREEDEPTH
 70
  3020
  9
$PICKSTYLE
 70
     1
  9
$CMLSTYLE
  2
STANDARD
  9
$CMLJUST
 70
     0
  9
$CMLSCALE
 40
1.0
  9
$PROXYGRAPHICS
 70
     1
  9
$MEASUREMENT
 70
     0
  0
ENDSEC
  0
SECTION
  2
CLASSES
  0
CLASS
  1
DICTIONARYVAR
  2
AcDbDictionaryVar
  3
"AutoCAD"
 90
        0
280
     0
281
     0
  0
CLASS
  1
HATCH
  2
AcDbHatch
  3
"ACAD_SEDONA"
 90
        0
280
     0
281
     1
  0
ENDSEC
  0
SECTION
  2
TABLES
  0
TABLE
  2
VPORT
  5
F4
100
AcDbSymbolTable
 70
     1
  0
VPORT
  5
DB3
100
AcDbSymbolTableRecord
100
AcDbViewportTableRecord
  2
*ACTIVE
 70
     0
 10
0.0
 20
0.0
 11
1.0
 21
1.0
 12
44.085389
 22
137.385613
 13
0.0
 23
0.0
 14
1.0
 24
1.0
 15
10.0
 25
10.0
 16
0.0
 26
0.0
 36
1.0
 17
0.0
 27
0.0
 37
0.0
 40
59.978082
 41
1.446134
 42
50.0
 43
0.0
 44
0.0
 50
0.0
 51
0.0
 71
     0
 72
   100
 73
     1
 74
     1
 75
     0
 76
     1
 77
     0
 78
     0
  0
ENDTAB
  0
TABLE
  2
LTYPE
  5
F1
100
AcDbSymbolTable
 70
     5
  0
LTYPE
  5
FD
100
AcDbSymbolTableRecord
100
AcDbLinetypeTableRecord
  2
BYBLOCK
 70
     0
  3

 72
    65
 73
     0
 40
0.0
  0
LTYPE
  5
FE
100
AcDbSymbolTableRecord
100
AcDbLinetypeTableRecord
  2
BYLAYER
 70
     0
  3

 72
    65
 73
     0
 40
0.0
  0
LTYPE
  5
FF
100
AcDbSymbolTableRecord
100
AcDbLinetypeTableRecord
  2
CONTINUOUS
 70
     0
  3
Solid line
 72
    65
 73
     0
 40
0.0
  0
LTYPE
  5
110
100
AcDbSymbolTableRecord
100
AcDbLinetypeTableRecord
  2
CACHE
 70
     0
  3
__ __ __ __ __ __ __ __ __ __ __ __ __ __ __ __
 72
    65
 73
     2
 40
0.375
 49
0.25
 74
     0
 49
-0.125
 74
     0
  0
LTYPE
  5
112
100
AcDbSymbolTableRecord
100
AcDbLinetypeTableRecord
  2
AXES2
 70
     0
  3
___ _ ___ _ ___ _ ___ _ ___ _ ___ _ ___ _ ___ _
 72
    65
 73
     4
 40
1.125
 49
0.75
 74
     0
 49
-0.125
 74
     0
 49
0.125
 74
     0
 49
-0.125
 74
     0
  0
LTYPE
  5
120
100
AcDbSymbolTableRecord
100
AcDbLinetypeTableRecord
  2
CACHE2
 70
     0
  3
_ _ _ _ _ _ _ _ _ _ _ _ _ _ _ _ _ _ _ _ _ _ _ _
 72
    65
 73
     2
 40
0.1875
 49
0.125
 74
     0
 49
-0.0625
 74
     0
  0
LTYPE
  5
121
100
AcDbSymbolTableRecord
100
AcDbLinetypeTableRecord
  2
CACHEX2
 70
     0
  3
____ ____ ____ ____ ____ ____ ____ ____ ____ __
 72
    65
 73
     2
 40
0.75
 49
0.5
 74
     0
 49
-0.25
 74
     0
  0
ENDTAB
  0
TABLE
  2
LAYER
  5
EE
100
AcDbSymbolTable
 70
     4
  0
LAYER
  5
FA
100
AcDbSymbolTableRecord
100
AcDbLayerTableRecord
  2
0
 70
     0
 62
     7
  6
CONTINUOUS
  0
LAYER
  5
12C
100
AcDbSymbolTableRecord
100
AcDbLayerTableRecord
  2
ALPHA
 70
     0
 62
   255
  6
CONTINUOUS
  0
LAYER
  5
12F
100
AcDbSymbolTableRecord
100
AcDbLayerTableRecord
  2
COTATION1
 70
     0
 62
     2
  6
CONTINUOUS
  0
LAYER
  5
13B
100
AcDbSymbolTableRecord
100
AcDbLayerTableRecord
  2
ASHADE
 70
     0
 62
     7
  6
CONTINUOUS
  0
ENDTAB
  0
TABLE
  2
STYLE
  5
EF
100
AcDbSymbolTable
 70
     2
  0
STYLE
  5
FB
100
AcDbSymbolTableRecord
100
AcDbTextStyleTableRecord
  2
STANDARD
 70
     0
 40
0.0
 41
1.0
 50
0.0
 71
     0
 42
2.5
  3
txt
  4

  0
STYLE
  5
386
100
AcDbSymbolTableRecord
100
AcDbTextStyleTableRecord
  2
STD
 70
     0
 40
0.0
 41
1.0
 50
0.0
 71
     0
 42
0.0
  3
txt
  4

  0
ENDTAB
  0
TABLE
  2
VIEW
  5
F2
100
AcDbSymbolTable
 70
     0
  0
ENDTAB
  0
TABLE
  2
UCS
  5
F3
100
AcDbSymbolTable
 70
     0
  0
ENDTAB
  0
TABLE
  2
APPID
  5
F5
100
AcDbSymbolTable
 70
     3
  0
APPID
  5
FC
100
AcDbSymbolTableRecord
100
AcDbRegAppTableRecord
  2
ACAD
 70
     0
  0
APPID
  5
127
100
AcDbSymbolTableRecord
100
AcDbRegAppTableRecord
  2
AVE_RENDER
 70
     0
  0
APPID
  5
128
100
AcDbSymbolTableRecord
100
AcDbRegAppTableRecord
  2
AVE_MATERIAL
 70
     0
  0
ENDTAB
  0
TABLE
  2
DIMSTYLE
  5
F6
100
AcDbSymbolTable
 70
     2
  0
DIMSTYLE
105
129
100
AcDbSymbolTableRecord
100
AcDbDimStyleTableRecord
  2
STANDARD
 70
     0
  3

  4

  5

  6

  7

 40
1.0
 41
0.18
 42
0.0625
 43
0.38
 44
0.18
 45
0.0
 46
0.0
 47
0.0
 48
0.0
140
0.18
141
0.09
142
0.0
143
25.4
144
1.0
145
0.0
146
1.0
147
0.09
 71
     0
 72
     0
 73
     1
 74
     1
 75
     0
 76
     0
 77
     0
 78
     0
170
     0
171
     2
172
     0
173
     0
174
     0
175
     0
176
     0
177
     0
178
     0
270
     2
271
     3
272
     3
273
     2
274
     2
340
FB
275
     0
280
     0
281
     0
282
     0
283
     1
284
    12
285
    12
286
    12
287
     5
288
     0
  0
DIMSTYLE
105
12A
100
AcDbSymbolTableRecord
100
AcDbDimStyleTableRecord
  2
SC_STAND
 70
     0
  3

  4

  5

  6

  7

 40
1.0
 41
3.0
 42
0.0625
 43
0.38
 44
0.18
 45
0.01
 46
0.0
 47
0.0
 48
0.0
140
2.5
141
0.09
142
0.0
143
25.4
144
1.0
145
0.0
146
1.0
147
1.0
 71
     0
 72
     0
 73
     0
 74
     0
 75
     0
 76
     0
 77
     1
 78
    12
170
     0
171
     2
172
     1
173
     0
174
     0
175
     0
176
     0
177
     0
178
     0
270
     2
271
     3
272
     3
273
     2
274
     2
340
FB
275
     0
280
     0
281
     0
282
     0
283
     1
284
    12
285
    12
286
    12
287
     5
288
     0
  0
ENDTAB
  0
TABLE
  2
BLOCK_RECORD
  5
ED
100
AcDbSymbolTable
 70
     7
  0
BLOCK_RECORD
  5
103
100
AcDbSymbolTableRecord
100
AcDbBlockTableRecord
  2
*MODEL_SPACE
  0
BLOCK_RECORD
  5
100
100
AcDbSymbolTableRecord
100
AcDbBlockTableRecord
  2
*PAPER_SPACE
  0
BLOCK_RECORD
  5
108
100
AcDbSymbolTableRecord
100
AcDbBlockTableRecord
  2
AVE_RENDER
  0
BLOCK_RECORD
  5
109
100
AcDbSymbolTableRecord
100
AcDbBlockTableRecord
  2
AVE_GLOBAL
  0
BLOCK_RECORD
  5
10A
100
AcDbSymbolTableRecord
100
AcDbBlockTableRecord
  2
SCH_IS
  0
BLOCK_RECORD
  5
14D
100
AcDbSymbolTableRecord
100
AcDbBlockTableRecord
  2
AI9-BLK1
  0
BLOCK_RECORD
  5
37A
100
AcDbSymbolTableRecord
100
AcDbBlockTableRecord
  2
AI9-BLK7
  0
BLOCK_RECORD
  5
37E
100
AcDbSymbolTableRecord
100
AcDbBlockTableRecord
  2
AI9-BLK8
  0
BLOCK_RECORD
  5
382
100
AcDbSymbolTableRecord
100
AcDbBlockTableRecord
  2
AI9-BLK9
  0
ENDTAB
  0
ENDSEC
  0
SECTION
  2
BLOCKS
  0
BLOCK
  5
141
100
AcDbEntity
  8
0
100
AcDbBlockBegin
  2
*MODEL_SPACE
 70
     0
 10
0.0
 20
0.0
 30
0.0
  3
*MODEL_SPACE
  1

  0
ENDBLK
  5
142
100
AcDbEntity
  8
0
100
AcDbBlockEnd
  0
BLOCK
  5
13F
100
AcDbEntity
 67
     1
  8
0
100
AcDbBlockBegin
  2
*PAPER_SPACE
 70
     0
 10
0.0
 20
0.0
 30
0.0
  3
*PAPER_SPACE
  1

  0
ENDBLK
  5
140
100
AcDbEntity
 67
     1
  8
0
100
AcDbBlockEnd
  0
BLOCK
  5
8D
100
AcDbEntity
  8
0
100
AcDbBlockBegin
  2
AVE_RENDER
 70
     0
 10
0.0
 20
0.0
 30
0.0
  3
AVE_RENDER
  1
AVE_RENDER
  0
ENDBLK
  5
8E
100
AcDbEntity
  8
0
100
AcDbBlockEnd
  0
BLOCK
  5
90
100
AcDbEntity
  8
0
100
AcDbBlockBegin
  2
AVE_GLOBAL
 70
     0
 10
0.0
 20
0.0
 30
0.0
  3
AVE_GLOBAL
  1
AVE_GLOBAL
  0
ENDBLK
  5
91
100
AcDbEntity
  8
0
100
AcDbBlockEnd
  0
BLOCK
  5
C9
100
AcDbEntity
  8
0
100
AcDbBlockBegin
  2
SCH_IS
 70
     0
 10
0.0
 20
0.0
 30
0.0
  3
SCH_IS
  1

  0
INSERT
  5
C0
100
AcDbEntity
  8
ASHADE
 62
     1
100
AcDbBlockReference
  2
AVE_RENDER
 10
0.0
 20
0.0
 30
0.0
1001
AVE_RENDER
1002
{
1070
     6
1000
Pref
1070
    50
1070
    20
1070
     1
1070
     0
1000

1070
    10
1070
     1
1070
    30
1040
25.4
1070
     1
1040
0.3
1040
0.7
1040
0.0
1040
10.0
1010
-1.0
1020
-1.0
1030
-1.0
1040
0.3
1070
    49
1070
     0
1070
     0
1010
1.0
1020
1.0
1030
1.0
1040
45.0
1070
     1
1070
     0
1000
WCS
1040
0.0
1002
}
  0
INSERT
  5
C1
100
AcDbEntity
  8
ASHADE
 62
     3
100
AcDbBlockReference
  2
AVE_RENDER
 10
0.0
 20
0.0
 30
0.0
1001
AVE_RENDER
1002
{
1070
     0
1000
Full Opt
1070
     0
1070
     1
1070
     1
1070
     1
1070
     0
1070
     0
1070
     0
1070
     1
1070
     1
1040
0.0001
1040
0.0001
1002
}
  0
INSERT
  5
C2
100
AcDbEntity
  8
ASHADE
 62
     4
100
AcDbBlockReference
  2
AVE_RENDER
 10
0.0
 20
0.0
 30
0.0
1001
AVE_RENDER
1002
{
1070
     0
1000
Quick Opt
1070
     0
1070
     1
1070
     1
1070
     1
1070
     0
1070
     0
1070
     1
1002
}
  0
INSERT
  5
C3
100
AcDbEntity
  8
ASHADE
 62
     5
100
AcDbBlockReference
  2
AVE_RENDER
 10
0.0
 20
0.0
 30
0.0
1001
AVE_RENDER
1002
{
1070
     1
1000
Scanl Opt
1070
     2
1070
     0
1070
     2
1040
2.0
1040
4.0
1070
     0
1070
     1
1070
     0
1040
0.03
1002
}
  0
INSERT
  5
C4
100
AcDbEntity
  8
ASHADE
 62
     6
100
AcDbBlockReference
  2
AVE_RENDER
 10
0.0
 20
0.0
 30
0.0
1001
AVE_RENDER
1002
{
1070
     2
1000
Raytr Opt
1070
     2
1070
     0
1070
     2
1040
2.0
1040
4.0
1070
     0
1070
     1
1070
     1
1040
0.03
1070
     3
1040
0.03
1002
}
  0
INSERT
  5
C5
100
AcDbEntity
  8
ASHADE
 62
     7
100
AcDbBlockReference
  2
AVE_RENDER
 10
0.0
 20
0.0
 30
0.0
1001
AVE_RENDER
1002
{
1070
     0
1000
RFile Opt
1070
     5
1070
   640
1070
   480
1070
 10000
1070
     3
1070
    32
1070
    24
1070
     0
1070
     0
1070
     0
1070
     1
1070
     0
1070
     0
1070
     0
1002
}
  0
INSERT
  5
C6
100
AcDbEntity
  8
ASHADE
 62
     8
100
AcDbBlockReference
  2
AVE_RENDER
 10
0.0
 20
0.0
 30
0.0
1001
AVE_RENDER
1002
{
1070
     0
1000
Fog Opt
1070
     0
1070
     0
1040
0.0
1040
1.0
1040
0.0
1040
1.0
1010
0.5
1020
0.5
1030
0.5
1002
}
  0
INSERT
  5
C7
100
AcDbEntity
  8
ASHADE
 62
     9
100
AcDbBlockReference
  2
AVE_RENDER
 10
0.0
 20
0.0
 30
0.0
1001
AVE_RENDER
1002
{
1070
     0
1000
BG Opt
1070
     0
1070
     1
1010
0.0
1020
0.0
1030
0.0
1010
1.0
1020
0.0
1030
0.0
1010
0.0
1020
1.0
1030
0.0
1010
0.0
1020
0.0
1030
1.0
1040
0.5
1040
0.33
1040
0.0
1000

1070
     1
1000

1070
     1
1070
     1
1040
1.0
1040
1.0
1040
0.0
1040
0.0
1070
     0
1002
}
  0
INSERT
  5
C8
100
AcDbEntity
  8
ASHADE
 62
     1
100
AcDbBlockReference
  2
AVE_GLOBAL
 10
0.0
 20
0.0
 30
0.0
1001
AVE_MATERIAL
1002
{
1000
*GLOBAL*
1000
1
1000
Finition globale.
1002
{
1002
}
1002
{
1070
    63
1002
{
1002
{
1010
-1.0
1020
-1.0
1030
-1.0
1002
}
1040
0.1
1000

1040
0.0
1002
{
1002
}
1040
0.0
1002
{
1002
}
1040
0.0
1002
}
1002
{
1002
{
1010
-1.0
1020
-1.0
1030
-1.0
1002
}
1040
0.7
1000

1040
0.0
1002
{
1002
}
1040
0.0
1002
{
1002
}
1040
0.0
1002
}
1002
{
1002
{
1010
-1.0
1020
-1.0
1030
-1.0
1002
}
1040
0.2
1000

1040
0.0
1002
{
1002
}
1040
0.0
1002
{
1002
}
1040
0.0
1002
}
1002
{
1070
     0
1002
{
1070
     1
1002
{
1040
1.0
1040
1.0
1000

1040
0.0
1002
{
1002
}
1040
0.0
1002
{
1002
}
1040
0.0
1002
}
1002
}
1040
1.0
1040
0.0
1040
0.0
1002
}
1002
{
1040
1.0
1040
1.0
1000

1040
0.0
1002
{
1002
}
1040
0.0
1002
{
1002
}
1040
0.0
1002
}
1002
{
1040
0.5
1040
1.0
1000

1040
0.0
1002
{
1002
}
1040
0.0
1002
{
1002
}
1040
0.0
1002
}
1002
{
1070
     0
1040
0.0
1002
{
1002
}
1040
1.0
1002
{
1002
}
1040
0.0
1002
}
1002
{
1040
0.0
1002
{
1002
{
1010
0.0
1020
0.0
1030
0.0
1002
}
1040
1.0
1000

1040
0.0
1002
{
1002
}
1040
0.0
1002
{
1002
}
1040
0.0
1002
}
1002
}
1002
{
1002
{
1070
     1
1002
{
1040
0.0
1040
1.0
1000

1040
0.0
1002
{
1002
}
1040
0.0
1002
{
1002
}
1040
0.0
1002
}
1002
}
1040
0.0
1002
{
1002
}
1010
1.0
1020
0.0
1030
0.0
1010
0.0
1020
1.0
1030
0.0
1010
0.0
1020
0.0
1030
1.0
1070
     0
1002
}
1002
{
1002
{
1040
1.0
1040
1.0
1002
{
1070
     1
1002
{
1040
1.0
1040
1.0
1000

1040
0.0
1002
{
1002
}
1040
0.0
1002
{
1002
}
1040
0.0
1002
}
1002
}
1002
}
1070
     0
1040
0.0
1002
{
1002
}
1002
}
1002
{
1002
}
1002
}
1002
{
1071
        3
1070
     3
1070
     0
1002
{
1070
     2
1070
     0
1070
     0
1040
0.0
1002
}
1070
     0
1070
     2
1002
{
1002
}
1002
}
1002
{
1040
8030.0
1040
190.300003
1040
0.305
1040
228.0
1040
545.0
1040
14.0
1040
17.4
1040
0.456
1002
}
1002
}
  0
ENDBLK
  5
CA
100
AcDbEntity
  8
0
100
AcDbBlockEnd
  0
BLOCK
  5
232
100
AcDbEntity
  8
ALPHA
 62
     7
100
AcDbBlockBegin
  2
AI9-BLK1
 70
     0
 10
0.0
 20
0.0
 30
0.0
  3
AI9-BLK1
  1

  0
SPLINE
  5
14E
100
AcDbEntity
  8
ALPHA
 62
     7
100
AcDbSpline
210
0.0
220
0.0
230
-1.0
 70
    11
 71
     3
 72
    29
 73
    25
 74
     0
 42
0.0000001
 43
0.0000001
 40
0.0
 40
0.0
 40
0.0
 40
0.0
 40
1.0
 40
1.0
 40
1.0
 40
2.0
 40
2.0
 40
2.0
 40
3.0
 40
3.0
 40
3.0
 40
4.0
 40
4.0
 40
4.0
 40
5.0
 40
5.0
 40
5.0
 40
6.0
 40
6.0
 40
6.0
 40
7.0
 40
7.0
 40
7.0
 40
8.0
 40
8.0
 40
8.0
 40
8.0
 10
146.0000891791449
 20
-98.25020446777344
 30
0.0
 10
146.0000891791449
 20
-99.90660637749565
 30
0.0
 10
144.6571909586588
 20
-101.2501936170789
 30
0.0
 10
143.0001000298393
 20
-101.2501936170789
 30
0.0
 10
143.0001000298393
 20
-101.2501936170789
 30
0.0
 10
-143.0000139024522
 20
-101.2501936170789
 30
0.0
 10
-143.0000139024522
 20
-101.2501936170789
 30
0.0
 10
-144.656760321723
 20
-101.2501936170789
 30
0.0
 10
-146.0000030517577
 20
-99.90660637749565
 30
0.0
 10
-146.0000030517577
 20
-98.25020446777344
 30
0.0
 10
-146.0000030517577
 20
-98.25020446777344
 30
0.0
 10
-146.0000030517577
 20
98.25011834038628
 30
0.0
 10
-146.0000030517577
 20
98.25011834038628
 30
0.0
 10
-146.0000030517577
 20
99.90686475965711
 30
0.0
 10
-144.656760321723
 20
101.2501074896918
 30
0.0
 10
-143.0000139024522
 20
101.2501074896918
 30
0.0
 10
-143.0000139024522
 20
101.2501074896918
 30
0.0
 10
143.0001000298393
 20
101.2501074896918
 30
0.0
 10
143.0001000298393
 20
101.2501074896918
 30
0.0
 10
144.6571909586588
 20
101.2501074896918
 30
0.0
 10
146.0000891791449
 20
99.90686475965711
 30
0.0
 10
146.0000891791449
 20
98.25011834038628
 30
0.0
 10
146.0000891791449
 20
98.25011834038628
 30
0.0
 10
146.0000891791449
 20
-98.25020446777344
 30
0.0
 10
146.0000891791449
 20
-98.25020446777344
 30
0.0
  0
SPLINE
  5
14F
100
AcDbEntity
  8
ALPHA
 62
     7
100
AcDbSpline
210
0.0
220
0.0
230
-1.0
 70
    11
 71
     3
 72
    29
 73
    25
 74
     0
 42
0.0000001
 43
0.0000001
 40
0.0
 40
0.0
 40
0.0
 40
0.0
 40
1.0
 40
1.0
 40
1.0
 40
2.0
 40
2.0
 40
2.0
 40
3.0
 40
3.0
 40
3.0
 40
4.0
 40
4.0
 40
4.0
 40
5.0
 40
5.0
 40
5.0
 40
6.0
 40
6.0
 40
6.0
 40
7.0
 40
7.0
 40
7.0
 40
8.0
 40
8.0
 40
8.0
 40
8.0
 10
76.18936326768663
 20
40.38818935818142
 30
0.0
 10
77.01894226074218
 20
40.38818935818142
 30
0.0
 10
77.69142489963107
 20
41.0606719970703
 30
0.0
 10
77.69142489963107
 20
41.88887295193142
 30
0.0
 10
77.69142489963107
 20
41.88887295193142
 30
0.0
 10
77.87056986490885
 20
67.24339769151474
 30
0.0
 10
77.87056986490885
 20
67.24339769151474
 30
0.0
 10
77.87056986490885
 20
68.0757327609592
 30
0.0
 10
77.19808722601996
 20
68.74683736165363
 30
0.0
 10
76.36437411838106
 20
68.74683736165363
 30
0.0
 10
76.36437411838106
 20
68.74683736165363
 30
0.0
 10
-76.01202697753905
 20
68.92460428873697
 30
0.0
 10
-76.01202697753905
 20
68.92460428873697
 30
0.0
 10
-76.84022793240017
 20
68.92460428873697
 30
0.0
 10
-77.51271057128906
 20
68.25074361165363
 30
0.0
 10
-77.51271057128906
 20
67.42116461859808
 30
0.0
 10
-77.51271057128906
 20
67.42116461859808
 30
0.0
 10
-77.69185553656683
 20
41.88887295193142
 30
0.0
 10
-77.69185553656683
 20
41.88887295193142
 30
0.0
 10
-77.69185553656683
 20
41.0606719970703
 30
0.0
 10
-77.01937289767794
 20
40.38818935818142
 30
0.0
 10
-76.1870378282335
 20
40.38818935818142
 30
0.0
 10
-76.1870378282335
 20
40.38818935818142
 30
0.0
 10
76.18936326768663
 20
40.38818935818142
 30
0.0
 10
76.18936326768663
 20
40.38818935818142
 30
0.0
  0
POLYLINE
  5
150
100
AcDbEntity
  8
ALPHA
 62
     7
100
AcDb2dPolyline
 66
     1
 10
0.0
 20
0.0
 30
0.0
 70
     1
  0
VERTEX
  5
151
100
AcDbEntity
  8
ALPHA
 62
     7
100
AcDbVertex
100
AcDb2dVertex
 10
77.691425
 20
-84.679973
 30
0.0
  0
VERTEX
  5
152
100
AcDbEntity
  8
ALPHA
 62
     7
100
AcDbVertex
100
AcDb2dVertex
 10
77.691425
 20
25.69279
 30
0.0
  0
VERTEX
  5
153
100
AcDbEntity
  8
ALPHA
 62
     7
100
AcDbVertex
100
AcDb2dVertex
 10
-77.691856
 20
25.69279
 30
0.0
  0
VERTEX
  5
154
100
AcDbEntity
  8
ALPHA
 62
     7
100
AcDbVertex
100
AcDb2dVertex
 10
-77.691856
 20
-84.679973
 30
0.0
  0
SEQEND
  5
155
100
AcDbEntity
  8
ALPHA
 62
     7
  0
POLYLINE
  5
156
100
AcDbEntity
  8
ALPHA
 62
     7
100
AcDb2dPolyline
 66
     1
 10
0.0
 20
0.0
 30
0.0
 70
     1
  0
VERTEX
  5
157
100
AcDbEntity
  8
ALPHA
 62
     7
100
AcDbVertex
100
AcDb2dVertex
 10
-36.28198
 20
-29.293862
 30
0.0
  0
VERTEX
  5
158
100
AcDbEntity
  8
ALPHA
 62
     7
100
AcDbVertex
100
AcDb2dVertex
 10
-41.795511
 20
-25.282393
 30
0.0
  0
VERTEX
  5
159
100
AcDbEntity
  8
ALPHA
 62
     7
100
AcDbVertex
100
AcDb2dVertex
 10
-41.795511
 20
-25.282393
 30
0.0
  0
VERTEX
  5
15A
100
AcDbEntity
  8
ALPHA
 62
     7
100
AcDbVertex
100
AcDb2dVertex
 10
-47.307664
 20
-29.293862
 30
0.0
  0
VERTEX
  5
15B
100
AcDbEntity
  8
ALPHA
 62
     7
100
AcDbVertex
100
AcDb2dVertex
 10
-44.558477
 20
-29.297996
 30
0.0
  0
VERTEX
  5
15C
100
AcDbEntity
  8
ALPHA
 62
     7
100
AcDbVertex
100
AcDb2dVertex
 10
-44.558477
 20
-32.304876
 30
0.0
  0
VERTEX
  5
15D
100
AcDbEntity
  8
ALPHA
 62
     7
100
AcDbVertex
100
AcDb2dVertex
 10
-39.046325
 20
-32.304876
 30
0.0
  0
VERTEX
  5
15E
100
AcDbEntity
  8
ALPHA
 62
     7
100
AcDbVertex
100
AcDb2dVertex
 10
-39.046325
 20
-29.297996
 30
0.0
  0
SEQEND
  5
15F
100
AcDbEntity
  8
ALPHA
 62
     7
  0
POLYLINE
  5
160
100
AcDbEntity
  8
ALPHA
 62
     7
100
AcDb2dPolyline
 66
     1
 10
0.0
 20
0.0
 30
0.0
 70
     1
  0
VERTEX
  5
161
100
AcDbEntity
  8
ALPHA
 62
     7
100
AcDbVertex
100
AcDb2dVertex
 10
-23.222312
 20
-53.379214
 30
0.0
  0
VERTEX
  5
162
100
AcDbEntity
  8
ALPHA
 62
     7
100
AcDbVertex
100
AcDb2dVertex
 10
-19.210843
 20
-47.865683
 30
0.0
  0
VERTEX
  5
163
100
AcDbEntity
  8
ALPHA
 62
     7
100
AcDbVertex
100
AcDb2dVertex
 10
-19.210843
 20
-47.865683
 30
0.0
  0
VERTEX
  5
164
100
AcDbEntity
  8
ALPHA
 62
     7
100
AcDbVertex
100
AcDb2dVertex
 10
-23.222312
 20
-42.349396
 30
0.0
  0
VERTEX
  5
165
100
AcDbEntity
  8
ALPHA
 62
     7
100
AcDbVertex
100
AcDb2dVertex
 10
-23.231958
 20
-45.102716
 30
0.0
  0
VERTEX
  5
166
100
AcDbEntity
  8
ALPHA
 62
     7
100
AcDbVertex
100
AcDb2dVertex
 10
-26.238838
 20
-45.102716
 30
0.0
  0
VERTEX
  5
167
100
AcDbEntity
  8
ALPHA
 62
     7
100
AcDbVertex
100
AcDb2dVertex
 10
-26.238838
 20
-50.614869
 30
0.0
  0
VERTEX
  5
168
100
AcDbEntity
  8
ALPHA
 62
     7
100
AcDbVertex
100
AcDb2dVertex
 10
-23.231958
 20
-50.614869
 30
0.0
  0
SEQEND
  5
169
100
AcDbEntity
  8
ALPHA
 62
     7
  0
POLYLINE
  5
16A
100
AcDbEntity
  8
ALPHA
 62
     7
100
AcDb2dPolyline
 66
     1
 10
0.0
 20
0.0
 30
0.0
 70
     1
  0
VERTEX
  5
16B
100
AcDbEntity
  8
ALPHA
 62
     7
100
AcDbVertex
100
AcDb2dVertex
 10
-60.367159
 20
-42.349396
 30
0.0
  0
VERTEX
  5
16C
100
AcDbEntity
  8
ALPHA
 62
     7
100
AcDbVertex
100
AcDb2dVertex
 10
-64.378629
 20
-47.865683
 30
0.0
  0
VERTEX
  5
16D
100
AcDbEntity
  8
ALPHA
 62
     7
100
AcDbVertex
100
AcDb2dVertex
 10
-64.378629
 20
-47.865683
 30
0.0
  0
VERTEX
  5
16E
100
AcDbEntity
  8
ALPHA
 62
     7
100
AcDbVertex
100
AcDb2dVertex
 10
-60.367159
 20
-53.379214
 30
0.0
  0
VERTEX
  5
16F
100
AcDbEntity
  8
ALPHA
 62
     7
100
AcDbVertex
100
AcDb2dVertex
 10
-60.363025
 20
-50.62865
 30
0.0
  0
VERTEX
  5
170
100
AcDbEntity
  8
ALPHA
 62
     7
100
AcDbVertex
100
AcDb2dVertex
 10
-57.356146
 20
-50.62865
 30
0.0
  0
VERTEX
  5
171
100
AcDbEntity
  8
ALPHA
 62
     7
100
AcDbVertex
100
AcDb2dVertex
 10
-57.356146
 20
-45.112363
 30
0.0
  0
VERTEX
  5
172
100
AcDbEntity
  8
ALPHA
 62
     7
100
AcDbVertex
100
AcDb2dVertex
 10
-60.363025
 20
-45.112363
 30
0.0
  0
SEQEND
  5
173
100
AcDbEntity
  8
ALPHA
 62
     7
  0
POLYLINE
  5
174
100
AcDbEntity
  8
ALPHA
 62
     7
100
AcDb2dPolyline
 66
     1
 10
0.0
 20
0.0
 30
0.0
 70
     1
  0
VERTEX
  5
175
100
AcDbEntity
  8
ALPHA
 62
     7
100
AcDbVertex
100
AcDb2dVertex
 10
-47.307664
 20
-66.438882
 30
0.0
  0
VERTEX
  5
176
100
AcDbEntity
  8
ALPHA
 62
     7
100
AcDbVertex
100
AcDb2dVertex
 10
-41.795511
 20
-70.444839
 30
0.0
  0
VERTEX
  5
177
100
AcDbEntity
  8
ALPHA
 62
     7
100
AcDbVertex
100
AcDb2dVertex
 10
-41.795511
 20
-70.444839
 30
0.0
  0
VERTEX
  5
178
100
AcDbEntity
  8
ALPHA
 62
     7
100
AcDbVertex
100
AcDb2dVertex
 10
-36.28198
 20
-66.438882
 30
0.0
  0
VERTEX
  5
179
100
AcDbEntity
  8
ALPHA
 62
     7
100
AcDbVertex
100
AcDb2dVertex
 10
-39.032544
 20
-66.429236
 30
0.0
  0
VERTEX
  5
17A
100
AcDbEntity
  8
ALPHA
 62
     7
100
AcDbVertex
100
AcDb2dVertex
 10
-39.032544
 20
-63.422356
 30
0.0
  0
VERTEX
  5
17B
100
AcDbEntity
  8
ALPHA
 62
     7
100
AcDbVertex
100
AcDb2dVertex
 10
-44.544697
 20
-63.422356
 30
0.0
  0
VERTEX
  5
17C
100
AcDbEntity
  8
ALPHA
 62
     7
100
AcDbVertex
100
AcDb2dVertex
 10
-44.544697
 20
-66.429236
 30
0.0
  0
SEQEND
  5
17D
100
AcDbEntity
  8
ALPHA
 62
     7
  0
SPLINE
  5
17E
100
AcDbEntity
  8
ALPHA
 62
     7
100
AcDbSpline
210
0.0
220
0.0
230
-1.0
 70
     8
 71
     3
 72
    17
 73
    13
 74
     0
 42
0.0000001
 43
0.0000001
 40
0.0
 40
0.0
 40
0.0
 40
0.0
 40
1.0
 40
1.0
 40
1.0
 40
2.0
 40
2.0
 40
2.0
 40
3.0
 40
3.0
 40
3.0
 40
4.0
 40
4.0
 40
4.0
 40
4.0
 10
-48.39906989203559
 20
-38.33792690700954
 30
0.0
 10
-48.39906989203559
 20
-38.33792690700954
 30
0.0
 10
-48.39906989203559
 20
-34.95759921603732
 30
0.0
 10
-48.39906989203559
 20
-34.95759921603732
 30
0.0
 10
-48.39906989203559
 20
-34.95759921603732
 30
0.0
 10
-48.40320400661892
 20
-34.95346510145399
 30
0.0
 10
-48.40320400661892
 20
-34.95346510145399
 30
0.0
 10
-49.89975348578559
 20
-33.34667256673176
 30
0.0
 10
-50.81614888509114
 20
-31.18590867784288
 30
0.0
 10
-50.81614888509114
 20
-28.81017083062065
 30
0.0
 10
-50.81614888509114
 20
-24.42525329589843
 30
0.0
 10
-47.6893802218967
 20
-20.76931796603732
 30
0.0
 10
-43.54010721842447
 20
-19.95903150770399
 30
0.0
  0
SPLINE
  5
17F
100
AcDbEntity
  8
ALPHA
 62
     7
100
AcDbSpline
210
0.0
220
0.0
230
1.0
 70
     8
 71
     3
 72
    17
 73
    13
 74
     0
 42
0.0000001
 43
0.0000001
 40
0.0
 40
0.0
 40
0.0
 40
0.0
 40
1.0
 40
1.0
 40
1.0
 40
2.0
 40
2.0
 40
2.0
 40
3.0
 40
3.0
 40
3.0
 40
4.0
 40
4.0
 40
4.0
 40
4.0
 10
-40.0495364718967
 20
-19.95903150770399
 30
0.0
 10
-35.9043975830078
 20
-20.76931796603732
 30
0.0
 10
-32.77349480523003
 20
-24.42525329589843
 30
0.0
 10
-32.77349480523003
 20
-28.81017083062065
 30
0.0
 10
-32.77349480523003
 20
-31.28237135145399
 30
0.0
 10
-33.76292622884114
 20
-33.51617126464843
 30
0.0
 10
-35.37109680175781
 20
-35.14639044867621
 30
0.0
 10
-35.37109680175781
 20
-35.14639044867621
 30
0.0
 10
-35.36558464898003
 20
-35.15603671603732
 30
0.0
 10
-35.36558464898003
 20
-35.15603671603732
 30
0.0
 10
-35.36558464898003
 20
-35.15603671603732
 30
0.0
 10
-35.36558464898003
 20
-38.33792690700954
 30
0.0
 10
-35.36558464898003
 20
-38.33792690700954
 30
0.0
  0
SPLINE
  5
180
100
AcDbEntity
  8
ALPHA
 62
     7
100
AcDbSpline
210
0.0
220
0.0
230
-1.0
 70
     8
 71
     3
 72
    17
 73
    13
 74
     0
 42
0.0000001
 43
0.0000001
 40
0.0
 40
0.0
 40
0.0
 40
0.0
 40
1.0
 40
1.0
 40
1.0
 40
2.0
 40
2.0
 40
2.0
 40
3.0
 40
3.0
 40
3.0
 40
4.0
 40
4.0
 40
4.0
 40
4.0
 10
-32.35870530870225
 20
-41.3503184000651
 30
0.0
 10
-32.35870530870225
 20
-41.3503184000651
 30
0.0
 10
-28.9742435031467
 20
-41.3503184000651
 30
0.0
 10
-28.9742435031467
 20
-41.3503184000651
 30
0.0
 10
-28.9742435031467
 20
-41.3503184000651
 30
0.0
 10
-28.9742435031467
 20
-41.34480624728732
 30
0.0
 10
-28.9742435031467
 20
-41.34480624728732
 30
0.0
 10
-27.3619388156467
 20
-39.84825676812065
 30
0.0
 10
-25.20255296495225
 20
-38.9318613688151
 30
0.0
 10
-22.83094923231336
 20
-38.9318613688151
 30
0.0
 10
-18.44740973578558
 20
-38.9318613688151
 30
0.0
 10
-14.79009636773003
 20
-42.05863003200954
 30
0.0
 10
-13.9798099093967
 20
-46.20790303548176
 30
0.0
  0
SPLINE
  5
181
100
AcDbEntity
  8
ALPHA
 62
     7
100
AcDbSpline
210
0.0
220
0.0
230
1.0
 70
     8
 71
     3
 72
    17
 73
    13
 74
     0
 42
0.0000001
 43
0.0000001
 40
0.0
 40
0.0
 40
0.0
 40
0.0
 40
1.0
 40
1.0
 40
1.0
 40
2.0
 40
2.0
 40
2.0
 40
3.0
 40
3.0
 40
3.0
 40
4.0
 40
4.0
 40
4.0
 40
4.0
 10
-13.9798099093967
 20
-49.69847378200954
 30
0.0
 10
-14.79009636773003
 20
-53.84361267089843
 30
0.0
 10
-18.44740973578558
 20
-56.97589348687065
 30
0.0
 10
-22.83094923231336
 20
-56.97589348687065
 30
0.0
 10
-25.29901563856336
 20
-56.97589348687065
 30
0.0
 10
-27.53694966634114
 20
-55.9850840250651
 30
0.0
 10
-29.16716885036892
 20
-54.37829149034287
 30
0.0
 10
-29.16716885036892
 20
-54.37829149034287
 30
0.0
 10
-29.17681511773003
 20
-54.38242560492621
 30
0.0
 10
-29.17681511773003
 20
-54.38242560492621
 30
0.0
 10
-29.17681511773003
 20
-54.38242560492621
 30
0.0
 10
-32.35870530870225
 20
-54.38242560492621
 30
0.0
 10
-32.35870530870225
 20
-54.38242560492621
 30
0.0
  0
SPLINE
  5
182
100
AcDbEntity
  8
ALPHA
 62
     7
100
AcDbSpline
210
0.0
220
0.0
230
1.0
 70
     8
 71
     3
 72
    17
 73
    13
 74
     0
 42
0.0000001
 43
0.0000001
 40
0.0
 40
0.0
 40
0.0
 40
0.0
 40
1.0
 40
1.0
 40
1.0
 40
2.0
 40
2.0
 40
2.0
 40
3.0
 40
3.0
 40
3.0
 40
4.0
 40
4.0
 40
4.0
 40
4.0
 10
-35.36558464898003
 20
-57.38930494520399
 30
0.0
 10
-35.36558464898003
 20
-57.38930494520399
 30
0.0
 10
-35.36558464898003
 20
-60.77514478895398
 30
0.0
 10
-35.36558464898003
 20
-60.77514478895398
 30
0.0
 10
-35.36558464898003
 20
-60.77514478895398
 30
0.0
 10
-35.36558464898003
 20
-60.77514478895398
 30
0.0
 10
-35.36558464898003
 20
-60.77514478895398
 30
0.0
 10
-33.86490105523003
 20
-62.38607143825954
 30
0.0
 10
-32.94850565592447
 20
-64.54683532714843
 30
0.0
 10
-32.94850565592447
 20
-66.91843905978732
 30
0.0
 10
-32.94850565592447
 20
-71.30197855631509
 30
0.0
 10
-36.07940843370225
 20
-74.95791388617622
 30
0.0
 10
-40.22868143717447
 20
-75.76957838270399
 30
0.0
  0
SPLINE
  5
183
100
AcDbEntity
  8
ALPHA
 62
     7
100
AcDbSpline
210
0.0
220
0.0
230
-1.0
 70
     8
 71
     3
 72
    17
 73
    13
 74
     0
 42
0.0000001
 43
0.0000001
 40
0.0
 40
0.0
 40
0.0
 40
0.0
 40
1.0
 40
1.0
 40
1.0
 40
2.0
 40
2.0
 40
2.0
 40
3.0
 40
3.0
 40
3.0
 40
4.0
 40
4.0
 40
4.0
 40
4.0
 10
-43.71511806911892
 20
-75.76957838270399
 30
0.0
 10
-47.86439107259114
 20
-74.95791388617622
 30
0.0
 10
-50.99667188856336
 20
-71.30197855631509
 30
0.0
 10
-50.99667188856336
 20
-66.91843905978732
 30
0.0
 10
-50.99667188856336
 20
-64.44899461534287
 30
0.0
 10
-50.00172831217447
 20
-62.2110605875651
 30
0.0
 10
-48.39493577745225
 20
-60.58084140353732
 30
0.0
 10
-48.39493577745225
 20
-60.58084140353732
 30
0.0
 10
-48.39906989203559
 20
-60.57257317437065
 30
0.0
 10
-48.39906989203559
 20
-60.57257317437065
 30
0.0
 10
-48.39906989203559
 20
-60.57257317437065
 30
0.0
 10
-48.39906989203559
 20
-57.38930494520399
 30
0.0
 10
-48.39906989203559
 20
-57.38930494520399
 30
0.0
  0
SPLINE
  5
184
100
AcDbEntity
  8
ALPHA
 62
     7
100
AcDbSpline
210
0.0
220
0.0
230
1.0
 70
     8
 71
     3
 72
    17
 73
    13
 74
     0
 42
0.0000001
 43
0.0000001
 40
0.0
 40
0.0
 40
0.0
 40
0.0
 40
1.0
 40
1.0
 40
1.0
 40
2.0
 40
2.0
 40
2.0
 40
3.0
 40
3.0
 40
3.0
 40
4.0
 40
4.0
 40
4.0
 40
4.0
 10
-51.4100833468967
 20
-54.38242560492621
 30
0.0
 10
-51.4100833468967
 20
-54.38242560492621
 30
0.0
 10
-54.79023878309462
 20
-54.38242560492621
 30
0.0
 10
-54.79023878309462
 20
-54.38242560492621
 30
0.0
 10
-54.79023878309462
 20
-54.38242560492621
 30
0.0
 10
-54.79575093587239
 20
-54.38242560492621
 30
0.0
 10
-54.79575093587239
 20
-54.38242560492621
 30
0.0
 10
-56.40254347059461
 20
-55.88448723687065
 30
0.0
 10
-58.56192932128905
 20
-56.80088263617621
 30
0.0
 10
-60.93904520670572
 20
-56.80088263617621
 30
0.0
 10
-65.3225847032335
 20
-56.80088263617621
 30
0.0
 10
-68.97989807128905
 20
-53.66860182020399
 30
0.0
 10
-69.7901845296224
 20
-49.51932881673176
 30
0.0
  0
SPLINE
  5
185
100
AcDbEntity
  8
ALPHA
 62
     7
100
AcDbSpline
210
0.0
220
0.0
230
-1.0
 70
     8
 71
     3
 72
    17
 73
    13
 74
     0
 42
0.0000001
 43
0.0000001
 40
0.0
 40
0.0
 40
0.0
 40
0.0
 40
1.0
 40
1.0
 40
1.0
 40
2.0
 40
2.0
 40
2.0
 40
3.0
 40
3.0
 40
3.0
 40
4.0
 40
4.0
 40
4.0
 40
4.0
 10
-69.7901845296224
 20
-46.03289218478732
 30
0.0
 10
-68.97989807128905
 20
-41.88361918131509
 30
0.0
 10
-65.3225847032335
 20
-38.75271640353732
 30
0.0
 10
-60.93904520670572
 20
-38.75271640353732
 30
0.0
 10
-58.46546664767794
 20
-38.75271640353732
 30
0.0
 10
-56.2316667344835
 20
-39.74765997992621
 30
0.0
 10
-54.60161980523003
 20
-41.35445251464843
 30
0.0
 10
-54.60161980523003
 20
-41.35445251464843
 30
0.0
 10
-54.59335157606336
 20
-41.3503184000651
 30
0.0
 10
-54.59335157606336
 20
-41.3503184000651
 30
0.0
 10
-54.59335157606336
 20
-41.3503184000651
 30
0.0
 10
-51.4100833468967
 20
-41.3503184000651
 30
0.0
 10
-51.4100833468967
 20
-41.3503184000651
 30
0.0
  0
SPLINE
  5
186
100
AcDbEntity
  8
ALPHA
 62
     7
100
AcDbSpline
210
0.0
220
0.0
230
-1.0
 70
    11
 71
     3
 72
    29
 73
    25
 74
     0
 42
0.0000001
 43
0.0000001
 40
0.0
 40
0.0
 40
0.0
 40
0.0
 40
1.0
 40
1.0
 40
1.0
 40
2.0
 40
2.0
 40
2.0
 40
3.0
 40
3.0
 40
3.0
 40
4.0
 40
4.0
 40
4.0
 40
5.0
 40
5.0
 40
5.0
 40
6.0
 40
6.0
 40
6.0
 40
7.0
 40
7.0
 40
7.0
 40
8.0
 40
8.0
 40
8.0
 40
8.0
 10
-16.60497266981336
 20
-72.66485833062064
 30
0.0
 10
-16.05237935384114
 20
-72.66485833062064
 30
0.0
 10
-15.60589497884114
 20
-72.21837395562065
 30
0.0
 10
-15.60589497884114
 20
-71.66578063964843
 30
0.0
 10
-15.60589497884114
 20
-71.66578063964843
 30
0.0
 10
-15.60589497884114
 20
-64.64743211534288
 30
0.0
 10
-15.60589497884114
 20
-64.64743211534288
 30
0.0
 10
-15.60589497884114
 20
-64.09483879937065
 30
0.0
 10
-16.05237935384114
 20
-63.64422030978732
 30
0.0
 10
-16.60497266981336
 20
-63.64422030978732
 30
0.0
 10
-16.60497266981336
 20
-63.64422030978732
 30
0.0
 10
-28.63386806911892
 20
-63.64422030978732
 30
0.0
 10
-28.63386806911892
 20
-63.64422030978732
 30
0.0
 10
-29.19059549967447
 20
-63.64422030978732
 30
0.0
 10
-29.63707987467447
 20
-64.09483879937065
 30
0.0
 10
-29.63707987467447
 20
-64.64743211534288
 30
0.0
 10
-29.63707987467447
 20
-64.64743211534288
 30
0.0
 10
-29.63707987467447
 20
-71.66578063964843
 30
0.0
 10
-29.63707987467447
 20
-71.66578063964843
 30
0.0
 10
-29.63707987467447
 20
-72.21837395562065
 30
0.0
 10
-29.19059549967447
 20
-72.66485833062064
 30
0.0
 10
-28.63386806911892
 20
-72.66485833062064
 30
0.0
 10
-28.63386806911892
 20
-72.66485833062064
 30
0.0
 10
-16.60497266981336
 20
-72.66485833062064
 30
0.0
 10
-16.60497266981336
 20
-72.66485833062064
 30
0.0
  0
SPLINE
  5
187
100
AcDbEntity
  8
ALPHA
 62
     7
100
AcDbSpline
210
0.0
220
0.0
230
1.0
 70
     8
 71
     3
 72
    32
 73
    28
 74
     0
 42
0.0000001
 43
0.0000001
 40
0.0
 40
0.0
 40
0.0
 40
0.0
 40
1.0
 40
1.0
 40
1.0
 40
2.0
 40
2.0
 40
2.0
 40
3.0
 40
3.0
 40
3.0
 40
4.0
 40
4.0
 40
4.0
 40
5.0
 40
5.0
 40
5.0
 40
6.0
 40
6.0
 40
6.0
 40
7.0
 40
7.0
 40
7.0
 40
8.0
 40
8.0
 40
8.0
 40
9.0
 40
9.0
 40
9.0
 40
9.0
 10
-109.2930274115668
 20
44.47682868109808
 30
0.0
 10
-109.2930274115668
 20
44.47682868109808
 30
0.0
 10
-108.5419965955946
 20
44.47682868109808
 30
0.0
 10
-108.5419965955946
 20
44.47682868109808
 30
0.0
 10
-107.7137956407334
 20
44.47682868109808
 30
0.0
 10
-107.0413130018446
 20
45.14931131998697
 30
0.0
 10
-107.0413130018446
 20
45.98302442762586
 30
0.0
 10
-107.0413130018446
 20
45.98302442762586
 30
0.0
 10
-107.0413130018446
 20
49.49150967068142
 30
0.0
 10
-107.0413130018446
 20
49.49150967068142
 30
0.0
 10
-107.0413130018446
 20
50.32246670193142
 30
0.0
 10
-107.7137956407334
 20
50.99494934082031
 30
0.0
 10
-108.5419965955946
 20
50.99494934082031
 30
0.0
 10
-108.5419965955946
 20
50.99494934082031
 30
0.0
 10
-115.5603451199001
 20
50.99494934082031
 30
0.0
 10
-115.5603451199001
 20
50.99494934082031
 30
0.0
 10
-116.3899241129557
 20
50.99494934082031
 30
0.0
 10
-117.0624067518446
 20
50.32246670193142
 30
0.0
 10
-117.0624067518446
 20
49.49150967068142
 30
0.0
 10
-117.0624067518446
 20
49.49150967068142
 30
0.0
 10
-117.0624067518446
 20
45.98302442762586
 30
0.0
 10
-117.0624067518446
 20
45.98302442762586
 30
0.0
 10
-117.0624067518446
 20
45.14931131998697
 30
0.0
 10
-116.3899241129557
 20
44.47682868109808
 30
0.0
 10
-115.5603451199001
 20
44.47682868109808
 30
0.0
 10
-115.5603451199001
 20
44.47682868109808
 30
0.0
 10
-114.8106923421223
 20
44.47682868109808
 30
0.0
 10
-114.8106923421223
 20
44.47682868109808
 30
0.0
  0
SPLINE
  5
188
100
AcDbEntity
  8
ALPHA
 62
     7
100
AcDbSpline
210
0.0
220
0.0
230
-1.0
 70
     8
 71
     3
 72
    20
 73
    16
 74
     0
 42
0.0000001
 43
0.0000001
 40
0.0
 40
0.0
 40
0.0
 40
0.0
 40
1.0
 40
1.0
 40
1.0
 40
2.0
 40
2.0
 40
2.0
 40
3.0
 40
3.0
 40
3.0
 40
4.0
 40
4.0
 40
4.0
 40
5.0
 40
5.0
 40
5.0
 40
5.0
 10
-109.2930274115668
 20
42.47316114637587
 30
0.0
 10
-109.2930274115668
 20
42.47316114637587
 30
0.0
 10
-109.2930274115668
 20
45.23199361165364
 30
0.0
 10
-109.2930274115668
 20
45.23199361165364
 30
0.0
 10
-109.2930274115668
 20
46.75610385470919
 30
0.0
 10
-110.527749633789
 20
47.99082607693142
 30
0.0
 10
-112.0518598768446
 20
47.99082607693142
 30
0.0
 10
-112.0518598768446
 20
47.99082607693142
 30
0.0
 10
-112.0518598768446
 20
47.99082607693142
 30
0.0
 10
-112.0518598768446
 20
47.99082607693142
 30
0.0
 10
-113.5759701199001
 20
47.99082607693142
 30
0.0
 10
-114.8106923421223
 20
46.75610385470919
 30
0.0
 10
-114.8106923421223
 20
45.23199361165364
 30
0.0
 10
-114.8106923421223
 20
45.23199361165364
 30
0.0
 10
-114.8106923421223
 20
42.47316114637587
 30
0.0
 10
-114.8106923421223
 20
42.47316114637587
 30
0.0
  0
SPLINE
  5
189
100
AcDbEntity
  8
ALPHA
 62
     7
100
AcDbSpline
210
0.0
220
0.0
230
-1.0
 70
    11
 71
     3
 72
    29
 73
    25
 74
     0
 42
0.0000001
 43
0.0000001
 40
0.0
 40
0.0
 40
0.0
 40
0.0
 40
1.0
 40
1.0
 40
1.0
 40
2.0
 40
2.0
 40
2.0
 40
3.0
 40
3.0
 40
3.0
 40
4.0
 40
4.0
 40
4.0
 40
5.0
 40
5.0
 40
5.0
 40
6.0
 40
6.0
 40
6.0
 40
7.0
 40
7.0
 40
7.0
 40
8.0
 40
8.0
 40
8.0
 40
8.0
 10
-112.0518598768446
 20
43.92423536512587
 30
0.0
 10
-111.3600847032335
 20
43.92423536512587
 30
0.0
 10
-110.7992231580946
 20
44.4864749484592
 30
0.0
 10
-110.7992231580946
 20
45.17687208387586
 30
0.0
 10
-110.7992231580946
 20
45.17687208387586
 30
0.0
 10
-110.7992231580946
 20
46.18146192762586
 30
0.0
 10
-110.7992231580946
 20
46.18146192762586
 30
0.0
 10
-110.7992231580946
 20
46.87185906304253
 30
0.0
 10
-111.3600847032335
 20
47.43409864637587
 30
0.0
 10
-112.0518598768446
 20
47.43409864637587
 30
0.0
 10
-112.0518598768446
 20
47.43409864637587
 30
0.0
 10
-112.0518598768446
 20
47.43409864637587
 30
0.0
 10
-112.0518598768446
 20
47.43409864637587
 30
0.0
 10
-112.7422570122612
 20
47.43409864637587
 30
0.0
 10
-113.3044965955946
 20
46.87185906304253
 30
0.0
 10
-113.3044965955946
 20
46.18146192762586
 30
0.0
 10
-113.3044965955946
 20
46.18146192762586
 30
0.0
 10
-113.3044965955946
 20
45.17687208387586
 30
0.0
 10
-113.3044965955946
 20
45.17687208387586
 30
0.0
 10
-113.3044965955946
 20
44.4864749484592
 30
0.0
 10
-112.7422570122612
 20
43.92423536512587
 30
0.0
 10
-112.0518598768446
 20
43.92423536512587
 30
0.0
 10
-112.0518598768446
 20
43.92423536512587
 30
0.0
 10
-112.0518598768446
 20
43.92423536512587
 30
0.0
 10
-112.0518598768446
 20
43.92423536512587
 30
0.0
  0
SPLINE
  5
18A
100
AcDbEntity
  8
ALPHA
 62
     7
100
AcDbSpline
210
0.0
220
0.0
230
-1.0
 70
     8
 71
     3
 72
    32
 73
    28
 74
     0
 42
0.0000001
 43
0.0000001
 40
0.0
 40
0.0
 40
0.0
 40
0.0
 40
1.0
 40
1.0
 40
1.0
 40
2.0
 40
2.0
 40
2.0
 40
3.0
 40
3.0
 40
3.0
 40
4.0
 40
4.0
 40
4.0
 40
5.0
 40
5.0
 40
5.0
 40
6.0
 40
6.0
 40
6.0
 40
7.0
 40
7.0
 40
7.0
 40
8.0
 40
8.0
 40
8.0
 40
9.0
 40
9.0
 40
9.0
 40
9.0
 10
-127.8207509358723
 20
15.07362772623697
 30
0.0
 10
-127.8207509358723
 20
15.07362772623697
 30
0.0
 10
-127.8207509358723
 20
12.06537034776475
 30
0.0
 10
-127.8207509358723
 20
12.06537034776475
 30
0.0
 10
-127.8207509358723
 20
11.5086429172092
 30
0.0
 10
-127.3742665608723
 20
11.0621585422092
 30
0.0
 10
-126.8189171685112
 20
11.0621585422092
 30
0.0
 10
-126.8189171685112
 20
11.0621585422092
 30
0.0
 10
-112.7835981580946
 20
11.0621585422092
 30
0.0
 10
-112.7835981580946
 20
11.0621585422092
 30
0.0
 10
-112.2310048421223
 20
11.0621585422092
 30
0.0
 10
-111.780386352539
 20
11.5086429172092
 30
0.0
 10
-111.780386352539
 20
12.06537034776475
 30
0.0
 10
-111.780386352539
 20
12.06537034776475
 30
0.0
 10
-111.780386352539
 20
24.09426574707031
 30
0.0
 10
-111.780386352539
 20
24.09426574707031
 30
0.0
 10
-111.780386352539
 20
24.64685906304253
 30
0.0
 10
-112.2310048421223
 20
25.09334343804253
 30
0.0
 10
-112.7835981580946
 20
25.09334343804253
 30
0.0
 10
-112.7835981580946
 20
25.09334343804253
 30
0.0
 10
-126.8189171685112
 20
25.09334343804253
 30
0.0
 10
-126.8189171685112
 20
25.09334343804253
 30
0.0
 10
-127.3742665608723
 20
25.09334343804253
 30
0.0
 10
-127.8207509358723
 20
24.64685906304253
 30
0.0
 10
-127.8207509358723
 20
24.09426574707031
 30
0.0
 10
-127.8207509358723
 20
24.09426574707031
 30
0.0
 10
-127.8207509358723
 20
21.08738640679253
 30
0.0
 10
-127.8207509358723
 20
21.08738640679253
 30
0.0
  0
SPLINE
  5
18B
100
AcDbEntity
  8
ALPHA
 62
     7
100
AcDbSpline
210
0.0
220
0.0
230
1.0
 70
    11
 71
     3
 72
    26
 73
    22
 74
     0
 42
0.0000001
 43
0.0000001
 40
0.0
 40
0.0
 40
0.0
 40
0.0
 40
1.0
 40
1.0
 40
1.0
 40
2.0
 40
2.0
 40
2.0
 40
3.0
 40
3.0
 40
3.0
 40
4.0
 40
4.0
 40
4.0
 40
5.0
 40
5.0
 40
5.0
 40
6.0
 40
6.0
 40
6.0
 40
7.0
 40
7.0
 40
7.0
 40
7.0
 10
-124.8083594428168
 20
18.08050706651475
 30
0.0
 10
-124.8083594428168
 20
18.08050706651475
 30
0.0
 10
-127.816616821289
 20
21.08738640679253
 30
0.0
 10
-127.816616821289
 20
21.08738640679253
 30
0.0
 10
-127.816616821289
 20
21.08738640679253
 30
0.0
 10
-132.8285417344835
 20
21.08738640679253
 30
0.0
 10
-132.8285417344835
 20
21.08738640679253
 30
0.0
 10
-134.489077758789
 20
21.08738640679253
 30
0.0
 10
-135.8367991129556
 20
19.73828701443142
 30
0.0
 10
-135.8367991129556
 20
18.08050706651475
 30
0.0
 10
-135.8367991129556
 20
18.08050706651475
 30
0.0
 10
-135.8367991129556
 20
18.08050706651475
 30
0.0
 10
-135.8367991129556
 20
18.08050706651475
 30
0.0
 10
-135.8367991129556
 20
16.41721496582031
 30
0.0
 10
-134.489077758789
 20
15.07362772623697
 30
0.0
 10
-132.8285417344835
 20
15.07362772623697
 30
0.0
 10
-132.8285417344835
 20
15.07362772623697
 30
0.0
 10
-127.816616821289
 20
15.07362772623697
 30
0.0
 10
-127.816616821289
 20
15.07362772623697
 30
0.0
 10
-127.816616821289
 20
15.07362772623697
 30
0.0
 10
-124.8083594428168
 20
18.08050706651475
 30
0.0
 10
-124.8083594428168
 20
18.08050706651475
 30
0.0
  0
SPLINE
  5
18C
100
AcDbEntity
  8
ALPHA
 62
     7
100
AcDbSpline
210
0.0
220
0.0
230
-1.0
 70
     8
 71
     3
 72
    32
 73
    28
 74
     0
 42
0.0000001
 43
0.0000001
 40
0.0
 40
0.0
 40
0.0
 40
0.0
 40
1.0
 40
1.0
 40
1.0
 40
2.0
 40
2.0
 40
2.0
 40
3.0
 40
3.0
 40
3.0
 40
4.0
 40
4.0
 40
4.0
 40
5.0
 40
5.0
 40
5.0
 40
6.0
 40
6.0
 40
6.0
 40
7.0
 40
7.0
 40
7.0
 40
8.0
 40
8.0
 40
8.0
 40
9.0
 40
9.0
 40
9.0
 40
9.0
 10
-127.8207509358723
 20
-4.024775865342881
 30
0.0
 10
-127.8207509358723
 20
-4.024775865342881
 30
0.0
 10
-127.8207509358723
 20
-7.031655205620658
 30
0.0
 10
-127.8207509358723
 20
-7.031655205620658
 30
0.0
 10
-127.8207509358723
 20
-7.589760674370658
 30
0.0
 10
-127.3742665608723
 20
-8.036245049370659
 30
0.0
 10
-126.8189171685112
 20
-8.036245049370659
 30
0.0
 10
-126.8189171685112
 20
-8.036245049370659
 30
0.0
 10
-112.7835981580946
 20
-8.036245049370659
 30
0.0
 10
-112.7835981580946
 20
-8.036245049370659
 30
0.0
 10
-112.2310048421223
 20
-8.036245049370659
 30
0.0
 10
-111.780386352539
 20
-7.589760674370658
 30
0.0
 10
-111.780386352539
 20
-7.031655205620658
 30
0.0
 10
-111.780386352539
 20
-7.031655205620658
 30
0.0
 10
-111.780386352539
 20
4.997240193684895
 30
0.0
 10
-111.780386352539
 20
4.997240193684895
 30
0.0
 10
-111.780386352539
 20
5.549833509657117
 30
0.0
 10
-112.2310048421223
 20
5.996317884657117
 30
0.0
 10
-112.7835981580946
 20
5.996317884657117
 30
0.0
 10
-112.7835981580946
 20
5.996317884657117
 30
0.0
 10
-126.8189171685112
 20
5.996317884657117
 30
0.0
 10
-126.8189171685112
 20
5.996317884657117
 30
0.0
 10
-127.3742665608723
 20
5.996317884657117
 30
0.0
 10
-127.8207509358723
 20
5.549833509657117
 30
0.0
 10
-127.8207509358723
 20
4.997240193684895
 30
0.0
 10
-127.8207509358723
 20
4.997240193684895
 30
0.0
 10
-127.8207509358723
 20
1.988982815212673
 30
0.0
 10
-127.8207509358723
 20
1.988982815212673
 30
0.0
  0
SPLINE
  5
18D
100
AcDbEntity
  8
ALPHA
 62
     7
100
AcDbSpline
210
0.0
220
0.0
230
1.0
 70
    11
 71
     3
 72
    26
 73
    22
 74
     0
 42
0.0000001
 43
0.0000001
 40
0.0
 40
0.0
 40
0.0
 40
0.0
 40
1.0
 40
1.0
 40
1.0
 40
2.0
 40
2.0
 40
2.0
 40
3.0
 40
3.0
 40
3.0
 40
4.0
 40
4.0
 40
4.0
 40
5.0
 40
5.0
 40
5.0
 40
6.0
 40
6.0
 40
6.0
 40
7.0
 40
7.0
 40
7.0
 40
7.0
 10
-124.8083594428168
 20
-1.017896525065103
 30
0.0
 10
-124.8083594428168
 20
-1.017896525065103
 30
0.0
 10
-127.816616821289
 20
1.988982815212673
 30
0.0
 10
-127.816616821289
 20
1.988982815212673
 30
0.0
 10
-127.816616821289
 20
1.988982815212673
 30
0.0
 10
-132.8285417344835
 20
1.988982815212673
 30
0.0
 10
-132.8285417344835
 20
1.988982815212673
 30
0.0
 10
-134.489077758789
 20
1.988982815212673
 30
0.0
 10
-135.8367991129556
 20
0.6398834228515625
 30
0.0
 10
-135.8367991129556
 20
-1.017896525065103
 30
0.0
 10
-135.8367991129556
 20
-1.017896525065103
 30
0.0
 10
-135.8367991129556
 20
-1.017896525065103
 30
0.0
 10
-135.8367991129556
 20
-1.017896525065103
 30
0.0
 10
-135.8367991129556
 20
-2.679810587565103
 30
0.0
 10
-134.489077758789
 20
-4.024775865342881
 30
0.0
 10
-132.8285417344835
 20
-4.024775865342881
 30
0.0
 10
-132.8285417344835
 20
-4.024775865342881
 30
0.0
 10
-127.816616821289
 20
-4.024775865342881
 30
0.0
 10
-127.816616821289
 20
-4.024775865342881
 30
0.0
 10
-127.816616821289
 20
-4.024775865342881
 30
0.0
 10
-124.8083594428168
 20
-1.017896525065103
 30
0.0
 10
-124.8083594428168
 20
-1.017896525065103
 30
0.0
  0
SPLINE
  5
18E
100
AcDbEntity
  8
ALPHA
 62
     7
100
AcDbSpline
210
0.0
220
0.0
230
-1.0
 70
     8
 71
     3
 72
    32
 73
    28
 74
     0
 42
0.0000001
 43
0.0000001
 40
0.0
 40
0.0
 40
0.0
 40
0.0
 40
1.0
 40
1.0
 40
1.0
 40
2.0
 40
2.0
 40
2.0
 40
3.0
 40
3.0
 40
3.0
 40
4.0
 40
4.0
 40
4.0
 40
5.0
 40
5.0
 40
5.0
 40
6.0
 40
6.0
 40
6.0
 40
7.0
 40
7.0
 40
7.0
 40
8.0
 40
8.0
 40
8.0
 40
9.0
 40
9.0
 40
9.0
 40
9.0
 10
-127.8207509358723
 20
-23.12300720214843
 30
0.0
 10
-127.8207509358723
 20
-23.12300720214843
 30
0.0
 10
-127.8207509358723
 20
-26.12988654242621
 30
0.0
 10
-127.8207509358723
 20
-26.12988654242621
 30
0.0
 10
-127.8207509358723
 20
-26.68661397298176
 30
0.0
 10
-127.3742665608723
 20
-27.13309834798177
 30
0.0
 10
-126.8189171685112
 20
-27.13309834798177
 30
0.0
 10
-126.8189171685112
 20
-27.13309834798177
 30
0.0
 10
-112.7835981580946
 20
-27.13309834798177
 30
0.0
 10
-112.7835981580946
 20
-27.13309834798177
 30
0.0
 10
-112.2310048421223
 20
-27.13309834798177
 30
0.0
 10
-111.780386352539
 20
-26.68661397298176
 30
0.0
 10
-111.780386352539
 20
-26.12988654242621
 30
0.0
 10
-111.780386352539
 20
-26.12988654242621
 30
0.0
 10
-111.780386352539
 20
-14.10099114312066
 30
0.0
 10
-111.780386352539
 20
-14.10099114312066
 30
0.0
 10
-111.780386352539
 20
-13.54839782714843
 30
0.0
 10
-112.2310048421223
 20
-13.10191345214843
 30
0.0
 10
-112.7835981580946
 20
-13.10191345214843
 30
0.0
 10
-112.7835981580946
 20
-13.10191345214843
 30
0.0
 10
-126.8189171685112
 20
-13.10191345214843
 30
0.0
 10
-126.8189171685112
 20
-13.10191345214843
 30
0.0
 10
-127.3742665608723
 20
-13.10191345214843
 30
0.0
 10
-127.8207509358723
 20
-13.54839782714843
 30
0.0
 10
-127.8207509358723
 20
-14.10099114312066
 30
0.0
 10
-127.8207509358723
 20
-14.10099114312066
 30
0.0
 10
-127.8207509358723
 20
-17.10787048339843
 30
0.0
 10
-127.8207509358723
 20
-17.10787048339843
 30
0.0
  0
SPLINE
  5
18F
100
AcDbEntity
  8
ALPHA
 62
     7
100
AcDbSpline
210
0.0
220
0.0
230
1.0
 70
    11
 71
     3
 72
    26
 73
    22
 74
     0
 42
0.0000001
 43
0.0000001
 40
0.0
 40
0.0
 40
0.0
 40
0.0
 40
1.0
 40
1.0
 40
1.0
 40
2.0
 40
2.0
 40
2.0
 40
3.0
 40
3.0
 40
3.0
 40
4.0
 40
4.0
 40
4.0
 40
5.0
 40
5.0
 40
5.0
 40
6.0
 40
6.0
 40
6.0
 40
7.0
 40
7.0
 40
7.0
 40
7.0
 10
-124.8083594428168
 20
-20.11474982367621
 30
0.0
 10
-124.8083594428168
 20
-20.11474982367621
 30
0.0
 10
-127.816616821289
 20
-17.10787048339843
 30
0.0
 10
-127.816616821289
 20
-17.10787048339843
 30
0.0
 10
-127.816616821289
 20
-17.10787048339843
 30
0.0
 10
-132.8285417344835
 20
-17.10787048339843
 30
0.0
 10
-132.8285417344835
 20
-17.10787048339843
 30
0.0
 10
-134.489077758789
 20
-17.10787048339843
 30
0.0
 10
-135.8367991129556
 20
-18.45696987575954
 30
0.0
 10
-135.8367991129556
 20
-20.11474982367621
 30
0.0
 10
-135.8367991129556
 20
-20.11474982367621
 30
0.0
 10
-135.8367991129556
 20
-20.11474982367621
 30
0.0
 10
-135.8367991129556
 20
-20.11474982367621
 30
0.0
 10
-135.8367991129556
 20
-21.77804192437065
 30
0.0
 10
-134.489077758789
 20
-23.12300720214843
 30
0.0
 10
-132.8285417344835
 20
-23.12300720214843
 30
0.0
 10
-132.8285417344835
 20
-23.12300720214843
 30
0.0
 10
-127.816616821289
 20
-23.12300720214843
 30
0.0
 10
-127.816616821289
 20
-23.12300720214843
 30
0.0
 10
-127.816616821289
 20
-23.12300720214843
 30
0.0
 10
-124.8083594428168
 20
-20.11474982367621
 30
0.0
 10
-124.8083594428168
 20
-20.11474982367621
 30
0.0
  0
SPLINE
  5
190
100
AcDbEntity
  8
ALPHA
 62
     7
100
AcDbSpline
210
0.0
220
0.0
230
-1.0
 70
     8
 71
     3
 72
    32
 73
    28
 74
     0
 42
0.0000001
 43
0.0000001
 40
0.0
 40
0.0
 40
0.0
 40
0.0
 40
1.0
 40
1.0
 40
1.0
 40
2.0
 40
2.0
 40
2.0
 40
3.0
 40
3.0
 40
3.0
 40
4.0
 40
4.0
 40
4.0
 40
5.0
 40
5.0
 40
5.0
 40
6.0
 40
6.0
 40
6.0
 40
7.0
 40
7.0
 40
7.0
 40
8.0
 40
8.0
 40
8.0
 40
9.0
 40
9.0
 40
9.0
 40
9.0
 10
-127.8207509358723
 20
-42.21986050075954
 30
0.0
 10
-127.8207509358723
 20
-42.21986050075954
 30
0.0
 10
-127.8207509358723
 20
-45.22811787923177
 30
0.0
 10
-127.8207509358723
 20
-45.22811787923177
 30
0.0
 10
-127.8207509358723
 20
-45.78484530978732
 30
0.0
 10
-127.3742665608723
 20
-46.23132968478731
 30
0.0
 10
-126.8189171685112
 20
-46.23132968478731
 30
0.0
 10
-126.8189171685112
 20
-46.23132968478731
 30
0.0
 10
-112.7835981580946
 20
-46.23132968478731
 30
0.0
 10
-112.7835981580946
 20
-46.23132968478731
 30
0.0
 10
-112.2310048421223
 20
-46.23132968478731
 30
0.0
 10
-111.780386352539
 20
-45.78484530978732
 30
0.0
 10
-111.780386352539
 20
-45.22811787923177
 30
0.0
 10
-111.780386352539
 20
-45.22811787923177
 30
0.0
 10
-111.780386352539
 20
-33.19922247992621
 30
0.0
 10
-111.780386352539
 20
-33.19922247992621
 30
0.0
 10
-111.780386352539
 20
-32.64662916395399
 30
0.0
 10
-112.2310048421223
 20
-32.19876675075954
 30
0.0
 10
-112.7835981580946
 20
-32.19876675075954
 30
0.0
 10
-112.7835981580946
 20
-32.19876675075954
 30
0.0
 10
-126.8189171685112
 20
-32.19876675075954
 30
0.0
 10
-126.8189171685112
 20
-32.19876675075954
 30
0.0
 10
-127.3742665608723
 20
-32.19876675075954
 30
0.0
 10
-127.8207509358723
 20
-32.64662916395399
 30
0.0
 10
-127.8207509358723
 20
-33.19922247992621
 30
0.0
 10
-127.8207509358723
 20
-33.19922247992621
 30
0.0
 10
-127.8207509358723
 20
-36.20610182020399
 30
0.0
 10
-127.8207509358723
 20
-36.20610182020399
 30
0.0
  0
SPLINE
  5
191
100
AcDbEntity
  8
ALPHA
 62
     7
100
AcDbSpline
210
0.0
220
0.0
230
1.0
 70
    11
 71
     3
 72
    26
 73
    22
 74
     0
 42
0.0000001
 43
0.0000001
 40
0.0
 40
0.0
 40
0.0
 40
0.0
 40
1.0
 40
1.0
 40
1.0
 40
2.0
 40
2.0
 40
2.0
 40
3.0
 40
3.0
 40
3.0
 40
4.0
 40
4.0
 40
4.0
 40
5.0
 40
5.0
 40
5.0
 40
6.0
 40
6.0
 40
6.0
 40
7.0
 40
7.0
 40
7.0
 40
7.0
 10
-124.8083594428168
 20
-39.21298116048177
 30
0.0
 10
-124.8083594428168
 20
-39.21298116048177
 30
0.0
 10
-127.816616821289
 20
-36.20610182020399
 30
0.0
 10
-127.816616821289
 20
-36.20610182020399
 30
0.0
 10
-127.816616821289
 20
-36.20610182020399
 30
0.0
 10
-132.8285417344835
 20
-36.20610182020399
 30
0.0
 10
-132.8285417344835
 20
-36.20610182020399
 30
0.0
 10
-134.489077758789
 20
-36.20610182020399
 30
0.0
 10
-135.8367991129556
 20
-37.5552012125651
 30
0.0
 10
-135.8367991129556
 20
-39.21298116048177
 30
0.0
 10
-135.8367991129556
 20
-39.21298116048177
 30
0.0
 10
-135.8367991129556
 20
-39.21298116048177
 30
0.0
 10
-135.8367991129556
 20
-39.21298116048177
 30
0.0
 10
-135.8367991129556
 20
-40.87489522298176
 30
0.0
 10
-134.489077758789
 20
-42.21986050075954
 30
0.0
 10
-132.8285417344835
 20
-42.21986050075954
 30
0.0
 10
-132.8285417344835
 20
-42.21986050075954
 30
0.0
 10
-127.816616821289
 20
-42.21986050075954
 30
0.0
 10
-127.816616821289
 20
-42.21986050075954
 30
0.0
 10
-127.816616821289
 20
-42.21986050075954
 30
0.0
 10
-124.8083594428168
 20
-39.21298116048177
 30
0.0
 10
-124.8083594428168
 20
-39.21298116048177
 30
0.0
  0
SPLINE
  5
192
100
AcDbEntity
  8
ALPHA
 62
     7
100
AcDbSpline
210
0.0
220
0.0
230
-1.0
 70
     8
 71
     3
 72
    32
 73
    28
 74
     0
 42
0.0000001
 43
0.0000001
 40
0.0
 40
0.0
 40
0.0
 40
0.0
 40
1.0
 40
1.0
 40
1.0
 40
2.0
 40
2.0
 40
2.0
 40
3.0
 40
3.0
 40
3.0
 40
4.0
 40
4.0
 40
4.0
 40
5.0
 40
5.0
 40
5.0
 40
6.0
 40
6.0
 40
6.0
 40
7.0
 40
7.0
 40
7.0
 40
8.0
 40
8.0
 40
8.0
 40
9.0
 40
9.0
 40
9.0
 40
9.0
 10
-127.8207509358723
 20
-61.3180918375651
 30
0.0
 10
-127.8207509358723
 20
-61.3180918375651
 30
0.0
 10
-127.8207509358723
 20
-64.32497117784286
 30
0.0
 10
-127.8207509358723
 20
-64.32497117784286
 30
0.0
 10
-127.8207509358723
 20
-64.88169860839843
 30
0.0
 10
-127.3742665608723
 20
-65.32956102159288
 30
0.0
 10
-126.8189171685112
 20
-65.32956102159288
 30
0.0
 10
-126.8189171685112
 20
-65.32956102159288
 30
0.0
 10
-112.7835981580946
 20
-65.32956102159288
 30
0.0
 10
-112.7835981580946
 20
-65.32956102159288
 30
0.0
 10
-112.2310048421223
 20
-65.32956102159288
 30
0.0
 10
-111.780386352539
 20
-64.88169860839843
 30
0.0
 10
-111.780386352539
 20
-64.32497117784286
 30
0.0
 10
-111.780386352539
 20
-64.32497117784286
 30
0.0
 10
-111.780386352539
 20
-52.29607577853732
 30
0.0
 10
-111.780386352539
 20
-52.29607577853732
 30
0.0
 10
-111.780386352539
 20
-51.7434824625651
 30
0.0
 10
-112.2310048421223
 20
-51.2969980875651
 30
0.0
 10
-112.7835981580946
 20
-51.2969980875651
 30
0.0
 10
-112.7835981580946
 20
-51.2969980875651
 30
0.0
 10
-126.8189171685112
 20
-51.2969980875651
 30
0.0
 10
-126.8189171685112
 20
-51.2969980875651
 30
0.0
 10
-127.3742665608723
 20
-51.2969980875651
 30
0.0
 10
-127.8207509358723
 20
-51.7434824625651
 30
0.0
 10
-127.8207509358723
 20
-52.29607577853732
 30
0.0
 10
-127.8207509358723
 20
-52.29607577853732
 30
0.0
 10
-127.8207509358723
 20
-55.3029551188151
 30
0.0
 10
-127.8207509358723
 20
-55.3029551188151
 30
0.0
  0
SPLINE
  5
193
100
AcDbEntity
  8
ALPHA
 62
     7
100
AcDbSpline
210
0.0
220
0.0
230
1.0
 70
    11
 71
     3
 72
    26
 73
    22
 74
     0
 42
0.0000001
 43
0.0000001
 40
0.0
 40
0.0
 40
0.0
 40
0.0
 40
1.0
 40
1.0
 40
1.0
 40
2.0
 40
2.0
 40
2.0
 40
3.0
 40
3.0
 40
3.0
 40
4.0
 40
4.0
 40
4.0
 40
5.0
 40
5.0
 40
5.0
 40
6.0
 40
6.0
 40
6.0
 40
7.0
 40
7.0
 40
7.0
 40
7.0
 10
-124.8083594428168
 20
-58.31121249728732
 30
0.0
 10
-124.8083594428168
 20
-58.31121249728732
 30
0.0
 10
-127.816616821289
 20
-55.3029551188151
 30
0.0
 10
-127.816616821289
 20
-55.3029551188151
 30
0.0
 10
-127.816616821289
 20
-55.3029551188151
 30
0.0
 10
-132.8285417344835
 20
-55.3029551188151
 30
0.0
 10
-132.8285417344835
 20
-55.3029551188151
 30
0.0
 10
-134.489077758789
 20
-55.3029551188151
 30
0.0
 10
-135.8367991129556
 20
-56.65343254937066
 30
0.0
 10
-135.8367991129556
 20
-58.31121249728732
 30
0.0
 10
-135.8367991129556
 20
-58.31121249728732
 30
0.0
 10
-135.8367991129556
 20
-58.31121249728732
 30
0.0
 10
-135.8367991129556
 20
-58.31121249728732
 30
0.0
 10
-135.8367991129556
 20
-59.97312655978731
 30
0.0
 10
-134.489077758789
 20
-61.3180918375651
 30
0.0
 10
-132.8285417344835
 20
-61.3180918375651
 30
0.0
 10
-132.8285417344835
 20
-61.3180918375651
 30
0.0
 10
-127.816616821289
 20
-61.3180918375651
 30
0.0
 10
-127.816616821289
 20
-61.3180918375651
 30
0.0
 10
-127.816616821289
 20
-61.3180918375651
 30
0.0
 10
-124.8083594428168
 20
-58.31121249728732
 30
0.0
 10
-124.8083594428168
 20
-58.31121249728732
 30
0.0
  0
SPLINE
  5
194
100
AcDbEntity
  8
ALPHA
 62
     7
100
AcDbSpline
210
0.0
220
0.0
230
-1.0
 70
     8
 71
     3
 72
    32
 73
    28
 74
     0
 42
0.0000001
 43
0.0000001
 40
0.0
 40
0.0
 40
0.0
 40
0.0
 40
1.0
 40
1.0
 40
1.0
 40
2.0
 40
2.0
 40
2.0
 40
3.0
 40
3.0
 40
3.0
 40
4.0
 40
4.0
 40
4.0
 40
5.0
 40
5.0
 40
5.0
 40
6.0
 40
6.0
 40
6.0
 40
7.0
 40
7.0
 40
7.0
 40
8.0
 40
8.0
 40
8.0
 40
9.0
 40
9.0
 40
9.0
 40
9.0
 10
-127.8207509358723
 20
-80.41494513617621
 30
0.0
 10
-127.8207509358723
 20
-80.41494513617621
 30
0.0
 10
-127.8207509358723
 20
-83.42320251464842
 30
0.0
 10
-127.8207509358723
 20
-83.42320251464842
 30
0.0
 10
-127.8207509358723
 20
-83.97992994520398
 30
0.0
 10
-127.3742665608723
 20
-84.42641432020399
 30
0.0
 10
-126.8189171685112
 20
-84.42641432020399
 30
0.0
 10
-126.8189171685112
 20
-84.42641432020399
 30
0.0
 10
-112.7835981580946
 20
-84.42641432020399
 30
0.0
 10
-112.7835981580946
 20
-84.42641432020399
 30
0.0
 10
-112.2310048421223
 20
-84.42641432020399
 30
0.0
 10
-111.780386352539
 20
-83.97992994520398
 30
0.0
 10
-111.780386352539
 20
-83.42320251464842
 30
0.0
 10
-111.780386352539
 20
-83.42320251464842
 30
0.0
 10
-111.780386352539
 20
-71.39430711534287
 30
0.0
 10
-111.780386352539
 20
-71.39430711534287
 30
0.0
 10
-111.780386352539
 20
-70.84171379937065
 30
0.0
 10
-112.2310048421223
 20
-70.39522942437065
 30
0.0
 10
-112.7835981580946
 20
-70.39522942437065
 30
0.0
 10
-112.7835981580946
 20
-70.39522942437065
 30
0.0
 10
-126.8189171685112
 20
-70.39522942437065
 30
0.0
 10
-126.8189171685112
 20
-70.39522942437065
 30
0.0
 10
-127.3742665608723
 20
-70.39522942437065
 30
0.0
 10
-127.8207509358723
 20
-70.84171379937065
 30
0.0
 10
-127.8207509358723
 20
-71.39430711534287
 30
0.0
 10
-127.8207509358723
 20
-71.39430711534287
 30
0.0
 10
-127.8207509358723
 20
-74.40118645562065
 30
0.0
 10
-127.8207509358723
 20
-74.40118645562065
 30
0.0
  0
SPLINE
  5
195
100
AcDbEntity
  8
ALPHA
 62
     7
100
AcDbSpline
210
0.0
220
0.0
230
1.0
 70
    11
 71
     3
 72
    26
 73
    22
 74
     0
 42
0.0000001
 43
0.0000001
 40
0.0
 40
0.0
 40
0.0
 40
0.0
 40
1.0
 40
1.0
 40
1.0
 40
2.0
 40
2.0
 40
2.0
 40
3.0
 40
3.0
 40
3.0
 40
4.0
 40
4.0
 40
4.0
 40
5.0
 40
5.0
 40
5.0
 40
6.0
 40
6.0
 40
6.0
 40
7.0
 40
7.0
 40
7.0
 40
7.0
 10
-124.8083594428168
 20
-77.40806579589843
 30
0.0
 10
-124.8083594428168
 20
-77.40806579589843
 30
0.0
 10
-127.816616821289
 20
-74.40118645562065
 30
0.0
 10
-127.816616821289
 20
-74.40118645562065
 30
0.0
 10
-127.816616821289
 20
-74.40118645562065
 30
0.0
 10
-132.8285417344835
 20
-74.40118645562065
 30
0.0
 10
-132.8285417344835
 20
-74.40118645562065
 30
0.0
 10
-134.489077758789
 20
-74.40118645562065
 30
0.0
 10
-135.8367991129556
 20
-75.75028584798175
 30
0.0
 10
-135.8367991129556
 20
-77.40806579589843
 30
0.0
 10
-135.8367991129556
 20
-77.40806579589843
 30
0.0
 10
-135.8367991129556
 20
-77.40806579589843
 30
0.0
 10
-135.8367991129556
 20
-77.40806579589843
 30
0.0
 10
-135.8367991129556
 20
-79.07135789659287
 30
0.0
 10
-134.489077758789
 20
-80.41494513617621
 30
0.0
 10
-132.8285417344835
 20
-80.41494513617621
 30
0.0
 10
-132.8285417344835
 20
-80.41494513617621
 30
0.0
 10
-127.816616821289
 20
-80.41494513617621
 30
0.0
 10
-127.816616821289
 20
-80.41494513617621
 30
0.0
 10
-127.816616821289
 20
-80.41494513617621
 30
0.0
 10
-124.8083594428168
 20
-77.40806579589843
 30
0.0
 10
-124.8083594428168
 20
-77.40806579589843
 30
0.0
  0
SPLINE
  5
196
100
AcDbEntity
  8
ALPHA
 62
     7
100
AcDbSpline
210
0.0
220
0.0
230
-1.0
 70
     8
 71
     3
 72
    32
 73
    28
 74
     0
 42
0.0000001
 43
0.0000001
 40
0.0
 40
0.0
 40
0.0
 40
0.0
 40
1.0
 40
1.0
 40
1.0
 40
2.0
 40
2.0
 40
2.0
 40
3.0
 40
3.0
 40
3.0
 40
4.0
 40
4.0
 40
4.0
 40
5.0
 40
5.0
 40
5.0
 40
6.0
 40
6.0
 40
6.0
 40
7.0
 40
7.0
 40
7.0
 40
8.0
 40
8.0
 40
8.0
 40
9.0
 40
9.0
 40
9.0
 40
9.0
 10
-89.72075093587239
 20
15.07362772623697
 30
0.0
 10
-89.72075093587239
 20
15.07362772623697
 30
0.0
 10
-89.72075093587239
 20
12.06537034776475
 30
0.0
 10
-89.72075093587239
 20
12.06537034776475
 30
0.0
 10
-89.72075093587239
 20
11.5086429172092
 30
0.0
 10
-90.16723531087238
 20
11.0621585422092
 30
0.0
 10
-90.72534077962238
 20
11.0621585422092
 30
0.0
 10
-90.72534077962238
 20
11.0621585422092
 30
0.0
 10
-104.7565256754557
 20
11.0621585422092
 30
0.0
 10
-104.7565256754557
 20
11.0621585422092
 30
0.0
 10
-105.3091189914279
 20
11.0621585422092
 30
0.0
 10
-105.7611155192057
 20
11.5086429172092
 30
0.0
 10
-105.7611155192057
 20
12.06537034776475
 30
0.0
 10
-105.7611155192057
 20
12.06537034776475
 30
0.0
 10
-105.7611155192057
 20
24.09426574707031
 30
0.0
 10
-105.7611155192057
 20
24.09426574707031
 30
0.0
 10
-105.7611155192057
 20
24.64685906304253
 30
0.0
 10
-105.3091189914279
 20
25.09334343804253
 30
0.0
 10
-104.7565256754557
 20
25.09334343804253
 30
0.0
 10
-104.7565256754557
 20
25.09334343804253
 30
0.0
 10
-90.72534077962238
 20
25.09334343804253
 30
0.0
 10
-90.72534077962238
 20
25.09334343804253
 30
0.0
 10
-90.16723531087238
 20
25.09334343804253
 30
0.0
 10
-89.72075093587239
 20
24.64685906304253
 30
0.0
 10
-89.72075093587239
 20
24.09426574707031
 30
0.0
 10
-89.72075093587239
 20
24.09426574707031
 30
0.0
 10
-89.72075093587239
 20
21.08738640679253
 30
0.0
 10
-89.72075093587239
 20
21.08738640679253
 30
0.0
  0
SPLINE
  5
197
100
AcDbEntity
  8
ALPHA
 62
     7
100
AcDbSpline
210
0.0
220
0.0
230
1.0
 70
    11
 71
     3
 72
    26
 73
    22
 74
     0
 42
0.0000001
 43
0.0000001
 40
0.0
 40
0.0
 40
0.0
 40
0.0
 40
1.0
 40
1.0
 40
1.0
 40
2.0
 40
2.0
 40
2.0
 40
3.0
 40
3.0
 40
3.0
 40
4.0
 40
4.0
 40
4.0
 40
5.0
 40
5.0
 40
5.0
 40
6.0
 40
6.0
 40
6.0
 40
7.0
 40
7.0
 40
7.0
 40
7.0
 10
-92.73314242892794
 20
18.08050706651475
 30
0.0
 10
-92.73314242892794
 20
18.08050706651475
 30
0.0
 10
-89.72626308865017
 20
21.08738640679253
 30
0.0
 10
-89.72626308865017
 20
21.08738640679253
 30
0.0
 10
-89.72626308865017
 20
21.08738640679253
 30
0.0
 10
-84.71571621365017
 20
21.08738640679253
 30
0.0
 10
-84.71571621365017
 20
21.08738640679253
 30
0.0
 10
-83.05242411295571
 20
21.08738640679253
 30
0.0
 10
-81.70745883517794
 20
19.73828701443142
 30
0.0
 10
-81.70745883517794
 20
18.08050706651475
 30
0.0
 10
-81.70745883517794
 20
18.08050706651475
 30
0.0
 10
-81.70745883517794
 20
18.08050706651475
 30
0.0
 10
-81.70745883517794
 20
18.08050706651475
 30
0.0
 10
-81.70745883517794
 20
16.41721496582031
 30
0.0
 10
-83.05242411295571
 20
15.07362772623697
 30
0.0
 10
-84.71571621365017
 20
15.07362772623697
 30
0.0
 10
-84.71571621365017
 20
15.07362772623697
 30
0.0
 10
-89.72626308865017
 20
15.07362772623697
 30
0.0
 10
-89.72626308865017
 20
15.07362772623697
 30
0.0
 10
-89.72626308865017
 20
15.07362772623697
 30
0.0
 10
-92.73314242892794
 20
18.08050706651475
 30
0.0
 10
-92.73314242892794
 20
18.08050706651475
 30
0.0
  0
SPLINE
  5
198
100
AcDbEntity
  8
ALPHA
 62
     7
100
AcDbSpline
210
0.0
220
0.0
230
-1.0
 70
     8
 71
     3
 72
    32
 73
    28
 74
     0
 42
0.0000001
 43
0.0000001
 40
0.0
 40
0.0
 40
0.0
 40
0.0
 40
1.0
 40
1.0
 40
1.0
 40
2.0
 40
2.0
 40
2.0
 40
3.0
 40
3.0
 40
3.0
 40
4.0
 40
4.0
 40
4.0
 40
5.0
 40
5.0
 40
5.0
 40
6.0
 40
6.0
 40
6.0
 40
7.0
 40
7.0
 40
7.0
 40
8.0
 40
8.0
 40
8.0
 40
9.0
 40
9.0
 40
9.0
 40
9.0
 10
-89.72075093587239
 20
-4.024775865342881
 30
0.0
 10
-89.72075093587239
 20
-4.024775865342881
 30
0.0
 10
-89.72075093587239
 20
-7.031655205620658
 30
0.0
 10
-89.72075093587239
 20
-7.031655205620658
 30
0.0
 10
-89.72075093587239
 20
-7.589760674370658
 30
0.0
 10
-90.16723531087238
 20
-8.036245049370659
 30
0.0
 10
-90.72534077962238
 20
-8.036245049370659
 30
0.0
 10
-90.72534077962238
 20
-8.036245049370659
 30
0.0
 10
-104.7565256754557
 20
-8.036245049370659
 30
0.0
 10
-104.7565256754557
 20
-8.036245049370659
 30
0.0
 10
-105.3091189914279
 20
-8.036245049370659
 30
0.0
 10
-105.7611155192057
 20
-7.589760674370658
 30
0.0
 10
-105.7611155192057
 20
-7.031655205620658
 30
0.0
 10
-105.7611155192057
 20
-7.031655205620658
 30
0.0
 10
-105.7611155192057
 20
4.997240193684895
 30
0.0
 10
-105.7611155192057
 20
4.997240193684895
 30
0.0
 10
-105.7611155192057
 20
5.549833509657117
 30
0.0
 10
-105.3091189914279
 20
5.996317884657117
 30
0.0
 10
-104.7565256754557
 20
5.996317884657117
 30
0.0
 10
-104.7565256754557
 20
5.996317884657117
 30
0.0
 10
-90.72534077962238
 20
5.996317884657117
 30
0.0
 10
-90.72534077962238
 20
5.996317884657117
 30
0.0
 10
-90.16723531087238
 20
5.996317884657117
 30
0.0
 10
-89.72075093587239
 20
5.549833509657117
 30
0.0
 10
-89.72075093587239
 20
4.997240193684895
 30
0.0
 10
-89.72075093587239
 20
4.997240193684895
 30
0.0
 10
-89.72075093587239
 20
1.988982815212673
 30
0.0
 10
-89.72075093587239
 20
1.988982815212673
 30
0.0
  0
SPLINE
  5
199
100
AcDbEntity
  8
ALPHA
 62
     7
100
AcDbSpline
210
0.0
220
0.0
230
1.0
 70
    11
 71
     3
 72
    26
 73
    22
 74
     0
 42
0.0000001
 43
0.0000001
 40
0.0
 40
0.0
 40
0.0
 40
0.0
 40
1.0
 40
1.0
 40
1.0
 40
2.0
 40
2.0
 40
2.0
 40
3.0
 40
3.0
 40
3.0
 40
4.0
 40
4.0
 40
4.0
 40
5.0
 40
5.0
 40
5.0
 40
6.0
 40
6.0
 40
6.0
 40
7.0
 40
7.0
 40
7.0
 40
7.0
 10
-92.73314242892794
 20
-1.017896525065103
 30
0.0
 10
-92.73314242892794
 20
-1.017896525065103
 30
0.0
 10
-89.72626308865017
 20
1.988982815212673
 30
0.0
 10
-89.72626308865017
 20
1.988982815212673
 30
0.0
 10
-89.72626308865017
 20
1.988982815212673
 30
0.0
 10
-84.71571621365017
 20
1.988982815212673
 30
0.0
 10
-84.71571621365017
 20
1.988982815212673
 30
0.0
 10
-83.05242411295571
 20
1.988982815212673
 30
0.0
 10
-81.70745883517794
 20
0.6398834228515625
 30
0.0
 10
-81.70745883517794
 20
-1.017896525065103
 30
0.0
 10
-81.70745883517794
 20
-1.017896525065103
 30
0.0
 10
-81.70745883517794
 20
-1.017896525065103
 30
0.0
 10
-81.70745883517794
 20
-1.017896525065103
 30
0.0
 10
-81.70745883517794
 20
-2.679810587565103
 30
0.0
 10
-83.05242411295571
 20
-4.024775865342881
 30
0.0
 10
-84.71571621365017
 20
-4.024775865342881
 30
0.0
 10
-84.71571621365017
 20
-4.024775865342881
 30
0.0
 10
-89.72626308865017
 20
-4.024775865342881
 30
0.0
 10
-89.72626308865017
 20
-4.024775865342881
 30
0.0
 10
-89.72626308865017
 20
-4.024775865342881
 30
0.0
 10
-92.73314242892794
 20
-1.017896525065103
 30
0.0
 10
-92.73314242892794
 20
-1.017896525065103
 30
0.0
  0
SPLINE
  5
19A
100
AcDbEntity
  8
ALPHA
 62
     7
100
AcDbSpline
210
0.0
220
0.0
230
-1.0
 70
     8
 71
     3
 72
    32
 73
    28
 74
     0
 42
0.0000001
 43
0.0000001
 40
0.0
 40
0.0
 40
0.0
 40
0.0
 40
1.0
 40
1.0
 40
1.0
 40
2.0
 40
2.0
 40
2.0
 40
3.0
 40
3.0
 40
3.0
 40
4.0
 40
4.0
 40
4.0
 40
5.0
 40
5.0
 40
5.0
 40
6.0
 40
6.0
 40
6.0
 40
7.0
 40
7.0
 40
7.0
 40
8.0
 40
8.0
 40
8.0
 40
9.0
 40
9.0
 40
9.0
 40
9.0
 10
-89.72075093587239
 20
-23.12300720214843
 30
0.0
 10
-89.72075093587239
 20
-23.12300720214843
 30
0.0
 10
-89.72075093587239
 20
-26.12988654242621
 30
0.0
 10
-89.72075093587239
 20
-26.12988654242621
 30
0.0
 10
-89.72075093587239
 20
-26.68661397298176
 30
0.0
 10
-90.16723531087238
 20
-27.13309834798177
 30
0.0
 10
-90.72534077962238
 20
-27.13309834798177
 30
0.0
 10
-90.72534077962238
 20
-27.13309834798177
 30
0.0
 10
-104.7565256754557
 20
-27.13309834798177
 30
0.0
 10
-104.7565256754557
 20
-27.13309834798177
 30
0.0
 10
-105.3091189914279
 20
-27.13309834798177
 30
0.0
 10
-105.7611155192057
 20
-26.68661397298176
 30
0.0
 10
-105.7611155192057
 20
-26.12988654242621
 30
0.0
 10
-105.7611155192057
 20
-26.12988654242621
 30
0.0
 10
-105.7611155192057
 20
-14.10099114312066
 30
0.0
 10
-105.7611155192057
 20
-14.10099114312066
 30
0.0
 10
-105.7611155192057
 20
-13.54839782714843
 30
0.0
 10
-105.3091189914279
 20
-13.10191345214843
 30
0.0
 10
-104.7565256754557
 20
-13.10191345214843
 30
0.0
 10
-104.7565256754557
 20
-13.10191345214843
 30
0.0
 10
-90.72534077962238
 20
-13.10191345214843
 30
0.0
 10
-90.72534077962238
 20
-13.10191345214843
 30
0.0
 10
-90.16723531087238
 20
-13.10191345214843
 30
0.0
 10
-89.72075093587239
 20
-13.54839782714843
 30
0.0
 10
-89.72075093587239
 20
-14.10099114312066
 30
0.0
 10
-89.72075093587239
 20
-14.10099114312066
 30
0.0
 10
-89.72075093587239
 20
-17.10787048339843
 30
0.0
 10
-89.72075093587239
 20
-17.10787048339843
 30
0.0
  0
SPLINE
  5
19B
100
AcDbEntity
  8
ALPHA
 62
     7
100
AcDbSpline
210
0.0
220
0.0
230
1.0
 70
    11
 71
     3
 72
    26
 73
    22
 74
     0
 42
0.0000001
 43
0.0000001
 40
0.0
 40
0.0
 40
0.0
 40
0.0
 40
1.0
 40
1.0
 40
1.0
 40
2.0
 40
2.0
 40
2.0
 40
3.0
 40
3.0
 40
3.0
 40
4.0
 40
4.0
 40
4.0
 40
5.0
 40
5.0
 40
5.0
 40
6.0
 40
6.0
 40
6.0
 40
7.0
 40
7.0
 40
7.0
 40
7.0
 10
-92.73314242892794
 20
-20.11474982367621
 30
0.0
 10
-92.73314242892794
 20
-20.11474982367621
 30
0.0
 10
-89.72626308865017
 20
-17.10787048339843
 30
0.0
 10
-89.72626308865017
 20
-17.10787048339843
 30
0.0
 10
-89.72626308865017
 20
-17.10787048339843
 30
0.0
 10
-84.71571621365017
 20
-17.10787048339843
 30
0.0
 10
-84.71571621365017
 20
-17.10787048339843
 30
0.0
 10
-83.05242411295571
 20
-17.10787048339843
 30
0.0
 10
-81.70745883517794
 20
-18.45696987575954
 30
0.0
 10
-81.70745883517794
 20
-20.11474982367621
 30
0.0
 10
-81.70745883517794
 20
-20.11474982367621
 30
0.0
 10
-81.70745883517794
 20
-20.11474982367621
 30
0.0
 10
-81.70745883517794
 20
-20.11474982367621
 30
0.0
 10
-81.70745883517794
 20
-21.77804192437065
 30
0.0
 10
-83.05242411295571
 20
-23.12300720214843
 30
0.0
 10
-84.71571621365017
 20
-23.12300720214843
 30
0.0
 10
-84.71571621365017
 20
-23.12300720214843
 30
0.0
 10
-89.72626308865017
 20
-23.12300720214843
 30
0.0
 10
-89.72626308865017
 20
-23.12300720214843
 30
0.0
 10
-89.72626308865017
 20
-23.12300720214843
 30
0.0
 10
-92.73314242892794
 20
-20.11474982367621
 30
0.0
 10
-92.73314242892794
 20
-20.11474982367621
 30
0.0
  0
SPLINE
  5
19C
100
AcDbEntity
  8
ALPHA
 62
     7
100
AcDbSpline
210
0.0
220
0.0
230
-1.0
 70
     8
 71
     3
 72
    32
 73
    28
 74
     0
 42
0.0000001
 43
0.0000001
 40
0.0
 40
0.0
 40
0.0
 40
0.0
 40
1.0
 40
1.0
 40
1.0
 40
2.0
 40
2.0
 40
2.0
 40
3.0
 40
3.0
 40
3.0
 40
4.0
 40
4.0
 40
4.0
 40
5.0
 40
5.0
 40
5.0
 40
6.0
 40
6.0
 40
6.0
 40
7.0
 40
7.0
 40
7.0
 40
8.0
 40
8.0
 40
8.0
 40
9.0
 40
9.0
 40
9.0
 40
9.0
 10
-89.72075093587239
 20
-42.21986050075954
 30
0.0
 10
-89.72075093587239
 20
-42.21986050075954
 30
0.0
 10
-89.72075093587239
 20
-45.22811787923177
 30
0.0
 10
-89.72075093587239
 20
-45.22811787923177
 30
0.0
 10
-89.72075093587239
 20
-45.78484530978732
 30
0.0
 10
-90.16723531087238
 20
-46.23132968478731
 30
0.0
 10
-90.72534077962238
 20
-46.23132968478731
 30
0.0
 10
-90.72534077962238
 20
-46.23132968478731
 30
0.0
 10
-104.7565256754557
 20
-46.23132968478731
 30
0.0
 10
-104.7565256754557
 20
-46.23132968478731
 30
0.0
 10
-105.3091189914279
 20
-46.23132968478731
 30
0.0
 10
-105.7611155192057
 20
-45.78484530978732
 30
0.0
 10
-105.7611155192057
 20
-45.22811787923177
 30
0.0
 10
-105.7611155192057
 20
-45.22811787923177
 30
0.0
 10
-105.7611155192057
 20
-33.19922247992621
 30
0.0
 10
-105.7611155192057
 20
-33.19922247992621
 30
0.0
 10
-105.7611155192057
 20
-32.64662916395399
 30
0.0
 10
-105.3091189914279
 20
-32.19876675075954
 30
0.0
 10
-104.7565256754557
 20
-32.19876675075954
 30
0.0
 10
-104.7565256754557
 20
-32.19876675075954
 30
0.0
 10
-90.72534077962238
 20
-32.19876675075954
 30
0.0
 10
-90.72534077962238
 20
-32.19876675075954
 30
0.0
 10
-90.16723531087238
 20
-32.19876675075954
 30
0.0
 10
-89.72075093587239
 20
-32.64662916395399
 30
0.0
 10
-89.72075093587239
 20
-33.19922247992621
 30
0.0
 10
-89.72075093587239
 20
-33.19922247992621
 30
0.0
 10
-89.72075093587239
 20
-36.20610182020399
 30
0.0
 10
-89.72075093587239
 20
-36.20610182020399
 30
0.0
  0
SPLINE
  5
19D
100
AcDbEntity
  8
ALPHA
 62
     7
100
AcDbSpline
210
0.0
220
0.0
230
1.0
 70
    11
 71
     3
 72
    26
 73
    22
 74
     0
 42
0.0000001
 43
0.0000001
 40
0.0
 40
0.0
 40
0.0
 40
0.0
 40
1.0
 40
1.0
 40
1.0
 40
2.0
 40
2.0
 40
2.0
 40
3.0
 40
3.0
 40
3.0
 40
4.0
 40
4.0
 40
4.0
 40
5.0
 40
5.0
 40
5.0
 40
6.0
 40
6.0
 40
6.0
 40
7.0
 40
7.0
 40
7.0
 40
7.0
 10
-92.73314242892794
 20
-39.21298116048177
 30
0.0
 10
-92.73314242892794
 20
-39.21298116048177
 30
0.0
 10
-89.72626308865017
 20
-36.20610182020399
 30
0.0
 10
-89.72626308865017
 20
-36.20610182020399
 30
0.0
 10
-89.72626308865017
 20
-36.20610182020399
 30
0.0
 10
-84.71571621365017
 20
-36.20610182020399
 30
0.0
 10
-84.71571621365017
 20
-36.20610182020399
 30
0.0
 10
-83.05242411295571
 20
-36.20610182020399
 30
0.0
 10
-81.70745883517794
 20
-37.5552012125651
 30
0.0
 10
-81.70745883517794
 20
-39.21298116048177
 30
0.0
 10
-81.70745883517794
 20
-39.21298116048177
 30
0.0
 10
-81.70745883517794
 20
-39.21298116048177
 30
0.0
 10
-81.70745883517794
 20
-39.21298116048177
 30
0.0
 10
-81.70745883517794
 20
-40.87489522298176
 30
0.0
 10
-83.05242411295571
 20
-42.21986050075954
 30
0.0
 10
-84.71571621365017
 20
-42.21986050075954
 30
0.0
 10
-84.71571621365017
 20
-42.21986050075954
 30
0.0
 10
-89.72626308865017
 20
-42.21986050075954
 30
0.0
 10
-89.72626308865017
 20
-42.21986050075954
 30
0.0
 10
-89.72626308865017
 20
-42.21986050075954
 30
0.0
 10
-92.73314242892794
 20
-39.21298116048177
 30
0.0
 10
-92.73314242892794
 20
-39.21298116048177
 30
0.0
  0
SPLINE
  5
19E
100
AcDbEntity
  8
ALPHA
 62
     7
100
AcDbSpline
210
0.0
220
0.0
230
-1.0
 70
     8
 71
     3
 72
    32
 73
    28
 74
     0
 42
0.0000001
 43
0.0000001
 40
0.0
 40
0.0
 40
0.0
 40
0.0
 40
1.0
 40
1.0
 40
1.0
 40
2.0
 40
2.0
 40
2.0
 40
3.0
 40
3.0
 40
3.0
 40
4.0
 40
4.0
 40
4.0
 40
5.0
 40
5.0
 40
5.0
 40
6.0
 40
6.0
 40
6.0
 40
7.0
 40
7.0
 40
7.0
 40
8.0
 40
8.0
 40
8.0
 40
9.0
 40
9.0
 40
9.0
 40
9.0
 10
-89.72075093587239
 20
-61.3180918375651
 30
0.0
 10
-89.72075093587239
 20
-61.3180918375651
 30
0.0
 10
-89.72075093587239
 20
-64.32497117784286
 30
0.0
 10
-89.72075093587239
 20
-64.32497117784286
 30
0.0
 10
-89.72075093587239
 20
-64.88169860839843
 30
0.0
 10
-90.16723531087238
 20
-65.32956102159288
 30
0.0
 10
-90.72534077962238
 20
-65.32956102159288
 30
0.0
 10
-90.72534077962238
 20
-65.32956102159288
 30
0.0
 10
-104.7565256754557
 20
-65.32956102159288
 30
0.0
 10
-104.7565256754557
 20
-65.32956102159288
 30
0.0
 10
-105.3091189914279
 20
-65.32956102159288
 30
0.0
 10
-105.7611155192057
 20
-64.88169860839843
 30
0.0
 10
-105.7611155192057
 20
-64.32497117784286
 30
0.0
 10
-105.7611155192057
 20
-64.32497117784286
 30
0.0
 10
-105.7611155192057
 20
-52.29607577853732
 30
0.0
 10
-105.7611155192057
 20
-52.29607577853732
 30
0.0
 10
-105.7611155192057
 20
-51.7434824625651
 30
0.0
 10
-105.3091189914279
 20
-51.2969980875651
 30
0.0
 10
-104.7565256754557
 20
-51.2969980875651
 30
0.0
 10
-104.7565256754557
 20
-51.2969980875651
 30
0.0
 10
-90.72534077962238
 20
-51.2969980875651
 30
0.0
 10
-90.72534077962238
 20
-51.2969980875651
 30
0.0
 10
-90.16723531087238
 20
-51.2969980875651
 30
0.0
 10
-89.72075093587239
 20
-51.7434824625651
 30
0.0
 10
-89.72075093587239
 20
-52.29607577853732
 30
0.0
 10
-89.72075093587239
 20
-52.29607577853732
 30
0.0
 10
-89.72075093587239
 20
-55.3029551188151
 30
0.0
 10
-89.72075093587239
 20
-55.3029551188151
 30
0.0
  0
SPLINE
  5
19F
100
AcDbEntity
  8
ALPHA
 62
     7
100
AcDbSpline
210
0.0
220
0.0
230
1.0
 70
    11
 71
     3
 72
    26
 73
    22
 74
     0
 42
0.0000001
 43
0.0000001
 40
0.0
 40
0.0
 40
0.0
 40
0.0
 40
1.0
 40
1.0
 40
1.0
 40
2.0
 40
2.0
 40
2.0
 40
3.0
 40
3.0
 40
3.0
 40
4.0
 40
4.0
 40
4.0
 40
5.0
 40
5.0
 40
5.0
 40
6.0
 40
6.0
 40
6.0
 40
7.0
 40
7.0
 40
7.0
 40
7.0
 10
-92.73314242892794
 20
-58.31121249728732
 30
0.0
 10
-92.73314242892794
 20
-58.31121249728732
 30
0.0
 10
-89.72626308865017
 20
-55.3029551188151
 30
0.0
 10
-89.72626308865017
 20
-55.3029551188151
 30
0.0
 10
-89.72626308865017
 20
-55.3029551188151
 30
0.0
 10
-84.71571621365017
 20
-55.3029551188151
 30
0.0
 10
-84.71571621365017
 20
-55.3029551188151
 30
0.0
 10
-83.05242411295571
 20
-55.3029551188151
 30
0.0
 10
-81.70745883517794
 20
-56.65343254937066
 30
0.0
 10
-81.70745883517794
 20
-58.31121249728732
 30
0.0
 10
-81.70745883517794
 20
-58.31121249728732
 30
0.0
 10
-81.70745883517794
 20
-58.31121249728732
 30
0.0
 10
-81.70745883517794
 20
-58.31121249728732
 30
0.0
 10
-81.70745883517794
 20
-59.97312655978731
 30
0.0
 10
-83.05242411295571
 20
-61.3180918375651
 30
0.0
 10
-84.71571621365017
 20
-61.3180918375651
 30
0.0
 10
-84.71571621365017
 20
-61.3180918375651
 30
0.0
 10
-89.72626308865017
 20
-61.3180918375651
 30
0.0
 10
-89.72626308865017
 20
-61.3180918375651
 30
0.0
 10
-89.72626308865017
 20
-61.3180918375651
 30
0.0
 10
-92.73314242892794
 20
-58.31121249728732
 30
0.0
 10
-92.73314242892794
 20
-58.31121249728732
 30
0.0
  0
SPLINE
  5
1A0
100
AcDbEntity
  8
ALPHA
 62
     7
100
AcDbSpline
210
0.0
220
0.0
230
-1.0
 70
     8
 71
     3
 72
    32
 73
    28
 74
     0
 42
0.0000001
 43
0.0000001
 40
0.0
 40
0.0
 40
0.0
 40
0.0
 40
1.0
 40
1.0
 40
1.0
 40
2.0
 40
2.0
 40
2.0
 40
3.0
 40
3.0
 40
3.0
 40
4.0
 40
4.0
 40
4.0
 40
5.0
 40
5.0
 40
5.0
 40
6.0
 40
6.0
 40
6.0
 40
7.0
 40
7.0
 40
7.0
 40
8.0
 40
8.0
 40
8.0
 40
9.0
 40
9.0
 40
9.0
 40
9.0
 10
-89.72075093587239
 20
-80.41494513617621
 30
0.0
 10
-89.72075093587239
 20
-80.41494513617621
 30
0.0
 10
-89.72075093587239
 20
-83.42320251464842
 30
0.0
 10
-89.72075093587239
 20
-83.42320251464842
 30
0.0
 10
-89.72075093587239
 20
-83.97992994520398
 30
0.0
 10
-90.16723531087238
 20
-84.42641432020399
 30
0.0
 10
-90.72534077962238
 20
-84.42641432020399
 30
0.0
 10
-90.72534077962238
 20
-84.42641432020399
 30
0.0
 10
-104.7565256754557
 20
-84.42641432020399
 30
0.0
 10
-104.7565256754557
 20
-84.42641432020399
 30
0.0
 10
-105.3091189914279
 20
-84.42641432020399
 30
0.0
 10
-105.7611155192057
 20
-83.97992994520398
 30
0.0
 10
-105.7611155192057
 20
-83.42320251464842
 30
0.0
 10
-105.7611155192057
 20
-83.42320251464842
 30
0.0
 10
-105.7611155192057
 20
-71.39430711534287
 30
0.0
 10
-105.7611155192057
 20
-71.39430711534287
 30
0.0
 10
-105.7611155192057
 20
-70.84171379937065
 30
0.0
 10
-105.3091189914279
 20
-70.39522942437065
 30
0.0
 10
-104.7565256754557
 20
-70.39522942437065
 30
0.0
 10
-104.7565256754557
 20
-70.39522942437065
 30
0.0
 10
-90.72534077962238
 20
-70.39522942437065
 30
0.0
 10
-90.72534077962238
 20
-70.39522942437065
 30
0.0
 10
-90.16723531087238
 20
-70.39522942437065
 30
0.0
 10
-89.72075093587239
 20
-70.84171379937065
 30
0.0
 10
-89.72075093587239
 20
-71.39430711534287
 30
0.0
 10
-89.72075093587239
 20
-71.39430711534287
 30
0.0
 10
-89.72075093587239
 20
-74.40118645562065
 30
0.0
 10
-89.72075093587239
 20
-74.40118645562065
 30
0.0
  0
SPLINE
  5
1A1
100
AcDbEntity
  8
ALPHA
 62
     7
100
AcDbSpline
210
0.0
220
0.0
230
1.0
 70
    11
 71
     3
 72
    26
 73
    22
 74
     0
 42
0.0000001
 43
0.0000001
 40
0.0
 40
0.0
 40
0.0
 40
0.0
 40
1.0
 40
1.0
 40
1.0
 40
2.0
 40
2.0
 40
2.0
 40
3.0
 40
3.0
 40
3.0
 40
4.0
 40
4.0
 40
4.0
 40
5.0
 40
5.0
 40
5.0
 40
6.0
 40
6.0
 40
6.0
 40
7.0
 40
7.0
 40
7.0
 40
7.0
 10
-92.73314242892794
 20
-77.40806579589843
 30
0.0
 10
-92.73314242892794
 20
-77.40806579589843
 30
0.0
 10
-89.72626308865017
 20
-74.40118645562065
 30
0.0
 10
-89.72626308865017
 20
-74.40118645562065
 30
0.0
 10
-89.72626308865017
 20
-74.40118645562065
 30
0.0
 10
-84.71571621365017
 20
-74.40118645562065
 30
0.0
 10
-84.71571621365017
 20
-74.40118645562065
 30
0.0
 10
-83.05242411295571
 20
-74.40118645562065
 30
0.0
 10
-81.70745883517794
 20
-75.75028584798175
 30
0.0
 10
-81.70745883517794
 20
-77.40806579589843
 30
0.0
 10
-81.70745883517794
 20
-77.40806579589843
 30
0.0
 10
-81.70745883517794
 20
-77.40806579589843
 30
0.0
 10
-81.70745883517794
 20
-77.40806579589843
 30
0.0
 10
-81.70745883517794
 20
-79.07135789659287
 30
0.0
 10
-83.05242411295571
 20
-80.41494513617621
 30
0.0
 10
-84.71571621365017
 20
-80.41494513617621
 30
0.0
 10
-84.71571621365017
 20
-80.41494513617621
 30
0.0
 10
-89.72626308865017
 20
-80.41494513617621
 30
0.0
 10
-89.72626308865017
 20
-80.41494513617621
 30
0.0
 10
-89.72626308865017
 20
-80.41494513617621
 30
0.0
 10
-92.73314242892794
 20
-77.40806579589843
 30
0.0
 10
-92.73314242892794
 20
-77.40806579589843
 30
0.0
  0
SPLINE
  5
1A2
100
AcDbEntity
  8
ALPHA
 62
     7
100
AcDbSpline
210
0.0
220
0.0
230
-1.0
 70
     8
 71
     3
 72
    32
 73
    28
 74
     0
 42
0.0000001
 43
0.0000001
 40
0.0
 40
0.0
 40
0.0
 40
0.0
 40
1.0
 40
1.0
 40
1.0
 40
2.0
 40
2.0
 40
2.0
 40
3.0
 40
3.0
 40
3.0
 40
4.0
 40
4.0
 40
4.0
 40
5.0
 40
5.0
 40
5.0
 40
6.0
 40
6.0
 40
6.0
 40
7.0
 40
7.0
 40
7.0
 40
8.0
 40
8.0
 40
8.0
 40
9.0
 40
9.0
 40
9.0
 40
9.0
 10
89.68311326768661
 20
15.07362772623697
 30
0.0
 10
89.68311326768661
 20
15.07362772623697
 30
0.0
 10
89.68311326768661
 20
12.06537034776475
 30
0.0
 10
89.68311326768661
 20
12.06537034776475
 30
0.0
 10
89.68311326768661
 20
11.5086429172092
 30
0.0
 10
90.12959764268662
 20
11.0621585422092
 30
0.0
 10
90.68219095865885
 20
11.0621585422092
 30
0.0
 10
90.68219095865885
 20
11.0621585422092
 30
0.0
 10
104.7188880072699
 20
11.0621585422092
 30
0.0
 10
104.7188880072699
 20
11.0621585422092
 30
0.0
 10
105.2714813232421
 20
11.0621585422092
 30
0.0
 10
105.7220998128254
 20
11.5086429172092
 30
0.0
 10
105.7220998128254
 20
12.06537034776475
 30
0.0
 10
105.7220998128254
 20
12.06537034776475
 30
0.0
 10
105.7220998128254
 20
24.09426574707031
 30
0.0
 10
105.7220998128254
 20
24.09426574707031
 30
0.0
 10
105.7220998128254
 20
24.64685906304253
 30
0.0
 10
105.2714813232421
 20
25.09334343804253
 30
0.0
 10
104.7188880072699
 20
25.09334343804253
 30
0.0
 10
104.7188880072699
 20
25.09334343804253
 30
0.0
 10
90.68219095865885
 20
25.09334343804253
 30
0.0
 10
90.68219095865885
 20
25.09334343804253
 30
0.0
 10
90.12959764268662
 20
25.09334343804253
 30
0.0
 10
89.68311326768661
 20
24.64685906304253
 30
0.0
 10
89.68311326768661
 20
24.09426574707031
 30
0.0
 10
89.68311326768661
 20
24.09426574707031
 30
0.0
 10
89.68311326768661
 20
21.08738640679253
 30
0.0
 10
89.68311326768661
 20
21.08738640679253
 30
0.0
  0
SPLINE
  5
1A3
100
AcDbEntity
  8
ALPHA
 62
     7
100
AcDbSpline
210
0.0
220
0.0
230
1.0
 70
    11
 71
     3
 72
    26
 73
    22
 74
     0
 42
0.0000001
 43
0.0000001
 40
0.0
 40
0.0
 40
0.0
 40
0.0
 40
1.0
 40
1.0
 40
1.0
 40
2.0
 40
2.0
 40
2.0
 40
3.0
 40
3.0
 40
3.0
 40
4.0
 40
4.0
 40
4.0
 40
5.0
 40
5.0
 40
5.0
 40
6.0
 40
6.0
 40
6.0
 40
7.0
 40
7.0
 40
7.0
 40
7.0
 10
92.69412672254773
 20
18.08050706651475
 30
0.0
 10
92.69412672254773
 20
18.08050706651475
 30
0.0
 10
89.68724738226995
 20
21.08738640679253
 30
0.0
 10
89.68724738226995
 20
21.08738640679253
 30
0.0
 10
89.68724738226995
 20
21.08738640679253
 30
0.0
 10
84.67256639268661
 20
21.08738640679253
 30
0.0
 10
84.67256639268661
 20
21.08738640679253
 30
0.0
 10
83.01478644476995
 20
21.08738640679253
 30
0.0
 10
81.66568705240884
 20
19.73828701443142
 30
0.0
 10
81.66568705240884
 20
18.08050706651475
 30
0.0
 10
81.66568705240884
 20
18.08050706651475
 30
0.0
 10
81.66568705240884
 20
18.08050706651475
 30
0.0
 10
81.66568705240884
 20
18.08050706651475
 30
0.0
 10
81.66568705240884
 20
16.41721496582031
 30
0.0
 10
83.01478644476995
 20
15.07362772623697
 30
0.0
 10
84.67256639268661
 20
15.07362772623697
 30
0.0
 10
84.67256639268661
 20
15.07362772623697
 30
0.0
 10
89.68724738226995
 20
15.07362772623697
 30
0.0
 10
89.68724738226995
 20
15.07362772623697
 30
0.0
 10
89.68724738226995
 20
15.07362772623697
 30
0.0
 10
92.69412672254773
 20
18.08050706651475
 30
0.0
 10
92.69412672254773
 20
18.08050706651475
 30
0.0
  0
SPLINE
  5
1A4
100
AcDbEntity
  8
ALPHA
 62
     7
100
AcDbSpline
210
0.0
220
0.0
230
-1.0
 70
     8
 71
     3
 72
    32
 73
    28
 74
     0
 42
0.0000001
 43
0.0000001
 40
0.0
 40
0.0
 40
0.0
 40
0.0
 40
1.0
 40
1.0
 40
1.0
 40
2.0
 40
2.0
 40
2.0
 40
3.0
 40
3.0
 40
3.0
 40
4.0
 40
4.0
 40
4.0
 40
5.0
 40
5.0
 40
5.0
 40
6.0
 40
6.0
 40
6.0
 40
7.0
 40
7.0
 40
7.0
 40
8.0
 40
8.0
 40
8.0
 40
9.0
 40
9.0
 40
9.0
 40
9.0
 10
89.68311326768661
 20
-4.024775865342881
 30
0.0
 10
89.68311326768661
 20
-4.024775865342881
 30
0.0
 10
89.68311326768661
 20
-7.031655205620658
 30
0.0
 10
89.68311326768661
 20
-7.031655205620658
 30
0.0
 10
89.68311326768661
 20
-7.589760674370658
 30
0.0
 10
90.12959764268662
 20
-8.036245049370659
 30
0.0
 10
90.68219095865885
 20
-8.036245049370659
 30
0.0
 10
90.68219095865885
 20
-8.036245049370659
 30
0.0
 10
104.7188880072699
 20
-8.036245049370659
 30
0.0
 10
104.7188880072699
 20
-8.036245049370659
 30
0.0
 10
105.2714813232421
 20
-8.036245049370659
 30
0.0
 10
105.7220998128254
 20
-7.589760674370658
 30
0.0
 10
105.7220998128254
 20
-7.031655205620658
 30
0.0
 10
105.7220998128254
 20
-7.031655205620658
 30
0.0
 10
105.7220998128254
 20
4.997240193684895
 30
0.0
 10
105.7220998128254
 20
4.997240193684895
 30
0.0
 10
105.7220998128254
 20
5.549833509657117
 30
0.0
 10
105.2714813232421
 20
5.996317884657117
 30
0.0
 10
104.7188880072699
 20
5.996317884657117
 30
0.0
 10
104.7188880072699
 20
5.996317884657117
 30
0.0
 10
90.68219095865885
 20
5.996317884657117
 30
0.0
 10
90.68219095865885
 20
5.996317884657117
 30
0.0
 10
90.12959764268662
 20
5.996317884657117
 30
0.0
 10
89.68311326768661
 20
5.549833509657117
 30
0.0
 10
89.68311326768661
 20
4.997240193684895
 30
0.0
 10
89.68311326768661
 20
4.997240193684895
 30
0.0
 10
89.68311326768661
 20
1.988982815212673
 30
0.0
 10
89.68311326768661
 20
1.988982815212673
 30
0.0
  0
SPLINE
  5
1A5
100
AcDbEntity
  8
ALPHA
 62
     7
100
AcDbSpline
210
0.0
220
0.0
230
1.0
 70
    11
 71
     3
 72
    26
 73
    22
 74
     0
 42
0.0000001
 43
0.0000001
 40
0.0
 40
0.0
 40
0.0
 40
0.0
 40
1.0
 40
1.0
 40
1.0
 40
2.0
 40
2.0
 40
2.0
 40
3.0
 40
3.0
 40
3.0
 40
4.0
 40
4.0
 40
4.0
 40
5.0
 40
5.0
 40
5.0
 40
6.0
 40
6.0
 40
6.0
 40
7.0
 40
7.0
 40
7.0
 40
7.0
 10
92.69412672254773
 20
-1.017896525065103
 30
0.0
 10
92.69412672254773
 20
-1.017896525065103
 30
0.0
 10
89.68724738226995
 20
1.988982815212673
 30
0.0
 10
89.68724738226995
 20
1.988982815212673
 30
0.0
 10
89.68724738226995
 20
1.988982815212673
 30
0.0
 10
84.67256639268661
 20
1.988982815212673
 30
0.0
 10
84.67256639268661
 20
1.988982815212673
 30
0.0
 10
83.01478644476995
 20
1.988982815212673
 30
0.0
 10
81.66568705240884
 20
0.6398834228515625
 30
0.0
 10
81.66568705240884
 20
-1.017896525065103
 30
0.0
 10
81.66568705240884
 20
-1.017896525065103
 30
0.0
 10
81.66568705240884
 20
-1.017896525065103
 30
0.0
 10
81.66568705240884
 20
-1.017896525065103
 30
0.0
 10
81.66568705240884
 20
-2.679810587565103
 30
0.0
 10
83.01478644476995
 20
-4.024775865342881
 30
0.0
 10
84.67256639268661
 20
-4.024775865342881
 30
0.0
 10
84.67256639268661
 20
-4.024775865342881
 30
0.0
 10
89.68724738226995
 20
-4.024775865342881
 30
0.0
 10
89.68724738226995
 20
-4.024775865342881
 30
0.0
 10
89.68724738226995
 20
-4.024775865342881
 30
0.0
 10
92.69412672254773
 20
-1.017896525065103
 30
0.0
 10
92.69412672254773
 20
-1.017896525065103
 30
0.0
  0
SPLINE
  5
1A6
100
AcDbEntity
  8
ALPHA
 62
     7
100
AcDbSpline
210
0.0
220
0.0
230
-1.0
 70
     8
 71
     3
 72
    32
 73
    28
 74
     0
 42
0.0000001
 43
0.0000001
 40
0.0
 40
0.0
 40
0.0
 40
0.0
 40
1.0
 40
1.0
 40
1.0
 40
2.0
 40
2.0
 40
2.0
 40
3.0
 40
3.0
 40
3.0
 40
4.0
 40
4.0
 40
4.0
 40
5.0
 40
5.0
 40
5.0
 40
6.0
 40
6.0
 40
6.0
 40
7.0
 40
7.0
 40
7.0
 40
8.0
 40
8.0
 40
8.0
 40
9.0
 40
9.0
 40
9.0
 40
9.0
 10
89.68311326768661
 20
-23.12300720214843
 30
0.0
 10
89.68311326768661
 20
-23.12300720214843
 30
0.0
 10
89.68311326768661
 20
-26.12988654242621
 30
0.0
 10
89.68311326768661
 20
-26.12988654242621
 30
0.0
 10
89.68311326768661
 20
-26.68661397298176
 30
0.0
 10
90.12959764268662
 20
-27.13309834798177
 30
0.0
 10
90.68219095865885
 20
-27.13309834798177
 30
0.0
 10
90.68219095865885
 20
-27.13309834798177
 30
0.0
 10
104.7188880072699
 20
-27.13309834798177
 30
0.0
 10
104.7188880072699
 20
-27.13309834798177
 30
0.0
 10
105.2714813232421
 20
-27.13309834798177
 30
0.0
 10
105.7220998128254
 20
-26.68661397298176
 30
0.0
 10
105.7220998128254
 20
-26.12988654242621
 30
0.0
 10
105.7220998128254
 20
-26.12988654242621
 30
0.0
 10
105.7220998128254
 20
-14.10099114312066
 30
0.0
 10
105.7220998128254
 20
-14.10099114312066
 30
0.0
 10
105.7220998128254
 20
-13.54839782714843
 30
0.0
 10
105.2714813232421
 20
-13.10191345214843
 30
0.0
 10
104.7188880072699
 20
-13.10191345214843
 30
0.0
 10
104.7188880072699
 20
-13.10191345214843
 30
0.0
 10
90.68219095865885
 20
-13.10191345214843
 30
0.0
 10
90.68219095865885
 20
-13.10191345214843
 30
0.0
 10
90.12959764268662
 20
-13.10191345214843
 30
0.0
 10
89.68311326768661
 20
-13.54839782714843
 30
0.0
 10
89.68311326768661
 20
-14.10099114312066
 30
0.0
 10
89.68311326768661
 20
-14.10099114312066
 30
0.0
 10
89.68311326768661
 20
-17.10787048339843
 30
0.0
 10
89.68311326768661
 20
-17.10787048339843
 30
0.0
  0
SPLINE
  5
1A7
100
AcDbEntity
  8
ALPHA
 62
     7
100
AcDbSpline
210
0.0
220
0.0
230
1.0
 70
    11
 71
     3
 72
    26
 73
    22
 74
     0
 42
0.0000001
 43
0.0000001
 40
0.0
 40
0.0
 40
0.0
 40
0.0
 40
1.0
 40
1.0
 40
1.0
 40
2.0
 40
2.0
 40
2.0
 40
3.0
 40
3.0
 40
3.0
 40
4.0
 40
4.0
 40
4.0
 40
5.0
 40
5.0
 40
5.0
 40
6.0
 40
6.0
 40
6.0
 40
7.0
 40
7.0
 40
7.0
 40
7.0
 10
92.69412672254773
 20
-20.11474982367621
 30
0.0
 10
92.69412672254773
 20
-20.11474982367621
 30
0.0
 10
89.68724738226995
 20
-17.10787048339843
 30
0.0
 10
89.68724738226995
 20
-17.10787048339843
 30
0.0
 10
89.68724738226995
 20
-17.10787048339843
 30
0.0
 10
84.67256639268661
 20
-17.10787048339843
 30
0.0
 10
84.67256639268661
 20
-17.10787048339843
 30
0.0
 10
83.01478644476995
 20
-17.10787048339843
 30
0.0
 10
81.66568705240884
 20
-18.45696987575954
 30
0.0
 10
81.66568705240884
 20
-20.11474982367621
 30
0.0
 10
81.66568705240884
 20
-20.11474982367621
 30
0.0
 10
81.66568705240884
 20
-20.11474982367621
 30
0.0
 10
81.66568705240884
 20
-20.11474982367621
 30
0.0
 10
81.66568705240884
 20
-21.77804192437065
 30
0.0
 10
83.01478644476995
 20
-23.12300720214843
 30
0.0
 10
84.67256639268661
 20
-23.12300720214843
 30
0.0
 10
84.67256639268661
 20
-23.12300720214843
 30
0.0
 10
89.68724738226995
 20
-23.12300720214843
 30
0.0
 10
89.68724738226995
 20
-23.12300720214843
 30
0.0
 10
89.68724738226995
 20
-23.12300720214843
 30
0.0
 10
92.69412672254773
 20
-20.11474982367621
 30
0.0
 10
92.69412672254773
 20
-20.11474982367621
 30
0.0
  0
SPLINE
  5
1A8
100
AcDbEntity
  8
ALPHA
 62
     7
100
AcDbSpline
210
0.0
220
0.0
230
-1.0
 70
     8
 71
     3
 72
    32
 73
    28
 74
     0
 42
0.0000001
 43
0.0000001
 40
0.0
 40
0.0
 40
0.0
 40
0.0
 40
1.0
 40
1.0
 40
1.0
 40
2.0
 40
2.0
 40
2.0
 40
3.0
 40
3.0
 40
3.0
 40
4.0
 40
4.0
 40
4.0
 40
5.0
 40
5.0
 40
5.0
 40
6.0
 40
6.0
 40
6.0
 40
7.0
 40
7.0
 40
7.0
 40
8.0
 40
8.0
 40
8.0
 40
9.0
 40
9.0
 40
9.0
 40
9.0
 10
89.68311326768661
 20
-42.21986050075954
 30
0.0
 10
89.68311326768661
 20
-42.21986050075954
 30
0.0
 10
89.68311326768661
 20
-45.22811787923177
 30
0.0
 10
89.68311326768661
 20
-45.22811787923177
 30
0.0
 10
89.68311326768661
 20
-45.78484530978732
 30
0.0
 10
90.12959764268662
 20
-46.23132968478731
 30
0.0
 10
90.68219095865885
 20
-46.23132968478731
 30
0.0
 10
90.68219095865885
 20
-46.23132968478731
 30
0.0
 10
104.7188880072699
 20
-46.23132968478731
 30
0.0
 10
104.7188880072699
 20
-46.23132968478731
 30
0.0
 10
105.2714813232421
 20
-46.23132968478731
 30
0.0
 10
105.7220998128254
 20
-45.78484530978732
 30
0.0
 10
105.7220998128254
 20
-45.22811787923177
 30
0.0
 10
105.7220998128254
 20
-45.22811787923177
 30
0.0
 10
105.7220998128254
 20
-33.19922247992621
 30
0.0
 10
105.7220998128254
 20
-33.19922247992621
 30
0.0
 10
105.7220998128254
 20
-32.64662916395399
 30
0.0
 10
105.2714813232421
 20
-32.19876675075954
 30
0.0
 10
104.7188880072699
 20
-32.19876675075954
 30
0.0
 10
104.7188880072699
 20
-32.19876675075954
 30
0.0
 10
90.68219095865885
 20
-32.19876675075954
 30
0.0
 10
90.68219095865885
 20
-32.19876675075954
 30
0.0
 10
90.12959764268662
 20
-32.19876675075954
 30
0.0
 10
89.68311326768661
 20
-32.64662916395399
 30
0.0
 10
89.68311326768661
 20
-33.19922247992621
 30
0.0
 10
89.68311326768661
 20
-33.19922247992621
 30
0.0
 10
89.68311326768661
 20
-36.20610182020399
 30
0.0
 10
89.68311326768661
 20
-36.20610182020399
 30
0.0
  0
SPLINE
  5
1A9
100
AcDbEntity
  8
ALPHA
 62
     7
100
AcDbSpline
210
0.0
220
0.0
230
1.0
 70
    11
 71
     3
 72
    26
 73
    22
 74
     0
 42
0.0000001
 43
0.0000001
 40
0.0
 40
0.0
 40
0.0
 40
0.0
 40
1.0
 40
1.0
 40
1.0
 40
2.0
 40
2.0
 40
2.0
 40
3.0
 40
3.0
 40
3.0
 40
4.0
 40
4.0
 40
4.0
 40
5.0
 40
5.0
 40
5.0
 40
6.0
 40
6.0
 40
6.0
 40
7.0
 40
7.0
 40
7.0
 40
7.0
 10
92.69412672254773
 20
-39.21298116048177
 30
0.0
 10
92.69412672254773
 20
-39.21298116048177
 30
0.0
 10
89.68724738226995
 20
-36.20610182020399
 30
0.0
 10
89.68724738226995
 20
-36.20610182020399
 30
0.0
 10
89.68724738226995
 20
-36.20610182020399
 30
0.0
 10
84.67256639268661
 20
-36.20610182020399
 30
0.0
 10
84.67256639268661
 20
-36.20610182020399
 30
0.0
 10
83.01478644476995
 20
-36.20610182020399
 30
0.0
 10
81.66568705240884
 20
-37.5552012125651
 30
0.0
 10
81.66568705240884
 20
-39.21298116048177
 30
0.0
 10
81.66568705240884
 20
-39.21298116048177
 30
0.0
 10
81.66568705240884
 20
-39.21298116048177
 30
0.0
 10
81.66568705240884
 20
-39.21298116048177
 30
0.0
 10
81.66568705240884
 20
-40.87489522298176
 30
0.0
 10
83.01478644476995
 20
-42.21986050075954
 30
0.0
 10
84.67256639268661
 20
-42.21986050075954
 30
0.0
 10
84.67256639268661
 20
-42.21986050075954
 30
0.0
 10
89.68724738226995
 20
-42.21986050075954
 30
0.0
 10
89.68724738226995
 20
-42.21986050075954
 30
0.0
 10
89.68724738226995
 20
-42.21986050075954
 30
0.0
 10
92.69412672254773
 20
-39.21298116048177
 30
0.0
 10
92.69412672254773
 20
-39.21298116048177
 30
0.0
  0
SPLINE
  5
1AA
100
AcDbEntity
  8
ALPHA
 62
     7
100
AcDbSpline
210
0.0
220
0.0
230
-1.0
 70
     8
 71
     3
 72
    32
 73
    28
 74
     0
 42
0.0000001
 43
0.0000001
 40
0.0
 40
0.0
 40
0.0
 40
0.0
 40
1.0
 40
1.0
 40
1.0
 40
2.0
 40
2.0
 40
2.0
 40
3.0
 40
3.0
 40
3.0
 40
4.0
 40
4.0
 40
4.0
 40
5.0
 40
5.0
 40
5.0
 40
6.0
 40
6.0
 40
6.0
 40
7.0
 40
7.0
 40
7.0
 40
8.0
 40
8.0
 40
8.0
 40
9.0
 40
9.0
 40
9.0
 40
9.0
 10
89.68311326768661
 20
-61.3180918375651
 30
0.0
 10
89.68311326768661
 20
-61.3180918375651
 30
0.0
 10
89.68311326768661
 20
-64.32497117784286
 30
0.0
 10
89.68311326768661
 20
-64.32497117784286
 30
0.0
 10
89.68311326768661
 20
-64.88169860839843
 30
0.0
 10
90.12959764268662
 20
-65.32956102159288
 30
0.0
 10
90.68219095865885
 20
-65.32956102159288
 30
0.0
 10
90.68219095865885
 20
-65.32956102159288
 30
0.0
 10
104.7188880072699
 20
-65.32956102159288
 30
0.0
 10
104.7188880072699
 20
-65.32956102159288
 30
0.0
 10
105.2714813232421
 20
-65.32956102159288
 30
0.0
 10
105.7220998128254
 20
-64.88169860839843
 30
0.0
 10
105.7220998128254
 20
-64.32497117784286
 30
0.0
 10
105.7220998128254
 20
-64.32497117784286
 30
0.0
 10
105.7220998128254
 20
-52.29607577853732
 30
0.0
 10
105.7220998128254
 20
-52.29607577853732
 30
0.0
 10
105.7220998128254
 20
-51.7434824625651
 30
0.0
 10
105.2714813232421
 20
-51.2969980875651
 30
0.0
 10
104.7188880072699
 20
-51.2969980875651
 30
0.0
 10
104.7188880072699
 20
-51.2969980875651
 30
0.0
 10
90.68219095865885
 20
-51.2969980875651
 30
0.0
 10
90.68219095865885
 20
-51.2969980875651
 30
0.0
 10
90.12959764268662
 20
-51.2969980875651
 30
0.0
 10
89.68311326768661
 20
-51.7434824625651
 30
0.0
 10
89.68311326768661
 20
-52.29607577853732
 30
0.0
 10
89.68311326768661
 20
-52.29607577853732
 30
0.0
 10
89.68311326768661
 20
-55.3029551188151
 30
0.0
 10
89.68311326768661
 20
-55.3029551188151
 30
0.0
  0
SPLINE
  5
1AB
100
AcDbEntity
  8
ALPHA
 62
     7
100
AcDbSpline
210
0.0
220
0.0
230
1.0
 70
    11
 71
     3
 72
    26
 73
    22
 74
     0
 42
0.0000001
 43
0.0000001
 40
0.0
 40
0.0
 40
0.0
 40
0.0
 40
1.0
 40
1.0
 40
1.0
 40
2.0
 40
2.0
 40
2.0
 40
3.0
 40
3.0
 40
3.0
 40
4.0
 40
4.0
 40
4.0
 40
5.0
 40
5.0
 40
5.0
 40
6.0
 40
6.0
 40
6.0
 40
7.0
 40
7.0
 40
7.0
 40
7.0
 10
92.69412672254773
 20
-58.31121249728732
 30
0.0
 10
92.69412672254773
 20
-58.31121249728732
 30
0.0
 10
89.68724738226995
 20
-55.3029551188151
 30
0.0
 10
89.68724738226995
 20
-55.3029551188151
 30
0.0
 10
89.68724738226995
 20
-55.3029551188151
 30
0.0
 10
84.67256639268661
 20
-55.3029551188151
 30
0.0
 10
84.67256639268661
 20
-55.3029551188151
 30
0.0
 10
83.01478644476995
 20
-55.3029551188151
 30
0.0
 10
81.66568705240884
 20
-56.65343254937066
 30
0.0
 10
81.66568705240884
 20
-58.31121249728732
 30
0.0
 10
81.66568705240884
 20
-58.31121249728732
 30
0.0
 10
81.66568705240884
 20
-58.31121249728732
 30
0.0
 10
81.66568705240884
 20
-58.31121249728732
 30
0.0
 10
81.66568705240884
 20
-59.97312655978731
 30
0.0
 10
83.01478644476995
 20
-61.3180918375651
 30
0.0
 10
84.67256639268661
 20
-61.3180918375651
 30
0.0
 10
84.67256639268661
 20
-61.3180918375651
 30
0.0
 10
89.68724738226995
 20
-61.3180918375651
 30
0.0
 10
89.68724738226995
 20
-61.3180918375651
 30
0.0
 10
89.68724738226995
 20
-61.3180918375651
 30
0.0
 10
92.69412672254773
 20
-58.31121249728732
 30
0.0
 10
92.69412672254773
 20
-58.31121249728732
 30
0.0
  0
SPLINE
  5
1AC
100
AcDbEntity
  8
ALPHA
 62
     7
100
AcDbSpline
210
0.0
220
0.0
230
-1.0
 70
     8
 71
     3
 72
    32
 73
    28
 74
     0
 42
0.0000001
 43
0.0000001
 40
0.0
 40
0.0
 40
0.0
 40
0.0
 40
1.0
 40
1.0
 40
1.0
 40
2.0
 40
2.0
 40
2.0
 40
3.0
 40
3.0
 40
3.0
 40
4.0
 40
4.0
 40
4.0
 40
5.0
 40
5.0
 40
5.0
 40
6.0
 40
6.0
 40
6.0
 40
7.0
 40
7.0
 40
7.0
 40
8.0
 40
8.0
 40
8.0
 40
9.0
 40
9.0
 40
9.0
 40
9.0
 10
89.68311326768661
 20
-80.41494513617621
 30
0.0
 10
89.68311326768661
 20
-80.41494513617621
 30
0.0
 10
89.68311326768661
 20
-83.42320251464842
 30
0.0
 10
89.68311326768661
 20
-83.42320251464842
 30
0.0
 10
89.68311326768661
 20
-83.97992994520398
 30
0.0
 10
90.12959764268662
 20
-84.42641432020399
 30
0.0
 10
90.68219095865885
 20
-84.42641432020399
 30
0.0
 10
90.68219095865885
 20
-84.42641432020399
 30
0.0
 10
104.7188880072699
 20
-84.42641432020399
 30
0.0
 10
104.7188880072699
 20
-84.42641432020399
 30
0.0
 10
105.2714813232421
 20
-84.42641432020399
 30
0.0
 10
105.7220998128254
 20
-83.97992994520398
 30
0.0
 10
105.7220998128254
 20
-83.42320251464842
 30
0.0
 10
105.7220998128254
 20
-83.42320251464842
 30
0.0
 10
105.7220998128254
 20
-71.39430711534287
 30
0.0
 10
105.7220998128254
 20
-71.39430711534287
 30
0.0
 10
105.7220998128254
 20
-70.84171379937065
 30
0.0
 10
105.2714813232421
 20
-70.39522942437065
 30
0.0
 10
104.7188880072699
 20
-70.39522942437065
 30
0.0
 10
104.7188880072699
 20
-70.39522942437065
 30
0.0
 10
90.68219095865885
 20
-70.39522942437065
 30
0.0
 10
90.68219095865885
 20
-70.39522942437065
 30
0.0
 10
90.12959764268662
 20
-70.39522942437065
 30
0.0
 10
89.68311326768661
 20
-70.84171379937065
 30
0.0
 10
89.68311326768661
 20
-71.39430711534287
 30
0.0
 10
89.68311326768661
 20
-71.39430711534287
 30
0.0
 10
89.68311326768661
 20
-74.40118645562065
 30
0.0
 10
89.68311326768661
 20
-74.40118645562065
 30
0.0
  0
SPLINE
  5
1AD
100
AcDbEntity
  8
ALPHA
 62
     7
100
AcDbSpline
210
0.0
220
0.0
230
1.0
 70
    11
 71
     3
 72
    26
 73
    22
 74
     0
 42
0.0000001
 43
0.0000001
 40
0.0
 40
0.0
 40
0.0
 40
0.0
 40
1.0
 40
1.0
 40
1.0
 40
2.0
 40
2.0
 40
2.0
 40
3.0
 40
3.0
 40
3.0
 40
4.0
 40
4.0
 40
4.0
 40
5.0
 40
5.0
 40
5.0
 40
6.0
 40
6.0
 40
6.0
 40
7.0
 40
7.0
 40
7.0
 40
7.0
 10
92.69412672254773
 20
-77.40806579589843
 30
0.0
 10
92.69412672254773
 20
-77.40806579589843
 30
0.0
 10
89.68724738226995
 20
-74.40118645562065
 30
0.0
 10
89.68724738226995
 20
-74.40118645562065
 30
0.0
 10
89.68724738226995
 20
-74.40118645562065
 30
0.0
 10
84.67256639268661
 20
-74.40118645562065
 30
0.0
 10
84.67256639268661
 20
-74.40118645562065
 30
0.0
 10
83.01478644476995
 20
-74.40118645562065
 30
0.0
 10
81.66568705240884
 20
-75.75028584798175
 30
0.0
 10
81.66568705240884
 20
-77.40806579589843
 30
0.0
 10
81.66568705240884
 20
-77.40806579589843
 30
0.0
 10
81.66568705240884
 20
-77.40806579589843
 30
0.0
 10
81.66568705240884
 20
-77.40806579589843
 30
0.0
 10
81.66568705240884
 20
-79.07135789659287
 30
0.0
 10
83.01478644476995
 20
-80.41494513617621
 30
0.0
 10
84.67256639268661
 20
-80.41494513617621
 30
0.0
 10
84.67256639268661
 20
-80.41494513617621
 30
0.0
 10
89.68724738226995
 20
-80.41494513617621
 30
0.0
 10
89.68724738226995
 20
-80.41494513617621
 30
0.0
 10
89.68724738226995
 20
-80.41494513617621
 30
0.0
 10
92.69412672254773
 20
-77.40806579589843
 30
0.0
 10
92.69412672254773
 20
-77.40806579589843
 30
0.0
  0
SPLINE
  5
1AE
100
AcDbEntity
  8
ALPHA
 62
     7
100
AcDbSpline
210
0.0
220
0.0
230
-1.0
 70
     8
 71
     3
 72
    32
 73
    28
 74
     0
 42
0.0000001
 43
0.0000001
 40
0.0
 40
0.0
 40
0.0
 40
0.0
 40
1.0
 40
1.0
 40
1.0
 40
2.0
 40
2.0
 40
2.0
 40
3.0
 40
3.0
 40
3.0
 40
4.0
 40
4.0
 40
4.0
 40
5.0
 40
5.0
 40
5.0
 40
6.0
 40
6.0
 40
6.0
 40
7.0
 40
7.0
 40
7.0
 40
8.0
 40
8.0
 40
8.0
 40
9.0
 40
9.0
 40
9.0
 40
9.0
 10
127.7817352294921
 20
15.07362772623697
 30
0.0
 10
127.7817352294921
 20
15.07362772623697
 30
0.0
 10
127.7817352294921
 20
12.06537034776475
 30
0.0
 10
127.7817352294921
 20
12.06537034776475
 30
0.0
 10
127.7817352294921
 20
11.5086429172092
 30
0.0
 10
127.3352508544921
 20
11.0621585422092
 30
0.0
 10
126.7771453857421
 20
11.0621585422092
 30
0.0
 10
126.7771453857421
 20
11.0621585422092
 30
0.0
 10
112.7459604899088
 20
11.0621585422092
 30
0.0
 10
112.7459604899088
 20
11.0621585422092
 30
0.0
 10
112.1933671739366
 20
11.0621585422092
 30
0.0
 10
111.7413706461588
 20
11.5086429172092
 30
0.0
 10
111.7413706461588
 20
12.06537034776475
 30
0.0
 10
111.7413706461588
 20
12.06537034776475
 30
0.0
 10
111.7413706461588
 20
24.09426574707031
 30
0.0
 10
111.7413706461588
 20
24.09426574707031
 30
0.0
 10
111.7413706461588
 20
24.64685906304253
 30
0.0
 10
112.1933671739366
 20
25.09334343804253
 30
0.0
 10
112.7459604899088
 20
25.09334343804253
 30
0.0
 10
112.7459604899088
 20
25.09334343804253
 30
0.0
 10
126.7771453857421
 20
25.09334343804253
 30
0.0
 10
126.7771453857421
 20
25.09334343804253
 30
0.0
 10
127.3352508544921
 20
25.09334343804253
 30
0.0
 10
127.7817352294921
 20
24.64685906304253
 30
0.0
 10
127.7817352294921
 20
24.09426574707031
 30
0.0
 10
127.7817352294921
 20
24.09426574707031
 30
0.0
 10
127.7817352294921
 20
21.08738640679253
 30
0.0
 10
127.7817352294921
 20
21.08738640679253
 30
0.0
  0
SPLINE
  5
1AF
100
AcDbEntity
  8
ALPHA
 62
     7
100
AcDbSpline
210
0.0
220
0.0
230
1.0
 70
    11
 71
     3
 72
    26
 73
    22
 74
     0
 42
0.0000001
 43
0.0000001
 40
0.0
 40
0.0
 40
0.0
 40
0.0
 40
1.0
 40
1.0
 40
1.0
 40
2.0
 40
2.0
 40
2.0
 40
3.0
 40
3.0
 40
3.0
 40
4.0
 40
4.0
 40
4.0
 40
5.0
 40
5.0
 40
5.0
 40
6.0
 40
6.0
 40
6.0
 40
7.0
 40
7.0
 40
7.0
 40
7.0
 10
124.7693437364366
 20
18.08050706651475
 30
0.0
 10
124.7693437364366
 20
18.08050706651475
 30
0.0
 10
127.7776011149088
 20
21.08738640679253
 30
0.0
 10
127.7776011149088
 20
21.08738640679253
 30
0.0
 10
127.7776011149088
 20
21.08738640679253
 30
0.0
 10
132.7867699517144
 20
21.08738640679253
 30
0.0
 10
132.7867699517144
 20
21.08738640679253
 30
0.0
 10
134.4500620524088
 20
21.08738640679253
 30
0.0
 10
135.7950273301866
 20
19.73828701443142
 30
0.0
 10
135.7950273301866
 20
18.08050706651475
 30
0.0
 10
135.7950273301866
 20
18.08050706651475
 30
0.0
 10
135.7950273301866
 20
18.08050706651475
 30
0.0
 10
135.7950273301866
 20
18.08050706651475
 30
0.0
 10
135.7950273301866
 20
16.41721496582031
 30
0.0
 10
134.4500620524088
 20
15.07362772623697
 30
0.0
 10
132.7867699517144
 20
15.07362772623697
 30
0.0
 10
132.7867699517144
 20
15.07362772623697
 30
0.0
 10
127.7776011149088
 20
15.07362772623697
 30
0.0
 10
127.7776011149088
 20
15.07362772623697
 30
0.0
 10
127.7776011149088
 20
15.07362772623697
 30
0.0
 10
124.7693437364366
 20
18.08050706651475
 30
0.0
 10
124.7693437364366
 20
18.08050706651475
 30
0.0
  0
SPLINE
  5
1B0
100
AcDbEntity
  8
ALPHA
 62
     7
100
AcDbSpline
210
0.0
220
0.0
230
-1.0
 70
     8
 71
     3
 72
    32
 73
    28
 74
     0
 42
0.0000001
 43
0.0000001
 40
0.0
 40
0.0
 40
0.0
 40
0.0
 40
1.0
 40
1.0
 40
1.0
 40
2.0
 40
2.0
 40
2.0
 40
3.0
 40
3.0
 40
3.0
 40
4.0
 40
4.0
 40
4.0
 40
5.0
 40
5.0
 40
5.0
 40
6.0
 40
6.0
 40
6.0
 40
7.0
 40
7.0
 40
7.0
 40
8.0
 40
8.0
 40
8.0
 40
9.0
 40
9.0
 40
9.0
 40
9.0
 10
127.7817352294921
 20
-4.024775865342881
 30
0.0
 10
127.7817352294921
 20
-4.024775865342881
 30
0.0
 10
127.7817352294921
 20
-7.031655205620658
 30
0.0
 10
127.7817352294921
 20
-7.031655205620658
 30
0.0
 10
127.7817352294921
 20
-7.589760674370658
 30
0.0
 10
127.3352508544921
 20
-8.036245049370659
 30
0.0
 10
126.7771453857421
 20
-8.036245049370659
 30
0.0
 10
126.7771453857421
 20
-8.036245049370659
 30
0.0
 10
112.7459604899088
 20
-8.036245049370659
 30
0.0
 10
112.7459604899088
 20
-8.036245049370659
 30
0.0
 10
112.1933671739366
 20
-8.036245049370659
 30
0.0
 10
111.7413706461588
 20
-7.589760674370658
 30
0.0
 10
111.7413706461588
 20
-7.031655205620658
 30
0.0
 10
111.7413706461588
 20
-7.031655205620658
 30
0.0
 10
111.7413706461588
 20
4.997240193684895
 30
0.0
 10
111.7413706461588
 20
4.997240193684895
 30
0.0
 10
111.7413706461588
 20
5.549833509657117
 30
0.0
 10
112.1933671739366
 20
5.996317884657117
 30
0.0
 10
112.7459604899088
 20
5.996317884657117
 30
0.0
 10
112.7459604899088
 20
5.996317884657117
 30
0.0
 10
126.7771453857421
 20
5.996317884657117
 30
0.0
 10
126.7771453857421
 20
5.996317884657117
 30
0.0
 10
127.3352508544921
 20
5.996317884657117
 30
0.0
 10
127.7817352294921
 20
5.549833509657117
 30
0.0
 10
127.7817352294921
 20
4.997240193684895
 30
0.0
 10
127.7817352294921
 20
4.997240193684895
 30
0.0
 10
127.7817352294921
 20
1.988982815212673
 30
0.0
 10
127.7817352294921
 20
1.988982815212673
 30
0.0
  0
SPLINE
  5
1B1
100
AcDbEntity
  8
ALPHA
 62
     7
100
AcDbSpline
210
0.0
220
0.0
230
1.0
 70
    11
 71
     3
 72
    26
 73
    22
 74
     0
 42
0.0000001
 43
0.0000001
 40
0.0
 40
0.0
 40
0.0
 40
0.0
 40
1.0
 40
1.0
 40
1.0
 40
2.0
 40
2.0
 40
2.0
 40
3.0
 40
3.0
 40
3.0
 40
4.0
 40
4.0
 40
4.0
 40
5.0
 40
5.0
 40
5.0
 40
6.0
 40
6.0
 40
6.0
 40
7.0
 40
7.0
 40
7.0
 40
7.0
 10
124.7693437364366
 20
-1.017896525065103
 30
0.0
 10
124.7693437364366
 20
-1.017896525065103
 30
0.0
 10
127.7776011149088
 20
1.988982815212673
 30
0.0
 10
127.7776011149088
 20
1.988982815212673
 30
0.0
 10
127.7776011149088
 20
1.988982815212673
 30
0.0
 10
132.7867699517144
 20
1.988982815212673
 30
0.0
 10
132.7867699517144
 20
1.988982815212673
 30
0.0
 10
134.4500620524088
 20
1.988982815212673
 30
0.0
 10
135.7950273301866
 20
0.6398834228515625
 30
0.0
 10
135.7950273301866
 20
-1.017896525065103
 30
0.0
 10
135.7950273301866
 20
-1.017896525065103
 30
0.0
 10
135.7950273301866
 20
-1.017896525065103
 30
0.0
 10
135.7950273301866
 20
-1.017896525065103
 30
0.0
 10
135.7950273301866
 20
-2.679810587565103
 30
0.0
 10
134.4500620524088
 20
-4.024775865342881
 30
0.0
 10
132.7867699517144
 20
-4.024775865342881
 30
0.0
 10
132.7867699517144
 20
-4.024775865342881
 30
0.0
 10
127.7776011149088
 20
-4.024775865342881
 30
0.0
 10
127.7776011149088
 20
-4.024775865342881
 30
0.0
 10
127.7776011149088
 20
-4.024775865342881
 30
0.0
 10
124.7693437364366
 20
-1.017896525065103
 30
0.0
 10
124.7693437364366
 20
-1.017896525065103
 30
0.0
  0
SPLINE
  5
1B2
100
AcDbEntity
  8
ALPHA
 62
     7
100
AcDbSpline
210
0.0
220
0.0
230
-1.0
 70
     8
 71
     3
 72
    32
 73
    28
 74
     0
 42
0.0000001
 43
0.0000001
 40
0.0
 40
0.0
 40
0.0
 40
0.0
 40
1.0
 40
1.0
 40
1.0
 40
2.0
 40
2.0
 40
2.0
 40
3.0
 40
3.0
 40
3.0
 40
4.0
 40
4.0
 40
4.0
 40
5.0
 40
5.0
 40
5.0
 40
6.0
 40
6.0
 40
6.0
 40
7.0
 40
7.0
 40
7.0
 40
8.0
 40
8.0
 40
8.0
 40
9.0
 40
9.0
 40
9.0
 40
9.0
 10
127.7817352294921
 20
-23.12300720214843
 30
0.0
 10
127.7817352294921
 20
-23.12300720214843
 30
0.0
 10
127.7817352294921
 20
-26.12988654242621
 30
0.0
 10
127.7817352294921
 20
-26.12988654242621
 30
0.0
 10
127.7817352294921
 20
-26.68661397298176
 30
0.0
 10
127.3352508544921
 20
-27.13309834798177
 30
0.0
 10
126.7771453857421
 20
-27.13309834798177
 30
0.0
 10
126.7771453857421
 20
-27.13309834798177
 30
0.0
 10
112.7459604899088
 20
-27.13309834798177
 30
0.0
 10
112.7459604899088
 20
-27.13309834798177
 30
0.0
 10
112.1933671739366
 20
-27.13309834798177
 30
0.0
 10
111.7413706461588
 20
-26.68661397298176
 30
0.0
 10
111.7413706461588
 20
-26.12988654242621
 30
0.0
 10
111.7413706461588
 20
-26.12988654242621
 30
0.0
 10
111.7413706461588
 20
-14.10099114312066
 30
0.0
 10
111.7413706461588
 20
-14.10099114312066
 30
0.0
 10
111.7413706461588
 20
-13.54839782714843
 30
0.0
 10
112.1933671739366
 20
-13.10191345214843
 30
0.0
 10
112.7459604899088
 20
-13.10191345214843
 30
0.0
 10
112.7459604899088
 20
-13.10191345214843
 30
0.0
 10
126.7771453857421
 20
-13.10191345214843
 30
0.0
 10
126.7771453857421
 20
-13.10191345214843
 30
0.0
 10
127.3352508544921
 20
-13.10191345214843
 30
0.0
 10
127.7817352294921
 20
-13.54839782714843
 30
0.0
 10
127.7817352294921
 20
-14.10099114312066
 30
0.0
 10
127.7817352294921
 20
-14.10099114312066
 30
0.0
 10
127.7817352294921
 20
-17.10787048339843
 30
0.0
 10
127.7817352294921
 20
-17.10787048339843
 30
0.0
  0
SPLINE
  5
1B3
100
AcDbEntity
  8
ALPHA
 62
     7
100
AcDbSpline
210
0.0
220
0.0
230
1.0
 70
    11
 71
     3
 72
    26
 73
    22
 74
     0
 42
0.0000001
 43
0.0000001
 40
0.0
 40
0.0
 40
0.0
 40
0.0
 40
1.0
 40
1.0
 40
1.0
 40
2.0
 40
2.0
 40
2.0
 40
3.0
 40
3.0
 40
3.0
 40
4.0
 40
4.0
 40
4.0
 40
5.0
 40
5.0
 40
5.0
 40
6.0
 40
6.0
 40
6.0
 40
7.0
 40
7.0
 40
7.0
 40
7.0
 10
124.7693437364366
 20
-20.11474982367621
 30
0.0
 10
124.7693437364366
 20
-20.11474982367621
 30
0.0
 10
127.7776011149088
 20
-17.10787048339843
 30
0.0
 10
127.7776011149088
 20
-17.10787048339843
 30
0.0
 10
127.7776011149088
 20
-17.10787048339843
 30
0.0
 10
132.7867699517144
 20
-17.10787048339843
 30
0.0
 10
132.7867699517144
 20
-17.10787048339843
 30
0.0
 10
134.4500620524088
 20
-17.10787048339843
 30
0.0
 10
135.7950273301866
 20
-18.45696987575954
 30
0.0
 10
135.7950273301866
 20
-20.11474982367621
 30
0.0
 10
135.7950273301866
 20
-20.11474982367621
 30
0.0
 10
135.7950273301866
 20
-20.11474982367621
 30
0.0
 10
135.7950273301866
 20
-20.11474982367621
 30
0.0
 10
135.7950273301866
 20
-21.77804192437065
 30
0.0
 10
134.4500620524088
 20
-23.12300720214843
 30
0.0
 10
132.7867699517144
 20
-23.12300720214843
 30
0.0
 10
132.7867699517144
 20
-23.12300720214843
 30
0.0
 10
127.7776011149088
 20
-23.12300720214843
 30
0.0
 10
127.7776011149088
 20
-23.12300720214843
 30
0.0
 10
127.7776011149088
 20
-23.12300720214843
 30
0.0
 10
124.7693437364366
 20
-20.11474982367621
 30
0.0
 10
124.7693437364366
 20
-20.11474982367621
 30
0.0
  0
SPLINE
  5
1B4
100
AcDbEntity
  8
ALPHA
 62
     7
100
AcDbSpline
210
0.0
220
0.0
230
-1.0
 70
     8
 71
     3
 72
    32
 73
    28
 74
     0
 42
0.0000001
 43
0.0000001
 40
0.0
 40
0.0
 40
0.0
 40
0.0
 40
1.0
 40
1.0
 40
1.0
 40
2.0
 40
2.0
 40
2.0
 40
3.0
 40
3.0
 40
3.0
 40
4.0
 40
4.0
 40
4.0
 40
5.0
 40
5.0
 40
5.0
 40
6.0
 40
6.0
 40
6.0
 40
7.0
 40
7.0
 40
7.0
 40
8.0
 40
8.0
 40
8.0
 40
9.0
 40
9.0
 40
9.0
 40
9.0
 10
127.7817352294921
 20
-42.21986050075954
 30
0.0
 10
127.7817352294921
 20
-42.21986050075954
 30
0.0
 10
127.7817352294921
 20
-45.22811787923177
 30
0.0
 10
127.7817352294921
 20
-45.22811787923177
 30
0.0
 10
127.7817352294921
 20
-45.78484530978732
 30
0.0
 10
127.3352508544921
 20
-46.23132968478731
 30
0.0
 10
126.7771453857421
 20
-46.23132968478731
 30
0.0
 10
126.7771453857421
 20
-46.23132968478731
 30
0.0
 10
112.7459604899088
 20
-46.23132968478731
 30
0.0
 10
112.7459604899088
 20
-46.23132968478731
 30
0.0
 10
112.1933671739366
 20
-46.23132968478731
 30
0.0
 10
111.7413706461588
 20
-45.78484530978732
 30
0.0
 10
111.7413706461588
 20
-45.22811787923177
 30
0.0
 10
111.7413706461588
 20
-45.22811787923177
 30
0.0
 10
111.7413706461588
 20
-33.19922247992621
 30
0.0
 10
111.7413706461588
 20
-33.19922247992621
 30
0.0
 10
111.7413706461588
 20
-32.64662916395399
 30
0.0
 10
112.1933671739366
 20
-32.19876675075954
 30
0.0
 10
112.7459604899088
 20
-32.19876675075954
 30
0.0
 10
112.7459604899088
 20
-32.19876675075954
 30
0.0
 10
126.7771453857421
 20
-32.19876675075954
 30
0.0
 10
126.7771453857421
 20
-32.19876675075954
 30
0.0
 10
127.3352508544921
 20
-32.19876675075954
 30
0.0
 10
127.7817352294921
 20
-32.64662916395399
 30
0.0
 10
127.7817352294921
 20
-33.19922247992621
 30
0.0
 10
127.7817352294921
 20
-33.19922247992621
 30
0.0
 10
127.7817352294921
 20
-36.20610182020399
 30
0.0
 10
127.7817352294921
 20
-36.20610182020399
 30
0.0
  0
SPLINE
  5
1B5
100
AcDbEntity
  8
ALPHA
 62
     7
100
AcDbSpline
210
0.0
220
0.0
230
1.0
 70
    11
 71
     3
 72
    26
 73
    22
 74
     0
 42
0.0000001
 43
0.0000001
 40
0.0
 40
0.0
 40
0.0
 40
0.0
 40
1.0
 40
1.0
 40
1.0
 40
2.0
 40
2.0
 40
2.0
 40
3.0
 40
3.0
 40
3.0
 40
4.0
 40
4.0
 40
4.0
 40
5.0
 40
5.0
 40
5.0
 40
6.0
 40
6.0
 40
6.0
 40
7.0
 40
7.0
 40
7.0
 40
7.0
 10
124.7693437364366
 20
-39.21298116048177
 30
0.0
 10
124.7693437364366
 20
-39.21298116048177
 30
0.0
 10
127.7776011149088
 20
-36.20610182020399
 30
0.0
 10
127.7776011149088
 20
-36.20610182020399
 30
0.0
 10
127.7776011149088
 20
-36.20610182020399
 30
0.0
 10
132.7867699517144
 20
-36.20610182020399
 30
0.0
 10
132.7867699517144
 20
-36.20610182020399
 30
0.0
 10
134.4500620524088
 20
-36.20610182020399
 30
0.0
 10
135.7950273301866
 20
-37.5552012125651
 30
0.0
 10
135.7950273301866
 20
-39.21298116048177
 30
0.0
 10
135.7950273301866
 20
-39.21298116048177
 30
0.0
 10
135.7950273301866
 20
-39.21298116048177
 30
0.0
 10
135.7950273301866
 20
-39.21298116048177
 30
0.0
 10
135.7950273301866
 20
-40.87489522298176
 30
0.0
 10
134.4500620524088
 20
-42.21986050075954
 30
0.0
 10
132.7867699517144
 20
-42.21986050075954
 30
0.0
 10
132.7867699517144
 20
-42.21986050075954
 30
0.0
 10
127.7776011149088
 20
-42.21986050075954
 30
0.0
 10
127.7776011149088
 20
-42.21986050075954
 30
0.0
 10
127.7776011149088
 20
-42.21986050075954
 30
0.0
 10
124.7693437364366
 20
-39.21298116048177
 30
0.0
 10
124.7693437364366
 20
-39.21298116048177
 30
0.0
  0
SPLINE
  5
1B6
100
AcDbEntity
  8
ALPHA
 62
     7
100
AcDbSpline
210
0.0
220
0.0
230
-1.0
 70
     8
 71
     3
 72
    32
 73
    28
 74
     0
 42
0.0000001
 43
0.0000001
 40
0.0
 40
0.0
 40
0.0
 40
0.0
 40
1.0
 40
1.0
 40
1.0
 40
2.0
 40
2.0
 40
2.0
 40
3.0
 40
3.0
 40
3.0
 40
4.0
 40
4.0
 40
4.0
 40
5.0
 40
5.0
 40
5.0
 40
6.0
 40
6.0
 40
6.0
 40
7.0
 40
7.0
 40
7.0
 40
8.0
 40
8.0
 40
8.0
 40
9.0
 40
9.0
 40
9.0
 40
9.0
 10
127.7817352294921
 20
-61.3180918375651
 30
0.0
 10
127.7817352294921
 20
-61.3180918375651
 30
0.0
 10
127.7817352294921
 20
-64.32497117784286
 30
0.0
 10
127.7817352294921
 20
-64.32497117784286
 30
0.0
 10
127.7817352294921
 20
-64.88169860839843
 30
0.0
 10
127.3352508544921
 20
-65.32956102159288
 30
0.0
 10
126.7771453857421
 20
-65.32956102159288
 30
0.0
 10
126.7771453857421
 20
-65.32956102159288
 30
0.0
 10
112.7459604899088
 20
-65.32956102159288
 30
0.0
 10
112.7459604899088
 20
-65.32956102159288
 30
0.0
 10
112.1933671739366
 20
-65.32956102159288
 30
0.0
 10
111.7413706461588
 20
-64.88169860839843
 30
0.0
 10
111.7413706461588
 20
-64.32497117784286
 30
0.0
 10
111.7413706461588
 20
-64.32497117784286
 30
0.0
 10
111.7413706461588
 20
-52.29607577853732
 30
0.0
 10
111.7413706461588
 20
-52.29607577853732
 30
0.0
 10
111.7413706461588
 20
-51.7434824625651
 30
0.0
 10
112.1933671739366
 20
-51.2969980875651
 30
0.0
 10
112.7459604899088
 20
-51.2969980875651
 30
0.0
 10
112.7459604899088
 20
-51.2969980875651
 30
0.0
 10
126.7771453857421
 20
-51.2969980875651
 30
0.0
 10
126.7771453857421
 20
-51.2969980875651
 30
0.0
 10
127.3352508544921
 20
-51.2969980875651
 30
0.0
 10
127.7817352294921
 20
-51.7434824625651
 30
0.0
 10
127.7817352294921
 20
-52.29607577853732
 30
0.0
 10
127.7817352294921
 20
-52.29607577853732
 30
0.0
 10
127.7817352294921
 20
-55.3029551188151
 30
0.0
 10
127.7817352294921
 20
-55.3029551188151
 30
0.0
  0
SPLINE
  5
1B7
100
AcDbEntity
  8
ALPHA
 62
     7
100
AcDbSpline
210
0.0
220
0.0
230
1.0
 70
    11
 71
     3
 72
    26
 73
    22
 74
     0
 42
0.0000001
 43
0.0000001
 40
0.0
 40
0.0
 40
0.0
 40
0.0
 40
1.0
 40
1.0
 40
1.0
 40
2.0
 40
2.0
 40
2.0
 40
3.0
 40
3.0
 40
3.0
 40
4.0
 40
4.0
 40
4.0
 40
5.0
 40
5.0
 40
5.0
 40
6.0
 40
6.0
 40
6.0
 40
7.0
 40
7.0
 40
7.0
 40
7.0
 10
124.7693437364366
 20
-58.31121249728732
 30
0.0
 10
124.7693437364366
 20
-58.31121249728732
 30
0.0
 10
127.7776011149088
 20
-55.3029551188151
 30
0.0
 10
127.7776011149088
 20
-55.3029551188151
 30
0.0
 10
127.7776011149088
 20
-55.3029551188151
 30
0.0
 10
132.7867699517144
 20
-55.3029551188151
 30
0.0
 10
132.7867699517144
 20
-55.3029551188151
 30
0.0
 10
134.4500620524088
 20
-55.3029551188151
 30
0.0
 10
135.7950273301866
 20
-56.65343254937066
 30
0.0
 10
135.7950273301866
 20
-58.31121249728732
 30
0.0
 10
135.7950273301866
 20
-58.31121249728732
 30
0.0
 10
135.7950273301866
 20
-58.31121249728732
 30
0.0
 10
135.7950273301866
 20
-58.31121249728732
 30
0.0
 10
135.7950273301866
 20
-59.97312655978731
 30
0.0
 10
134.4500620524088
 20
-61.3180918375651
 30
0.0
 10
132.7867699517144
 20
-61.3180918375651
 30
0.0
 10
132.7867699517144
 20
-61.3180918375651
 30
0.0
 10
127.7776011149088
 20
-61.3180918375651
 30
0.0
 10
127.7776011149088
 20
-61.3180918375651
 30
0.0
 10
127.7776011149088
 20
-61.3180918375651
 30
0.0
 10
124.7693437364366
 20
-58.31121249728732
 30
0.0
 10
124.7693437364366
 20
-58.31121249728732
 30
0.0
  0
SPLINE
  5
1B8
100
AcDbEntity
  8
ALPHA
 62
     7
100
AcDbSpline
210
0.0
220
0.0
230
-1.0
 70
     8
 71
     3
 72
    32
 73
    28
 74
     0
 42
0.0000001
 43
0.0000001
 40
0.0
 40
0.0
 40
0.0
 40
0.0
 40
1.0
 40
1.0
 40
1.0
 40
2.0
 40
2.0
 40
2.0
 40
3.0
 40
3.0
 40
3.0
 40
4.0
 40
4.0
 40
4.0
 40
5.0
 40
5.0
 40
5.0
 40
6.0
 40
6.0
 40
6.0
 40
7.0
 40
7.0
 40
7.0
 40
8.0
 40
8.0
 40
8.0
 40
9.0
 40
9.0
 40
9.0
 40
9.0
 10
127.7817352294921
 20
-80.41494513617621
 30
0.0
 10
127.7817352294921
 20
-80.41494513617621
 30
0.0
 10
127.7817352294921
 20
-83.42320251464842
 30
0.0
 10
127.7817352294921
 20
-83.42320251464842
 30
0.0
 10
127.7817352294921
 20
-83.97992994520398
 30
0.0
 10
127.3352508544921
 20
-84.42641432020399
 30
0.0
 10
126.7771453857421
 20
-84.42641432020399
 30
0.0
 10
126.7771453857421
 20
-84.42641432020399
 30
0.0
 10
112.7459604899088
 20
-84.42641432020399
 30
0.0
 10
112.7459604899088
 20
-84.42641432020399
 30
0.0
 10
112.1933671739366
 20
-84.42641432020399
 30
0.0
 10
111.7413706461588
 20
-83.97992994520398
 30
0.0
 10
111.7413706461588
 20
-83.42320251464842
 30
0.0
 10
111.7413706461588
 20
-83.42320251464842
 30
0.0
 10
111.7413706461588
 20
-71.39430711534287
 30
0.0
 10
111.7413706461588
 20
-71.39430711534287
 30
0.0
 10
111.7413706461588
 20
-70.84171379937065
 30
0.0
 10
112.1933671739366
 20
-70.39522942437065
 30
0.0
 10
112.7459604899088
 20
-70.39522942437065
 30
0.0
 10
112.7459604899088
 20
-70.39522942437065
 30
0.0
 10
126.7771453857421
 20
-70.39522942437065
 30
0.0
 10
126.7771453857421
 20
-70.39522942437065
 30
0.0
 10
127.3352508544921
 20
-70.39522942437065
 30
0.0
 10
127.7817352294921
 20
-70.84171379937065
 30
0.0
 10
127.7817352294921
 20
-71.39430711534287
 30
0.0
 10
127.7817352294921
 20
-71.39430711534287
 30
0.0
 10
127.7817352294921
 20
-74.40118645562065
 30
0.0
 10
127.7817352294921
 20
-74.40118645562065
 30
0.0
  0
SPLINE
  5
1B9
100
AcDbEntity
  8
ALPHA
 62
     7
100
AcDbSpline
210
0.0
220
0.0
230
1.0
 70
    11
 71
     3
 72
    26
 73
    22
 74
     0
 42
0.0000001
 43
0.0000001
 40
0.0
 40
0.0
 40
0.0
 40
0.0
 40
1.0
 40
1.0
 40
1.0
 40
2.0
 40
2.0
 40
2.0
 40
3.0
 40
3.0
 40
3.0
 40
4.0
 40
4.0
 40
4.0
 40
5.0
 40
5.0
 40
5.0
 40
6.0
 40
6.0
 40
6.0
 40
7.0
 40
7.0
 40
7.0
 40
7.0
 10
124.7693437364366
 20
-77.40806579589843
 30
0.0
 10
124.7693437364366
 20
-77.40806579589843
 30
0.0
 10
127.7776011149088
 20
-74.40118645562065
 30
0.0
 10
127.7776011149088
 20
-74.40118645562065
 30
0.0
 10
127.7776011149088
 20
-74.40118645562065
 30
0.0
 10
132.7867699517144
 20
-74.40118645562065
 30
0.0
 10
132.7867699517144
 20
-74.40118645562065
 30
0.0
 10
134.4500620524088
 20
-74.40118645562065
 30
0.0
 10
135.7950273301866
 20
-75.75028584798175
 30
0.0
 10
135.7950273301866
 20
-77.40806579589843
 30
0.0
 10
135.7950273301866
 20
-77.40806579589843
 30
0.0
 10
135.7950273301866
 20
-77.40806579589843
 30
0.0
 10
135.7950273301866
 20
-77.40806579589843
 30
0.0
 10
135.7950273301866
 20
-79.07135789659287
 30
0.0
 10
134.4500620524088
 20
-80.41494513617621
 30
0.0
 10
132.7867699517144
 20
-80.41494513617621
 30
0.0
 10
132.7867699517144
 20
-80.41494513617621
 30
0.0
 10
127.7776011149088
 20
-80.41494513617621
 30
0.0
 10
127.7776011149088
 20
-80.41494513617621
 30
0.0
 10
127.7776011149088
 20
-80.41494513617621
 30
0.0
 10
124.7693437364366
 20
-77.40806579589843
 30
0.0
 10
124.7693437364366
 20
-77.40806579589843
 30
0.0
  0
POLYLINE
  5
1BA
100
AcDbEntity
  8
ALPHA
 62
     7
100
AcDb2dPolyline
 66
     1
 10
0.0
 20
0.0
 30
0.0
 70
     1
  0
VERTEX
  5
1BB
100
AcDbEntity
  8
ALPHA
 62
     7
100
AcDbVertex
100
AcDb2dVertex
 10
-53.427531
 20
-72.416811
 30
0.0
  0
VERTEX
  5
1BC
100
AcDbEntity
  8
ALPHA
 62
     7
100
AcDbVertex
100
AcDb2dVertex
 10
-53.427531
 20
-63.394795
 30
0.0
  0
VERTEX
  5
1BD
100
AcDbEntity
  8
ALPHA
 62
     7
100
AcDbVertex
100
AcDb2dVertex
 10
-68.468646
 20
-63.394795
 30
0.0
  0
VERTEX
  5
1BE
100
AcDbEntity
  8
ALPHA
 62
     7
100
AcDbVertex
100
AcDb2dVertex
 10
-68.468646
 20
-72.416811
 30
0.0
  0
SEQEND
  5
1BF
100
AcDbEntity
  8
ALPHA
 62
     7
  0
POLYLINE
  5
1C0
100
AcDbEntity
  8
ALPHA
 62
     7
100
AcDb2dPolyline
 66
     1
 10
0.0
 20
0.0
 30
0.0
 70
     1
  0
VERTEX
  5
1C1
100
AcDbEntity
  8
ALPHA
 62
     7
100
AcDbVertex
100
AcDb2dVertex
 10
-53.427531
 20
-34.221727
 30
0.0
  0
VERTEX
  5
1C2
100
AcDbEntity
  8
ALPHA
 62
     7
100
AcDbVertex
100
AcDb2dVertex
 10
-53.427531
 20
-25.199711
 30
0.0
  0
VERTEX
  5
1C3
100
AcDbEntity
  8
ALPHA
 62
     7
100
AcDbVertex
100
AcDb2dVertex
 10
-68.468646
 20
-25.199711
 30
0.0
  0
VERTEX
  5
1C4
100
AcDbEntity
  8
ALPHA
 62
     7
100
AcDbVertex
100
AcDb2dVertex
 10
-68.468646
 20
-34.221727
 30
0.0
  0
SEQEND
  5
1C5
100
AcDbEntity
  8
ALPHA
 62
     7
  0
POLYLINE
  5
1C6
100
AcDbEntity
  8
ALPHA
 62
     7
100
AcDb2dPolyline
 66
     1
 10
0.0
 20
0.0
 30
0.0
 70
     1
  0
VERTEX
  5
1C7
100
AcDbEntity
  8
ALPHA
 62
     7
100
AcDbVertex
100
AcDb2dVertex
 10
-34.330678
 20
-52.789413
 30
0.0
  0
VERTEX
  5
1C8
100
AcDbEntity
  8
ALPHA
 62
     7
100
AcDbVertex
100
AcDb2dVertex
 10
-34.330678
 20
-43.767397
 30
0.0
  0
VERTEX
  5
1C9
100
AcDbEntity
  8
ALPHA
 62
     7
100
AcDbVertex
100
AcDb2dVertex
 10
-49.370587
 20
-43.767397
 30
0.0
  0
VERTEX
  5
1CA
100
AcDbEntity
  8
ALPHA
 62
     7
100
AcDbVertex
100
AcDb2dVertex
 10
-49.370587
 20
-52.789413
 30
0.0
  0
SEQEND
  5
1CB
100
AcDbEntity
  8
ALPHA
 62
     7
  0
POLYLINE
  5
1CC
100
AcDbEntity
  8
ALPHA
 62
     7
100
AcDb2dPolyline
 66
     1
 10
0.0
 20
0.0
 30
0.0
 70
     1
  0
VERTEX
  5
1CD
100
AcDbEntity
  8
ALPHA
 62
     7
100
AcDbVertex
100
AcDb2dVertex
 10
-14.528269
 20
-34.221727
 30
0.0
  0
VERTEX
  5
1CE
100
AcDbEntity
  8
ALPHA
 62
     7
100
AcDbVertex
100
AcDb2dVertex
 10
-14.528269
 20
-25.199711
 30
0.0
  0
VERTEX
  5
1CF
100
AcDbEntity
  8
ALPHA
 62
     7
100
AcDbVertex
100
AcDb2dVertex
 10
-29.564044
 20
-25.199711
 30
0.0
  0
VERTEX
  5
1D0
100
AcDbEntity
  8
ALPHA
 62
     7
100
AcDbVertex
100
AcDb2dVertex
 10
-29.564044
 20
-34.221727
 30
0.0
  0
SEQEND
  5
1D1
100
AcDbEntity
  8
ALPHA
 62
     7
  0
POLYLINE
  5
1D2
100
AcDbEntity
  8
ALPHA
 62
     7
100
AcDb2dPolyline
 66
     1
 10
0.0
 20
0.0
 30
0.0
 70
     1
  0
VERTEX
  5
1D3
100
AcDbEntity
  8
ALPHA
 62
     7
100
AcDbVertex
100
AcDb2dVertex
 10
1.03805
 20
3.265046
 30
0.0
  0
VERTEX
  5
1D4
100
AcDbEntity
  8
ALPHA
 62
     7
100
AcDbVertex
100
AcDb2dVertex
 10
1.03805
 20
12.287234
 30
0.0
  0
VERTEX
  5
1D5
100
AcDbEntity
  8
ALPHA
 62
     7
100
AcDbVertex
100
AcDb2dVertex
 10
-14.003237
 20
12.287234
 30
0.0
  0
VERTEX
  5
1D6
100
AcDbEntity
  8
ALPHA
 62
     7
100
AcDbVertex
100
AcDb2dVertex
 10
-14.003237
 20
3.265046
 30
0.0
  0
SEQEND
  5
1D7
100
AcDbEntity
  8
ALPHA
 62
     7
  0
POLYLINE
  5
1D8
100
AcDbEntity
  8
ALPHA
 62
     7
100
AcDb2dPolyline
 66
     1
 10
0.0
 20
0.0
 30
0.0
 70
     1
  0
VERTEX
  5
1D9
100
AcDbEntity
  8
ALPHA
 62
     7
100
AcDbVertex
100
AcDb2dVertex
 10
22.254326
 20
3.265046
 30
0.0
  0
VERTEX
  5
1DA
100
AcDbEntity
  8
ALPHA
 62
     7
100
AcDbVertex
100
AcDb2dVertex
 10
22.254326
 20
12.287234
 30
0.0
  0
VERTEX
  5
1DB
100
AcDbEntity
  8
ALPHA
 62
     7
100
AcDbVertex
100
AcDb2dVertex
 10
7.218552
 20
12.287234
 30
0.0
  0
VERTEX
  5
1DC
100
AcDbEntity
  8
ALPHA
 62
     7
100
AcDbVertex
100
AcDb2dVertex
 10
7.218552
 20
3.265046
 30
0.0
  0
SEQEND
  5
1DD
100
AcDbEntity
  8
ALPHA
 62
     7
  0
POLYLINE
  5
1DE
100
AcDbEntity
  8
ALPHA
 62
     7
100
AcDb2dPolyline
 66
     1
 10
0.0
 20
0.0
 30
0.0
 70
     1
  0
VERTEX
  5
1DF
100
AcDbEntity
  8
ALPHA
 62
     7
100
AcDbVertex
100
AcDb2dVertex
 10
43.474737
 20
3.265046
 30
0.0
  0
VERTEX
  5
1E0
100
AcDbEntity
  8
ALPHA
 62
     7
100
AcDbVertex
100
AcDb2dVertex
 10
43.474737
 20
12.287234
 30
0.0
  0
VERTEX
  5
1E1
100
AcDbEntity
  8
ALPHA
 62
     7
100
AcDbVertex
100
AcDb2dVertex
 10
28.438962
 20
12.287234
 30
0.0
  0
VERTEX
  5
1E2
100
AcDbEntity
  8
ALPHA
 62
     7
100
AcDbVertex
100
AcDb2dVertex
 10
28.438962
 20
3.265046
 30
0.0
  0
SEQEND
  5
1E3
100
AcDbEntity
  8
ALPHA
 62
     7
  0
POLYLINE
  5
1E4
100
AcDbEntity
  8
ALPHA
 62
     7
100
AcDb2dPolyline
 66
     1
 10
0.0
 20
0.0
 30
0.0
 70
     1
  0
VERTEX
  5
1E5
100
AcDbEntity
  8
ALPHA
 62
     7
100
AcDbVertex
100
AcDb2dVertex
 10
64.695147
 20
3.265046
 30
0.0
  0
VERTEX
  5
1E6
100
AcDbEntity
  8
ALPHA
 62
     7
100
AcDbVertex
100
AcDb2dVertex
 10
64.695147
 20
12.287234
 30
0.0
  0
VERTEX
  5
1E7
100
AcDbEntity
  8
ALPHA
 62
     7
100
AcDbVertex
100
AcDb2dVertex
 10
49.659372
 20
12.287234
 30
0.0
  0
VERTEX
  5
1E8
100
AcDbEntity
  8
ALPHA
 62
     7
100
AcDbVertex
100
AcDb2dVertex
 10
49.659372
 20
3.265046
 30
0.0
  0
SEQEND
  5
1E9
100
AcDbEntity
  8
ALPHA
 62
     7
  0
POLYLINE
  5
1EA
100
AcDbEntity
  8
ALPHA
 62
     7
100
AcDb2dPolyline
 66
     1
 10
0.0
 20
0.0
 30
0.0
 70
     1
  0
VERTEX
  5
1EB
100
AcDbEntity
  8
ALPHA
 62
     7
100
AcDbVertex
100
AcDb2dVertex
 10
22.254326
 20
-73.125123
 30
0.0
  0
VERTEX
  5
1EC
100
AcDbEntity
  8
ALPHA
 62
     7
100
AcDbVertex
100
AcDb2dVertex
 10
22.254326
 20
-64.104485
 30
0.0
  0
VERTEX
  5
1ED
100
AcDbEntity
  8
ALPHA
 62
     7
100
AcDbVertex
100
AcDb2dVertex
 10
7.218552
 20
-64.104485
 30
0.0
  0
VERTEX
  5
1EE
100
AcDbEntity
  8
ALPHA
 62
     7
100
AcDbVertex
100
AcDb2dVertex
 10
7.218552
 20
-73.125123
 30
0.0
  0
SEQEND
  5
1EF
100
AcDbEntity
  8
ALPHA
 62
     7
  0
POLYLINE
  5
1F0
100
AcDbEntity
  8
ALPHA
 62
     7
100
AcDb2dPolyline
 66
     1
 10
0.0
 20
0.0
 30
0.0
 70
     1
  0
VERTEX
  5
1F1
100
AcDbEntity
  8
ALPHA
 62
     7
100
AcDbVertex
100
AcDb2dVertex
 10
43.474737
 20
-73.125123
 30
0.0
  0
VERTEX
  5
1F2
100
AcDbEntity
  8
ALPHA
 62
     7
100
AcDbVertex
100
AcDb2dVertex
 10
43.474737
 20
-64.104485
 30
0.0
  0
VERTEX
  5
1F3
100
AcDbEntity
  8
ALPHA
 62
     7
100
AcDbVertex
100
AcDb2dVertex
 10
28.438962
 20
-64.104485
 30
0.0
  0
VERTEX
  5
1F4
100
AcDbEntity
  8
ALPHA
 62
     7
100
AcDbVertex
100
AcDb2dVertex
 10
28.438962
 20
-73.125123
 30
0.0
  0
SEQEND
  5
1F5
100
AcDbEntity
  8
ALPHA
 62
     7
  0
POLYLINE
  5
1F6
100
AcDbEntity
  8
ALPHA
 62
     7
100
AcDb2dPolyline
 66
     1
 10
0.0
 20
0.0
 30
0.0
 70
     1
  0
VERTEX
  5
1F7
100
AcDbEntity
  8
ALPHA
 62
     7
100
AcDbVertex
100
AcDb2dVertex
 10
64.695147
 20
-73.125123
 30
0.0
  0
VERTEX
  5
1F8
100
AcDbEntity
  8
ALPHA
 62
     7
100
AcDbVertex
100
AcDb2dVertex
 10
64.695147
 20
-64.104485
 30
0.0
  0
VERTEX
  5
1F9
100
AcDbEntity
  8
ALPHA
 62
     7
100
AcDbVertex
100
AcDb2dVertex
 10
49.659372
 20
-64.104485
 30
0.0
  0
VERTEX
  5
1FA
100
AcDbEntity
  8
ALPHA
 62
     7
100
AcDbVertex
100
AcDb2dVertex
 10
49.659372
 20
-73.125123
 30
0.0
  0
SEQEND
  5
1FB
100
AcDbEntity
  8
ALPHA
 62
     7
  0
POLYLINE
  5
1FC
100
AcDbEntity
  8
ALPHA
 62
     7
100
AcDb2dPolyline
 66
     1
 10
0.0
 20
0.0
 30
0.0
 70
     1
  0
VERTEX
  5
1FD
100
AcDbEntity
  8
ALPHA
 62
     7
100
AcDbVertex
100
AcDb2dVertex
 10
22.254326
 20
-55.442137
 30
0.0
  0
VERTEX
  5
1FE
100
AcDbEntity
  8
ALPHA
 62
     7
100
AcDbVertex
100
AcDb2dVertex
 10
22.254326
 20
-46.420121
 30
0.0
  0
VERTEX
  5
1FF
100
AcDbEntity
  8
ALPHA
 62
     7
100
AcDbVertex
100
AcDb2dVertex
 10
7.218552
 20
-46.420121
 30
0.0
  0
VERTEX
  5
200
100
AcDbEntity
  8
ALPHA
 62
     7
100
AcDbVertex
100
AcDb2dVertex
 10
7.218552
 20
-55.442137
 30
0.0
  0
SEQEND
  5
201
100
AcDbEntity
  8
ALPHA
 62
     7
  0
POLYLINE
  5
202
100
AcDbEntity
  8
ALPHA
 62
     7
100
AcDb2dPolyline
 66
     1
 10
0.0
 20
0.0
 30
0.0
 70
     1
  0
VERTEX
  5
203
100
AcDbEntity
  8
ALPHA
 62
     7
100
AcDbVertex
100
AcDb2dVertex
 10
43.474737
 20
-55.442137
 30
0.0
  0
VERTEX
  5
204
100
AcDbEntity
  8
ALPHA
 62
     7
100
AcDbVertex
100
AcDb2dVertex
 10
43.474737
 20
-46.420121
 30
0.0
  0
VERTEX
  5
205
100
AcDbEntity
  8
ALPHA
 62
     7
100
AcDbVertex
100
AcDb2dVertex
 10
28.438962
 20
-46.420121
 30
0.0
  0
VERTEX
  5
206
100
AcDbEntity
  8
ALPHA
 62
     7
100
AcDbVertex
100
AcDb2dVertex
 10
28.438962
 20
-55.442137
 30
0.0
  0
SEQEND
  5
207
100
AcDbEntity
  8
ALPHA
 62
     7
  0
POLYLINE
  5
208
100
AcDbEntity
  8
ALPHA
 62
     7
100
AcDb2dPolyline
 66
     1
 10
0.0
 20
0.0
 30
0.0
 70
     1
  0
VERTEX
  5
209
100
AcDbEntity
  8
ALPHA
 62
     7
100
AcDbVertex
100
AcDb2dVertex
 10
64.695147
 20
-55.442137
 30
0.0
  0
VERTEX
  5
20A
100
AcDbEntity
  8
ALPHA
 62
     7
100
AcDbVertex
100
AcDb2dVertex
 10
64.695147
 20
-46.420121
 30
0.0
  0
VERTEX
  5
20B
100
AcDbEntity
  8
ALPHA
 62
     7
100
AcDbVertex
100
AcDb2dVertex
 10
49.659372
 20
-46.420121
 30
0.0
  0
VERTEX
  5
20C
100
AcDbEntity
  8
ALPHA
 62
     7
100
AcDbVertex
100
AcDb2dVertex
 10
49.659372
 20
-55.442137
 30
0.0
  0
SEQEND
  5
20D
100
AcDbEntity
  8
ALPHA
 62
     7
  0
POLYLINE
  5
20E
100
AcDbEntity
  8
ALPHA
 62
     7
100
AcDb2dPolyline
 66
     1
 10
0.0
 20
0.0
 30
0.0
 70
     1
  0
VERTEX
  5
20F
100
AcDbEntity
  8
ALPHA
 62
     7
100
AcDbVertex
100
AcDb2dVertex
 10
22.254326
 20
-35.98975
 30
0.0
  0
VERTEX
  5
210
100
AcDbEntity
  8
ALPHA
 62
     7
100
AcDbVertex
100
AcDb2dVertex
 10
22.254326
 20
-26.967734
 30
0.0
  0
VERTEX
  5
211
100
AcDbEntity
  8
ALPHA
 62
     7
100
AcDbVertex
100
AcDb2dVertex
 10
7.218552
 20
-26.967734
 30
0.0
  0
VERTEX
  5
212
100
AcDbEntity
  8
ALPHA
 62
     7
100
AcDbVertex
100
AcDb2dVertex
 10
7.218552
 20
-35.98975
 30
0.0
  0
SEQEND
  5
213
100
AcDbEntity
  8
ALPHA
 62
     7
  0
POLYLINE
  5
214
100
AcDbEntity
  8
ALPHA
 62
     7
100
AcDb2dPolyline
 66
     1
 10
0.0
 20
0.0
 30
0.0
 70
     1
  0
VERTEX
  5
215
100
AcDbEntity
  8
ALPHA
 62
     7
100
AcDbVertex
100
AcDb2dVertex
 10
43.474737
 20
-35.98975
 30
0.0
  0
VERTEX
  5
216
100
AcDbEntity
  8
ALPHA
 62
     7
100
AcDbVertex
100
AcDb2dVertex
 10
43.474737
 20
-26.967734
 30
0.0
  0
VERTEX
  5
217
100
AcDbEntity
  8
ALPHA
 62
     7
100
AcDbVertex
100
AcDb2dVertex
 10
28.438962
 20
-26.967734
 30
0.0
  0
VERTEX
  5
218
100
AcDbEntity
  8
ALPHA
 62
     7
100
AcDbVertex
100
AcDb2dVertex
 10
28.438962
 20
-35.98975
 30
0.0
  0
SEQEND
  5
219
100
AcDbEntity
  8
ALPHA
 62
     7
  0
POLYLINE
  5
21A
100
AcDbEntity
  8
ALPHA
 62
     7
100
AcDb2dPolyline
 66
     1
 10
0.0
 20
0.0
 30
0.0
 70
     1
  0
VERTEX
  5
21B
100
AcDbEntity
  8
ALPHA
 62
     7
100
AcDbVertex
100
AcDb2dVertex
 10
64.695147
 20
-35.98975
 30
0.0
  0
VERTEX
  5
21C
100
AcDbEntity
  8
ALPHA
 62
     7
100
AcDbVertex
100
AcDb2dVertex
 10
64.695147
 20
-26.967734
 30
0.0
  0
VERTEX
  5
21D
100
AcDbEntity
  8
ALPHA
 62
     7
100
AcDbVertex
100
AcDb2dVertex
 10
49.659372
 20
-26.967734
 30
0.0
  0
VERTEX
  5
21E
100
AcDbEntity
  8
ALPHA
 62
     7
100
AcDbVertex
100
AcDb2dVertex
 10
49.659372
 20
-35.98975
 30
0.0
  0
SEQEND
  5
21F
100
AcDbEntity
  8
ALPHA
 62
     7
  0
POLYLINE
  5
220
100
AcDbEntity
  8
ALPHA
 62
     7
100
AcDb2dPolyline
 66
     1
 10
0.0
 20
0.0
 30
0.0
 70
     1
  0
VERTEX
  5
221
100
AcDbEntity
  8
ALPHA
 62
     7
100
AcDbVertex
100
AcDb2dVertex
 10
22.254326
 20
-16.362352
 30
0.0
  0
VERTEX
  5
222
100
AcDbEntity
  8
ALPHA
 62
     7
100
AcDbVertex
100
AcDb2dVertex
 10
22.254326
 20
-7.340336
 30
0.0
  0
VERTEX
  5
223
100
AcDbEntity
  8
ALPHA
 62
     7
100
AcDbVertex
100
AcDb2dVertex
 10
7.218552
 20
-7.340336
 30
0.0
  0
VERTEX
  5
224
100
AcDbEntity
  8
ALPHA
 62
     7
100
AcDbVertex
100
AcDb2dVertex
 10
7.218552
 20
-16.362352
 30
0.0
  0
SEQEND
  5
225
100
AcDbEntity
  8
ALPHA
 62
     7
  0
POLYLINE
  5
226
100
AcDbEntity
  8
ALPHA
 62
     7
100
AcDb2dPolyline
 66
     1
 10
0.0
 20
0.0
 30
0.0
 70
     1
  0
VERTEX
  5
227
100
AcDbEntity
  8
ALPHA
 62
     7
100
AcDbVertex
100
AcDb2dVertex
 10
43.474737
 20
-16.362352
 30
0.0
  0
VERTEX
  5
228
100
AcDbEntity
  8
ALPHA
 62
     7
100
AcDbVertex
100
AcDb2dVertex
 10
43.474737
 20
-7.340336
 30
0.0
  0
VERTEX
  5
229
100
AcDbEntity
  8
ALPHA
 62
     7
100
AcDbVertex
100
AcDb2dVertex
 10
28.438962
 20
-7.340336
 30
0.0
  0
VERTEX
  5
22A
100
AcDbEntity
  8
ALPHA
 62
     7
100
AcDbVertex
100
AcDb2dVertex
 10
28.438962
 20
-16.362352
 30
0.0
  0
SEQEND
  5
22B
100
AcDbEntity
  8
ALPHA
 62
     7
  0
POLYLINE
  5
22C
100
AcDbEntity
  8
ALPHA
 62
     7
100
AcDb2dPolyline
 66
     1
 10
0.0
 20
0.0
 30
0.0
 70
     1
  0
VERTEX
  5
22D
100
AcDbEntity
  8
ALPHA
 62
     7
100
AcDbVertex
100
AcDb2dVertex
 10
64.695147
 20
-16.362352
 30
0.0
  0
VERTEX
  5
22E
100
AcDbEntity
  8
ALPHA
 62
     7
100
AcDbVertex
100
AcDb2dVertex
 10
64.695147
 20
-7.340336
 30
0.0
  0
VERTEX
  5
22F
100
AcDbEntity
  8
ALPHA
 62
     7
100
AcDbVertex
100
AcDb2dVertex
 10
49.659372
 20
-7.340336
 30
0.0
  0
VERTEX
  5
230
100
AcDbEntity
  8
ALPHA
 62
     7
100
AcDbVertex
100
AcDb2dVertex
 10
49.659372
 20
-16.362352
 30
0.0
  0
SEQEND
  5
231
100
AcDbEntity
  8
ALPHA
 62
     7
  0
ENDBLK
  5
233
100
AcDbEntity
  8
ALPHA
100
AcDbBlockEnd
  0
BLOCK
  5
37C
100
AcDbEntity
  8
ALPHA
 62
     7
100
AcDbBlockBegin
  2
AI9-BLK7
 70
     0
 10
0.0
 20
0.0
 30
0.0
  3
AI9-BLK7
  1

  0
HATCH
  5
37B
100
AcDbEntity
  8
ALPHA
 62
     7
100
AcDbHatch
 10
0.0
 20
0.0
 30
0.0
210
0.0
220
0.0
230
1.0
  2
SOLID
 70
     1
 71
     0
 91
        1
 92
        1
 93
        1
 72
     4
 94
        3
 73
     0
 74
     0
 95
       59
 96
       55
 40
0.0
 40
0.0
 40
0.0
 40
0.0
 40
1.0
 40
1.0
 40
1.0
 40
2.0
 40
2.0
 40
2.0
 40
3.0
 40
3.0
 40
3.0
 40
4.0
 40
4.0
 40
4.0
 40
5.0
 40
5.0
 40
5.0
 40
6.0
 40
6.0
 40
6.0
 40
7.0
 40
7.0
 40
7.0
 40
8.0
 40
8.0
 40
8.0
 40
9.0
 40
9.0
 40
9.0
 40
10.0
 40
10.0
 40
10.0
 40
11.0
 40
11.0
 40
11.0
 40
12.0
 40
12.0
 40
12.0
 40
13.0
 40
13.0
 40
13.0
 40
14.0
 40
14.0
 40
14.0
 40
15.0
 40
15.0
 40
15.0
 40
16.0
 40
16.0
 40
16.0
 40
17.0
 40
17.0
 40
17.0
 40
18.0
 40
18.0
 40
18.0
 40
18.0
 10
-0.073381
 20
0.079754
 10
-0.054949
 20
0.078376
 10
-0.038068
 20
0.078376
 10
-0.021015
 20
0.078376
 10
0.080443
 20
0.078376
 10
0.169326
 20
0.133325
 10
0.169326
 20
0.242018
 10
0.169326
 20
0.346404
 10
0.09319
 20
0.402904
 10
-0.00844
 20
0.402904
 10
-0.139699
 20
0.402904
 10
-0.196026
 20
0.302652
 10
-0.197404
 20
0.185518
 10
-0.197404
 20
0.185518
 10
-0.317466
 20
0.185518
 10
-0.317466
 20
0.185518
 10
-0.310403
 20
0.376032
 10
-0.208773
 20
0.508668
 10
-0.00844
 20
0.508668
 10
0.165192
 20
0.508668
 10
0.29645
 20
0.425469
 10
0.29645
 20
0.24064
 10
0.29645
 20
0.153134
 10
0.234266
 20
0.076826
 10
0.15813
 20
0.041686
 10
0.15813
 20
0.041686
 10
0.15813
 20
0.038757
 10
0.15813
 20
0.038757
 10
0.279397
 20
0.012058
 10
0.338653
 20
-0.08406
 10
0.338653
 20
-0.20395
 10
0.338653
 20
-0.404282
 10
0.182073
 20
-0.508668
 10
-0.005512
 20
-0.508668
 10
-0.208773
 20
-0.508668
 10
-0.342787
 20
-0.388779
 10
-0.338653
 20
-0.182762
 10
-0.338653
 20
-0.182762
 10
-0.218591
 20
-0.182762
 10
-0.218591
 20
-0.182762
 10
-0.214457
 20
-0.312642
 10
-0.142455
 20
-0.402904
 10
-0.005512
 20
-0.402904
 10
0.111621
 20
-0.402904
 10
0.211701
 20
-0.330901
 10
0.211701
 20
-0.209634
 10
0.211701
 20
-0.08406
 10
0.117133
 20
-0.017742
 10
-0.001378
 20
-0.017742
 10
-0.025321
 20
-0.017742
 10
-0.050815
 20
-0.01912
 10
-0.073381
 20
-0.021876
 10
-0.073381
 20
-0.021876
 10
-0.073381
 20
0.079754
 10
-0.073381
 20
0.079754
 97
        0
 75
     0
 76
     1
 98
        1
 10
0.0
 20
0.0
  0
ENDBLK
  5
37D
100
AcDbEntity
  8
ALPHA
100
AcDbBlockEnd
  0
BLOCK
  5
380
100
AcDbEntity
  8
ALPHA
 62
     7
100
AcDbBlockBegin
  2
AI9-BLK8
 70
     0
 10
0.0
 20
0.0
 30
0.0
  3
AI9-BLK8
  1

  0
HATCH
  5
37F
100
AcDbEntity
  8
ALPHA
 62
     7
100
AcDbHatch
 10
0.0
 20
0.0
 30
0.0
210
0.0
220
0.0
230
1.0
  2
SOLID
 70
     1
 71
     0
 91
        2
 92
       16
 93
        1
 72
     4
 94
        3
 73
     0
 74
     0
 95
       17
 96
       13
 40
0.0
 40
0.0
 40
0.0
 40
0.0
 40
1.0
 40
1.0
 40
1.0
 40
2.0
 40
2.0
 40
2.0
 40
3.0
 40
3.0
 40
3.0
 40
4.0
 40
4.0
 40
4.0
 40
4.0
 10
0.095343
 20
-0.160197
 10
0.095343
 20
-0.160197
 10
0.095343
 20
0.329523
 10
0.095343
 20
0.329523
 10
0.095343
 20
0.329523
 10
0.092415
 20
0.329523
 10
0.092415
 20
0.329523
 10
0.092415
 20
0.329523
 10
-0.240554
 20
-0.160197
 10
-0.240554
 20
-0.160197
 10
-0.240554
 20
-0.160197
 10
0.095343
 20
-0.160197
 10
0.095343
 20
-0.160197
 97
        0
 92
        1
 93
        1
 72
     4
 94
        3
 73
     0
 74
     0
 95
       38
 96
       34
 40
0.0
 40
0.0
 40
0.0
 40
0.0
 40
1.0
 40
1.0
 40
1.0
 40
2.0
 40
2.0
 40
2.0
 40
3.0
 40
3.0
 40
3.0
 40
4.0
 40
4.0
 40
4.0
 40
5.0
 40
5.0
 40
5.0
 40
6.0
 40
6.0
 40
6.0
 40
7.0
 40
7.0
 40
7.0
 40
8.0
 40
8.0
 40
8.0
 40
9.0
 40
9.0
 40
9.0
 40
10.0
 40
10.0
 40
10.0
 40
11.0
 40
11.0
 40
11.0
 40
11.0
 10
0.20817
 20
-0.160197
 10
0.20817
 20
-0.160197
 10
0.343562
 20
-0.160197
 10
0.343562
 20
-0.160197
 10
0.343562
 20
-0.160197
 10
0.343562
 20
-0.265961
 10
0.343562
 20
-0.265961
 10
0.343562
 20
-0.265961
 10
0.20817
 20
-0.265961
 10
0.20817
 20
-0.265961
 10
0.20817
 20
-0.265961
 10
0.20817
 20
-0.500228
 10
0.20817
 20
-0.500228
 10
0.20817
 20
-0.500228
 10
0.095343
 20
-0.500228
 10
0.095343
 20
-0.500228
 10
0.095343
 20
-0.500228
 10
0.095343
 20
-0.265961
 10
0.095343
 20
-0.265961
 10
0.095343
 20
-0.265961
 10
-0.343562
 20
-0.265961
 10
-0.343562
 20
-0.265961
 10
-0.343562
 20
-0.265961
 10
-0.343562
 20
-0.150206
 10
-0.343562
 20
-0.150206
 10
-0.343562
 20
-0.150206
 10
0.112224
 20
0.500228
 10
0.112224
 20
0.500228
 10
0.112224
 20
0.500228
 10
0.20817
 20
0.500228
 10
0.20817
 20
0.500228
 10
0.20817
 20
0.500228
 10
0.20817
 20
-0.160197
 10
0.20817
 20
-0.160197
 97
        0
 75
     0
 76
     1
 98
        1
 10
0.0
 20
0.0
  0
ENDBLK
  5
381
100
AcDbEntity
  8
ALPHA
100
AcDbBlockEnd
  0
BLOCK
  5
384
100
AcDbEntity
  8
ALPHA
 62
     7
100
AcDbBlockBegin
  2
AI9-BLK9
 70
     0
 10
0.0
 20
0.0
 30
0.0
  3
AI9-BLK9
  1

  0
HATCH
  5
383
100
AcDbEntity
  8
ALPHA
 62
     7
100
AcDbHatch
 10
0.0
 20
0.0
 30
0.0
210
0.0
220
0.0
230
1.0
  2
SOLID
 70
     1
 71
     0
 91
        1
 92
        1
 93
        1
 72
     4
 94
        3
 73
     0
 74
     0
 95
       26
 96
       22
 40
0.0
 40
0.0
 40
0.0
 40
0.0
 40
1.0
 40
1.0
 40
1.0
 40
2.0
 40
2.0
 40
2.0
 40
3.0
 40
3.0
 40
3.0
 40
4.0
 40
4.0
 40
4.0
 40
5.0
 40
5.0
 40
5.0
 40
6.0
 40
6.0
 40
6.0
 40
7.0
 40
7.0
 40
7.0
 40
7.0
 10
0.189825
 20
-0.500228
 10
0.189825
 20
-0.500228
 10
0.069935
 20
-0.500228
 10
0.069935
 20
-0.500228
 10
0.069935
 20
-0.500228
 10
0.069935
 20
0.216697
 10
0.069935
 20
0.216697
 10
0.069935
 20
0.216697
 10
-0.189825
 20
0.216697
 10
-0.189825
 20
0.216697
 10
-0.189825
 20
0.216697
 10
-0.189825
 20
0.312642
 10
-0.189825
 20
0.312642
 10
-0.052882
 20
0.312642
 10
0.071313
 20
0.349333
 10
0.098013
 20
0.500228
 10
0.098013
 20
0.500228
 10
0.189825
 20
0.500228
 10
0.189825
 20
0.500228
 10
0.189825
 20
0.500228
 10
0.189825
 20
-0.500228
 10
0.189825
 20
-0.500228
 97
        0
 75
     0
 76
     1
 98
        1
 10
0.0
 20
0.0
  0
ENDBLK
  5
385
100
AcDbEntity
  8
ALPHA
100
AcDbBlockEnd
  0
ENDSEC
  0
SECTION
  2
ENTITIES
  0
INSERT
  5
CC
100
AcDbEntity
  8
0
100
AcDbBlockReference
  2
SCH_IS
 10
-68.718396
 20
-140.042541
 30
0.0
  0
INSERT
  5
EC
100
AcDbEntity
  8
COTATION1
100
AcDbBlockReference
  2
SCH_IS
 10
0.0
 20
0.0
 30
0.0
  0
ARC
  5
99A
100
AcDbEntity
  8
ALPHA
  6
CONTINUOUS
100
AcDbCircle
 10
44.086294
 20
309.74362
 30
0.0
 40
199.7
100
AcDbArc
 50
259.920613
 51
280.079387
  0
ARC
  5
99B
100
AcDbEntity
  8
ALPHA
  6
CONTINUOUS
100
AcDbCircle
 10
24.092128
 20
125.44362
 30
0.0
 40
19.2
100
AcDbArc
 50
344.207758
 51
15.792242
  0
ARC
  5
99C
100
AcDbEntity
  8
ALPHA
  6
CONTINUOUS
100
AcDbCircle
 10
44.086294
 20
309.74362
 30
0.0
 40
200.0
100
AcDbArc
 50
259.902732
 51
280.097268
  0
ARC
  5
99D
100
AcDbEntity
  8
ALPHA
  6
CONTINUOUS
100
AcDbCircle
 10
24.092128
 20
125.44362
 30
0.0
 40
19.0
100
AcDbArc
 50
344.207758
 51
15.792242
  0
ARC
  5
99E
100
AcDbEntity
  8
ALPHA
  6
CONTINUOUS
100
AcDbCircle
 10
44.086294
 20
309.699717
 30
0.0
 40
200.0
100
AcDbArc
 50
259.902732
 51
270.003059
  0
LINE
  5
99F
100
AcDbEntity
  8
ALPHA
  6
CONTINUOUS
100
AcDbLine
 10
8.486294
 20
167.14362
 30
0.0
 11
79.686294
 21
167.14362
 31
0.0
  0
LINE
  5
9A0
100
AcDbEntity
  8
ALPHA
  6
CONTINUOUS
100
AcDbLine
 10
78.586294
 20
154.64362
 30
0.0
 11
8.486294
 21
154.64362
 31
0.0
  0
LINE
  5
9A1
100
AcDbEntity
  8
ALPHA
  6
CONTINUOUS
100
AcDbLine
 10
8.486294
 20
154.14362
 30
0.0
 11
78.986294
 21
154.14362
 31
0.0
  0
LINE
  5
9A2
100
AcDbEntity
  8
ALPHA
  6
CONTINUOUS
100
AcDbLine
 10
43.481294
 20
150.74362
 30
0.0
 11
38.631294
 21
150.74362
 31
0.0
  0
LINE
  5
9A3
100
AcDbEntity
  8
ALPHA
  6
CONTINUOUS
100
AcDbLine
 10
42.981294
 20
150.24362
 30
0.0
 11
39.131294
 21
150.24362
 31
0.0
  0
LINE
  5
9A4
100
AcDbEntity
  8
ALPHA
  6
CONTINUOUS
100
AcDbLine
 10
39.131294
 20
144.94362
 30
0.0
 11
42.981294
 21
144.94362
 31
0.0
  0
LINE
  5
9A5
100
AcDbEntity
  8
ALPHA
  6
CONTINUOUS
100
AcDbLine
 10
38.631294
 20
144.44362
 30
0.0
 11
43.481294
 21
144.44362
 31
0.0
  0
POLYLINE
  5
9A6
100
AcDbEntity
  8
ALPHA
  6
CONTINUOUS
100
AcDb2dPolyline
 66
     1
 10
0.0
 20
0.0
 30
0.0
  0
VERTEX
  5
9A7
100
AcDbEntity
  8
ALPHA
  6
CONTINUOUS
100
AcDbVertex
100
AcDb2dVertex
 10
43.156294
 20
133.378222
 30
0.0
  0
VERTEX
  5
9A8
100
AcDbEntity
  8
ALPHA
  6
CONTINUOUS
100
AcDbVertex
100
AcDb2dVertex
 10
43.07132
 20
133.398872
 30
0.0
  0
VERTEX
  5
9A9
100
AcDbEntity
  8
ALPHA
  6
CONTINUOUS
100
AcDbVertex
100
AcDb2dVertex
 10
42.822011
 20
133.417919
 30
0.0
  0
VERTEX
  5
9AA
100
AcDbEntity
  8
ALPHA
  6
CONTINUOUS
100
AcDbVertex
100
AcDb2dVertex
 10
42.43239
 20
133.433617
 30
0.0
  0
VERTEX
  5
9AB
100
AcDbEntity
  8
ALPHA
  6
CONTINUOUS
100
AcDbVertex
100
AcDb2dVertex
 10
41.92659
 20
133.444962
 30
0.0
  0
VERTEX
  5
9AC
100
AcDbEntity
  8
ALPHA
  6
CONTINUOUS
100
AcDbVertex
100
AcDb2dVertex
 10
41.357085
 20
133.450799
 30
0.0
  0
VERTEX
  5
9AD
100
AcDbEntity
  8
ALPHA
  6
CONTINUOUS
100
AcDbVertex
100
AcDb2dVertex
 10
40.755503
 20
133.450799
 30
0.0
  0
VERTEX
  5
9AE
100
AcDbEntity
  8
ALPHA
  6
CONTINUOUS
100
AcDbVertex
100
AcDb2dVertex
 10
40.185998
 20
133.444962
 30
0.0
  0
VERTEX
  5
9AF
100
AcDbEntity
  8
ALPHA
  6
CONTINUOUS
100
AcDbVertex
100
AcDb2dVertex
 10
39.680198
 20
133.433617
 30
0.0
  0
VERTEX
  5
9B0
100
AcDbEntity
  8
ALPHA
  6
CONTINUOUS
100
AcDbVertex
100
AcDb2dVertex
 10
39.290577
 20
133.417919
 30
0.0
  0
VERTEX
  5
9B1
100
AcDbEntity
  8
ALPHA
  6
CONTINUOUS
100
AcDbVertex
100
AcDb2dVertex
 10
39.041268
 20
133.398872
 30
0.0
  0
VERTEX
  5
9B2
100
AcDbEntity
  8
ALPHA
  6
CONTINUOUS
100
AcDbVertex
100
AcDb2dVertex
 10
38.956294
 20
133.378222
 30
0.0
  0
SEQEND
  5
9B3
100
AcDbEntity
  8
ALPHA
  0
POLYLINE
  5
9B4
100
AcDbEntity
  8
ALPHA
  6
CONTINUOUS
100
AcDb2dPolyline
 66
     1
 10
0.0
 20
0.0
 30
0.0
  0
VERTEX
  5
9B5
100
AcDbEntity
  8
ALPHA
  6
CONTINUOUS
100
AcDbVertex
100
AcDb2dVertex
 10
38.956294
 20
133.378222
 30
0.0
  0
VERTEX
  5
9B6
100
AcDbEntity
  8
ALPHA
  6
CONTINUOUS
100
AcDbVertex
100
AcDb2dVertex
 10
39.041268
 20
133.357572
 30
0.0
  0
VERTEX
  5
9B7
100
AcDbEntity
  8
ALPHA
  6
CONTINUOUS
100
AcDbVertex
100
AcDb2dVertex
 10
39.290577
 20
133.338525
 30
0.0
  0
VERTEX
  5
9B8
100
AcDbEntity
  8
ALPHA
  6
CONTINUOUS
100
AcDbVertex
100
AcDb2dVertex
 10
39.680198
 20
133.322827
 30
0.0
  0
VERTEX
  5
9B9
100
AcDbEntity
  8
ALPHA
  6
CONTINUOUS
100
AcDbVertex
100
AcDb2dVertex
 10
40.185998
 20
133.311482
 30
0.0
  0
VERTEX
  5
9BA
100
AcDbEntity
  8
ALPHA
  6
CONTINUOUS
100
AcDbVertex
100
AcDb2dVertex
 10
40.755503
 20
133.305644
 30
0.0
  0
VERTEX
  5
9BB
100
AcDbEntity
  8
ALPHA
  6
CONTINUOUS
100
AcDbVertex
100
AcDb2dVertex
 10
41.357085
 20
133.305644
 30
0.0
  0
VERTEX
  5
9BC
100
AcDbEntity
  8
ALPHA
  6
CONTINUOUS
100
AcDbVertex
100
AcDb2dVertex
 10
41.92659
 20
133.311482
 30
0.0
  0
VERTEX
  5
9BD
100
AcDbEntity
  8
ALPHA
  6
CONTINUOUS
100
AcDbVertex
100
AcDb2dVertex
 10
42.43239
 20
133.322827
 30
0.0
  0
VERTEX
  5
9BE
100
AcDbEntity
  8
ALPHA
  6
CONTINUOUS
100
AcDbVertex
100
AcDb2dVertex
 10
42.822011
 20
133.338525
 30
0.0
  0
VERTEX
  5
9BF
100
AcDbEntity
  8
ALPHA
  6
CONTINUOUS
100
AcDbVertex
100
AcDb2dVertex
 10
43.07132
 20
133.357572
 30
0.0
  0
VERTEX
  5
9C0
100
AcDbEntity
  8
ALPHA
  6
CONTINUOUS
100
AcDbVertex
100
AcDb2dVertex
 10
43.156294
 20
133.378222
 30
0.0
  0
SEQEND
  5
9C1
100
AcDbEntity
  8
ALPHA
  0
LINE
  5
9C2
100
AcDbEntity
  8
ALPHA
  6
CONTINUOUS
100
AcDbLine
 10
79.036294
 20
133.933326
 30
0.0
 11
9.136294
 21
133.933326
 31
0.0
  0
LINE
  5
9C3
100
AcDbEntity
  8
ALPHA
  6
CONTINUOUS
100
AcDbLine
 10
79.036294
 20
133.633509
 30
0.0
 11
9.136294
 21
133.633509
 31
0.0
  0
LINE
  5
9C4
100
AcDbEntity
  8
ALPHA
  6
CONTINUOUS
100
AcDbLine
 10
9.136294
 20
133.259491
 30
0.0
 11
79.036294
 21
133.259491
 31
0.0
  0
LINE
  5
9C5
100
AcDbEntity
  8
ALPHA
  6
CONTINUOUS
100
AcDbLine
 10
42.186294
 20
124.64362
 30
0.0
 11
43.074899
 21
124.64362
 31
0.0
  0
LINE
  5
9C6
100
AcDbEntity
  8
ALPHA
  6
CONTINUOUS
100
AcDbLine
 10
42.956504
 20
123.24362
 30
0.0
 11
41.216682
 21
123.24362
 31
0.0
  0
LINE
  5
9C7
100
AcDbEntity
  8
ALPHA
  6
CONTINUOUS
100
AcDbLine
 10
79.036294
 20
118.04362
 30
0.0
 11
9.136294
 21
118.04362
 31
0.0
  0
LINE
  5
9C8
100
AcDbEntity
  8
ALPHA
  6
CONTINUOUS
100
AcDbLine
 10
79.036294
 20
117.74362
 30
0.0
 11
9.136294
 21
117.74362
 31
0.0
  0
ARC
  5
9C9
100
AcDbEntity
  8
ALPHA
  6
CONTINUOUS
100
AcDbCircle
 10
32.08046
 20
125.44362
 30
0.0
 40
19.2
100
AcDbArc
 50
164.207758
 51
195.792242
  0
ARC
  5
9CA
100
AcDbEntity
  8
ALPHA
  6
CONTINUOUS
100
AcDbCircle
 10
-3.907872
 20
125.44362
 30
0.0
 40
19.2
100
AcDbArc
 50
344.207758
 51
15.792242
  0
ARC
  5
9CB
100
AcDbEntity
  8
ALPHA
  6
CONTINUOUS
100
AcDbCircle
 10
36.08046
 20
125.44362
 30
0.0
 40
19.2
100
AcDbArc
 50
164.207758
 51
195.792242
  0
ARC
  5
9CC
100
AcDbEntity
  8
ALPHA
  6
CONTINUOUS
100
AcDbCircle
 10
0.092128
 20
125.44362
 30
0.0
 40
19.2
100
AcDbArc
 50
344.207758
 51
15.792242
  0
ARC
  5
9CD
100
AcDbEntity
  8
ALPHA
  6
CONTINUOUS
100
AcDbCircle
 10
40.08046
 20
125.44362
 30
0.0
 40
19.2
100
AcDbArc
 50
164.207758
 51
195.792242
  0
ARC
  5
9CE
100
AcDbEntity
  8
ALPHA
  6
CONTINUOUS
100
AcDbCircle
 10
4.092128
 20
125.44362
 30
0.0
 40
19.2
100
AcDbArc
 50
344.207758
 51
15.792242
  0
ARC
  5
9CF
100
AcDbEntity
  8
ALPHA
  6
CONTINUOUS
100
AcDbCircle
 10
44.08046
 20
125.44362
 30
0.0
 40
19.2
100
AcDbArc
 50
164.207758
 51
195.792242
  0
ARC
  5
9D0
100
AcDbEntity
  8
ALPHA
  6
CONTINUOUS
100
AcDbCircle
 10
8.092128
 20
125.44362
 30
0.0
 40
19.2
100
AcDbArc
 50
344.207758
 51
15.792242
  0
ARC
  5
9D1
100
AcDbEntity
  8
ALPHA
  6
CONTINUOUS
100
AcDbCircle
 10
48.08046
 20
125.44362
 30
0.0
 40
19.2
100
AcDbArc
 50
164.207758
 51
195.792242
  0
ARC
  5
9D2
100
AcDbEntity
  8
ALPHA
  6
CONTINUOUS
100
AcDbCircle
 10
12.092128
 20
125.44362
 30
0.0
 40
19.2
100
AcDbArc
 50
344.207758
 51
15.792242
  0
ARC
  5
9D3
100
AcDbEntity
  8
ALPHA
  6
CONTINUOUS
100
AcDbCircle
 10
52.08046
 20
125.44362
 30
0.0
 40
19.2
100
AcDbArc
 50
164.207758
 51
195.792242
  0
ARC
  5
9D4
100
AcDbEntity
  8
ALPHA
  6
CONTINUOUS
100
AcDbCircle
 10
16.092128
 20
125.44362
 30
0.0
 40
19.2
100
AcDbArc
 50
344.207758
 51
15.792242
  0
ARC
  5
9D5
100
AcDbEntity
  8
ALPHA
  6
CONTINUOUS
100
AcDbCircle
 10
56.08046
 20
125.44362
 30
0.0
 40
19.2
100
AcDbArc
 50
164.207758
 51
195.792242
  0
ARC
  5
9D6
100
AcDbEntity
  8
ALPHA
  6
CONTINUOUS
100
AcDbCircle
 10
20.092128
 20
125.44362
 30
0.0
 40
19.2
100
AcDbArc
 50
344.207758
 51
15.792242
  0
ARC
  5
9D7
100
AcDbEntity
  8
ALPHA
  6
CONTINUOUS
100
AcDbCircle
 10
60.08046
 20
125.44362
 30
0.0
 40
19.2
100
AcDbArc
 50
164.207758
 51
195.792242
  0
ARC
  5
9D8
100
AcDbEntity
  8
ALPHA
  6
CONTINUOUS
100
AcDbCircle
 10
32.08046
 20
125.44362
 30
0.0
 40
19.0
100
AcDbArc
 50
164.207758
 51
195.792242
  0
ARC
  5
9D9
100
AcDbEntity
  8
ALPHA
  6
CONTINUOUS
100
AcDbCircle
 10
-3.907872
 20
125.44362
 30
0.0
 40
19.0
100
AcDbArc
 50
344.207758
 51
15.792242
  0
ARC
  5
9DA
100
AcDbEntity
  8
ALPHA
  6
CONTINUOUS
100
AcDbCircle
 10
36.08046
 20
125.44362
 30
0.0
 40
19.0
100
AcDbArc
 50
164.207758
 51
195.792242
  0
ARC
  5
9DB
100
AcDbEntity
  8
ALPHA
  6
CONTINUOUS
100
AcDbCircle
 10
0.092128
 20
125.44362
 30
0.0
 40
19.0
100
AcDbArc
 50
344.207758
 51
15.792242
  0
ARC
  5
9DC
100
AcDbEntity
  8
ALPHA
  6
CONTINUOUS
100
AcDbCircle
 10
40.08046
 20
125.44362
 30
0.0
 40
19.0
100
AcDbArc
 50
164.207758
 51
195.792242
  0
ARC
  5
9DD
100
AcDbEntity
  8
ALPHA
  6
CONTINUOUS
100
AcDbCircle
 10
4.092128
 20
125.44362
 30
0.0
 40
19.0
100
AcDbArc
 50
344.207758
 51
15.792242
  0
ARC
  5
9DE
100
AcDbEntity
  8
ALPHA
  6
CONTINUOUS
100
AcDbCircle
 10
44.08046
 20
125.44362
 30
0.0
 40
19.0
100
AcDbArc
 50
164.207758
 51
195.792242
  0
ARC
  5
9DF
100
AcDbEntity
  8
ALPHA
  6
CONTINUOUS
100
AcDbCircle
 10
8.092128
 20
125.44362
 30
0.0
 40
19.0
100
AcDbArc
 50
344.207758
 51
15.792242
  0
ARC
  5
9E0
100
AcDbEntity
  8
ALPHA
  6
CONTINUOUS
100
AcDbCircle
 10
48.08046
 20
125.44362
 30
0.0
 40
19.0
100
AcDbArc
 50
164.207758
 51
195.792242
  0
ARC
  5
9E1
100
AcDbEntity
  8
ALPHA
  6
CONTINUOUS
100
AcDbCircle
 10
12.092128
 20
125.44362
 30
0.0
 40
19.0
100
AcDbArc
 50
344.207758
 51
15.792242
  0
ARC
  5
9E2
100
AcDbEntity
  8
ALPHA
  6
CONTINUOUS
100
AcDbCircle
 10
52.08046
 20
125.44362
 30
0.0
 40
19.0
100
AcDbArc
 50
164.207758
 51
195.792242
  0
ARC
  5
9E3
100
AcDbEntity
  8
ALPHA
  6
CONTINUOUS
100
AcDbCircle
 10
16.092128
 20
125.44362
 30
0.0
 40
19.0
100
AcDbArc
 50
344.207758
 51
15.792242
  0
ARC
  5
9E4
100
AcDbEntity
  8
ALPHA
  6
CONTINUOUS
100
AcDbCircle
 10
56.08046
 20
125.44362
 30
0.0
 40
19.0
100
AcDbArc
 50
164.207758
 51
195.792242
  0
ARC
  5
9E5
100
AcDbEntity
  8
ALPHA
  6
CONTINUOUS
100
AcDbCircle
 10
20.092128
 20
125.44362
 30
0.0
 40
19.0
100
AcDbArc
 50
344.207758
 51
15.792242
  0
ARC
  5
9E6
100
AcDbEntity
  8
ALPHA
  6
CONTINUOUS
100
AcDbCircle
 10
60.08046
 20
125.44362
 30
0.0
 40
19.0
100
AcDbArc
 50
164.207758
 51
195.792242
  0
LINE
  5
9E7
100
AcDbEntity
  8
ALPHA
  6
CONTINUOUS
100
AcDbLine
 10
42.186294
 20
124.64362
 30
0.0
 11
42.621146
 21
129.614
 31
0.0
  0
LINE
  5
9E8
100
AcDbEntity
  8
ALPHA
  6
CONTINUOUS
100
AcDbLine
 10
14.086294
 20
124.64362
 30
0.0
 11
13.625277
 21
129.913072
 31
0.0
  0
LINE
  5
9E9
100
AcDbEntity
  8
ALPHA
  6
CONTINUOUS
100
AcDbLine
 10
9.136294
 20
118.04362
 30
0.0
 11
9.136294
 21
133.633509
 31
0.0
  0
LINE
  5
9EA
100
AcDbEntity
  8
ALPHA
  6
CONTINUOUS
100
AcDbLine
 10
8.486294
 20
113.437342
 30
0.0
 11
8.486294
 21
167.14362
 31
0.0
  0
ARC
  5
9EB
100
AcDbEntity
  8
ALPHA
  6
CONTINUOUS
100
AcDbCircle
 10
17.686294
 20
113.29362
 30
0.0
 40
4.15
100
AcDbArc
 50
235.447289
 51
304.552711
  0
LINE
  5
9EC
100
AcDbEntity
  8
ALPHA
  6
CONTINUOUS
100
AcDbLine
 10
20.386294
 20
110.534544
 30
0.0
 11
14.986294
 21
110.534544
 31
0.0
  0
LINE
  5
9ED
100
AcDbEntity
  8
ALPHA
  6
CONTINUOUS
100
AcDbLine
 10
20.040025
 20
109.87566
 30
0.0
 11
15.332563
 21
109.87566
 31
0.0
  0
LINE
  5
9EE
100
AcDbEntity
  8
ALPHA
  6
CONTINUOUS
100
AcDbLine
 10
14.986294
 20
111.828075
 30
0.0
 11
14.986294
 21
110.534544
 31
0.0
  0
ARC
  5
9EF
100
AcDbEntity
  8
ALPHA
  6
CONTINUOUS
100
AcDbCircle
 10
15.786294
 20
110.534544
 30
0.0
 40
0.8
100
AcDbArc
 50
180.0
 51
235.447289
  0
LINE
  5
9F0
100
AcDbEntity
  8
ALPHA
  6
CONTINUOUS
100
AcDbLine
 10
9.136294
 20
117.74362
 30
0.0
 11
9.136294
 21
113.125748
 31
0.0
  0
ARC
  5
9F1
100
AcDbEntity
  8
ALPHA
  6
CONTINUOUS
100
AcDbCircle
 10
9.136294
 20
113.481244
 30
0.0
 40
0.65
100
AcDbArc
 50
180.0
 51
259.902732
  0
ARC
  5
9F2
100
AcDbEntity
  8
ALPHA
  6
CONTINUOUS
100
AcDbCircle
 10
9.136294
 20
113.437342
 30
0.0
 40
0.65
100
AcDbArc
 50
180.0
 51
259.902732
  0
POLYLINE
  5
9F3
100
AcDbEntity
  8
ALPHA
  6
CONTINUOUS
100
AcDb2dPolyline
 66
     1
 10
0.0
 20
0.0
 30
0.0
  0
VERTEX
  5
9F4
100
AcDbEntity
  8
ALPHA
  6
CONTINUOUS
100
AcDbVertex
100
AcDb2dVertex
 10
8.761937
 20
112.949872
 30
0.0
  0
VERTEX
  5
9F5
100
AcDbEntity
  8
ALPHA
  6
CONTINUOUS
100
AcDbVertex
100
AcDb2dVertex
 10
8.881252
 20
112.999575
 30
0.0
  0
VERTEX
  5
9F6
100
AcDbEntity
  8
ALPHA
  6
CONTINUOUS
100
AcDbVertex
100
AcDb2dVertex
 10
9.007323
 20
113.060238
 30
0.0
  0
VERTEX
  5
9F7
100
AcDbEntity
  8
ALPHA
  6
CONTINUOUS
100
AcDbVertex
100
AcDb2dVertex
 10
9.136294
 20
113.125748
 30
0.0
  0
SEQEND
  5
9F8
100
AcDbEntity
  8
ALPHA
  0
ARC
  5
9F9
100
AcDbEntity
  8
ALPHA
  6
CONTINUOUS
100
AcDbCircle
 10
9.136294
 20
118.39362
 30
0.0
 40
0.65
100
AcDbArc
 50
180.0
 51
270.0
  0
POLYLINE
  5
9FA
100
AcDbEntity
  8
ALPHA
  6
CONTINUOUS
100
AcDb2dPolyline
 66
     1
 10
0.0
 20
0.0
 30
0.0
  0
VERTEX
  5
9FB
100
AcDbEntity
  8
ALPHA
  6
CONTINUOUS
100
AcDbVertex
100
AcDb2dVertex
 10
8.809939
 20
117.831488
 30
0.0
  0
VERTEX
  5
9FC
100
AcDbEntity
  8
ALPHA
  6
CONTINUOUS
100
AcDbVertex
100
AcDb2dVertex
 10
8.916148
 20
117.896741
 30
0.0
  0
VERTEX
  5
9FD
100
AcDbEntity
  8
ALPHA
  6
CONTINUOUS
100
AcDbVertex
100
AcDb2dVertex
 10
9.025532
 20
117.968696
 30
0.0
  0
VERTEX
  5
9FE
100
AcDbEntity
  8
ALPHA
  6
CONTINUOUS
100
AcDbVertex
100
AcDb2dVertex
 10
9.136294
 20
118.04362
 30
0.0
  0
SEQEND
  5
9FF
100
AcDbEntity
  8
ALPHA
  0
ARC
  5
A00
100
AcDbEntity
  8
ALPHA
  6
CONTINUOUS
100
AcDbCircle
 10
14.086294
 20
120.354416
 30
0.0
 40
0.499994
100
AcDbArc
 50
195.792242
 51
344.207758
  0
LINE
  5
A01
100
AcDbEntity
  8
ALPHA
  6
CONTINUOUS
100
AcDbLine
 10
13.605167
 20
120.218341
 30
0.0
 11
13.797617
 21
120.272771
 31
0.0
  0
LINE
  5
A02
100
AcDbEntity
  8
ALPHA
  6
CONTINUOUS
100
AcDbLine
 10
13.098711
 20
124.64362
 30
0.0
 11
14.086294
 21
124.64362
 31
0.0
  0
LINE
  5
A03
100
AcDbEntity
  8
ALPHA
  6
CONTINUOUS
100
AcDbLine
 10
14.956504
 20
123.24362
 30
0.0
 11
13.216682
 21
123.24362
 31
0.0
  0
LINE
  5
A04
100
AcDbEntity
  8
ALPHA
  6
CONTINUOUS
100
AcDbLine
 10
14.704758
 20
121.64362
 30
0.0
 11
13.468244
 21
121.64362
 31
0.0
  0
LINE
  5
A05
100
AcDbEntity
  8
ALPHA
  6
CONTINUOUS
100
AcDbLine
 10
14.086294
 20
123.24362
 30
0.0
 11
14.086294
 21
124.64362
 31
0.0
  0
ARC
  5
A06
100
AcDbEntity
  8
ALPHA
  6
CONTINUOUS
100
AcDbCircle
 10
14.086294
 20
120.354416
 30
0.0
 40
0.3
100
AcDbArc
 50
195.792242
 51
344.207758
  0
LINE
  5
A07
100
AcDbEntity
  8
ALPHA
  6
CONTINUOUS
100
AcDbLine
 10
14.567421
 20
120.218341
 30
0.0
 11
14.37497
 21
120.272771
 31
0.0
  0
ARC
  5
A08
100
AcDbEntity
  8
ALPHA
  6
CONTINUOUS
100
AcDbCircle
 10
18.086294
 20
120.354416
 30
0.0
 40
0.499994
100
AcDbArc
 50
195.792242
 51
344.207758
  0
ARC
  5
A09
100
AcDbEntity
  8
ALPHA
  6
CONTINUOUS
100
AcDbCircle
 10
18.086294
 20
120.354416
 30
0.0
 40
0.3
100
AcDbArc
 50
195.792242
 51
344.207758
  0
LINE
  5
A0A
100
AcDbEntity
  8
ALPHA
  6
CONTINUOUS
100
AcDbLine
 10
17.605167
 20
120.218341
 30
0.0
 11
17.797617
 21
120.272771
 31
0.0
  0
LINE
  5
A0B
100
AcDbEntity
  8
ALPHA
  6
CONTINUOUS
100
AcDbLine
 10
18.956504
 20
123.24362
 30
0.0
 11
17.216682
 21
123.24362
 31
0.0
  0
LINE
  5
A0C
100
AcDbEntity
  8
ALPHA
  6
CONTINUOUS
100
AcDbLine
 10
18.704758
 20
121.64362
 30
0.0
 11
17.468244
 21
121.64362
 31
0.0
  0
LINE
  5
A0D
100
AcDbEntity
  8
ALPHA
  6
CONTINUOUS
100
AcDbLine
 10
18.567421
 20
120.218341
 30
0.0
 11
18.37497
 21
120.272771
 31
0.0
  0
LINE
  5
A0E
100
AcDbEntity
  8
ALPHA
  6
CONTINUOUS
100
AcDbLine
 10
20.386294
 20
111.110916
 30
0.0
 11
20.386294
 21
110.534544
 31
0.0
  0
ARC
  5
A0F
100
AcDbEntity
  8
ALPHA
  6
CONTINUOUS
100
AcDbCircle
 10
25.986294
 20
109.634544
 30
0.0
 40
0.8
100
AcDbArc
 50
180.0
 51
235.447289
  0
LINE
  5
A10
100
AcDbEntity
  8
ALPHA
  6
CONTINUOUS
100
AcDbLine
 10
30.586294
 20
109.634544
 30
0.0
 11
25.186294
 21
109.634544
 31
0.0
  0
ARC
  5
A11
100
AcDbEntity
  8
ALPHA
  6
CONTINUOUS
100
AcDbCircle
 10
19.586294
 20
110.534544
 30
0.0
 40
0.8
100
AcDbArc
 50
304.552711
 51
0.0
  0
LINE
  5
A12
100
AcDbEntity
  8
ALPHA
  6
CONTINUOUS
100
AcDbLine
 10
25.186294
 20
110.59017
 30
0.0
 11
25.186294
 21
109.634544
 31
0.0
  0
ARC
  5
A13
100
AcDbEntity
  8
ALPHA
  6
CONTINUOUS
100
AcDbCircle
 10
27.886294
 20
112.39362
 30
0.0
 40
4.15
100
AcDbArc
 50
235.447289
 51
304.552711
  0
LINE
  5
A14
100
AcDbEntity
  8
ALPHA
  6
CONTINUOUS
100
AcDbLine
 10
30.240025
 20
108.97566
 30
0.0
 11
25.532563
 21
108.97566
 31
0.0
  0
ARC
  5
A15
100
AcDbEntity
  8
ALPHA
  6
CONTINUOUS
100
AcDbCircle
 10
29.786294
 20
109.634544
 30
0.0
 40
0.8
100
AcDbArc
 50
304.552711
 51
0.0
  0
LINE
  5
A16
100
AcDbEntity
  8
ALPHA
  6
CONTINUOUS
100
AcDbLine
 10
30.586294
 20
110.152885
 30
0.0
 11
30.586294
 21
109.634544
 31
0.0
  0
ARC
  5
A17
100
AcDbEntity
  8
ALPHA
  6
CONTINUOUS
100
AcDbCircle
 10
38.086294
 20
111.79362
 30
0.0
 40
4.15
100
AcDbArc
 50
235.447289
 51
304.552711
  0
LINE
  5
A18
100
AcDbEntity
  8
ALPHA
  6
CONTINUOUS
100
AcDbLine
 10
40.786294
 20
109.034544
 30
0.0
 11
35.386294
 21
109.034544
 31
0.0
  0
LINE
  5
A19
100
AcDbEntity
  8
ALPHA
  6
CONTINUOUS
100
AcDbLine
 10
40.440025
 20
108.37566
 30
0.0
 11
35.732563
 21
108.37566
 31
0.0
  0
ARC
  5
A1A
100
AcDbEntity
  8
ALPHA
  6
CONTINUOUS
100
AcDbCircle
 10
36.186294
 20
109.034544
 30
0.0
 40
0.8
100
AcDbArc
 50
180.0
 51
235.447289
  0
LINE
  5
A1B
100
AcDbEntity
  8
ALPHA
  6
CONTINUOUS
100
AcDbLine
 10
35.386294
 20
109.924314
 30
0.0
 11
35.386294
 21
109.034544
 31
0.0
  0
ARC
  5
A1C
100
AcDbEntity
  8
ALPHA
  6
CONTINUOUS
100
AcDbCircle
 10
39.986294
 20
109.034544
 30
0.0
 40
0.8
100
AcDbArc
 50
304.552711
 51
0.0
  0
LINE
  5
A1D
100
AcDbEntity
  8
ALPHA
  6
CONTINUOUS
100
AcDbLine
 10
40.786294
 20
109.764659
 30
0.0
 11
40.786294
 21
109.034544
 31
0.0
  0
LINE
  5
A1E
100
AcDbEntity
  8
ALPHA
  6
CONTINUOUS
100
AcDbLine
 10
26.956504
 20
123.24362
 30
0.0
 11
25.216682
 21
123.24362
 31
0.0
  0
ARC
  5
A1F
100
AcDbEntity
  8
ALPHA
  6
CONTINUOUS
100
AcDbCircle
 10
22.086294
 20
120.354416
 30
0.0
 40
0.499994
100
AcDbArc
 50
195.792242
 51
344.207758
  0
LINE
  5
A20
100
AcDbEntity
  8
ALPHA
  6
CONTINUOUS
100
AcDbLine
 10
22.956504
 20
123.24362
 30
0.0
 11
21.216682
 21
123.24362
 31
0.0
  0
LINE
  5
A21
100
AcDbEntity
  8
ALPHA
  6
CONTINUOUS
100
AcDbLine
 10
22.704758
 20
121.64362
 30
0.0
 11
21.468244
 21
121.64362
 31
0.0
  0
LINE
  5
A22
100
AcDbEntity
  8
ALPHA
  6
CONTINUOUS
100
AcDbLine
 10
22.567421
 20
120.218341
 30
0.0
 11
22.37497
 21
120.272771
 31
0.0
  0
ARC
  5
A23
100
AcDbEntity
  8
ALPHA
  6
CONTINUOUS
100
AcDbCircle
 10
22.086294
 20
120.354416
 30
0.0
 40
0.3
100
AcDbArc
 50
195.792242
 51
344.207758
  0
LINE
  5
A24
100
AcDbEntity
  8
ALPHA
  6
CONTINUOUS
100
AcDbLine
 10
21.605167
 20
120.218341
 30
0.0
 11
21.797617
 21
120.272771
 31
0.0
  0
ARC
  5
A25
100
AcDbEntity
  8
ALPHA
  6
CONTINUOUS
100
AcDbCircle
 10
26.086294
 20
120.354416
 30
0.0
 40
0.499994
100
AcDbArc
 50
195.792242
 51
344.207758
  0
ARC
  5
A26
100
AcDbEntity
  8
ALPHA
  6
CONTINUOUS
100
AcDbCircle
 10
26.086294
 20
120.354416
 30
0.0
 40
0.3
100
AcDbArc
 50
195.792242
 51
344.207758
  0
LINE
  5
A27
100
AcDbEntity
  8
ALPHA
  6
CONTINUOUS
100
AcDbLine
 10
25.605167
 20
120.218341
 30
0.0
 11
25.797617
 21
120.272771
 31
0.0
  0
LINE
  5
A28
100
AcDbEntity
  8
ALPHA
  6
CONTINUOUS
100
AcDbLine
 10
26.704758
 20
121.64362
 30
0.0
 11
25.468244
 21
121.64362
 31
0.0
  0
LINE
  5
A29
100
AcDbEntity
  8
ALPHA
  6
CONTINUOUS
100
AcDbLine
 10
26.567421
 20
120.218341
 30
0.0
 11
26.37497
 21
120.272771
 31
0.0
  0
ARC
  5
A2A
100
AcDbEntity
  8
ALPHA
  6
CONTINUOUS
100
AcDbCircle
 10
30.086294
 20
120.354416
 30
0.0
 40
0.499994
100
AcDbArc
 50
195.792242
 51
344.207758
  0
ARC
  5
A2B
100
AcDbEntity
  8
ALPHA
  6
CONTINUOUS
100
AcDbCircle
 10
30.086294
 20
120.354416
 30
0.0
 40
0.3
100
AcDbArc
 50
195.792242
 51
344.207758
  0
LINE
  5
A2C
100
AcDbEntity
  8
ALPHA
  6
CONTINUOUS
100
AcDbLine
 10
30.956504
 20
123.24362
 30
0.0
 11
29.216682
 21
123.24362
 31
0.0
  0
LINE
  5
A2D
100
AcDbEntity
  8
ALPHA
  6
CONTINUOUS
100
AcDbLine
 10
29.605167
 20
120.218341
 30
0.0
 11
29.797617
 21
120.272771
 31
0.0
  0
LINE
  5
A2E
100
AcDbEntity
  8
ALPHA
  6
CONTINUOUS
100
AcDbLine
 10
30.704758
 20
121.64362
 30
0.0
 11
29.468244
 21
121.64362
 31
0.0
  0
LINE
  5
A2F
100
AcDbEntity
  8
ALPHA
  6
CONTINUOUS
100
AcDbLine
 10
30.567421
 20
120.218341
 30
0.0
 11
30.37497
 21
120.272771
 31
0.0
  0
ARC
  5
A30
100
AcDbEntity
  8
ALPHA
  6
CONTINUOUS
100
AcDbCircle
 10
34.086294
 20
120.354416
 30
0.0
 40
0.499994
100
AcDbArc
 50
195.792242
 51
344.207758
  0
ARC
  5
A31
100
AcDbEntity
  8
ALPHA
  6
CONTINUOUS
100
AcDbCircle
 10
34.086294
 20
120.354416
 30
0.0
 40
0.3
100
AcDbArc
 50
195.792242
 51
344.207758
  0
LINE
  5
A32
100
AcDbEntity
  8
ALPHA
  6
CONTINUOUS
100
AcDbLine
 10
34.956504
 20
123.24362
 30
0.0
 11
33.216682
 21
123.24362
 31
0.0
  0
LINE
  5
A33
100
AcDbEntity
  8
ALPHA
  6
CONTINUOUS
100
AcDbLine
 10
34.704758
 20
121.64362
 30
0.0
 11
33.468244
 21
121.64362
 31
0.0
  0
LINE
  5
A34
100
AcDbEntity
  8
ALPHA
  6
CONTINUOUS
100
AcDbLine
 10
33.605167
 20
120.218341
 30
0.0
 11
33.797617
 21
120.272771
 31
0.0
  0
LINE
  5
A35
100
AcDbEntity
  8
ALPHA
  6
CONTINUOUS
100
AcDbLine
 10
34.567421
 20
120.218341
 30
0.0
 11
34.37497
 21
120.272771
 31
0.0
  0
LINE
  5
A36
100
AcDbEntity
  8
ALPHA
  6
CONTINUOUS
100
AcDbLine
 10
42.186294
 20
123.24362
 30
0.0
 11
42.186294
 21
124.64362
 31
0.0
  0
ARC
  5
A37
100
AcDbEntity
  8
ALPHA
  6
CONTINUOUS
100
AcDbCircle
 10
38.086294
 20
120.354416
 30
0.0
 40
0.499994
100
AcDbArc
 50
195.792242
 51
344.207758
  0
ARC
  5
A38
100
AcDbEntity
  8
ALPHA
  6
CONTINUOUS
100
AcDbCircle
 10
38.086294
 20
120.354416
 30
0.0
 40
0.3
100
AcDbArc
 50
195.792242
 51
344.207758
  0
LINE
  5
A39
100
AcDbEntity
  8
ALPHA
  6
CONTINUOUS
100
AcDbLine
 10
38.956504
 20
123.24362
 30
0.0
 11
37.216682
 21
123.24362
 31
0.0
  0
LINE
  5
A3A
100
AcDbEntity
  8
ALPHA
  6
CONTINUOUS
100
AcDbLine
 10
37.605167
 20
120.218341
 30
0.0
 11
37.797617
 21
120.272771
 31
0.0
  0
LINE
  5
A3B
100
AcDbEntity
  8
ALPHA
  6
CONTINUOUS
100
AcDbLine
 10
38.567421
 20
120.218341
 30
0.0
 11
38.37497
 21
120.272771
 31
0.0
  0
LINE
  5
A3C
100
AcDbEntity
  8
ALPHA
  6
CONTINUOUS
100
AcDbLine
 10
38.704758
 20
121.64362
 30
0.0
 11
37.468244
 21
121.64362
 31
0.0
  0
ARC
  5
A3D
100
AcDbEntity
  8
ALPHA
  6
CONTINUOUS
100
AcDbCircle
 10
42.086294
 20
120.354416
 30
0.0
 40
0.499994
100
AcDbArc
 50
195.792242
 51
344.207758
  0
ARC
  5
A3E
100
AcDbEntity
  8
ALPHA
  6
CONTINUOUS
100
AcDbCircle
 10
42.086294
 20
120.354416
 30
0.0
 40
0.3
100
AcDbArc
 50
195.792242
 51
344.207758
  0
LINE
  5
A3F
100
AcDbEntity
  8
ALPHA
  6
CONTINUOUS
100
AcDbLine
 10
42.567421
 20
120.218341
 30
0.0
 11
42.37497
 21
120.272771
 31
0.0
  0
LINE
  5
A40
100
AcDbEntity
  8
ALPHA
  6
CONTINUOUS
100
AcDbLine
 10
42.704758
 20
121.64362
 30
0.0
 11
41.468244
 21
121.64362
 31
0.0
  0
LINE
  5
A41
100
AcDbEntity
  8
ALPHA
  6
CONTINUOUS
100
AcDbLine
 10
41.605167
 20
120.218341
 30
0.0
 11
41.797617
 21
120.272771
 31
0.0
  0
LINE
  5
A42
100
AcDbEntity
  8
ALPHA
  6
CONTINUOUS
100
AcDbLine
 10
9.286294
 20
167.14362
 30
0.0
 11
9.286294
 21
154.64362
 31
0.0
  0
LINE
  5
A43
100
AcDbEntity
  8
ALPHA
  6
CONTINUOUS
100
AcDbLine
 10
18.311294
 20
150.74362
 30
0.0
 11
23.161294
 21
150.74362
 31
0.0
  0
LINE
  5
A44
100
AcDbEntity
  8
ALPHA
  6
CONTINUOUS
100
AcDbLine
 10
18.811294
 20
150.24362
 30
0.0
 11
22.661294
 21
150.24362
 31
0.0
  0
LINE
  5
A45
100
AcDbEntity
  8
ALPHA
  6
CONTINUOUS
100
AcDbLine
 10
22.661294
 20
144.94362
 30
0.0
 11
18.811294
 21
144.94362
 31
0.0
  0
LINE
  5
A46
100
AcDbEntity
  8
ALPHA
  6
CONTINUOUS
100
AcDbLine
 10
23.161294
 20
144.44362
 30
0.0
 11
18.311294
 21
144.44362
 31
0.0
  0
POLYLINE
  5
A47
100
AcDbEntity
  8
ALPHA
  6
CONTINUOUS
100
AcDb2dPolyline
 66
     1
 10
0.0
 20
0.0
 30
0.0
  0
VERTEX
  5
A48
100
AcDbEntity
  8
ALPHA
  6
CONTINUOUS
100
AcDbVertex
100
AcDb2dVertex
 10
22.836294
 20
133.378222
 30
0.0
  0
VERTEX
  5
A49
100
AcDbEntity
  8
ALPHA
  6
CONTINUOUS
100
AcDbVertex
100
AcDb2dVertex
 10
22.75132
 20
133.398872
 30
0.0
  0
VERTEX
  5
A4A
100
AcDbEntity
  8
ALPHA
  6
CONTINUOUS
100
AcDbVertex
100
AcDb2dVertex
 10
22.502011
 20
133.417919
 30
0.0
  0
VERTEX
  5
A4B
100
AcDbEntity
  8
ALPHA
  6
CONTINUOUS
100
AcDbVertex
100
AcDb2dVertex
 10
22.11239
 20
133.433617
 30
0.0
  0
VERTEX
  5
A4C
100
AcDbEntity
  8
ALPHA
  6
CONTINUOUS
100
AcDbVertex
100
AcDb2dVertex
 10
21.60659
 20
133.444962
 30
0.0
  0
VERTEX
  5
A4D
100
AcDbEntity
  8
ALPHA
  6
CONTINUOUS
100
AcDbVertex
100
AcDb2dVertex
 10
21.037085
 20
133.450799
 30
0.0
  0
VERTEX
  5
A4E
100
AcDbEntity
  8
ALPHA
  6
CONTINUOUS
100
AcDbVertex
100
AcDb2dVertex
 10
20.435503
 20
133.450799
 30
0.0
  0
VERTEX
  5
A4F
100
AcDbEntity
  8
ALPHA
  6
CONTINUOUS
100
AcDbVertex
100
AcDb2dVertex
 10
19.865998
 20
133.444962
 30
0.0
  0
VERTEX
  5
A50
100
AcDbEntity
  8
ALPHA
  6
CONTINUOUS
100
AcDbVertex
100
AcDb2dVertex
 10
19.360198
 20
133.433617
 30
0.0
  0
VERTEX
  5
A51
100
AcDbEntity
  8
ALPHA
  6
CONTINUOUS
100
AcDbVertex
100
AcDb2dVertex
 10
18.970577
 20
133.417919
 30
0.0
  0
VERTEX
  5
A52
100
AcDbEntity
  8
ALPHA
  6
CONTINUOUS
100
AcDbVertex
100
AcDb2dVertex
 10
18.721268
 20
133.398872
 30
0.0
  0
VERTEX
  5
A53
100
AcDbEntity
  8
ALPHA
  6
CONTINUOUS
100
AcDbVertex
100
AcDb2dVertex
 10
18.636294
 20
133.378222
 30
0.0
  0
SEQEND
  5
A54
100
AcDbEntity
  8
ALPHA
  0
POLYLINE
  5
A55
100
AcDbEntity
  8
ALPHA
  6
CONTINUOUS
100
AcDb2dPolyline
 66
     1
 10
0.0
 20
0.0
 30
0.0
  0
VERTEX
  5
A56
100
AcDbEntity
  8
ALPHA
  6
CONTINUOUS
100
AcDbVertex
100
AcDb2dVertex
 10
18.636294
 20
133.378222
 30
0.0
  0
VERTEX
  5
A57
100
AcDbEntity
  8
ALPHA
  6
CONTINUOUS
100
AcDbVertex
100
AcDb2dVertex
 10
18.721268
 20
133.357572
 30
0.0
  0
VERTEX
  5
A58
100
AcDbEntity
  8
ALPHA
  6
CONTINUOUS
100
AcDbVertex
100
AcDb2dVertex
 10
18.970577
 20
133.338525
 30
0.0
  0
VERTEX
  5
A59
100
AcDbEntity
  8
ALPHA
  6
CONTINUOUS
100
AcDbVertex
100
AcDb2dVertex
 10
19.360198
 20
133.322827
 30
0.0
  0
VERTEX
  5
A5A
100
AcDbEntity
  8
ALPHA
  6
CONTINUOUS
100
AcDbVertex
100
AcDb2dVertex
 10
19.865998
 20
133.311482
 30
0.0
  0
VERTEX
  5
A5B
100
AcDbEntity
  8
ALPHA
  6
CONTINUOUS
100
AcDbVertex
100
AcDb2dVertex
 10
20.435503
 20
133.305644
 30
0.0
  0
VERTEX
  5
A5C
100
AcDbEntity
  8
ALPHA
  6
CONTINUOUS
100
AcDbVertex
100
AcDb2dVertex
 10
21.037085
 20
133.305644
 30
0.0
  0
VERTEX
  5
A5D
100
AcDbEntity
  8
ALPHA
  6
CONTINUOUS
100
AcDbVertex
100
AcDb2dVertex
 10
21.60659
 20
133.311482
 30
0.0
  0
VERTEX
  5
A5E
100
AcDbEntity
  8
ALPHA
  6
CONTINUOUS
100
AcDbVertex
100
AcDb2dVertex
 10
22.11239
 20
133.322827
 30
0.0
  0
VERTEX
  5
A5F
100
AcDbEntity
  8
ALPHA
  6
CONTINUOUS
100
AcDbVertex
100
AcDb2dVertex
 10
22.502011
 20
133.338525
 30
0.0
  0
VERTEX
  5
A60
100
AcDbEntity
  8
ALPHA
  6
CONTINUOUS
100
AcDbVertex
100
AcDb2dVertex
 10
22.75132
 20
133.357572
 30
0.0
  0
VERTEX
  5
A61
100
AcDbEntity
  8
ALPHA
  6
CONTINUOUS
100
AcDbVertex
100
AcDb2dVertex
 10
22.836294
 20
133.378222
 30
0.0
  0
SEQEND
  5
A62
100
AcDbEntity
  8
ALPHA
  0
LINE
  5
A63
100
AcDbEntity
  8
ALPHA
  6
CONTINUOUS
100
AcDbLine
 10
9.136294
 20
133.933326
 30
0.0
 11
9.136294
 21
154.14362
 31
0.0
  0
ARC
  5
A64
100
AcDbEntity
  8
ALPHA
  6
CONTINUOUS
100
AcDbCircle
 10
14.086294
 20
130.532824
 30
0.0
 40
0.499994
100
AcDbArc
 50
15.792242
 51
164.207758
  0
LINE
  5
A65
100
AcDbEntity
  8
ALPHA
  6
CONTINUOUS
100
AcDbLine
 10
13.605167
 20
130.668899
 30
0.0
 11
13.797617
 21
130.614469
 31
0.0
  0
POLYLINE
  5
A66
100
AcDbEntity
  8
ALPHA
  6
CONTINUOUS
100
AcDb2dPolyline
 66
     1
 10
0.0
 20
0.0
 30
0.0
  0
VERTEX
  5
A67
100
AcDbEntity
  8
ALPHA
  6
CONTINUOUS
100
AcDbVertex
100
AcDb2dVertex
 10
8.816344
 20
133.724929
 30
0.0
  0
VERTEX
  5
A68
100
AcDbEntity
  8
ALPHA
  6
CONTINUOUS
100
AcDbVertex
100
AcDb2dVertex
 10
8.920589
 20
133.789298
 30
0.0
  0
VERTEX
  5
A69
100
AcDbEntity
  8
ALPHA
  6
CONTINUOUS
100
AcDbVertex
100
AcDb2dVertex
 10
9.027795
 20
133.859921
 30
0.0
  0
VERTEX
  5
A6A
100
AcDbEntity
  8
ALPHA
  6
CONTINUOUS
100
AcDbVertex
100
AcDb2dVertex
 10
9.136294
 20
133.933326
 30
0.0
  0
SEQEND
  5
A6B
100
AcDbEntity
  8
ALPHA
  0
POLYLINE
  5
A6C
100
AcDbEntity
  8
ALPHA
  6
CONTINUOUS
100
AcDb2dPolyline
 66
     1
 10
0.0
 20
0.0
 30
0.0
  0
VERTEX
  5
A6D
100
AcDbEntity
  8
ALPHA
  6
CONTINUOUS
100
AcDbVertex
100
AcDb2dVertex
 10
8.816344
 20
133.724929
 30
0.0
  0
VERTEX
  5
A6E
100
AcDbEntity
  8
ALPHA
  6
CONTINUOUS
100
AcDbVertex
100
AcDb2dVertex
 10
8.920589
 20
133.675348
 30
0.0
  0
VERTEX
  5
A6F
100
AcDbEntity
  8
ALPHA
  6
CONTINUOUS
100
AcDbVertex
100
AcDb2dVertex
 10
9.027795
 20
133.645185
 30
0.0
  0
VERTEX
  5
A70
100
AcDbEntity
  8
ALPHA
  6
CONTINUOUS
100
AcDbVertex
100
AcDb2dVertex
 10
9.136294
 20
133.633509
 30
0.0
  0
SEQEND
  5
A71
100
AcDbEntity
  8
ALPHA
  0
POLYLINE
  5
A72
100
AcDbEntity
  8
ALPHA
  6
CONTINUOUS
100
AcDb2dPolyline
 66
     1
 10
0.0
 20
0.0
 30
0.0
  0
VERTEX
  5
A73
100
AcDbEntity
  8
ALPHA
  6
CONTINUOUS
100
AcDbVertex
100
AcDb2dVertex
 10
8.520717
 20
134.069755
 30
0.0
  0
VERTEX
  5
A74
100
AcDbEntity
  8
ALPHA
  6
CONTINUOUS
100
AcDbVertex
100
AcDb2dVertex
 10
8.627607
 20
133.880557
 30
0.0
  0
VERTEX
  5
A75
100
AcDbEntity
  8
ALPHA
  6
CONTINUOUS
100
AcDbVertex
100
AcDb2dVertex
 10
8.816344
 20
133.724929
 30
0.0
  0
SEQEND
  5
A76
100
AcDbEntity
  8
ALPHA
  0
POLYLINE
  5
A77
100
AcDbEntity
  8
ALPHA
  6
CONTINUOUS
100
AcDb2dPolyline
 66
     1
 10
0.0
 20
0.0
 30
0.0
  0
VERTEX
  5
A78
100
AcDbEntity
  8
ALPHA
  6
CONTINUOUS
100
AcDbVertex
100
AcDb2dVertex
 10
8.486294
 20
133.887189
 30
0.0
  0
VERTEX
  5
A79
100
AcDbEntity
  8
ALPHA
  6
CONTINUOUS
100
AcDbVertex
100
AcDb2dVertex
 10
8.502089
 20
133.749654
 30
0.0
  0
VERTEX
  5
A7A
100
AcDbEntity
  8
ALPHA
  6
CONTINUOUS
100
AcDbVertex
100
AcDb2dVertex
 10
8.551999
 20
133.612182
 30
0.0
  0
VERTEX
  5
A7B
100
AcDbEntity
  8
ALPHA
  6
CONTINUOUS
100
AcDbVertex
100
AcDb2dVertex
 10
8.638522
 20
133.483532
 30
0.0
  0
VERTEX
  5
A7C
100
AcDbEntity
  8
ALPHA
  6
CONTINUOUS
100
AcDbVertex
100
AcDb2dVertex
 10
8.763815
 20
133.372776
 30
0.0
  0
VERTEX
  5
A7D
100
AcDbEntity
  8
ALPHA
  6
CONTINUOUS
100
AcDbVertex
100
AcDb2dVertex
 10
8.929964
 20
133.291955
 30
0.0
  0
VERTEX
  5
A7E
100
AcDbEntity
  8
ALPHA
  6
CONTINUOUS
100
AcDbVertex
100
AcDb2dVertex
 10
9.136294
 20
133.259491
 30
0.0
  0
SEQEND
  5
A7F
100
AcDbEntity
  8
ALPHA
  0
LINE
  5
A80
100
AcDbEntity
  8
ALPHA
  6
CONTINUOUS
100
AcDbLine
 10
8.486294
 20
134.271318
 30
0.0
 11
8.520717
 21
134.069755
 31
0.0
  0
ARC
  5
A81
100
AcDbEntity
  8
ALPHA
  6
CONTINUOUS
100
AcDbCircle
 10
14.086294
 20
130.532824
 30
0.0
 40
0.3
100
AcDbArc
 50
15.792242
 51
164.207758
  0
LINE
  5
A82
100
AcDbEntity
  8
ALPHA
  6
CONTINUOUS
100
AcDbLine
 10
14.567421
 20
130.668899
 30
0.0
 11
14.37497
 21
130.614469
 31
0.0
  0
ARC
  5
A83
100
AcDbEntity
  8
ALPHA
  6
CONTINUOUS
100
AcDbCircle
 10
18.086294
 20
130.532824
 30
0.0
 40
0.499994
100
AcDbArc
 50
15.792242
 51
164.207758
  0
ARC
  5
A84
100
AcDbEntity
  8
ALPHA
  6
CONTINUOUS
100
AcDbCircle
 10
18.086294
 20
130.532824
 30
0.0
 40
0.3
100
AcDbArc
 50
15.792242
 51
164.207758
  0
LINE
  5
A85
100
AcDbEntity
  8
ALPHA
  6
CONTINUOUS
100
AcDbLine
 10
18.567421
 20
130.668899
 30
0.0
 11
18.37497
 21
130.614469
 31
0.0
  0
LINE
  5
A86
100
AcDbEntity
  8
ALPHA
  6
CONTINUOUS
100
AcDbLine
 10
17.605167
 20
130.668899
 30
0.0
 11
17.797617
 21
130.614469
 31
0.0
  0
LINE
  5
A87
100
AcDbEntity
  8
ALPHA
  6
CONTINUOUS
100
AcDbLine
 10
18.821294
 20
150.24362
 30
0.0
 11
18.821294
 21
144.94362
 31
0.0
  0
LINE
  5
A88
100
AcDbEntity
  8
ALPHA
  6
CONTINUOUS
100
AcDbLine
 10
18.811294
 20
144.94362
 30
0.0
 11
18.811294
 21
150.24362
 31
0.0
  0
LINE
  5
A89
100
AcDbEntity
  8
ALPHA
  6
CONTINUOUS
100
AcDbLine
 10
18.311294
 20
144.44362
 30
0.0
 11
18.311294
 21
150.74362
 31
0.0
  0
LINE
  5
A8A
100
AcDbEntity
  8
ALPHA
  6
CONTINUOUS
100
AcDbLine
 10
18.311294
 20
144.44362
 30
0.0
 11
18.811294
 21
144.94362
 31
0.0
  0
LINE
  5
A8B
100
AcDbEntity
  8
ALPHA
  6
CONTINUOUS
100
AcDbLine
 10
18.311294
 20
150.74362
 30
0.0
 11
18.811294
 21
150.24362
 31
0.0
  0
LINE
  5
A8C
100
AcDbEntity
  8
ALPHA
  6
CONTINUOUS
100
AcDbLine
 10
9.286294
 20
154.64362
 30
0.0
 11
9.286294
 21
154.14362
 31
0.0
  0
LINE
  5
A8D
100
AcDbEntity
  8
ALPHA
  6
CONTINUOUS
100
AcDbLine
 10
9.186294
 20
154.14362
 30
0.0
 11
9.186294
 21
154.64362
 31
0.0
  0
LINE
  5
A8E
100
AcDbEntity
  8
ALPHA
  6
CONTINUOUS
100
AcDbLine
 10
8.486294
 20
158.09362
 30
0.0
 11
8.286294
 21
158.09362
 31
0.0
  0
LINE
  5
A8F
100
AcDbEntity
  8
ALPHA
  6
CONTINUOUS
100
AcDbLine
 10
8.286294
 20
156.97926
 30
0.0
 11
8.486294
 21
156.63285
 31
0.0
  0
LINE
  5
A90
100
AcDbEntity
  8
ALPHA
  6
CONTINUOUS
100
AcDbLine
 10
8.286294
 20
158.09362
 30
0.0
 11
8.286294
 21
156.97926
 31
0.0
  0
POLYLINE
  5
A91
100
AcDbEntity
  8
ALPHA
  6
CONTINUOUS
100
AcDb2dPolyline
 66
     1
 10
0.0
 20
0.0
 30
0.0
  0
VERTEX
  5
A92
100
AcDbEntity
  8
ALPHA
  6
CONTINUOUS
100
AcDbVertex
100
AcDb2dVertex
 10
27.916294
 20
133.378222
 30
0.0
  0
VERTEX
  5
A93
100
AcDbEntity
  8
ALPHA
  6
CONTINUOUS
100
AcDbVertex
100
AcDb2dVertex
 10
27.83132
 20
133.398872
 30
0.0
  0
VERTEX
  5
A94
100
AcDbEntity
  8
ALPHA
  6
CONTINUOUS
100
AcDbVertex
100
AcDb2dVertex
 10
27.582011
 20
133.417919
 30
0.0
  0
VERTEX
  5
A95
100
AcDbEntity
  8
ALPHA
  6
CONTINUOUS
100
AcDbVertex
100
AcDb2dVertex
 10
27.19239
 20
133.433617
 30
0.0
  0
VERTEX
  5
A96
100
AcDbEntity
  8
ALPHA
  6
CONTINUOUS
100
AcDbVertex
100
AcDb2dVertex
 10
26.68659
 20
133.444962
 30
0.0
  0
VERTEX
  5
A97
100
AcDbEntity
  8
ALPHA
  6
CONTINUOUS
100
AcDbVertex
100
AcDb2dVertex
 10
26.117085
 20
133.450799
 30
0.0
  0
VERTEX
  5
A98
100
AcDbEntity
  8
ALPHA
  6
CONTINUOUS
100
AcDbVertex
100
AcDb2dVertex
 10
25.515503
 20
133.450799
 30
0.0
  0
VERTEX
  5
A99
100
AcDbEntity
  8
ALPHA
  6
CONTINUOUS
100
AcDbVertex
100
AcDb2dVertex
 10
24.945998
 20
133.444962
 30
0.0
  0
VERTEX
  5
A9A
100
AcDbEntity
  8
ALPHA
  6
CONTINUOUS
100
AcDbVertex
100
AcDb2dVertex
 10
24.440198
 20
133.433617
 30
0.0
  0
VERTEX
  5
A9B
100
AcDbEntity
  8
ALPHA
  6
CONTINUOUS
100
AcDbVertex
100
AcDb2dVertex
 10
24.050577
 20
133.417919
 30
0.0
  0
VERTEX
  5
A9C
100
AcDbEntity
  8
ALPHA
  6
CONTINUOUS
100
AcDbVertex
100
AcDb2dVertex
 10
23.801268
 20
133.398872
 30
0.0
  0
VERTEX
  5
A9D
100
AcDbEntity
  8
ALPHA
  6
CONTINUOUS
100
AcDbVertex
100
AcDb2dVertex
 10
23.716294
 20
133.378222
 30
0.0
  0
SEQEND
  5
A9E
100
AcDbEntity
  8
ALPHA
  0
POLYLINE
  5
A9F
100
AcDbEntity
  8
ALPHA
  6
CONTINUOUS
100
AcDb2dPolyline
 66
     1
 10
0.0
 20
0.0
 30
0.0
  0
VERTEX
  5
AA0
100
AcDbEntity
  8
ALPHA
  6
CONTINUOUS
100
AcDbVertex
100
AcDb2dVertex
 10
23.716294
 20
133.378222
 30
0.0
  0
VERTEX
  5
AA1
100
AcDbEntity
  8
ALPHA
  6
CONTINUOUS
100
AcDbVertex
100
AcDb2dVertex
 10
23.801268
 20
133.357572
 30
0.0
  0
VERTEX
  5
AA2
100
AcDbEntity
  8
ALPHA
  6
CONTINUOUS
100
AcDbVertex
100
AcDb2dVertex
 10
24.050577
 20
133.338525
 30
0.0
  0
VERTEX
  5
AA3
100
AcDbEntity
  8
ALPHA
  6
CONTINUOUS
100
AcDbVertex
100
AcDb2dVertex
 10
24.440198
 20
133.322827
 30
0.0
  0
VERTEX
  5
AA4
100
AcDbEntity
  8
ALPHA
  6
CONTINUOUS
100
AcDbVertex
100
AcDb2dVertex
 10
24.945998
 20
133.311482
 30
0.0
  0
VERTEX
  5
AA5
100
AcDbEntity
  8
ALPHA
  6
CONTINUOUS
100
AcDbVertex
100
AcDb2dVertex
 10
25.515503
 20
133.305644
 30
0.0
  0
VERTEX
  5
AA6
100
AcDbEntity
  8
ALPHA
  6
CONTINUOUS
100
AcDbVertex
100
AcDb2dVertex
 10
26.117085
 20
133.305644
 30
0.0
  0
VERTEX
  5
AA7
100
AcDbEntity
  8
ALPHA
  6
CONTINUOUS
100
AcDbVertex
100
AcDb2dVertex
 10
26.68659
 20
133.311482
 30
0.0
  0
VERTEX
  5
AA8
100
AcDbEntity
  8
ALPHA
  6
CONTINUOUS
100
AcDbVertex
100
AcDb2dVertex
 10
27.19239
 20
133.322827
 30
0.0
  0
VERTEX
  5
AA9
100
AcDbEntity
  8
ALPHA
  6
CONTINUOUS
100
AcDbVertex
100
AcDb2dVertex
 10
27.582011
 20
133.338525
 30
0.0
  0
VERTEX
  5
AAA
100
AcDbEntity
  8
ALPHA
  6
CONTINUOUS
100
AcDbVertex
100
AcDb2dVertex
 10
27.83132
 20
133.357572
 30
0.0
  0
VERTEX
  5
AAB
100
AcDbEntity
  8
ALPHA
  6
CONTINUOUS
100
AcDbVertex
100
AcDb2dVertex
 10
27.916294
 20
133.378222
 30
0.0
  0
SEQEND
  5
AAC
100
AcDbEntity
  8
ALPHA
  0
ARC
  5
AAD
100
AcDbEntity
  8
ALPHA
  6
CONTINUOUS
100
AcDbCircle
 10
22.086294
 20
130.532824
 30
0.0
 40
0.499994
100
AcDbArc
 50
15.792242
 51
164.207758
  0
LINE
  5
AAE
100
AcDbEntity
  8
ALPHA
  6
CONTINUOUS
100
AcDbLine
 10
22.567421
 20
130.668899
 30
0.0
 11
22.37497
 21
130.614469
 31
0.0
  0
ARC
  5
AAF
100
AcDbEntity
  8
ALPHA
  6
CONTINUOUS
100
AcDbCircle
 10
22.086294
 20
130.532824
 30
0.0
 40
0.3
100
AcDbArc
 50
15.792242
 51
164.207758
  0
LINE
  5
AB0
100
AcDbEntity
  8
ALPHA
  6
CONTINUOUS
100
AcDbLine
 10
21.605167
 20
130.668899
 30
0.0
 11
21.797617
 21
130.614469
 31
0.0
  0
ARC
  5
AB1
100
AcDbEntity
  8
ALPHA
  6
CONTINUOUS
100
AcDbCircle
 10
26.086294
 20
130.532824
 30
0.0
 40
0.499994
100
AcDbArc
 50
15.792242
 51
164.207758
  0
ARC
  5
AB2
100
AcDbEntity
  8
ALPHA
  6
CONTINUOUS
100
AcDbCircle
 10
26.086294
 20
130.532824
 30
0.0
 40
0.3
100
AcDbArc
 50
15.792242
 51
164.207758
  0
LINE
  5
AB3
100
AcDbEntity
  8
ALPHA
  6
CONTINUOUS
100
AcDbLine
 10
26.567421
 20
130.668899
 30
0.0
 11
26.37497
 21
130.614469
 31
0.0
  0
LINE
  5
AB4
100
AcDbEntity
  8
ALPHA
  6
CONTINUOUS
100
AcDbLine
 10
25.605167
 20
130.668899
 30
0.0
 11
25.797617
 21
130.614469
 31
0.0
  0
ARC
  5
AB5
100
AcDbEntity
  8
ALPHA
  6
CONTINUOUS
100
AcDbCircle
 10
30.086294
 20
130.532824
 30
0.0
 40
0.499994
100
AcDbArc
 50
15.792242
 51
164.207758
  0
ARC
  5
AB6
100
AcDbEntity
  8
ALPHA
  6
CONTINUOUS
100
AcDbCircle
 10
30.086294
 20
130.532824
 30
0.0
 40
0.3
100
AcDbArc
 50
15.792242
 51
164.207758
  0
LINE
  5
AB7
100
AcDbEntity
  8
ALPHA
  6
CONTINUOUS
100
AcDbLine
 10
30.567421
 20
130.668899
 30
0.0
 11
30.37497
 21
130.614469
 31
0.0
  0
LINE
  5
AB8
100
AcDbEntity
  8
ALPHA
  6
CONTINUOUS
100
AcDbLine
 10
29.605167
 20
130.668899
 30
0.0
 11
29.797617
 21
130.614469
 31
0.0
  0
POLYLINE
  5
AB9
100
AcDbEntity
  8
ALPHA
  6
CONTINUOUS
100
AcDb2dPolyline
 66
     1
 10
0.0
 20
0.0
 30
0.0
  0
VERTEX
  5
ABA
100
AcDbEntity
  8
ALPHA
  6
CONTINUOUS
100
AcDbVertex
100
AcDb2dVertex
 10
38.076294
 20
133.378222
 30
0.0
  0
VERTEX
  5
ABB
100
AcDbEntity
  8
ALPHA
  6
CONTINUOUS
100
AcDbVertex
100
AcDb2dVertex
 10
37.99132
 20
133.398872
 30
0.0
  0
VERTEX
  5
ABC
100
AcDbEntity
  8
ALPHA
  6
CONTINUOUS
100
AcDbVertex
100
AcDb2dVertex
 10
37.742011
 20
133.417919
 30
0.0
  0
VERTEX
  5
ABD
100
AcDbEntity
  8
ALPHA
  6
CONTINUOUS
100
AcDbVertex
100
AcDb2dVertex
 10
37.35239
 20
133.433617
 30
0.0
  0
VERTEX
  5
ABE
100
AcDbEntity
  8
ALPHA
  6
CONTINUOUS
100
AcDbVertex
100
AcDb2dVertex
 10
36.84659
 20
133.444962
 30
0.0
  0
VERTEX
  5
ABF
100
AcDbEntity
  8
ALPHA
  6
CONTINUOUS
100
AcDbVertex
100
AcDb2dVertex
 10
36.277085
 20
133.450799
 30
0.0
  0
VERTEX
  5
AC0
100
AcDbEntity
  8
ALPHA
  6
CONTINUOUS
100
AcDbVertex
100
AcDb2dVertex
 10
35.675503
 20
133.450799
 30
0.0
  0
VERTEX
  5
AC1
100
AcDbEntity
  8
ALPHA
  6
CONTINUOUS
100
AcDbVertex
100
AcDb2dVertex
 10
35.105998
 20
133.444962
 30
0.0
  0
VERTEX
  5
AC2
100
AcDbEntity
  8
ALPHA
  6
CONTINUOUS
100
AcDbVertex
100
AcDb2dVertex
 10
34.600198
 20
133.433617
 30
0.0
  0
VERTEX
  5
AC3
100
AcDbEntity
  8
ALPHA
  6
CONTINUOUS
100
AcDbVertex
100
AcDb2dVertex
 10
34.210577
 20
133.417919
 30
0.0
  0
VERTEX
  5
AC4
100
AcDbEntity
  8
ALPHA
  6
CONTINUOUS
100
AcDbVertex
100
AcDb2dVertex
 10
33.961268
 20
133.398872
 30
0.0
  0
VERTEX
  5
AC5
100
AcDbEntity
  8
ALPHA
  6
CONTINUOUS
100
AcDbVertex
100
AcDb2dVertex
 10
33.876294
 20
133.378222
 30
0.0
  0
SEQEND
  5
AC6
100
AcDbEntity
  8
ALPHA
  0
POLYLINE
  5
AC7
100
AcDbEntity
  8
ALPHA
  6
CONTINUOUS
100
AcDb2dPolyline
 66
     1
 10
0.0
 20
0.0
 30
0.0
  0
VERTEX
  5
AC8
100
AcDbEntity
  8
ALPHA
  6
CONTINUOUS
100
AcDbVertex
100
AcDb2dVertex
 10
33.876294
 20
133.378222
 30
0.0
  0
VERTEX
  5
AC9
100
AcDbEntity
  8
ALPHA
  6
CONTINUOUS
100
AcDbVertex
100
AcDb2dVertex
 10
33.961268
 20
133.357572
 30
0.0
  0
VERTEX
  5
ACA
100
AcDbEntity
  8
ALPHA
  6
CONTINUOUS
100
AcDbVertex
100
AcDb2dVertex
 10
34.210577
 20
133.338525
 30
0.0
  0
VERTEX
  5
ACB
100
AcDbEntity
  8
ALPHA
  6
CONTINUOUS
100
AcDbVertex
100
AcDb2dVertex
 10
34.600198
 20
133.322827
 30
0.0
  0
VERTEX
  5
ACC
100
AcDbEntity
  8
ALPHA
  6
CONTINUOUS
100
AcDbVertex
100
AcDb2dVertex
 10
35.105998
 20
133.311482
 30
0.0
  0
VERTEX
  5
ACD
100
AcDbEntity
  8
ALPHA
  6
CONTINUOUS
100
AcDbVertex
100
AcDb2dVertex
 10
35.675503
 20
133.305644
 30
0.0
  0
VERTEX
  5
ACE
100
AcDbEntity
  8
ALPHA
  6
CONTINUOUS
100
AcDbVertex
100
AcDb2dVertex
 10
36.277085
 20
133.305644
 30
0.0
  0
VERTEX
  5
ACF
100
AcDbEntity
  8
ALPHA
  6
CONTINUOUS
100
AcDbVertex
100
AcDb2dVertex
 10
36.84659
 20
133.311482
 30
0.0
  0
VERTEX
  5
AD0
100
AcDbEntity
  8
ALPHA
  6
CONTINUOUS
100
AcDbVertex
100
AcDb2dVertex
 10
37.35239
 20
133.322827
 30
0.0
  0
VERTEX
  5
AD1
100
AcDbEntity
  8
ALPHA
  6
CONTINUOUS
100
AcDbVertex
100
AcDb2dVertex
 10
37.742011
 20
133.338525
 30
0.0
  0
VERTEX
  5
AD2
100
AcDbEntity
  8
ALPHA
  6
CONTINUOUS
100
AcDbVertex
100
AcDb2dVertex
 10
37.99132
 20
133.357572
 30
0.0
  0
VERTEX
  5
AD3
100
AcDbEntity
  8
ALPHA
  6
CONTINUOUS
100
AcDbVertex
100
AcDb2dVertex
 10
38.076294
 20
133.378222
 30
0.0
  0
SEQEND
  5
AD4
100
AcDbEntity
  8
ALPHA
  0
ARC
  5
AD5
100
AcDbEntity
  8
ALPHA
  6
CONTINUOUS
100
AcDbCircle
 10
34.086294
 20
130.532824
 30
0.0
 40
0.499994
100
AcDbArc
 50
15.792242
 51
164.207758
  0
ARC
  5
AD6
100
AcDbEntity
  8
ALPHA
  6
CONTINUOUS
100
AcDbCircle
 10
34.086294
 20
130.532824
 30
0.0
 40
0.3
100
AcDbArc
 50
15.792242
 51
164.207758
  0
LINE
  5
AD7
100
AcDbEntity
  8
ALPHA
  6
CONTINUOUS
100
AcDbLine
 10
33.605167
 20
130.668899
 30
0.0
 11
33.797617
 21
130.614469
 31
0.0
  0
LINE
  5
AD8
100
AcDbEntity
  8
ALPHA
  6
CONTINUOUS
100
AcDbLine
 10
34.567421
 20
130.668899
 30
0.0
 11
34.37497
 21
130.614469
 31
0.0
  0
ARC
  5
AD9
100
AcDbEntity
  8
ALPHA
  6
CONTINUOUS
100
AcDbCircle
 10
38.086294
 20
130.532824
 30
0.0
 40
0.499994
100
AcDbArc
 50
15.792242
 51
164.207758
  0
ARC
  5
ADA
100
AcDbEntity
  8
ALPHA
  6
CONTINUOUS
100
AcDbCircle
 10
38.086294
 20
130.532824
 30
0.0
 40
0.3
100
AcDbArc
 50
15.792242
 51
164.207758
  0
LINE
  5
ADB
100
AcDbEntity
  8
ALPHA
  6
CONTINUOUS
100
AcDbLine
 10
38.567421
 20
130.668899
 30
0.0
 11
38.37497
 21
130.614469
 31
0.0
  0
LINE
  5
ADC
100
AcDbEntity
  8
ALPHA
  6
CONTINUOUS
100
AcDbLine
 10
37.605167
 20
130.668899
 30
0.0
 11
37.797617
 21
130.614469
 31
0.0
  0
ARC
  5
ADD
100
AcDbEntity
  8
ALPHA
  6
CONTINUOUS
100
AcDbCircle
 10
42.086294
 20
130.532824
 30
0.0
 40
0.499994
100
AcDbArc
 50
15.792242
 51
164.207758
  0
ARC
  5
ADE
100
AcDbEntity
  8
ALPHA
  6
CONTINUOUS
100
AcDbCircle
 10
42.086294
 20
130.532824
 30
0.0
 40
0.3
100
AcDbArc
 50
15.792242
 51
164.207758
  0
LINE
  5
ADF
100
AcDbEntity
  8
ALPHA
  6
CONTINUOUS
100
AcDbLine
 10
41.605167
 20
130.668899
 30
0.0
 11
41.797617
 21
130.614469
 31
0.0
  0
LINE
  5
AE0
100
AcDbEntity
  8
ALPHA
  6
CONTINUOUS
100
AcDbLine
 10
42.567421
 20
130.668899
 30
0.0
 11
42.37497
 21
130.614469
 31
0.0
  0
LINE
  5
AE1
100
AcDbEntity
  8
ALPHA
  6
CONTINUOUS
100
AcDbLine
 10
23.391294
 20
150.74362
 30
0.0
 11
28.241294
 21
150.74362
 31
0.0
  0
LINE
  5
AE2
100
AcDbEntity
  8
ALPHA
  6
CONTINUOUS
100
AcDbLine
 10
23.891294
 20
150.24362
 30
0.0
 11
27.741294
 21
150.24362
 31
0.0
  0
LINE
  5
AE3
100
AcDbEntity
  8
ALPHA
  6
CONTINUOUS
100
AcDbLine
 10
27.741294
 20
144.94362
 30
0.0
 11
23.891294
 21
144.94362
 31
0.0
  0
LINE
  5
AE4
100
AcDbEntity
  8
ALPHA
  6
CONTINUOUS
100
AcDbLine
 10
28.241294
 20
144.44362
 30
0.0
 11
23.391294
 21
144.44362
 31
0.0
  0
LINE
  5
AE5
100
AcDbEntity
  8
ALPHA
  6
CONTINUOUS
100
AcDbLine
 10
23.901294
 20
150.24362
 30
0.0
 11
23.901294
 21
144.94362
 31
0.0
  0
LINE
  5
AE6
100
AcDbEntity
  8
ALPHA
  6
CONTINUOUS
100
AcDbLine
 10
23.891294
 20
144.94362
 30
0.0
 11
23.891294
 21
150.24362
 31
0.0
  0
LINE
  5
AE7
100
AcDbEntity
  8
ALPHA
  6
CONTINUOUS
100
AcDbLine
 10
23.391294
 20
144.44362
 30
0.0
 11
23.391294
 21
150.74362
 31
0.0
  0
LINE
  5
AE8
100
AcDbEntity
  8
ALPHA
  6
CONTINUOUS
100
AcDbLine
 10
23.161294
 20
150.74362
 30
0.0
 11
23.161294
 21
144.44362
 31
0.0
  0
LINE
  5
AE9
100
AcDbEntity
  8
ALPHA
  6
CONTINUOUS
100
AcDbLine
 10
22.661294
 20
150.24362
 30
0.0
 11
22.661294
 21
144.94362
 31
0.0
  0
LINE
  5
AEA
100
AcDbEntity
  8
ALPHA
  6
CONTINUOUS
100
AcDbLine
 10
23.161294
 20
144.44362
 30
0.0
 11
22.661294
 21
144.94362
 31
0.0
  0
LINE
  5
AEB
100
AcDbEntity
  8
ALPHA
  6
CONTINUOUS
100
AcDbLine
 10
23.391294
 20
144.44362
 30
0.0
 11
23.891294
 21
144.94362
 31
0.0
  0
LINE
  5
AEC
100
AcDbEntity
  8
ALPHA
  6
CONTINUOUS
100
AcDbLine
 10
23.391294
 20
150.74362
 30
0.0
 11
23.891294
 21
150.24362
 31
0.0
  0
LINE
  5
AED
100
AcDbEntity
  8
ALPHA
  6
CONTINUOUS
100
AcDbLine
 10
23.161294
 20
150.74362
 30
0.0
 11
22.661294
 21
150.24362
 31
0.0
  0
LINE
  5
AEE
100
AcDbEntity
  8
ALPHA
  6
CONTINUOUS
100
AcDbLine
 10
28.241294
 20
150.74362
 30
0.0
 11
28.241294
 21
144.44362
 31
0.0
  0
LINE
  5
AEF
100
AcDbEntity
  8
ALPHA
  6
CONTINUOUS
100
AcDbLine
 10
27.741294
 20
150.24362
 30
0.0
 11
27.741294
 21
144.94362
 31
0.0
  0
LINE
  5
AF0
100
AcDbEntity
  8
ALPHA
  6
CONTINUOUS
100
AcDbLine
 10
28.241294
 20
144.44362
 30
0.0
 11
27.741294
 21
144.94362
 31
0.0
  0
LINE
  5
AF1
100
AcDbEntity
  8
ALPHA
  6
CONTINUOUS
100
AcDbLine
 10
28.241294
 20
150.74362
 30
0.0
 11
27.741294
 21
150.24362
 31
0.0
  0
LINE
  5
AF2
100
AcDbEntity
  8
ALPHA
  6
CONTINUOUS
100
AcDbLine
 10
38.401294
 20
150.74362
 30
0.0
 11
33.551294
 21
150.74362
 31
0.0
  0
LINE
  5
AF3
100
AcDbEntity
  8
ALPHA
  6
CONTINUOUS
100
AcDbLine
 10
37.901294
 20
150.24362
 30
0.0
 11
34.051294
 21
150.24362
 31
0.0
  0
LINE
  5
AF4
100
AcDbEntity
  8
ALPHA
  6
CONTINUOUS
100
AcDbLine
 10
34.051294
 20
144.94362
 30
0.0
 11
37.901294
 21
144.94362
 31
0.0
  0
LINE
  5
AF5
100
AcDbEntity
  8
ALPHA
  6
CONTINUOUS
100
AcDbLine
 10
33.551294
 20
144.44362
 30
0.0
 11
38.401294
 21
144.44362
 31
0.0
  0
LINE
  5
AF6
100
AcDbEntity
  8
ALPHA
  6
CONTINUOUS
100
AcDbLine
 10
34.061294
 20
150.24362
 30
0.0
 11
34.061294
 21
144.94362
 31
0.0
  0
LINE
  5
AF7
100
AcDbEntity
  8
ALPHA
  6
CONTINUOUS
100
AcDbLine
 10
34.051294
 20
150.24362
 30
0.0
 11
34.051294
 21
144.94362
 31
0.0
  0
LINE
  5
AF8
100
AcDbEntity
  8
ALPHA
  6
CONTINUOUS
100
AcDbLine
 10
33.551294
 20
150.74362
 30
0.0
 11
33.551294
 21
144.44362
 31
0.0
  0
LINE
  5
AF9
100
AcDbEntity
  8
ALPHA
  6
CONTINUOUS
100
AcDbLine
 10
33.551294
 20
144.44362
 30
0.0
 11
34.051294
 21
144.94362
 31
0.0
  0
LINE
  5
AFA
100
AcDbEntity
  8
ALPHA
  6
CONTINUOUS
100
AcDbLine
 10
33.551294
 20
150.74362
 30
0.0
 11
34.051294
 21
150.24362
 31
0.0
  0
LINE
  5
AFB
100
AcDbEntity
  8
ALPHA
  6
CONTINUOUS
100
AcDbLine
 10
39.141294
 20
150.24362
 30
0.0
 11
39.141294
 21
144.94362
 31
0.0
  0
LINE
  5
AFC
100
AcDbEntity
  8
ALPHA
  6
CONTINUOUS
100
AcDbLine
 10
39.131294
 20
150.24362
 30
0.0
 11
39.131294
 21
144.94362
 31
0.0
  0
LINE
  5
AFD
100
AcDbEntity
  8
ALPHA
  6
CONTINUOUS
100
AcDbLine
 10
38.631294
 20
150.74362
 30
0.0
 11
38.631294
 21
144.44362
 31
0.0
  0
LINE
  5
AFE
100
AcDbEntity
  8
ALPHA
  6
CONTINUOUS
100
AcDbLine
 10
38.401294
 20
144.44362
 30
0.0
 11
38.401294
 21
150.74362
 31
0.0
  0
LINE
  5
AFF
100
AcDbEntity
  8
ALPHA
  6
CONTINUOUS
100
AcDbLine
 10
37.901294
 20
144.94362
 30
0.0
 11
37.901294
 21
150.24362
 31
0.0
  0
LINE
  5
B00
100
AcDbEntity
  8
ALPHA
  6
CONTINUOUS
100
AcDbLine
 10
38.401294
 20
144.44362
 30
0.0
 11
37.901294
 21
144.94362
 31
0.0
  0
LINE
  5
B01
100
AcDbEntity
  8
ALPHA
  6
CONTINUOUS
100
AcDbLine
 10
38.631294
 20
144.44362
 30
0.0
 11
39.131294
 21
144.94362
 31
0.0
  0
LINE
  5
B02
100
AcDbEntity
  8
ALPHA
  6
CONTINUOUS
100
AcDbLine
 10
38.631294
 20
150.74362
 30
0.0
 11
39.131294
 21
150.24362
 31
0.0
  0
LINE
  5
B03
100
AcDbEntity
  8
ALPHA
  6
CONTINUOUS
100
AcDbLine
 10
38.401294
 20
150.74362
 30
0.0
 11
37.901294
 21
150.24362
 31
0.0
  0
LINE
  5
B04
100
AcDbEntity
  8
ALPHA
  6
CONTINUOUS
100
AcDbLine
 10
10.736294
 20
166.64362
 30
0.0
 11
17.636294
 21
166.64362
 31
0.0
  0
LINE
  5
B05
100
AcDbEntity
  8
ALPHA
  6
CONTINUOUS
100
AcDbLine
 10
10.736294
 20
166.44362
 30
0.0
 11
17.636294
 21
166.44362
 31
0.0
  0
LINE
  5
B06
100
AcDbEntity
  8
ALPHA
  6
CONTINUOUS
100
AcDbLine
 10
18.586294
 20
162.14362
 30
0.0
 11
9.786294
 21
162.14362
 31
0.0
  0
LINE
  5
B07
100
AcDbEntity
  8
ALPHA
  6
CONTINUOUS
100
AcDbLine
 10
18.686294
 20
161.64362
 30
0.0
 11
9.686294
 21
161.64362
 31
0.0
  0
LINE
  5
B08
100
AcDbEntity
  8
ALPHA
  6
CONTINUOUS
100
AcDbLine
 10
12.861294
 20
166.64362
 30
0.0
 11
12.861294
 21
163.353578
 31
0.0
  0
LINE
  5
B09
100
AcDbEntity
  8
ALPHA
  6
CONTINUOUS
100
AcDbLine
 10
10.861294
 20
164.22156
 30
0.0
 11
10.861294
 21
166.44362
 31
0.0
  0
LINE
  5
B0A
100
AcDbEntity
  8
ALPHA
  6
CONTINUOUS
100
AcDbLine
 10
9.986294
 20
164.196663
 30
0.0
 11
9.986294
 21
164.99362
 31
0.0
  0
LINE
  5
B0B
100
AcDbEntity
  8
ALPHA
  6
CONTINUOUS
100
AcDbLine
 10
9.786294
 20
162.14362
 30
0.0
 11
9.786294
 21
164.99362
 31
0.0
  0
LINE
  5
B0C
100
AcDbEntity
  8
ALPHA
  6
CONTINUOUS
100
AcDbLine
 10
9.686294
 20
161.64362
 30
0.0
 11
9.686294
 21
167.14362
 31
0.0
  0
POLYLINE
  5
B0D
100
AcDbEntity
  8
ALPHA
  6
CONTINUOUS
100
AcDb2dPolyline
 66
     1
 10
0.0
 20
0.0
 30
0.0
  0
VERTEX
  5
B0E
100
AcDbEntity
  8
ALPHA
  6
CONTINUOUS
100
AcDbVertex
100
AcDb2dVertex
 10
11.786294
 20
163.541517
 30
0.0
  0
VERTEX
  5
B0F
100
AcDbEntity
  8
ALPHA
  6
CONTINUOUS
100
AcDbVertex
100
AcDb2dVertex
 10
11.630588
 20
163.543973
 30
0.0
  0
VERTEX
  5
B10
100
AcDbEntity
  8
ALPHA
  6
CONTINUOUS
100
AcDbVertex
100
AcDb2dVertex
 10
11.464661
 20
163.552061
 30
0.0
  0
VERTEX
  5
B11
100
AcDbEntity
  8
ALPHA
  6
CONTINUOUS
100
AcDbVertex
100
AcDb2dVertex
 10
11.285514
 20
163.567382
 30
0.0
  0
VERTEX
  5
B12
100
AcDbEntity
  8
ALPHA
  6
CONTINUOUS
100
AcDbVertex
100
AcDb2dVertex
 10
11.091978
 20
163.592218
 30
0.0
  0
VERTEX
  5
B13
100
AcDbEntity
  8
ALPHA
  6
CONTINUOUS
100
AcDbVertex
100
AcDb2dVertex
 10
10.885322
 20
163.629494
 30
0.0
  0
VERTEX
  5
B14
100
AcDbEntity
  8
ALPHA
  6
CONTINUOUS
100
AcDbVertex
100
AcDb2dVertex
 10
10.670379
 20
163.68261
 30
0.0
  0
VERTEX
  5
B15
100
AcDbEntity
  8
ALPHA
  6
CONTINUOUS
100
AcDbVertex
100
AcDb2dVertex
 10
10.457988
 20
163.754533
 30
0.0
  0
VERTEX
  5
B16
100
AcDbEntity
  8
ALPHA
  6
CONTINUOUS
100
AcDbVertex
100
AcDb2dVertex
 10
10.265579
 20
163.846149
 30
0.0
  0
VERTEX
  5
B17
100
AcDbEntity
  8
ALPHA
  6
CONTINUOUS
100
AcDbVertex
100
AcDb2dVertex
 10
10.113059
 20
163.955155
 30
0.0
  0
VERTEX
  5
B18
100
AcDbEntity
  8
ALPHA
  6
CONTINUOUS
100
AcDbVertex
100
AcDb2dVertex
 10
10.017615
 20
164.074976
 30
0.0
  0
VERTEX
  5
B19
100
AcDbEntity
  8
ALPHA
  6
CONTINUOUS
100
AcDbVertex
100
AcDb2dVertex
 10
9.986294
 20
164.196663
 30
0.0
  0
SEQEND
  5
B1A
100
AcDbEntity
  8
ALPHA
  0
POLYLINE
  5
B1B
100
AcDbEntity
  8
ALPHA
  6
CONTINUOUS
100
AcDb2dPolyline
 66
     1
 10
0.0
 20
0.0
 30
0.0
  0
VERTEX
  5
B1C
100
AcDbEntity
  8
ALPHA
  6
CONTINUOUS
100
AcDbVertex
100
AcDb2dVertex
 10
11.786294
 20
163.353578
 30
0.0
  0
VERTEX
  5
B1D
100
AcDbEntity
  8
ALPHA
  6
CONTINUOUS
100
AcDbVertex
100
AcDb2dVertex
 10
11.613203
 20
163.356037
 30
0.0
  0
VERTEX
  5
B1E
100
AcDbEntity
  8
ALPHA
  6
CONTINUOUS
100
AcDbVertex
100
AcDb2dVertex
 10
11.428857
 20
163.364126
 30
0.0
  0
VERTEX
  5
B1F
100
AcDbEntity
  8
ALPHA
  6
CONTINUOUS
100
AcDbVertex
100
AcDb2dVertex
 10
11.229823
 20
163.379448
 30
0.0
  0
VERTEX
  5
B20
100
AcDbEntity
  8
ALPHA
  6
CONTINUOUS
100
AcDbVertex
100
AcDb2dVertex
 10
11.014804
 20
163.404283
 30
0.0
  0
VERTEX
  5
B21
100
AcDbEntity
  8
ALPHA
  6
CONTINUOUS
100
AcDbVertex
100
AcDb2dVertex
 10
10.785213
 20
163.441556
 30
0.0
  0
VERTEX
  5
B22
100
AcDbEntity
  8
ALPHA
  6
CONTINUOUS
100
AcDbVertex
100
AcDb2dVertex
 10
10.546422
 20
163.494662
 30
0.0
  0
VERTEX
  5
B23
100
AcDbEntity
  8
ALPHA
  6
CONTINUOUS
100
AcDbVertex
100
AcDb2dVertex
 10
10.310475
 20
163.566567
 30
0.0
  0
VERTEX
  5
B24
100
AcDbEntity
  8
ALPHA
  6
CONTINUOUS
100
AcDbVertex
100
AcDb2dVertex
 10
10.096729
 20
163.658149
 30
0.0
  0
VERTEX
  5
B25
100
AcDbEntity
  8
ALPHA
  6
CONTINUOUS
100
AcDbVertex
100
AcDb2dVertex
 10
9.92727
 20
163.767113
 30
0.0
  0
VERTEX
  5
B26
100
AcDbEntity
  8
ALPHA
  6
CONTINUOUS
100
AcDbVertex
100
AcDb2dVertex
 10
9.821178
 20
163.886896
 30
0.0
  0
VERTEX
  5
B27
100
AcDbEntity
  8
ALPHA
  6
CONTINUOUS
100
AcDbVertex
100
AcDb2dVertex
 10
9.786294
 20
164.008725
 30
0.0
  0
SEQEND
  5
B28
100
AcDbEntity
  8
ALPHA
  0
ARC
  5
B29
100
AcDbEntity
  8
ALPHA
  6
CONTINUOUS
100
AcDbCircle
 10
10.286294
 20
162.24362
 30
0.0
 40
0.6
100
AcDbArc
 50
180.0
 51
270.0
  0
ARC
  5
B2A
100
AcDbEntity
  8
ALPHA
  6
CONTINUOUS
100
AcDbCircle
 10
10.286294
 20
162.14362
 30
0.0
 40
0.5
100
AcDbArc
 50
180.0
 51
270.0
  0
LINE
  5
B2B
100
AcDbEntity
  8
ALPHA
  6
CONTINUOUS
100
AcDbLine
 10
9.686294
 20
162.585041
 30
0.0
 11
9.786294
 21
162.585041
 31
0.0
  0
POLYLINE
  5
B2C
100
AcDbEntity
  8
ALPHA
  6
CONTINUOUS
100
AcDb2dPolyline
 66
     1
 10
0.0
 20
0.0
 30
0.0
  0
VERTEX
  5
B2D
100
AcDbEntity
  8
ALPHA
  6
CONTINUOUS
100
AcDbVertex
100
AcDb2dVertex
 10
9.686294
 20
162.24362
 30
0.0
  0
VERTEX
  5
B2E
100
AcDbEntity
  8
ALPHA
  6
CONTINUOUS
100
AcDbVertex
100
AcDb2dVertex
 10
9.720646
 20
162.122419
 30
0.0
  0
VERTEX
  5
B2F
100
AcDbEntity
  8
ALPHA
  6
CONTINUOUS
100
AcDbVertex
100
AcDb2dVertex
 10
9.795742
 20
162.071855
 30
0.0
  0
SEQEND
  5
B30
100
AcDbEntity
  8
ALPHA
  0
POLYLINE
  5
B31
100
AcDbEntity
  8
ALPHA
  6
CONTINUOUS
100
AcDb2dPolyline
 66
     1
 10
0.0
 20
0.0
 30
0.0
  0
VERTEX
  5
B32
100
AcDbEntity
  8
ALPHA
  6
CONTINUOUS
100
AcDbVertex
100
AcDb2dVertex
 10
9.786294
 20
164.008725
 30
0.0
  0
VERTEX
  5
B33
100
AcDbEntity
  8
ALPHA
  6
CONTINUOUS
100
AcDbVertex
100
AcDb2dVertex
 10
9.796083
 20
164.066801
 30
0.0
  0
VERTEX
  5
B34
100
AcDbEntity
  8
ALPHA
  6
CONTINUOUS
100
AcDbVertex
100
AcDb2dVertex
 10
9.824491
 20
164.119192
 30
0.0
  0
VERTEX
  5
B35
100
AcDbEntity
  8
ALPHA
  6
CONTINUOUS
100
AcDbVertex
100
AcDb2dVertex
 10
9.868737
 20
164.16077
 30
0.0
  0
VERTEX
  5
B36
100
AcDbEntity
  8
ALPHA
  6
CONTINUOUS
100
AcDbVertex
100
AcDb2dVertex
 10
9.924491
 20
164.187465
 30
0.0
  0
VERTEX
  5
B37
100
AcDbEntity
  8
ALPHA
  6
CONTINUOUS
100
AcDbVertex
100
AcDb2dVertex
 10
9.986294
 20
164.196663
 30
0.0
  0
SEQEND
  5
B38
100
AcDbEntity
  8
ALPHA
  0
LINE
  5
B39
100
AcDbEntity
  8
ALPHA
  6
CONTINUOUS
100
AcDbLine
 10
12.147805
 20
163.541517
 30
0.0
 11
11.786294
 21
163.541517
 31
0.0
  0
LINE
  5
B3A
100
AcDbEntity
  8
ALPHA
  6
CONTINUOUS
100
AcDbLine
 10
12.861294
 20
163.353578
 30
0.0
 11
11.786294
 21
163.353578
 31
0.0
  0
POLYLINE
  5
B3B
100
AcDbEntity
  8
ALPHA
  6
CONTINUOUS
100
AcDb2dPolyline
 66
     1
 10
0.0
 20
0.0
 30
0.0
  0
VERTEX
  5
B3C
100
AcDbEntity
  8
ALPHA
  6
CONTINUOUS
100
AcDbVertex
100
AcDb2dVertex
 10
12.147805
 20
163.541517
 30
0.0
  0
VERTEX
  5
B3D
100
AcDbEntity
  8
ALPHA
  6
CONTINUOUS
100
AcDbVertex
100
AcDb2dVertex
 10
12.38342
 20
163.494348
 30
0.0
  0
VERTEX
  5
B3E
100
AcDbEntity
  8
ALPHA
  6
CONTINUOUS
100
AcDbVertex
100
AcDb2dVertex
 10
12.621834
 20
163.428062
 30
0.0
  0
VERTEX
  5
B3F
100
AcDbEntity
  8
ALPHA
  6
CONTINUOUS
100
AcDbVertex
100
AcDb2dVertex
 10
12.861294
 20
163.353578
 30
0.0
  0
SEQEND
  5
B40
100
AcDbEntity
  8
ALPHA
  0
POLYLINE
  5
B41
100
AcDbEntity
  8
ALPHA
  6
CONTINUOUS
100
AcDb2dPolyline
 66
     1
 10
0.0
 20
0.0
 30
0.0
  0
VERTEX
  5
B42
100
AcDbEntity
  8
ALPHA
  6
CONTINUOUS
100
AcDbVertex
100
AcDb2dVertex
 10
12.147805
 20
163.541517
 30
0.0
  0
VERTEX
  5
B43
100
AcDbEntity
  8
ALPHA
  6
CONTINUOUS
100
AcDbVertex
100
AcDb2dVertex
 10
11.847574
 20
163.594055
 30
0.0
  0
VERTEX
  5
B44
100
AcDbEntity
  8
ALPHA
  6
CONTINUOUS
100
AcDbVertex
100
AcDb2dVertex
 10
11.571704
 20
163.665155
 30
0.0
  0
VERTEX
  5
B45
100
AcDbEntity
  8
ALPHA
  6
CONTINUOUS
100
AcDbVertex
100
AcDb2dVertex
 10
11.331227
 20
163.752774
 30
0.0
  0
VERTEX
  5
B46
100
AcDbEntity
  8
ALPHA
  6
CONTINUOUS
100
AcDbVertex
100
AcDb2dVertex
 10
11.132307
 20
163.855666
 30
0.0
  0
VERTEX
  5
B47
100
AcDbEntity
  8
ALPHA
  6
CONTINUOUS
100
AcDbVertex
100
AcDb2dVertex
 10
10.984238
 20
163.970273
 30
0.0
  0
VERTEX
  5
B48
100
AcDbEntity
  8
ALPHA
  6
CONTINUOUS
100
AcDbVertex
100
AcDb2dVertex
 10
10.892453
 20
164.093567
 30
0.0
  0
VERTEX
  5
B49
100
AcDbEntity
  8
ALPHA
  6
CONTINUOUS
100
AcDbVertex
100
AcDb2dVertex
 10
10.861294
 20
164.22156
 30
0.0
  0
SEQEND
  5
B4A
100
AcDbEntity
  8
ALPHA
  0
LINE
  5
B4B
100
AcDbEntity
  8
ALPHA
  6
CONTINUOUS
100
AcDbLine
 10
11.786294
 20
161.64362
 30
0.0
 11
11.786294
 21
163.541517
 31
0.0
  0
ARC
  5
B4C
100
AcDbEntity
  8
ALPHA
  6
CONTINUOUS
100
AcDbCircle
 10
11.061294
 20
166.44362
 30
0.0
 40
0.2
100
AcDbArc
 50
90.0
 51
180.0
  0
LINE
  5
B4D
100
AcDbEntity
  8
ALPHA
  6
CONTINUOUS
100
AcDbLine
 10
9.686294
 20
164.99362
 30
0.0
 11
10.861294
 21
164.99362
 31
0.0
  0
ARC
  5
B4E
100
AcDbEntity
  8
ALPHA
  6
CONTINUOUS
100
AcDbCircle
 10
9.986294
 20
164.79362
 30
0.0
 40
0.2
100
AcDbArc
 50
90.0
 51
180.0
  0
LINE
  5
B4F
100
AcDbEntity
  8
ALPHA
  6
CONTINUOUS
100
AcDbLine
 10
10.736294
 20
167.14362
 30
0.0
 11
10.736294
 21
164.99362
 31
0.0
  0
LINE
  5
B50
100
AcDbEntity
  8
ALPHA
  6
CONTINUOUS
100
AcDbLine
 10
18.686294
 20
167.14362
 30
0.0
 11
18.686294
 21
161.64362
 31
0.0
  0
LINE
  5
B51
100
AcDbEntity
  8
ALPHA
  6
CONTINUOUS
100
AcDbLine
 10
18.586294
 20
164.79362
 30
0.0
 11
18.586294
 21
162.14362
 31
0.0
  0
LINE
  5
B52
100
AcDbEntity
  8
ALPHA
  6
CONTINUOUS
100
AcDbLine
 10
18.386294
 20
164.99362
 30
0.0
 11
18.386294
 21
164.196663
 31
0.0
  0
LINE
  5
B53
100
AcDbEntity
  8
ALPHA
  6
CONTINUOUS
100
AcDbLine
 10
17.511294
 20
166.44362
 30
0.0
 11
17.511294
 21
164.22156
 31
0.0
  0
LINE
  5
B54
100
AcDbEntity
  8
ALPHA
  6
CONTINUOUS
100
AcDbLine
 10
15.511294
 20
163.353578
 30
0.0
 11
15.511294
 21
166.64362
 31
0.0
  0
POLYLINE
  5
B55
100
AcDbEntity
  8
ALPHA
  6
CONTINUOUS
100
AcDb2dPolyline
 66
     1
 10
0.0
 20
0.0
 30
0.0
  0
VERTEX
  5
B56
100
AcDbEntity
  8
ALPHA
  6
CONTINUOUS
100
AcDbVertex
100
AcDb2dVertex
 10
18.386294
 20
164.196663
 30
0.0
  0
VERTEX
  5
B57
100
AcDbEntity
  8
ALPHA
  6
CONTINUOUS
100
AcDbVertex
100
AcDb2dVertex
 10
18.35487
 20
164.074778
 30
0.0
  0
VERTEX
  5
B58
100
AcDbEntity
  8
ALPHA
  6
CONTINUOUS
100
AcDbVertex
100
AcDb2dVertex
 10
18.259156
 20
163.954813
 30
0.0
  0
VERTEX
  5
B59
100
AcDbEntity
  8
ALPHA
  6
CONTINUOUS
100
AcDbVertex
100
AcDb2dVertex
 10
18.10634
 20
163.845765
 30
0.0
  0
VERTEX
  5
B5A
100
AcDbEntity
  8
ALPHA
  6
CONTINUOUS
100
AcDbVertex
100
AcDb2dVertex
 10
17.913747
 20
163.754193
 30
0.0
  0
VERTEX
  5
B5B
100
AcDbEntity
  8
ALPHA
  6
CONTINUOUS
100
AcDbVertex
100
AcDb2dVertex
 10
17.701338
 20
163.68236
 30
0.0
  0
VERTEX
  5
B5C
100
AcDbEntity
  8
ALPHA
  6
CONTINUOUS
100
AcDbVertex
100
AcDb2dVertex
 10
17.486512
 20
163.629336
 30
0.0
  0
VERTEX
  5
B5D
100
AcDbEntity
  8
ALPHA
  6
CONTINUOUS
100
AcDbVertex
100
AcDb2dVertex
 10
17.280034
 20
163.59213
 30
0.0
  0
VERTEX
  5
B5E
100
AcDbEntity
  8
ALPHA
  6
CONTINUOUS
100
AcDbVertex
100
AcDb2dVertex
 10
17.086688
 20
163.567341
 30
0.0
  0
VERTEX
  5
B5F
100
AcDbEntity
  8
ALPHA
  6
CONTINUOUS
100
AcDbVertex
100
AcDb2dVertex
 10
16.907713
 20
163.552046
 30
0.0
  0
VERTEX
  5
B60
100
AcDbEntity
  8
ALPHA
  6
CONTINUOUS
100
AcDbVertex
100
AcDb2dVertex
 10
16.741918
 20
163.54397
 30
0.0
  0
VERTEX
  5
B61
100
AcDbEntity
  8
ALPHA
  6
CONTINUOUS
100
AcDbVertex
100
AcDb2dVertex
 10
16.586294
 20
163.541517
 30
0.0
  0
SEQEND
  5
B62
100
AcDbEntity
  8
ALPHA
  0
POLYLINE
  5
B63
100
AcDbEntity
  8
ALPHA
  6
CONTINUOUS
100
AcDb2dPolyline
 66
     1
 10
0.0
 20
0.0
 30
0.0
  0
VERTEX
  5
B64
100
AcDbEntity
  8
ALPHA
  6
CONTINUOUS
100
AcDbVertex
100
AcDb2dVertex
 10
18.586294
 20
164.008725
 30
0.0
  0
VERTEX
  5
B65
100
AcDbEntity
  8
ALPHA
  6
CONTINUOUS
100
AcDbVertex
100
AcDb2dVertex
 10
18.551288
 20
163.886685
 30
0.0
  0
VERTEX
  5
B66
100
AcDbEntity
  8
ALPHA
  6
CONTINUOUS
100
AcDbVertex
100
AcDb2dVertex
 10
18.444888
 20
163.766758
 30
0.0
  0
VERTEX
  5
B67
100
AcDbEntity
  8
ALPHA
  6
CONTINUOUS
100
AcDbVertex
100
AcDb2dVertex
 10
18.275093
 20
163.657754
 30
0.0
  0
VERTEX
  5
B68
100
AcDbEntity
  8
ALPHA
  6
CONTINUOUS
100
AcDbVertex
100
AcDb2dVertex
 10
18.061141
 20
163.566219
 30
0.0
  0
VERTEX
  5
B69
100
AcDbEntity
  8
ALPHA
  6
CONTINUOUS
100
AcDbVertex
100
AcDb2dVertex
 10
17.825179
 20
163.494407
 30
0.0
  0
VERTEX
  5
B6A
100
AcDbEntity
  8
ALPHA
  6
CONTINUOUS
100
AcDbVertex
100
AcDb2dVertex
 10
17.586522
 20
163.441394
 30
0.0
  0
VERTEX
  5
B6B
100
AcDbEntity
  8
ALPHA
  6
CONTINUOUS
100
AcDbVertex
100
AcDb2dVertex
 10
17.357133
 20
163.404194
 30
0.0
  0
VERTEX
  5
B6C
100
AcDbEntity
  8
ALPHA
  6
CONTINUOUS
100
AcDbVertex
100
AcDb2dVertex
 10
17.142328
 20
163.379407
 30
0.0
  0
VERTEX
  5
B6D
100
AcDbEntity
  8
ALPHA
  6
CONTINUOUS
100
AcDbVertex
100
AcDb2dVertex
 10
16.943487
 20
163.364112
 30
0.0
  0
VERTEX
  5
B6E
100
AcDbEntity
  8
ALPHA
  6
CONTINUOUS
100
AcDbVertex
100
AcDb2dVertex
 10
16.759289
 20
163.356034
 30
0.0
  0
VERTEX
  5
B6F
100
AcDbEntity
  8
ALPHA
  6
CONTINUOUS
100
AcDbVertex
100
AcDb2dVertex
 10
16.586294
 20
163.353578
 30
0.0
  0
SEQEND
  5
B70
100
AcDbEntity
  8
ALPHA
  0
POLYLINE
  5
B71
100
AcDbEntity
  8
ALPHA
  6
CONTINUOUS
100
AcDb2dPolyline
 66
     1
 10
0.0
 20
0.0
 30
0.0
  0
VERTEX
  5
B72
100
AcDbEntity
  8
ALPHA
  6
CONTINUOUS
100
AcDbVertex
100
AcDb2dVertex
 10
17.511294
 20
164.22156
 30
0.0
  0
VERTEX
  5
B73
100
AcDbEntity
  8
ALPHA
  6
CONTINUOUS
100
AcDbVertex
100
AcDb2dVertex
 10
17.480135
 20
164.093567
 30
0.0
  0
VERTEX
  5
B74
100
AcDbEntity
  8
ALPHA
  6
CONTINUOUS
100
AcDbVertex
100
AcDb2dVertex
 10
17.38835
 20
163.970273
 30
0.0
  0
VERTEX
  5
B75
100
AcDbEntity
  8
ALPHA
  6
CONTINUOUS
100
AcDbVertex
100
AcDb2dVertex
 10
17.240281
 20
163.855666
 30
0.0
  0
VERTEX
  5
B76
100
AcDbEntity
  8
ALPHA
  6
CONTINUOUS
100
AcDbVertex
100
AcDb2dVertex
 10
17.041361
 20
163.752774
 30
0.0
  0
VERTEX
  5
B77
100
AcDbEntity
  8
ALPHA
  6
CONTINUOUS
100
AcDbVertex
100
AcDb2dVertex
 10
16.800884
 20
163.665155
 30
0.0
  0
VERTEX
  5
B78
100
AcDbEntity
  8
ALPHA
  6
CONTINUOUS
100
AcDbVertex
100
AcDb2dVertex
 10
16.525014
 20
163.594055
 30
0.0
  0
VERTEX
  5
B79
100
AcDbEntity
  8
ALPHA
  6
CONTINUOUS
100
AcDbVertex
100
AcDb2dVertex
 10
16.224783
 20
163.541517
 30
0.0
  0
SEQEND
  5
B7A
100
AcDbEntity
  8
ALPHA
  0
LINE
  5
B7B
100
AcDbEntity
  8
ALPHA
  6
CONTINUOUS
100
AcDbLine
 10
16.586294
 20
163.541517
 30
0.0
 11
16.224783
 21
163.541517
 31
0.0
  0
LINE
  5
B7C
100
AcDbEntity
  8
ALPHA
  6
CONTINUOUS
100
AcDbLine
 10
16.586294
 20
163.353578
 30
0.0
 11
15.511294
 21
163.353578
 31
0.0
  0
LINE
  5
B7D
100
AcDbEntity
  8
ALPHA
  6
CONTINUOUS
100
AcDbLine
 10
16.586294
 20
161.64362
 30
0.0
 11
16.586294
 21
163.541517
 31
0.0
  0
POLYLINE
  5
B7E
100
AcDbEntity
  8
ALPHA
  6
CONTINUOUS
100
AcDb2dPolyline
 66
     1
 10
0.0
 20
0.0
 30
0.0
  0
VERTEX
  5
B7F
100
AcDbEntity
  8
ALPHA
  6
CONTINUOUS
100
AcDbVertex
100
AcDb2dVertex
 10
15.511294
 20
163.353578
 30
0.0
  0
VERTEX
  5
B80
100
AcDbEntity
  8
ALPHA
  6
CONTINUOUS
100
AcDbVertex
100
AcDb2dVertex
 10
15.750754
 20
163.428062
 30
0.0
  0
VERTEX
  5
B81
100
AcDbEntity
  8
ALPHA
  6
CONTINUOUS
100
AcDbVertex
100
AcDb2dVertex
 10
15.989168
 20
163.494348
 30
0.0
  0
VERTEX
  5
B82
100
AcDbEntity
  8
ALPHA
  6
CONTINUOUS
100
AcDbVertex
100
AcDb2dVertex
 10
16.224783
 20
163.541517
 30
0.0
  0
SEQEND
  5
B83
100
AcDbEntity
  8
ALPHA
  0
ARC
  5
B84
100
AcDbEntity
  8
ALPHA
  6
CONTINUOUS
100
AcDbCircle
 10
18.086294
 20
162.14362
 30
0.0
 40
0.5
100
AcDbArc
 50
270.0
 51
0.0
  0
LINE
  5
B85
100
AcDbEntity
  8
ALPHA
  6
CONTINUOUS
100
AcDbLine
 10
18.486294
 20
161.84362
 30
0.0
 11
18.686294
 21
161.84362
 31
0.0
  0
POLYLINE
  5
B86
100
AcDbEntity
  8
ALPHA
  6
CONTINUOUS
100
AcDb2dPolyline
 66
     1
 10
0.0
 20
0.0
 30
0.0
  0
VERTEX
  5
B87
100
AcDbEntity
  8
ALPHA
  6
CONTINUOUS
100
AcDbVertex
100
AcDb2dVertex
 10
18.586294
 20
164.008725
 30
0.0
  0
VERTEX
  5
B88
100
AcDbEntity
  8
ALPHA
  6
CONTINUOUS
100
AcDbVertex
100
AcDb2dVertex
 10
18.576505
 20
164.066801
 30
0.0
  0
VERTEX
  5
B89
100
AcDbEntity
  8
ALPHA
  6
CONTINUOUS
100
AcDbVertex
100
AcDb2dVertex
 10
18.548097
 20
164.119193
 30
0.0
  0
VERTEX
  5
B8A
100
AcDbEntity
  8
ALPHA
  6
CONTINUOUS
100
AcDbVertex
100
AcDb2dVertex
 10
18.503851
 20
164.16077
 30
0.0
  0
VERTEX
  5
B8B
100
AcDbEntity
  8
ALPHA
  6
CONTINUOUS
100
AcDbVertex
100
AcDb2dVertex
 10
18.448097
 20
164.187465
 30
0.0
  0
VERTEX
  5
B8C
100
AcDbEntity
  8
ALPHA
  6
CONTINUOUS
100
AcDbVertex
100
AcDb2dVertex
 10
18.386294
 20
164.196663
 30
0.0
  0
SEQEND
  5
B8D
100
AcDbEntity
  8
ALPHA
  0
ARC
  5
B8E
100
AcDbEntity
  8
ALPHA
  6
CONTINUOUS
100
AcDbCircle
 10
17.311294
 20
166.44362
 30
0.0
 40
0.2
100
AcDbArc
 50
0.0
 51
90.0
  0
ARC
  5
B8F
100
AcDbEntity
  8
ALPHA
  6
CONTINUOUS
100
AcDbCircle
 10
18.386294
 20
164.79362
 30
0.0
 40
0.2
100
AcDbArc
 50
0.0
 51
90.0
  0
LINE
  5
B90
100
AcDbEntity
  8
ALPHA
  6
CONTINUOUS
100
AcDbLine
 10
17.511294
 20
164.99362
 30
0.0
 11
18.686294
 21
164.99362
 31
0.0
  0
LINE
  5
B91
100
AcDbEntity
  8
ALPHA
  6
CONTINUOUS
100
AcDbLine
 10
17.636294
 20
167.14362
 30
0.0
 11
17.636294
 21
164.99362
 31
0.0
  0
ARC
  5
B92
100
AcDbEntity
  8
ALPHA
  6
CONTINUOUS
100
AcDbCircle
 10
64.08046
 20
125.44362
 30
0.0
 40
19.2
100
AcDbArc
 50
164.207758
 51
195.792242
  0
ARC
  5
B93
100
AcDbEntity
  8
ALPHA
  6
CONTINUOUS
100
AcDbCircle
 10
28.092128
 20
125.44362
 30
0.0
 40
19.2
100
AcDbArc
 50
344.207758
 51
15.792242
  0
ARC
  5
B94
100
AcDbEntity
  8
ALPHA
  6
CONTINUOUS
100
AcDbCircle
 10
68.08046
 20
125.44362
 30
0.0
 40
19.2
100
AcDbArc
 50
164.207758
 51
195.792242
  0
ARC
  5
B95
100
AcDbEntity
  8
ALPHA
  6
CONTINUOUS
100
AcDbCircle
 10
32.092128
 20
125.44362
 30
0.0
 40
19.2
100
AcDbArc
 50
344.207758
 51
15.792242
  0
ARC
  5
B96
100
AcDbEntity
  8
ALPHA
  6
CONTINUOUS
100
AcDbCircle
 10
72.08046
 20
125.44362
 30
0.0
 40
19.2
100
AcDbArc
 50
164.207758
 51
195.792242
  0
ARC
  5
B97
100
AcDbEntity
  8
ALPHA
  6
CONTINUOUS
100
AcDbCircle
 10
36.092128
 20
125.44362
 30
0.0
 40
19.2
100
AcDbArc
 50
344.207758
 51
15.792242
  0
ARC
  5
B98
100
AcDbEntity
  8
ALPHA
  6
CONTINUOUS
100
AcDbCircle
 10
76.08046
 20
125.44362
 30
0.0
 40
19.2
100
AcDbArc
 50
164.207758
 51
195.792242
  0
ARC
  5
B99
100
AcDbEntity
  8
ALPHA
  6
CONTINUOUS
100
AcDbCircle
 10
40.092128
 20
125.44362
 30
0.0
 40
19.2
100
AcDbArc
 50
344.207758
 51
15.792242
  0
ARC
  5
B9A
100
AcDbEntity
  8
ALPHA
  6
CONTINUOUS
100
AcDbCircle
 10
80.08046
 20
125.44362
 30
0.0
 40
19.2
100
AcDbArc
 50
164.207758
 51
195.792242
  0
ARC
  5
B9B
100
AcDbEntity
  8
ALPHA
  6
CONTINUOUS
100
AcDbCircle
 10
44.092128
 20
125.44362
 30
0.0
 40
19.2
100
AcDbArc
 50
344.207758
 51
15.792242
  0
ARC
  5
B9C
100
AcDbEntity
  8
ALPHA
  6
CONTINUOUS
100
AcDbCircle
 10
84.08046
 20
125.44362
 30
0.0
 40
19.2
100
AcDbArc
 50
164.207758
 51
195.792242
  0
ARC
  5
B9D
100
AcDbEntity
  8
ALPHA
  6
CONTINUOUS
100
AcDbCircle
 10
48.092128
 20
125.44362
 30
0.0
 40
19.2
100
AcDbArc
 50
344.207758
 51
15.792242
  0
ARC
  5
B9E
100
AcDbEntity
  8
ALPHA
  6
CONTINUOUS
100
AcDbCircle
 10
88.08046
 20
125.44362
 30
0.0
 40
19.2
100
AcDbArc
 50
164.207758
 51
195.792242
  0
ARC
  5
B9F
100
AcDbEntity
  8
ALPHA
  6
CONTINUOUS
100
AcDbCircle
 10
52.092128
 20
125.44362
 30
0.0
 40
19.2
100
AcDbArc
 50
344.207758
 51
15.792242
  0
ARC
  5
BA0
100
AcDbEntity
  8
ALPHA
  6
CONTINUOUS
100
AcDbCircle
 10
92.08046
 20
125.44362
 30
0.0
 40
19.2
100
AcDbArc
 50
164.207758
 51
195.792242
  0
ARC
  5
BA1
100
AcDbEntity
  8
ALPHA
  6
CONTINUOUS
100
AcDbCircle
 10
56.092128
 20
125.44362
 30
0.0
 40
19.2
100
AcDbArc
 50
344.207758
 51
15.792242
  0
ARC
  5
BA2
100
AcDbEntity
  8
ALPHA
  6
CONTINUOUS
100
AcDbCircle
 10
64.08046
 20
125.44362
 30
0.0
 40
19.0
100
AcDbArc
 50
164.207758
 51
195.792242
  0
ARC
  5
BA3
100
AcDbEntity
  8
ALPHA
  6
CONTINUOUS
100
AcDbCircle
 10
28.092128
 20
125.44362
 30
0.0
 40
19.0
100
AcDbArc
 50
344.207758
 51
15.792242
  0
ARC
  5
BA4
100
AcDbEntity
  8
ALPHA
  6
CONTINUOUS
100
AcDbCircle
 10
68.08046
 20
125.44362
 30
0.0
 40
19.0
100
AcDbArc
 50
164.207758
 51
195.792242
  0
ARC
  5
BA5
100
AcDbEntity
  8
ALPHA
  6
CONTINUOUS
100
AcDbCircle
 10
32.092128
 20
125.44362
 30
0.0
 40
19.0
100
AcDbArc
 50
344.207758
 51
15.792242
  0
ARC
  5
BA6
100
AcDbEntity
  8
ALPHA
  6
CONTINUOUS
100
AcDbCircle
 10
72.08046
 20
125.44362
 30
0.0
 40
19.0
100
AcDbArc
 50
164.207758
 51
195.792242
  0
ARC
  5
BA7
100
AcDbEntity
  8
ALPHA
  6
CONTINUOUS
100
AcDbCircle
 10
36.092128
 20
125.44362
 30
0.0
 40
19.0
100
AcDbArc
 50
344.207758
 51
15.792242
  0
ARC
  5
BA8
100
AcDbEntity
  8
ALPHA
  6
CONTINUOUS
100
AcDbCircle
 10
76.08046
 20
125.44362
 30
0.0
 40
19.0
100
AcDbArc
 50
164.207758
 51
195.792242
  0
ARC
  5
BA9
100
AcDbEntity
  8
ALPHA
  6
CONTINUOUS
100
AcDbCircle
 10
40.092128
 20
125.44362
 30
0.0
 40
19.0
100
AcDbArc
 50
344.207758
 51
15.792242
  0
ARC
  5
BAA
100
AcDbEntity
  8
ALPHA
  6
CONTINUOUS
100
AcDbCircle
 10
80.08046
 20
125.44362
 30
0.0
 40
19.0
100
AcDbArc
 50
164.207758
 51
195.792242
  0
ARC
  5
BAB
100
AcDbEntity
  8
ALPHA
  6
CONTINUOUS
100
AcDbCircle
 10
44.092128
 20
125.44362
 30
0.0
 40
19.0
100
AcDbArc
 50
344.207758
 51
15.792242
  0
ARC
  5
BAC
100
AcDbEntity
  8
ALPHA
  6
CONTINUOUS
100
AcDbCircle
 10
84.08046
 20
125.44362
 30
0.0
 40
19.0
100
AcDbArc
 50
164.207758
 51
195.792242
  0
ARC
  5
BAD
100
AcDbEntity
  8
ALPHA
  6
CONTINUOUS
100
AcDbCircle
 10
48.092128
 20
125.44362
 30
0.0
 40
19.0
100
AcDbArc
 50
344.207758
 51
15.792242
  0
ARC
  5
BAE
100
AcDbEntity
  8
ALPHA
  6
CONTINUOUS
100
AcDbCircle
 10
88.08046
 20
125.44362
 30
0.0
 40
19.0
100
AcDbArc
 50
164.207758
 51
195.792242
  0
ARC
  5
BAF
100
AcDbEntity
  8
ALPHA
  6
CONTINUOUS
100
AcDbCircle
 10
52.092128
 20
125.44362
 30
0.0
 40
19.0
100
AcDbArc
 50
344.207758
 51
15.792242
  0
ARC
  5
BB0
100
AcDbEntity
  8
ALPHA
  6
CONTINUOUS
100
AcDbCircle
 10
92.08046
 20
125.44362
 30
0.0
 40
19.0
100
AcDbArc
 50
164.207758
 51
195.792242
  0
ARC
  5
BB1
100
AcDbEntity
  8
ALPHA
  6
CONTINUOUS
100
AcDbCircle
 10
56.092128
 20
125.44362
 30
0.0
 40
19.0
100
AcDbArc
 50
344.207758
 51
15.792242
  0
LINE
  5
BB2
100
AcDbEntity
  8
ALPHA
  6
CONTINUOUS
100
AcDbLine
 10
79.686294
 20
113.481244
 30
0.0
 11
79.686294
 21
167.14362
 31
0.0
  0
LINE
  5
BB3
100
AcDbEntity
  8
ALPHA
  6
CONTINUOUS
100
AcDbLine
 10
79.036294
 20
133.633509
 30
0.0
 11
79.036294
 21
118.04362
 31
0.0
  0
LINE
  5
BB4
100
AcDbEntity
  8
ALPHA
  6
CONTINUOUS
100
AcDbLine
 10
66.086294
 20
124.64362
 30
0.0
 11
66.547376
 21
129.913806
 31
0.0
  0
LINE
  5
BB5
100
AcDbEntity
  8
ALPHA
  6
CONTINUOUS
100
AcDbLine
 10
66.807659
 20
128.632961
 30
0.0
 11
66.748956
 21
121.906234
 31
0.0
  0
LINE
  5
BB6
100
AcDbEntity
  8
ALPHA
  6
CONTINUOUS
100
AcDbLine
 10
62.496294
 20
130.121404
 30
0.0
 11
62.496294
 21
127.05362
 31
0.0
  0
LINE
  5
BB7
100
AcDbEntity
  8
ALPHA
  6
CONTINUOUS
100
AcDbLine
 10
61.856294
 20
130.724083
 30
0.0
 11
61.856294
 21
127.05362
 31
0.0
  0
LINE
  5
BB8
100
AcDbEntity
  8
ALPHA
  6
CONTINUOUS
100
AcDbLine
 10
57.416294
 20
128.937405
 30
0.0
 11
57.416294
 21
127.05362
 31
0.0
  0
LINE
  5
BB9
100
AcDbEntity
  8
ALPHA
  6
CONTINUOUS
100
AcDbLine
 10
54.876294
 20
128.227284
 30
0.0
 11
54.876294
 21
127.05362
 31
0.0
  0
LINE
  5
BBA
100
AcDbEntity
  8
ALPHA
  6
CONTINUOUS
100
AcDbLine
 10
54.236294
 20
130.786789
 30
0.0
 11
54.236294
 21
127.05362
 31
0.0
  0
LINE
  5
BBB
100
AcDbEntity
  8
ALPHA
  6
CONTINUOUS
100
AcDbLine
 10
49.796294
 20
130.609082
 30
0.0
 11
49.796294
 21
127.05362
 31
0.0
  0
LINE
  5
BBC
100
AcDbEntity
  8
ALPHA
  6
CONTINUOUS
100
AcDbLine
 10
46.616294
 20
129.633719
 30
0.0
 11
46.616294
 21
127.05362
 31
0.0
  0
ARC
  5
BBD
100
AcDbEntity
  8
ALPHA
  6
CONTINUOUS
100
AcDbCircle
 10
66.086294
 20
120.354416
 30
0.0
 40
0.499994
100
AcDbArc
 50
195.792242
 51
344.207758
  0
ARC
  5
BBE
100
AcDbEntity
  8
ALPHA
  6
CONTINUOUS
100
AcDbCircle
 10
66.086294
 20
120.354416
 30
0.0
 40
0.3
100
AcDbArc
 50
195.792242
 51
344.207758
  0
LINE
  5
BBF
100
AcDbEntity
  8
ALPHA
  6
CONTINUOUS
100
AcDbLine
 10
65.216682
 20
123.24362
 30
0.0
 11
66.760627
 21
123.24362
 31
0.0
  0
LINE
  5
BC0
100
AcDbEntity
  8
ALPHA
  6
CONTINUOUS
100
AcDbLine
 10
66.704758
 20
121.64362
 30
0.0
 11
65.468244
 21
121.64362
 31
0.0
  0
ARC
  5
BC1
100
AcDbEntity
  8
ALPHA
  6
CONTINUOUS
100
AcDbCircle
 10
44.086294
 20
309.699717
 30
0.0
 40
200.0
100
AcDbArc
 50
270.006059
 51
276.171221
  0
ARC
  5
BC2
100
AcDbEntity
  8
ALPHA
  6
CONTINUOUS
100
AcDbCircle
 10
48.286294
 20
111.79362
 30
0.0
 40
4.15
100
AcDbArc
 50
235.447289
 51
304.552711
  0
LINE
  5
BC3
100
AcDbEntity
  8
ALPHA
  6
CONTINUOUS
100
AcDbLine
 10
50.986294
 20
109.034544
 30
0.0
 11
45.586294
 21
109.034544
 31
0.0
  0
LINE
  5
BC4
100
AcDbEntity
  8
ALPHA
  6
CONTINUOUS
100
AcDbLine
 10
50.640025
 20
108.37566
 30
0.0
 11
45.932563
 21
108.37566
 31
0.0
  0
ARC
  5
BC5
100
AcDbEntity
  8
ALPHA
  6
CONTINUOUS
100
AcDbCircle
 10
46.386294
 20
109.034544
 30
0.0
 40
0.8
100
AcDbArc
 50
180.0
 51
235.447289
  0
LINE
  5
BC6
100
AcDbEntity
  8
ALPHA
  6
CONTINUOUS
100
AcDbLine
 10
45.586294
 20
109.72857
 30
0.0
 11
45.586294
 21
109.034544
 31
0.0
  0
LINE
  5
BC7
100
AcDbEntity
  8
ALPHA
  6
CONTINUOUS
100
AcDbLine
 10
44.096973
 20
109.699711
 30
0.0
 11
44.107444
 21
109.699712
 31
0.0
  0
ARC
  5
BC8
100
AcDbEntity
  8
ALPHA
  6
CONTINUOUS
100
AcDbCircle
 10
50.186294
 20
109.034544
 30
0.0
 40
0.8
100
AcDbArc
 50
304.552711
 51
0.0
  0
LINE
  5
BC9
100
AcDbEntity
  8
ALPHA
  6
CONTINUOUS
100
AcDbLine
 10
50.986294
 20
109.847501
 30
0.0
 11
50.986294
 21
109.034544
 31
0.0
  0
ARC
  5
BCA
100
AcDbEntity
  8
ALPHA
  6
CONTINUOUS
100
AcDbCircle
 10
58.486294
 20
112.39362
 30
0.0
 40
4.15
100
AcDbArc
 50
235.447289
 51
304.552711
  0
LINE
  5
BCB
100
AcDbEntity
  8
ALPHA
  6
CONTINUOUS
100
AcDbLine
 10
61.186294
 20
109.634544
 30
0.0
 11
55.786294
 21
109.634544
 31
0.0
  0
LINE
  5
BCC
100
AcDbEntity
  8
ALPHA
  6
CONTINUOUS
100
AcDbLine
 10
60.840025
 20
108.97566
 30
0.0
 11
56.132563
 21
108.97566
 31
0.0
  0
ARC
  5
BCD
100
AcDbEntity
  8
ALPHA
  6
CONTINUOUS
100
AcDbCircle
 10
56.586294
 20
109.634544
 30
0.0
 40
0.8
100
AcDbArc
 50
180.0
 51
235.447289
  0
LINE
  5
BCE
100
AcDbEntity
  8
ALPHA
  6
CONTINUOUS
100
AcDbLine
 10
55.786294
 20
110.042265
 30
0.0
 11
55.786294
 21
109.634544
 31
0.0
  0
ARC
  5
BCF
100
AcDbEntity
  8
ALPHA
  6
CONTINUOUS
100
AcDbCircle
 10
60.386294
 20
109.634544
 30
0.0
 40
0.8
100
AcDbArc
 50
304.552711
 51
0.0
  0
LINE
  5
BD0
100
AcDbEntity
  8
ALPHA
  6
CONTINUOUS
100
AcDbLine
 10
61.186294
 20
110.427086
 30
0.0
 11
61.186294
 21
109.634544
 31
0.0
  0
LINE
  5
BD1
100
AcDbEntity
  8
ALPHA
  6
CONTINUOUS
100
AcDbLine
 10
65.586294
 20
110.95469
 30
0.0
 11
65.586294
 21
110.8587
 31
0.0
  0
ARC
  5
BD2
100
AcDbEntity
  8
ALPHA
  6
CONTINUOUS
100
AcDbCircle
 10
54.086294
 20
120.354416
 30
0.0
 40
0.499994
100
AcDbArc
 50
195.792242
 51
344.207758
  0
ARC
  5
BD3
100
AcDbEntity
  8
ALPHA
  6
CONTINUOUS
100
AcDbCircle
 10
54.086294
 20
120.354416
 30
0.0
 40
0.3
100
AcDbArc
 50
195.792242
 51
344.207758
  0
LINE
  5
BD4
100
AcDbEntity
  8
ALPHA
  6
CONTINUOUS
100
AcDbLine
 10
53.165869
 20
127.05362
 30
0.0
 11
55.006816
 21
127.05362
 31
0.0
  0
LINE
  5
BD5
100
AcDbEntity
  8
ALPHA
  6
CONTINUOUS
100
AcDbLine
 10
53.107095
 20
124.51362
 30
0.0
 11
55.064592
 21
124.51362
 31
0.0
  0
LINE
  5
BD6
100
AcDbEntity
  8
ALPHA
  6
CONTINUOUS
100
AcDbLine
 10
54.236294
 20
124.03362
 30
0.0
 11
54.876294
 21
124.03362
 31
0.0
  0
LINE
  5
BD7
100
AcDbEntity
  8
ALPHA
  6
CONTINUOUS
100
AcDbLine
 10
54.236294
 20
123.88362
 30
0.0
 11
54.876294
 21
123.88362
 31
0.0
  0
LINE
  5
BD8
100
AcDbEntity
  8
ALPHA
  6
CONTINUOUS
100
AcDbLine
 10
54.956504
 20
123.24362
 30
0.0
 11
53.216682
 21
123.24362
 31
0.0
  0
LINE
  5
BD9
100
AcDbEntity
  8
ALPHA
  6
CONTINUOUS
100
AcDbLine
 10
54.704758
 20
121.64362
 30
0.0
 11
53.468244
 21
121.64362
 31
0.0
  0
LINE
  5
BDA
100
AcDbEntity
  8
ALPHA
  6
CONTINUOUS
100
AcDbLine
 10
46.616294
 20
123.24362
 30
0.0
 11
46.616294
 21
124.51362
 31
0.0
  0
ARC
  5
BDB
100
AcDbEntity
  8
ALPHA
  6
CONTINUOUS
100
AcDbCircle
 10
46.086294
 20
120.354416
 30
0.0
 40
0.499994
100
AcDbArc
 50
195.792242
 51
344.207758
  0
LINE
  5
BDC
100
AcDbEntity
  8
ALPHA
  6
CONTINUOUS
100
AcDbLine
 10
46.956504
 20
123.24362
 30
0.0
 11
45.216682
 21
123.24362
 31
0.0
  0
LINE
  5
BDD
100
AcDbEntity
  8
ALPHA
  6
CONTINUOUS
100
AcDbLine
 10
46.704758
 20
121.64362
 30
0.0
 11
45.468244
 21
121.64362
 31
0.0
  0
LINE
  5
BDE
100
AcDbEntity
  8
ALPHA
  6
CONTINUOUS
100
AcDbLine
 10
45.605167
 20
120.218341
 30
0.0
 11
45.797617
 21
120.272771
 31
0.0
  0
ARC
  5
BDF
100
AcDbEntity
  8
ALPHA
  6
CONTINUOUS
100
AcDbCircle
 10
46.086294
 20
120.354416
 30
0.0
 40
0.3
100
AcDbArc
 50
195.792242
 51
344.207758
  0
LINE
  5
BE0
100
AcDbEntity
  8
ALPHA
  6
CONTINUOUS
100
AcDbLine
 10
46.567421
 20
120.218341
 30
0.0
 11
46.37497
 21
120.272771
 31
0.0
  0
LINE
  5
BE1
100
AcDbEntity
  8
ALPHA
  6
CONTINUOUS
100
AcDbLine
 10
45.666294
 20
124.51362
 30
0.0
 11
45.666294
 21
127.05362
 31
0.0
  0
LINE
  5
BE2
100
AcDbEntity
  8
ALPHA
  6
CONTINUOUS
100
AcDbLine
 10
45.666294
 20
127.05362
 30
0.0
 11
47.006816
 21
127.05362
 31
0.0
  0
LINE
  5
BE3
100
AcDbEntity
  8
ALPHA
  6
CONTINUOUS
100
AcDbLine
 10
45.666294
 20
124.51362
 30
0.0
 11
47.064592
 21
124.51362
 31
0.0
  0
LINE
  5
BE4
100
AcDbEntity
  8
ALPHA
  6
CONTINUOUS
100
AcDbLine
 10
46.616294
 20
124.03362
 30
0.0
 11
47.02374
 21
124.03362
 31
0.0
  0
LINE
  5
BE5
100
AcDbEntity
  8
ALPHA
  6
CONTINUOUS
100
AcDbLine
 10
46.616294
 20
123.88362
 30
0.0
 11
47.010974
 21
123.88362
 31
0.0
  0
LINE
  5
BE6
100
AcDbEntity
  8
ALPHA
  6
CONTINUOUS
100
AcDbLine
 10
54.236294
 20
123.24362
 30
0.0
 11
54.236294
 21
124.51362
 31
0.0
  0
LINE
  5
BE7
100
AcDbEntity
  8
ALPHA
  6
CONTINUOUS
100
AcDbLine
 10
49.796294
 20
123.24362
 30
0.0
 11
49.796294
 21
124.51362
 31
0.0
  0
ARC
  5
BE8
100
AcDbEntity
  8
ALPHA
  6
CONTINUOUS
100
AcDbCircle
 10
50.086294
 20
120.354416
 30
0.0
 40
0.499994
100
AcDbArc
 50
195.792242
 51
344.207758
  0
ARC
  5
BE9
100
AcDbEntity
  8
ALPHA
  6
CONTINUOUS
100
AcDbCircle
 10
50.086294
 20
120.354416
 30
0.0
 40
0.3
100
AcDbArc
 50
195.792242
 51
344.207758
  0
LINE
  5
BEA
100
AcDbEntity
  8
ALPHA
  6
CONTINUOUS
100
AcDbLine
 10
50.567421
 20
120.218341
 30
0.0
 11
50.37497
 21
120.272771
 31
0.0
  0
LINE
  5
BEB
100
AcDbEntity
  8
ALPHA
  6
CONTINUOUS
100
AcDbLine
 10
50.956504
 20
123.24362
 30
0.0
 11
49.216682
 21
123.24362
 31
0.0
  0
LINE
  5
BEC
100
AcDbEntity
  8
ALPHA
  6
CONTINUOUS
100
AcDbLine
 10
50.704758
 20
121.64362
 30
0.0
 11
49.468244
 21
121.64362
 31
0.0
  0
LINE
  5
BED
100
AcDbEntity
  8
ALPHA
  6
CONTINUOUS
100
AcDbLine
 10
49.605167
 20
120.218341
 30
0.0
 11
49.797617
 21
120.272771
 31
0.0
  0
LINE
  5
BEE
100
AcDbEntity
  8
ALPHA
  6
CONTINUOUS
100
AcDbLine
 10
53.605167
 20
120.218341
 30
0.0
 11
53.797617
 21
120.272771
 31
0.0
  0
LINE
  5
BEF
100
AcDbEntity
  8
ALPHA
  6
CONTINUOUS
100
AcDbLine
 10
49.156294
 20
123.88362
 30
0.0
 11
49.156294
 21
124.51362
 31
0.0
  0
LINE
  5
BF0
100
AcDbEntity
  8
ALPHA
  6
CONTINUOUS
100
AcDbLine
 10
49.165869
 20
127.05362
 30
0.0
 11
51.006816
 21
127.05362
 31
0.0
  0
LINE
  5
BF1
100
AcDbEntity
  8
ALPHA
  6
CONTINUOUS
100
AcDbLine
 10
49.107095
 20
124.51362
 30
0.0
 11
51.064592
 21
124.51362
 31
0.0
  0
LINE
  5
BF2
100
AcDbEntity
  8
ALPHA
  6
CONTINUOUS
100
AcDbLine
 10
49.156294
 20
124.03362
 30
0.0
 11
49.796294
 21
124.03362
 31
0.0
  0
LINE
  5
BF3
100
AcDbEntity
  8
ALPHA
  6
CONTINUOUS
100
AcDbLine
 10
49.156294
 20
123.88362
 30
0.0
 11
49.796294
 21
123.88362
 31
0.0
  0
LINE
  5
BF4
100
AcDbEntity
  8
ALPHA
  6
CONTINUOUS
100
AcDbLine
 10
57.416294
 20
123.24362
 30
0.0
 11
57.416294
 21
124.51362
 31
0.0
  0
LINE
  5
BF5
100
AcDbEntity
  8
ALPHA
  6
CONTINUOUS
100
AcDbLine
 10
54.876294
 20
123.24362
 30
0.0
 11
54.876294
 21
124.51362
 31
0.0
  0
LINE
  5
BF6
100
AcDbEntity
  8
ALPHA
  6
CONTINUOUS
100
AcDbLine
 10
58.956504
 20
123.24362
 30
0.0
 11
57.216682
 21
123.24362
 31
0.0
  0
LINE
  5
BF7
100
AcDbEntity
  8
ALPHA
  6
CONTINUOUS
100
AcDbLine
 10
54.567421
 20
120.218341
 30
0.0
 11
54.37497
 21
120.272771
 31
0.0
  0
ARC
  5
BF8
100
AcDbEntity
  8
ALPHA
  6
CONTINUOUS
100
AcDbCircle
 10
58.086294
 20
120.354416
 30
0.0
 40
0.499994
100
AcDbArc
 50
195.792242
 51
344.207758
  0
ARC
  5
BF9
100
AcDbEntity
  8
ALPHA
  6
CONTINUOUS
100
AcDbCircle
 10
58.086294
 20
120.354416
 30
0.0
 40
0.3
100
AcDbArc
 50
195.792242
 51
344.207758
  0
LINE
  5
BFA
100
AcDbEntity
  8
ALPHA
  6
CONTINUOUS
100
AcDbLine
 10
58.567421
 20
120.218341
 30
0.0
 11
58.37497
 21
120.272771
 31
0.0
  0
LINE
  5
BFB
100
AcDbEntity
  8
ALPHA
  6
CONTINUOUS
100
AcDbLine
 10
58.704758
 20
121.64362
 30
0.0
 11
57.468244
 21
121.64362
 31
0.0
  0
LINE
  5
BFC
100
AcDbEntity
  8
ALPHA
  6
CONTINUOUS
100
AcDbLine
 10
57.605167
 20
120.218341
 30
0.0
 11
57.797617
 21
120.272771
 31
0.0
  0
LINE
  5
BFD
100
AcDbEntity
  8
ALPHA
  6
CONTINUOUS
100
AcDbLine
 10
57.165869
 20
127.05362
 30
0.0
 11
59.006816
 21
127.05362
 31
0.0
  0
LINE
  5
BFE
100
AcDbEntity
  8
ALPHA
  6
CONTINUOUS
100
AcDbLine
 10
57.107095
 20
124.51362
 30
0.0
 11
59.064592
 21
124.51362
 31
0.0
  0
LINE
  5
BFF
100
AcDbEntity
  8
ALPHA
  6
CONTINUOUS
100
AcDbLine
 10
57.148514
 20
124.03362
 30
0.0
 11
57.416294
 21
124.03362
 31
0.0
  0
LINE
  5
C00
100
AcDbEntity
  8
ALPHA
  6
CONTINUOUS
100
AcDbLine
 10
57.161457
 20
123.88362
 30
0.0
 11
57.416294
 21
123.88362
 31
0.0
  0
LINE
  5
C01
100
AcDbEntity
  8
ALPHA
  6
CONTINUOUS
100
AcDbLine
 10
62.496294
 20
123.24362
 30
0.0
 11
62.496294
 21
124.51362
 31
0.0
  0
LINE
  5
C02
100
AcDbEntity
  8
ALPHA
  6
CONTINUOUS
100
AcDbLine
 10
61.856294
 20
123.24362
 30
0.0
 11
61.856294
 21
124.51362
 31
0.0
  0
ARC
  5
C03
100
AcDbEntity
  8
ALPHA
  6
CONTINUOUS
100
AcDbCircle
 10
62.086294
 20
120.354416
 30
0.0
 40
0.499994
100
AcDbArc
 50
195.792242
 51
344.207758
  0
ARC
  5
C04
100
AcDbEntity
  8
ALPHA
  6
CONTINUOUS
100
AcDbCircle
 10
62.086294
 20
120.354416
 30
0.0
 40
0.3
100
AcDbArc
 50
195.792242
 51
344.207758
  0
LINE
  5
C05
100
AcDbEntity
  8
ALPHA
  6
CONTINUOUS
100
AcDbLine
 10
62.567421
 20
120.218341
 30
0.0
 11
62.37497
 21
120.272771
 31
0.0
  0
LINE
  5
C06
100
AcDbEntity
  8
ALPHA
  6
CONTINUOUS
100
AcDbLine
 10
62.956504
 20
123.24362
 30
0.0
 11
61.216682
 21
123.24362
 31
0.0
  0
LINE
  5
C07
100
AcDbEntity
  8
ALPHA
  6
CONTINUOUS
100
AcDbLine
 10
62.704758
 20
121.64362
 30
0.0
 11
61.468244
 21
121.64362
 31
0.0
  0
LINE
  5
C08
100
AcDbEntity
  8
ALPHA
  6
CONTINUOUS
100
AcDbLine
 10
61.605167
 20
120.218341
 30
0.0
 11
61.797617
 21
120.272771
 31
0.0
  0
LINE
  5
C09
100
AcDbEntity
  8
ALPHA
  6
CONTINUOUS
100
AcDbLine
 10
65.836294
 20
121.64362
 30
0.0
 11
65.836294
 21
120.200519
 31
0.0
  0
LINE
  5
C0A
100
AcDbEntity
  8
ALPHA
  6
CONTINUOUS
100
AcDbLine
 10
65.605167
 20
120.218341
 30
0.0
 11
65.797617
 21
120.272771
 31
0.0
  0
LINE
  5
C0B
100
AcDbEntity
  8
ALPHA
  6
CONTINUOUS
100
AcDbLine
 10
61.107095
 20
124.51362
 30
0.0
 11
63.064592
 21
124.51362
 31
0.0
  0
LINE
  5
C0C
100
AcDbEntity
  8
ALPHA
  6
CONTINUOUS
100
AcDbLine
 10
61.165869
 20
127.05362
 30
0.0
 11
63.006816
 21
127.05362
 31
0.0
  0
LINE
  5
C0D
100
AcDbEntity
  8
ALPHA
  6
CONTINUOUS
100
AcDbLine
 10
61.856294
 20
124.03362
 30
0.0
 11
62.496294
 21
124.03362
 31
0.0
  0
LINE
  5
C0E
100
AcDbEntity
  8
ALPHA
  6
CONTINUOUS
100
AcDbLine
 10
61.856294
 20
123.88362
 30
0.0
 11
62.496294
 21
123.88362
 31
0.0
  0
ARC
  5
C0F
100
AcDbEntity
  8
ALPHA
  6
CONTINUOUS
100
AcDbCircle
 10
74.986294
 20
111.034544
 30
0.0
 40
0.8
100
AcDbArc
 50
304.552711
 51
0.0
  0
ARC
  5
C10
100
AcDbEntity
  8
ALPHA
  6
CONTINUOUS
100
AcDbCircle
 10
71.186294
 20
111.034544
 30
0.0
 40
0.8
100
AcDbArc
 50
180.0
 51
235.447289
  0
ARC
  5
C11
100
AcDbEntity
  8
ALPHA
  6
CONTINUOUS
100
AcDbCircle
 10
73.086294
 20
113.79362
 30
0.0
 40
4.15
100
AcDbArc
 50
235.447289
 51
304.552711
  0
LINE
  5
C12
100
AcDbEntity
  8
ALPHA
  6
CONTINUOUS
100
AcDbLine
 10
75.440025
 20
110.37566
 30
0.0
 11
70.732563
 21
110.37566
 31
0.0
  0
ARC
  5
C13
100
AcDbEntity
  8
ALPHA
  6
CONTINUOUS
100
AcDbCircle
 10
79.886742
 20
120.714842
 30
0.0
 40
9.0
100
AcDbArc
 50
249.415162
 51
264.573379
  0
POLYLINE
  5
C14
100
AcDbEntity
  8
ALPHA
  6
CONTINUOUS
100
AcDb2dPolyline
 66
     1
 10
0.0
 20
0.0
 30
0.0
  0
VERTEX
  5
C15
100
AcDbEntity
  8
ALPHA
  6
CONTINUOUS
100
AcDbVertex
100
AcDb2dVertex
 10
79.056272
 20
112.689483
 30
0.0
  0
VERTEX
  5
C16
100
AcDbEntity
  8
ALPHA
  6
CONTINUOUS
100
AcDbVertex
100
AcDb2dVertex
 10
78.478574
 20
112.587697
 30
0.0
  0
VERTEX
  5
C17
100
AcDbEntity
  8
ALPHA
  6
CONTINUOUS
100
AcDbVertex
100
AcDb2dVertex
 10
77.965662
 20
112.498876
 30
0.0
  0
VERTEX
  5
C18
100
AcDbEntity
  8
ALPHA
  6
CONTINUOUS
100
AcDbVertex
100
AcDb2dVertex
 10
77.530704
 20
112.424679
 30
0.0
  0
VERTEX
  5
C19
100
AcDbEntity
  8
ALPHA
  6
CONTINUOUS
100
AcDbVertex
100
AcDb2dVertex
 10
77.182341
 20
112.365986
 30
0.0
  0
VERTEX
  5
C1A
100
AcDbEntity
  8
ALPHA
  6
CONTINUOUS
100
AcDbVertex
100
AcDb2dVertex
 10
76.92835
 20
112.323596
 30
0.0
  0
SEQEND
  5
C1B
100
AcDbEntity
  8
ALPHA
  0
LINE
  5
C1C
100
AcDbEntity
  8
ALPHA
  6
CONTINUOUS
100
AcDbLine
 10
75.786294
 20
111.034544
 30
0.0
 11
70.386294
 21
111.034544
 31
0.0
  0
LINE
  5
C1D
100
AcDbEntity
  8
ALPHA
  6
CONTINUOUS
100
AcDbLine
 10
70.386294
 20
111.48822
 30
0.0
 11
70.386294
 21
111.034544
 31
0.0
  0
ARC
  5
C1E
100
AcDbEntity
  8
ALPHA
  6
CONTINUOUS
100
AcDbCircle
 10
76.370806
 20
111.353321
 30
0.0
 40
0.999999
100
AcDbArc
 50
69.415165
 51
99.242633
  0
LINE
  5
C1F
100
AcDbEntity
  8
ALPHA
  6
CONTINUOUS
100
AcDbLine
 10
75.786294
 20
112.275733
 30
0.0
 11
75.786294
 21
111.034544
 31
0.0
  0
LINE
  5
C20
100
AcDbEntity
  8
ALPHA
  6
CONTINUOUS
100
AcDbLine
 10
76.92835
 20
112.323596
 30
0.0
 11
76.722398
 21
112.289468
 31
0.0
  0
LINE
  5
C21
100
AcDbEntity
  8
ALPHA
  6
CONTINUOUS
100
AcDbLine
 10
66.086294
 20
121.64362
 30
0.0
 11
66.086294
 21
124.64362
 31
0.0
  0
LINE
  5
C22
100
AcDbEntity
  8
ALPHA
  6
CONTINUOUS
100
AcDbLine
 10
66.636294
 20
121.64362
 30
0.0
 11
66.636294
 21
121.336312
 31
0.0
  0
LINE
  5
C23
100
AcDbEntity
  8
ALPHA
  6
CONTINUOUS
100
AcDbLine
 10
66.567421
 20
120.218341
 30
0.0
 11
66.37497
 21
120.272771
 31
0.0
  0
ARC
  5
C24
100
AcDbEntity
  8
ALPHA
  6
CONTINUOUS
100
AcDbCircle
 10
70.086294
 20
120.354416
 30
0.0
 40
0.499994
100
AcDbArc
 50
195.792242
 51
344.207758
  0
ARC
  5
C25
100
AcDbEntity
  8
ALPHA
  6
CONTINUOUS
100
AcDbCircle
 10
70.086294
 20
120.354416
 30
0.0
 40
0.3
100
AcDbArc
 50
195.792242
 51
344.207758
  0
LINE
  5
C26
100
AcDbEntity
  8
ALPHA
  6
CONTINUOUS
100
AcDbLine
 10
70.567421
 20
120.218341
 30
0.0
 11
70.37497
 21
120.272771
 31
0.0
  0
LINE
  5
C27
100
AcDbEntity
  8
ALPHA
  6
CONTINUOUS
100
AcDbLine
 10
69.605167
 20
120.218341
 30
0.0
 11
69.797617
 21
120.272771
 31
0.0
  0
LINE
  5
C28
100
AcDbEntity
  8
ALPHA
  6
CONTINUOUS
100
AcDbLine
 10
66.086294
 20
124.64362
 30
0.0
 11
66.772845
 21
124.64362
 31
0.0
  0
ARC
  5
C29
100
AcDbEntity
  8
ALPHA
  6
CONTINUOUS
100
AcDbCircle
 10
74.086294
 20
120.354416
 30
0.0
 40
0.499994
100
AcDbArc
 50
195.792242
 51
344.207758
  0
ARC
  5
C2A
100
AcDbEntity
  8
ALPHA
  6
CONTINUOUS
100
AcDbCircle
 10
74.086294
 20
120.354416
 30
0.0
 40
0.3
100
AcDbArc
 50
195.792242
 51
344.207758
  0
LINE
  5
C2B
100
AcDbEntity
  8
ALPHA
  6
CONTINUOUS
100
AcDbLine
 10
74.567421
 20
120.218341
 30
0.0
 11
74.37497
 21
120.272771
 31
0.0
  0
LINE
  5
C2C
100
AcDbEntity
  8
ALPHA
  6
CONTINUOUS
100
AcDbLine
 10
73.605167
 20
120.218341
 30
0.0
 11
73.797617
 21
120.272771
 31
0.0
  0
LINE
  5
C2D
100
AcDbEntity
  8
ALPHA
  6
CONTINUOUS
100
AcDbLine
 10
79.036294
 20
113.125748
 30
0.0
 11
79.036294
 21
117.74362
 31
0.0
  0
ARC
  5
C2E
100
AcDbEntity
  8
ALPHA
  6
CONTINUOUS
100
AcDbCircle
 10
79.036294
 20
113.481244
 30
0.0
 40
0.65
100
AcDbArc
 50
280.097268
 51
0.0
  0
ARC
  5
C2F
100
AcDbEntity
  8
ALPHA
  6
CONTINUOUS
100
AcDbCircle
 10
79.088158
 20
112.252439
 30
0.0
 40
0.5
100
AcDbArc
 50
264.609047
 51
0.0
  0
POLYLINE
  5
C30
100
AcDbEntity
  8
ALPHA
  6
CONTINUOUS
100
AcDb2dPolyline
 66
     1
 10
0.0
 20
0.0
 30
0.0
  0
VERTEX
  5
C31
100
AcDbEntity
  8
ALPHA
  6
CONTINUOUS
100
AcDbVertex
100
AcDb2dVertex
 10
79.366353
 20
112.764109
 30
0.0
  0
VERTEX
  5
C32
100
AcDbEntity
  8
ALPHA
  6
CONTINUOUS
100
AcDbVertex
100
AcDb2dVertex
 10
79.485037
 20
112.863596
 30
0.0
  0
VERTEX
  5
C33
100
AcDbEntity
  8
ALPHA
  6
CONTINUOUS
100
AcDbVertex
100
AcDb2dVertex
 10
79.561678
 20
112.991867
 30
0.0
  0
SEQEND
  5
C34
100
AcDbEntity
  8
ALPHA
  0
POLYLINE
  5
C35
100
AcDbEntity
  8
ALPHA
  6
CONTINUOUS
100
AcDb2dPolyline
 66
     1
 10
0.0
 20
0.0
 30
0.0
  0
VERTEX
  5
C36
100
AcDbEntity
  8
ALPHA
  6
CONTINUOUS
100
AcDbVertex
100
AcDb2dVertex
 10
79.056272
 20
112.689481
 30
0.0
  0
VERTEX
  5
C37
100
AcDbEntity
  8
ALPHA
  6
CONTINUOUS
100
AcDbVertex
100
AcDb2dVertex
 10
79.102661
 20
112.773499
 30
0.0
  0
VERTEX
  5
C38
100
AcDbEntity
  8
ALPHA
  6
CONTINUOUS
100
AcDbVertex
100
AcDb2dVertex
 10
79.142604
 20
112.825395
 30
0.0
  0
VERTEX
  5
C39
100
AcDbEntity
  8
ALPHA
  6
CONTINUOUS
100
AcDbVertex
100
AcDb2dVertex
 10
79.155256
 20
112.833179
 30
0.0
  0
SEQEND
  5
C3A
100
AcDbEntity
  8
ALPHA
  0
POLYLINE
  5
C3B
100
AcDbEntity
  8
ALPHA
  6
CONTINUOUS
100
AcDb2dPolyline
 66
     1
 10
0.0
 20
0.0
 30
0.0
  0
VERTEX
  5
C3C
100
AcDbEntity
  8
ALPHA
  6
CONTINUOUS
100
AcDbVertex
100
AcDb2dVertex
 10
79.041097
 20
111.754658
 30
0.0
  0
VERTEX
  5
C3D
100
AcDbEntity
  8
ALPHA
  6
CONTINUOUS
100
AcDbVertex
100
AcDb2dVertex
 10
79.04138
 20
111.75522
 30
0.0
  0
VERTEX
  5
C3E
100
AcDbEntity
  8
ALPHA
  6
CONTINUOUS
100
AcDbVertex
100
AcDb2dVertex
 10
79.042721
 20
111.759592
 30
0.0
  0
VERTEX
  5
C3F
100
AcDbEntity
  8
ALPHA
  6
CONTINUOUS
100
AcDbVertex
100
AcDb2dVertex
 10
79.044795
 20
111.768647
 30
0.0
  0
VERTEX
  5
C40
100
AcDbEntity
  8
ALPHA
  6
CONTINUOUS
100
AcDbVertex
100
AcDb2dVertex
 10
79.047021
 20
111.783451
 30
0.0
  0
VERTEX
  5
C41
100
AcDbEntity
  8
ALPHA
  6
CONTINUOUS
100
AcDbVertex
100
AcDb2dVertex
 10
79.049061
 20
111.805791
 30
0.0
  0
VERTEX
  5
C42
100
AcDbEntity
  8
ALPHA
  6
CONTINUOUS
100
AcDbVertex
100
AcDb2dVertex
 10
79.050768
 20
111.837639
 30
0.0
  0
SEQEND
  5
C43
100
AcDbEntity
  8
ALPHA
  0
LINE
  5
C44
100
AcDbEntity
  8
ALPHA
  6
CONTINUOUS
100
AcDbLine
 10
79.561678
 20
112.991867
 30
0.0
 11
79.58816
 21
113.135337
 31
0.0
  0
LINE
  5
C45
100
AcDbEntity
  8
ALPHA
  6
CONTINUOUS
100
AcDbLine
 10
79.218201
 20
112.703947
 30
0.0
 11
79.366353
 21
112.764109
 31
0.0
  0
POLYLINE
  5
C46
100
AcDbEntity
  8
ALPHA
  6
CONTINUOUS
100
AcDb2dPolyline
 66
     1
 10
0.0
 20
0.0
 30
0.0
  0
VERTEX
  5
C47
100
AcDbEntity
  8
ALPHA
  6
CONTINUOUS
100
AcDbVertex
100
AcDb2dVertex
 10
79.050768
 20
111.837639
 30
0.0
  0
VERTEX
  5
C48
100
AcDbEntity
  8
ALPHA
  6
CONTINUOUS
100
AcDbVertex
100
AcDb2dVertex
 10
79.052134
 20
111.881185
 30
0.0
  0
VERTEX
  5
C49
100
AcDbEntity
  8
ALPHA
  6
CONTINUOUS
100
AcDbVertex
100
AcDb2dVertex
 10
79.053218
 20
111.939476
 30
0.0
  0
VERTEX
  5
C4A
100
AcDbEntity
  8
ALPHA
  6
CONTINUOUS
100
AcDbVertex
100
AcDb2dVertex
 10
79.054083
 20
112.016339
 30
0.0
  0
VERTEX
  5
C4B
100
AcDbEntity
  8
ALPHA
  6
CONTINUOUS
100
AcDbVertex
100
AcDb2dVertex
 10
79.054765
 20
112.114348
 30
0.0
  0
VERTEX
  5
C4C
100
AcDbEntity
  8
ALPHA
  6
CONTINUOUS
100
AcDbVertex
100
AcDb2dVertex
 10
79.055291
 20
112.232011
 30
0.0
  0
VERTEX
  5
C4D
100
AcDbEntity
  8
ALPHA
  6
CONTINUOUS
100
AcDbVertex
100
AcDb2dVertex
 10
79.055697
 20
112.367694
 30
0.0
  0
VERTEX
  5
C4E
100
AcDbEntity
  8
ALPHA
  6
CONTINUOUS
100
AcDbVertex
100
AcDb2dVertex
 10
79.056272
 20
112.689483
 30
0.0
  0
SEQEND
  5
C4F
100
AcDbEntity
  8
ALPHA
  0
LINE
  5
C50
100
AcDbEntity
  8
ALPHA
  6
CONTINUOUS
100
AcDbLine
 10
79.588158
 20
112.252434
 30
0.0
 11
79.588158
 21
113.135337
 31
0.0
  0
POLYLINE
  5
C51
100
AcDbEntity
  8
ALPHA
  6
CONTINUOUS
100
AcDb2dPolyline
 66
     1
 10
0.0
 20
0.0
 30
0.0
  0
VERTEX
  5
C52
100
AcDbEntity
  8
ALPHA
  6
CONTINUOUS
100
AcDbVertex
100
AcDb2dVertex
 10
79.410651
 20
112.949872
 30
0.0
  0
VERTEX
  5
C53
100
AcDbEntity
  8
ALPHA
  6
CONTINUOUS
100
AcDbVertex
100
AcDb2dVertex
 10
79.291336
 20
112.999575
 30
0.0
  0
VERTEX
  5
C54
100
AcDbEntity
  8
ALPHA
  6
CONTINUOUS
100
AcDbVertex
100
AcDb2dVertex
 10
79.165265
 20
113.060238
 30
0.0
  0
VERTEX
  5
C55
100
AcDbEntity
  8
ALPHA
  6
CONTINUOUS
100
AcDbVertex
100
AcDb2dVertex
 10
79.036294
 20
113.125748
 30
0.0
  0
SEQEND
  5
C56
100
AcDbEntity
  8
ALPHA
  0
LINE
  5
C57
100
AcDbEntity
  8
ALPHA
  6
CONTINUOUS
100
AcDbLine
 10
79.056272
 20
112.689481
 30
0.0
 11
79.218201
 21
112.703947
 31
0.0
  0
ARC
  5
C58
100
AcDbEntity
  8
ALPHA
  6
CONTINUOUS
100
AcDbCircle
 10
79.036294
 20
118.39362
 30
0.0
 40
0.65
100
AcDbArc
 50
270.0
 51
0.0
  0
POLYLINE
  5
C59
100
AcDbEntity
  8
ALPHA
  6
CONTINUOUS
100
AcDb2dPolyline
 66
     1
 10
0.0
 20
0.0
 30
0.0
  0
VERTEX
  5
C5A
100
AcDbEntity
  8
ALPHA
  6
CONTINUOUS
100
AcDbVertex
100
AcDb2dVertex
 10
79.362649
 20
117.831488
 30
0.0
  0
VERTEX
  5
C5B
100
AcDbEntity
  8
ALPHA
  6
CONTINUOUS
100
AcDbVertex
100
AcDb2dVertex
 10
79.25644
 20
117.896741
 30
0.0
  0
VERTEX
  5
C5C
100
AcDbEntity
  8
ALPHA
  6
CONTINUOUS
100
AcDbVertex
100
AcDb2dVertex
 10
79.147056
 20
117.968696
 30
0.0
  0
VERTEX
  5
C5D
100
AcDbEntity
  8
ALPHA
  6
CONTINUOUS
100
AcDbVertex
100
AcDb2dVertex
 10
79.036294
 20
118.04362
 30
0.0
  0
SEQEND
  5
C5E
100
AcDbEntity
  8
ALPHA
  0
LINE
  5
C5F
100
AcDbEntity
  8
ALPHA
  6
CONTINUOUS
100
AcDbLine
 10
79.036294
 20
133.933326
 30
0.0
 11
79.036294
 21
160.34362
 31
0.0
  0
LINE
  5
C60
100
AcDbEntity
  8
ALPHA
  6
CONTINUOUS
100
AcDbLine
 10
78.986294
 20
154.14362
 30
0.0
 11
78.986294
 21
160.64362
 31
0.0
  0
LINE
  5
C61
100
AcDbEntity
  8
ALPHA
  6
CONTINUOUS
100
AcDbLine
 10
78.886294
 20
154.94362
 30
0.0
 11
78.886294
 21
160.64362
 31
0.0
  0
ARC
  5
C62
100
AcDbEntity
  8
ALPHA
  6
CONTINUOUS
100
AcDbCircle
 10
66.086294
 20
130.532824
 30
0.0
 40
0.499994
100
AcDbArc
 50
15.792242
 51
164.207758
  0
ARC
  5
C63
100
AcDbEntity
  8
ALPHA
  6
CONTINUOUS
100
AcDbCircle
 10
66.086294
 20
130.532824
 30
0.0
 40
0.3
100
AcDbArc
 50
15.792242
 51
164.207758
  0
LINE
  5
C64
100
AcDbEntity
  8
ALPHA
  6
CONTINUOUS
100
AcDbLine
 10
68.881294
 20
150.74362
 30
0.0
 11
64.031294
 21
150.74362
 31
0.0
  0
LINE
  5
C65
100
AcDbEntity
  8
ALPHA
  6
CONTINUOUS
100
AcDbLine
 10
68.381294
 20
150.24362
 30
0.0
 11
64.531294
 21
150.24362
 31
0.0
  0
LINE
  5
C66
100
AcDbEntity
  8
ALPHA
  6
CONTINUOUS
100
AcDbLine
 10
64.531294
 20
144.94362
 30
0.0
 11
68.381294
 21
144.94362
 31
0.0
  0
LINE
  5
C67
100
AcDbEntity
  8
ALPHA
  6
CONTINUOUS
100
AcDbLine
 10
64.031294
 20
144.44362
 30
0.0
 11
68.881294
 21
144.44362
 31
0.0
  0
POLYLINE
  5
C68
100
AcDbEntity
  8
ALPHA
  6
CONTINUOUS
100
AcDb2dPolyline
 66
     1
 10
0.0
 20
0.0
 30
0.0
  0
VERTEX
  5
C69
100
AcDbEntity
  8
ALPHA
  6
CONTINUOUS
100
AcDbVertex
100
AcDb2dVertex
 10
68.556294
 20
133.378222
 30
0.0
  0
VERTEX
  5
C6A
100
AcDbEntity
  8
ALPHA
  6
CONTINUOUS
100
AcDbVertex
100
AcDb2dVertex
 10
68.47132
 20
133.398872
 30
0.0
  0
VERTEX
  5
C6B
100
AcDbEntity
  8
ALPHA
  6
CONTINUOUS
100
AcDbVertex
100
AcDb2dVertex
 10
68.222011
 20
133.417919
 30
0.0
  0
VERTEX
  5
C6C
100
AcDbEntity
  8
ALPHA
  6
CONTINUOUS
100
AcDbVertex
100
AcDb2dVertex
 10
67.83239
 20
133.433617
 30
0.0
  0
VERTEX
  5
C6D
100
AcDbEntity
  8
ALPHA
  6
CONTINUOUS
100
AcDbVertex
100
AcDb2dVertex
 10
67.32659
 20
133.444962
 30
0.0
  0
VERTEX
  5
C6E
100
AcDbEntity
  8
ALPHA
  6
CONTINUOUS
100
AcDbVertex
100
AcDb2dVertex
 10
66.757085
 20
133.450799
 30
0.0
  0
VERTEX
  5
C6F
100
AcDbEntity
  8
ALPHA
  6
CONTINUOUS
100
AcDbVertex
100
AcDb2dVertex
 10
66.155503
 20
133.450799
 30
0.0
  0
VERTEX
  5
C70
100
AcDbEntity
  8
ALPHA
  6
CONTINUOUS
100
AcDbVertex
100
AcDb2dVertex
 10
65.585998
 20
133.444962
 30
0.0
  0
VERTEX
  5
C71
100
AcDbEntity
  8
ALPHA
  6
CONTINUOUS
100
AcDbVertex
100
AcDb2dVertex
 10
65.080198
 20
133.433617
 30
0.0
  0
VERTEX
  5
C72
100
AcDbEntity
  8
ALPHA
  6
CONTINUOUS
100
AcDbVertex
100
AcDb2dVertex
 10
64.690577
 20
133.417919
 30
0.0
  0
VERTEX
  5
C73
100
AcDbEntity
  8
ALPHA
  6
CONTINUOUS
100
AcDbVertex
100
AcDb2dVertex
 10
64.441268
 20
133.398872
 30
0.0
  0
VERTEX
  5
C74
100
AcDbEntity
  8
ALPHA
  6
CONTINUOUS
100
AcDbVertex
100
AcDb2dVertex
 10
64.356294
 20
133.378222
 30
0.0
  0
SEQEND
  5
C75
100
AcDbEntity
  8
ALPHA
  0
POLYLINE
  5
C76
100
AcDbEntity
  8
ALPHA
  6
CONTINUOUS
100
AcDb2dPolyline
 66
     1
 10
0.0
 20
0.0
 30
0.0
  0
VERTEX
  5
C77
100
AcDbEntity
  8
ALPHA
  6
CONTINUOUS
100
AcDbVertex
100
AcDb2dVertex
 10
64.356294
 20
133.378222
 30
0.0
  0
VERTEX
  5
C78
100
AcDbEntity
  8
ALPHA
  6
CONTINUOUS
100
AcDbVertex
100
AcDb2dVertex
 10
64.441268
 20
133.357572
 30
0.0
  0
VERTEX
  5
C79
100
AcDbEntity
  8
ALPHA
  6
CONTINUOUS
100
AcDbVertex
100
AcDb2dVertex
 10
64.690577
 20
133.338525
 30
0.0
  0
VERTEX
  5
C7A
100
AcDbEntity
  8
ALPHA
  6
CONTINUOUS
100
AcDbVertex
100
AcDb2dVertex
 10
65.080198
 20
133.322827
 30
0.0
  0
VERTEX
  5
C7B
100
AcDbEntity
  8
ALPHA
  6
CONTINUOUS
100
AcDbVertex
100
AcDb2dVertex
 10
65.585998
 20
133.311482
 30
0.0
  0
VERTEX
  5
C7C
100
AcDbEntity
  8
ALPHA
  6
CONTINUOUS
100
AcDbVertex
100
AcDb2dVertex
 10
66.155503
 20
133.305644
 30
0.0
  0
VERTEX
  5
C7D
100
AcDbEntity
  8
ALPHA
  6
CONTINUOUS
100
AcDbVertex
100
AcDb2dVertex
 10
66.757085
 20
133.305644
 30
0.0
  0
VERTEX
  5
C7E
100
AcDbEntity
  8
ALPHA
  6
CONTINUOUS
100
AcDbVertex
100
AcDb2dVertex
 10
67.32659
 20
133.311482
 30
0.0
  0
VERTEX
  5
C7F
100
AcDbEntity
  8
ALPHA
  6
CONTINUOUS
100
AcDbVertex
100
AcDb2dVertex
 10
67.83239
 20
133.322827
 30
0.0
  0
VERTEX
  5
C80
100
AcDbEntity
  8
ALPHA
  6
CONTINUOUS
100
AcDbVertex
100
AcDb2dVertex
 10
68.222011
 20
133.338525
 30
0.0
  0
VERTEX
  5
C81
100
AcDbEntity
  8
ALPHA
  6
CONTINUOUS
100
AcDbVertex
100
AcDb2dVertex
 10
68.47132
 20
133.357572
 30
0.0
  0
VERTEX
  5
C82
100
AcDbEntity
  8
ALPHA
  6
CONTINUOUS
100
AcDbVertex
100
AcDb2dVertex
 10
68.556294
 20
133.378222
 30
0.0
  0
SEQEND
  5
C83
100
AcDbEntity
  8
ALPHA
  0
ARC
  5
C84
100
AcDbEntity
  8
ALPHA
  6
CONTINUOUS
100
AcDbCircle
 10
54.086294
 20
130.532824
 30
0.0
 40
0.499994
100
AcDbArc
 50
15.792242
 51
164.207758
  0
ARC
  5
C85
100
AcDbEntity
  8
ALPHA
  6
CONTINUOUS
100
AcDbCircle
 10
54.086294
 20
130.532824
 30
0.0
 40
0.3
100
AcDbArc
 50
15.792242
 51
164.207758
  0
POLYLINE
  5
C86
100
AcDbEntity
  8
ALPHA
  6
CONTINUOUS
100
AcDb2dPolyline
 66
     1
 10
0.0
 20
0.0
 30
0.0
  0
VERTEX
  5
C87
100
AcDbEntity
  8
ALPHA
  6
CONTINUOUS
100
AcDbVertex
100
AcDb2dVertex
 10
58.396294
 20
133.378222
 30
0.0
  0
VERTEX
  5
C88
100
AcDbEntity
  8
ALPHA
  6
CONTINUOUS
100
AcDbVertex
100
AcDb2dVertex
 10
58.31132
 20
133.398872
 30
0.0
  0
VERTEX
  5
C89
100
AcDbEntity
  8
ALPHA
  6
CONTINUOUS
100
AcDbVertex
100
AcDb2dVertex
 10
58.062011
 20
133.417919
 30
0.0
  0
VERTEX
  5
C8A
100
AcDbEntity
  8
ALPHA
  6
CONTINUOUS
100
AcDbVertex
100
AcDb2dVertex
 10
57.67239
 20
133.433617
 30
0.0
  0
VERTEX
  5
C8B
100
AcDbEntity
  8
ALPHA
  6
CONTINUOUS
100
AcDbVertex
100
AcDb2dVertex
 10
57.16659
 20
133.444962
 30
0.0
  0
VERTEX
  5
C8C
100
AcDbEntity
  8
ALPHA
  6
CONTINUOUS
100
AcDbVertex
100
AcDb2dVertex
 10
56.597085
 20
133.450799
 30
0.0
  0
VERTEX
  5
C8D
100
AcDbEntity
  8
ALPHA
  6
CONTINUOUS
100
AcDbVertex
100
AcDb2dVertex
 10
55.995503
 20
133.450799
 30
0.0
  0
VERTEX
  5
C8E
100
AcDbEntity
  8
ALPHA
  6
CONTINUOUS
100
AcDbVertex
100
AcDb2dVertex
 10
55.425998
 20
133.444962
 30
0.0
  0
VERTEX
  5
C8F
100
AcDbEntity
  8
ALPHA
  6
CONTINUOUS
100
AcDbVertex
100
AcDb2dVertex
 10
54.920198
 20
133.433617
 30
0.0
  0
VERTEX
  5
C90
100
AcDbEntity
  8
ALPHA
  6
CONTINUOUS
100
AcDbVertex
100
AcDb2dVertex
 10
54.530577
 20
133.417919
 30
0.0
  0
VERTEX
  5
C91
100
AcDbEntity
  8
ALPHA
  6
CONTINUOUS
100
AcDbVertex
100
AcDb2dVertex
 10
54.281268
 20
133.398872
 30
0.0
  0
VERTEX
  5
C92
100
AcDbEntity
  8
ALPHA
  6
CONTINUOUS
100
AcDbVertex
100
AcDb2dVertex
 10
54.196294
 20
133.378222
 30
0.0
  0
SEQEND
  5
C93
100
AcDbEntity
  8
ALPHA
  0
POLYLINE
  5
C94
100
AcDbEntity
  8
ALPHA
  6
CONTINUOUS
100
AcDb2dPolyline
 66
     1
 10
0.0
 20
0.0
 30
0.0
  0
VERTEX
  5
C95
100
AcDbEntity
  8
ALPHA
  6
CONTINUOUS
100
AcDbVertex
100
AcDb2dVertex
 10
54.196294
 20
133.378222
 30
0.0
  0
VERTEX
  5
C96
100
AcDbEntity
  8
ALPHA
  6
CONTINUOUS
100
AcDbVertex
100
AcDb2dVertex
 10
54.281268
 20
133.357572
 30
0.0
  0
VERTEX
  5
C97
100
AcDbEntity
  8
ALPHA
  6
CONTINUOUS
100
AcDbVertex
100
AcDb2dVertex
 10
54.530577
 20
133.338525
 30
0.0
  0
VERTEX
  5
C98
100
AcDbEntity
  8
ALPHA
  6
CONTINUOUS
100
AcDbVertex
100
AcDb2dVertex
 10
54.920198
 20
133.322827
 30
0.0
  0
VERTEX
  5
C99
100
AcDbEntity
  8
ALPHA
  6
CONTINUOUS
100
AcDbVertex
100
AcDb2dVertex
 10
55.425998
 20
133.311482
 30
0.0
  0
VERTEX
  5
C9A
100
AcDbEntity
  8
ALPHA
  6
CONTINUOUS
100
AcDbVertex
100
AcDb2dVertex
 10
55.995503
 20
133.305644
 30
0.0
  0
VERTEX
  5
C9B
100
AcDbEntity
  8
ALPHA
  6
CONTINUOUS
100
AcDbVertex
100
AcDb2dVertex
 10
56.597085
 20
133.305644
 30
0.0
  0
VERTEX
  5
C9C
100
AcDbEntity
  8
ALPHA
  6
CONTINUOUS
100
AcDbVertex
100
AcDb2dVertex
 10
57.16659
 20
133.311482
 30
0.0
  0
VERTEX
  5
C9D
100
AcDbEntity
  8
ALPHA
  6
CONTINUOUS
100
AcDbVertex
100
AcDb2dVertex
 10
57.67239
 20
133.322827
 30
0.0
  0
VERTEX
  5
C9E
100
AcDbEntity
  8
ALPHA
  6
CONTINUOUS
100
AcDbVertex
100
AcDb2dVertex
 10
58.062011
 20
133.338525
 30
0.0
  0
VERTEX
  5
C9F
100
AcDbEntity
  8
ALPHA
  6
CONTINUOUS
100
AcDbVertex
100
AcDb2dVertex
 10
58.31132
 20
133.357572
 30
0.0
  0
VERTEX
  5
CA0
100
AcDbEntity
  8
ALPHA
  6
CONTINUOUS
100
AcDbVertex
100
AcDb2dVertex
 10
58.396294
 20
133.378222
 30
0.0
  0
SEQEND
  5
CA1
100
AcDbEntity
  8
ALPHA
  0
ARC
  5
CA2
100
AcDbEntity
  8
ALPHA
  6
CONTINUOUS
100
AcDbCircle
 10
46.086294
 20
130.532824
 30
0.0
 40
0.499994
100
AcDbArc
 50
15.792242
 51
164.207758
  0
LINE
  5
CA3
100
AcDbEntity
  8
ALPHA
  6
CONTINUOUS
100
AcDbLine
 10
45.605167
 20
130.668899
 30
0.0
 11
45.797617
 21
130.614469
 31
0.0
  0
ARC
  5
CA4
100
AcDbEntity
  8
ALPHA
  6
CONTINUOUS
100
AcDbCircle
 10
46.086294
 20
130.532824
 30
0.0
 40
0.3
100
AcDbArc
 50
15.792242
 51
164.207758
  0
LINE
  5
CA5
100
AcDbEntity
  8
ALPHA
  6
CONTINUOUS
100
AcDbLine
 10
46.567421
 20
130.668899
 30
0.0
 11
46.37497
 21
130.614469
 31
0.0
  0
POLYLINE
  5
CA6
100
AcDbEntity
  8
ALPHA
  6
CONTINUOUS
100
AcDb2dPolyline
 66
     1
 10
0.0
 20
0.0
 30
0.0
  0
VERTEX
  5
CA7
100
AcDbEntity
  8
ALPHA
  6
CONTINUOUS
100
AcDbVertex
100
AcDb2dVertex
 10
48.236294
 20
133.378222
 30
0.0
  0
VERTEX
  5
CA8
100
AcDbEntity
  8
ALPHA
  6
CONTINUOUS
100
AcDbVertex
100
AcDb2dVertex
 10
48.15132
 20
133.398872
 30
0.0
  0
VERTEX
  5
CA9
100
AcDbEntity
  8
ALPHA
  6
CONTINUOUS
100
AcDbVertex
100
AcDb2dVertex
 10
47.902011
 20
133.417919
 30
0.0
  0
VERTEX
  5
CAA
100
AcDbEntity
  8
ALPHA
  6
CONTINUOUS
100
AcDbVertex
100
AcDb2dVertex
 10
47.51239
 20
133.433617
 30
0.0
  0
VERTEX
  5
CAB
100
AcDbEntity
  8
ALPHA
  6
CONTINUOUS
100
AcDbVertex
100
AcDb2dVertex
 10
47.00659
 20
133.444962
 30
0.0
  0
VERTEX
  5
CAC
100
AcDbEntity
  8
ALPHA
  6
CONTINUOUS
100
AcDbVertex
100
AcDb2dVertex
 10
46.437085
 20
133.450799
 30
0.0
  0
VERTEX
  5
CAD
100
AcDbEntity
  8
ALPHA
  6
CONTINUOUS
100
AcDbVertex
100
AcDb2dVertex
 10
45.835503
 20
133.450799
 30
0.0
  0
VERTEX
  5
CAE
100
AcDbEntity
  8
ALPHA
  6
CONTINUOUS
100
AcDbVertex
100
AcDb2dVertex
 10
45.265998
 20
133.444962
 30
0.0
  0
VERTEX
  5
CAF
100
AcDbEntity
  8
ALPHA
  6
CONTINUOUS
100
AcDbVertex
100
AcDb2dVertex
 10
44.760198
 20
133.433617
 30
0.0
  0
VERTEX
  5
CB0
100
AcDbEntity
  8
ALPHA
  6
CONTINUOUS
100
AcDbVertex
100
AcDb2dVertex
 10
44.370577
 20
133.417919
 30
0.0
  0
VERTEX
  5
CB1
100
AcDbEntity
  8
ALPHA
  6
CONTINUOUS
100
AcDbVertex
100
AcDb2dVertex
 10
44.121268
 20
133.398872
 30
0.0
  0
VERTEX
  5
CB2
100
AcDbEntity
  8
ALPHA
  6
CONTINUOUS
100
AcDbVertex
100
AcDb2dVertex
 10
44.036294
 20
133.378222
 30
0.0
  0
SEQEND
  5
CB3
100
AcDbEntity
  8
ALPHA
  0
POLYLINE
  5
CB4
100
AcDbEntity
  8
ALPHA
  6
CONTINUOUS
100
AcDb2dPolyline
 66
     1
 10
0.0
 20
0.0
 30
0.0
  0
VERTEX
  5
CB5
100
AcDbEntity
  8
ALPHA
  6
CONTINUOUS
100
AcDbVertex
100
AcDb2dVertex
 10
44.036294
 20
133.378222
 30
0.0
  0
VERTEX
  5
CB6
100
AcDbEntity
  8
ALPHA
  6
CONTINUOUS
100
AcDbVertex
100
AcDb2dVertex
 10
44.121268
 20
133.357572
 30
0.0
  0
VERTEX
  5
CB7
100
AcDbEntity
  8
ALPHA
  6
CONTINUOUS
100
AcDbVertex
100
AcDb2dVertex
 10
44.370577
 20
133.338525
 30
0.0
  0
VERTEX
  5
CB8
100
AcDbEntity
  8
ALPHA
  6
CONTINUOUS
100
AcDbVertex
100
AcDb2dVertex
 10
44.760198
 20
133.322827
 30
0.0
  0
VERTEX
  5
CB9
100
AcDbEntity
  8
ALPHA
  6
CONTINUOUS
100
AcDbVertex
100
AcDb2dVertex
 10
45.265998
 20
133.311482
 30
0.0
  0
VERTEX
  5
CBA
100
AcDbEntity
  8
ALPHA
  6
CONTINUOUS
100
AcDbVertex
100
AcDb2dVertex
 10
45.835503
 20
133.305644
 30
0.0
  0
VERTEX
  5
CBB
100
AcDbEntity
  8
ALPHA
  6
CONTINUOUS
100
AcDbVertex
100
AcDb2dVertex
 10
46.437085
 20
133.305644
 30
0.0
  0
VERTEX
  5
CBC
100
AcDbEntity
  8
ALPHA
  6
CONTINUOUS
100
AcDbVertex
100
AcDb2dVertex
 10
47.00659
 20
133.311482
 30
0.0
  0
VERTEX
  5
CBD
100
AcDbEntity
  8
ALPHA
  6
CONTINUOUS
100
AcDbVertex
100
AcDb2dVertex
 10
47.51239
 20
133.322827
 30
0.0
  0
VERTEX
  5
CBE
100
AcDbEntity
  8
ALPHA
  6
CONTINUOUS
100
AcDbVertex
100
AcDb2dVertex
 10
47.902011
 20
133.338525
 30
0.0
  0
VERTEX
  5
CBF
100
AcDbEntity
  8
ALPHA
  6
CONTINUOUS
100
AcDbVertex
100
AcDb2dVertex
 10
48.15132
 20
133.357572
 30
0.0
  0
VERTEX
  5
CC0
100
AcDbEntity
  8
ALPHA
  6
CONTINUOUS
100
AcDbVertex
100
AcDb2dVertex
 10
48.236294
 20
133.378222
 30
0.0
  0
SEQEND
  5
CC1
100
AcDbEntity
  8
ALPHA
  0
ARC
  5
CC2
100
AcDbEntity
  8
ALPHA
  6
CONTINUOUS
100
AcDbCircle
 10
50.086294
 20
130.532824
 30
0.0
 40
0.499994
100
AcDbArc
 50
15.792242
 51
164.207758
  0
ARC
  5
CC3
100
AcDbEntity
  8
ALPHA
  6
CONTINUOUS
100
AcDbCircle
 10
50.086294
 20
130.532824
 30
0.0
 40
0.3
100
AcDbArc
 50
15.792242
 51
164.207758
  0
LINE
  5
CC4
100
AcDbEntity
  8
ALPHA
  6
CONTINUOUS
100
AcDbLine
 10
49.605167
 20
130.668899
 30
0.0
 11
49.797617
 21
130.614469
 31
0.0
  0
LINE
  5
CC5
100
AcDbEntity
  8
ALPHA
  6
CONTINUOUS
100
AcDbLine
 10
50.567421
 20
130.668899
 30
0.0
 11
50.37497
 21
130.614469
 31
0.0
  0
LINE
  5
CC6
100
AcDbEntity
  8
ALPHA
  6
CONTINUOUS
100
AcDbLine
 10
53.605167
 20
130.668899
 30
0.0
 11
53.797617
 21
130.614469
 31
0.0
  0
POLYLINE
  5
CC7
100
AcDbEntity
  8
ALPHA
  6
CONTINUOUS
100
AcDb2dPolyline
 66
     1
 10
0.0
 20
0.0
 30
0.0
  0
VERTEX
  5
CC8
100
AcDbEntity
  8
ALPHA
  6
CONTINUOUS
100
AcDbVertex
100
AcDb2dVertex
 10
53.316294
 20
133.378222
 30
0.0
  0
VERTEX
  5
CC9
100
AcDbEntity
  8
ALPHA
  6
CONTINUOUS
100
AcDbVertex
100
AcDb2dVertex
 10
53.23132
 20
133.398872
 30
0.0
  0
VERTEX
  5
CCA
100
AcDbEntity
  8
ALPHA
  6
CONTINUOUS
100
AcDbVertex
100
AcDb2dVertex
 10
52.982011
 20
133.417919
 30
0.0
  0
VERTEX
  5
CCB
100
AcDbEntity
  8
ALPHA
  6
CONTINUOUS
100
AcDbVertex
100
AcDb2dVertex
 10
52.59239
 20
133.433617
 30
0.0
  0
VERTEX
  5
CCC
100
AcDbEntity
  8
ALPHA
  6
CONTINUOUS
100
AcDbVertex
100
AcDb2dVertex
 10
52.08659
 20
133.444962
 30
0.0
  0
VERTEX
  5
CCD
100
AcDbEntity
  8
ALPHA
  6
CONTINUOUS
100
AcDbVertex
100
AcDb2dVertex
 10
51.517085
 20
133.450799
 30
0.0
  0
VERTEX
  5
CCE
100
AcDbEntity
  8
ALPHA
  6
CONTINUOUS
100
AcDbVertex
100
AcDb2dVertex
 10
50.915503
 20
133.450799
 30
0.0
  0
VERTEX
  5
CCF
100
AcDbEntity
  8
ALPHA
  6
CONTINUOUS
100
AcDbVertex
100
AcDb2dVertex
 10
50.345998
 20
133.444962
 30
0.0
  0
VERTEX
  5
CD0
100
AcDbEntity
  8
ALPHA
  6
CONTINUOUS
100
AcDbVertex
100
AcDb2dVertex
 10
49.840198
 20
133.433617
 30
0.0
  0
VERTEX
  5
CD1
100
AcDbEntity
  8
ALPHA
  6
CONTINUOUS
100
AcDbVertex
100
AcDb2dVertex
 10
49.450577
 20
133.417919
 30
0.0
  0
VERTEX
  5
CD2
100
AcDbEntity
  8
ALPHA
  6
CONTINUOUS
100
AcDbVertex
100
AcDb2dVertex
 10
49.201268
 20
133.398872
 30
0.0
  0
VERTEX
  5
CD3
100
AcDbEntity
  8
ALPHA
  6
CONTINUOUS
100
AcDbVertex
100
AcDb2dVertex
 10
49.116294
 20
133.378222
 30
0.0
  0
SEQEND
  5
CD4
100
AcDbEntity
  8
ALPHA
  0
POLYLINE
  5
CD5
100
AcDbEntity
  8
ALPHA
  6
CONTINUOUS
100
AcDb2dPolyline
 66
     1
 10
0.0
 20
0.0
 30
0.0
  0
VERTEX
  5
CD6
100
AcDbEntity
  8
ALPHA
  6
CONTINUOUS
100
AcDbVertex
100
AcDb2dVertex
 10
49.116294
 20
133.378222
 30
0.0
  0
VERTEX
  5
CD7
100
AcDbEntity
  8
ALPHA
  6
CONTINUOUS
100
AcDbVertex
100
AcDb2dVertex
 10
49.201268
 20
133.357572
 30
0.0
  0
VERTEX
  5
CD8
100
AcDbEntity
  8
ALPHA
  6
CONTINUOUS
100
AcDbVertex
100
AcDb2dVertex
 10
49.450577
 20
133.338525
 30
0.0
  0
VERTEX
  5
CD9
100
AcDbEntity
  8
ALPHA
  6
CONTINUOUS
100
AcDbVertex
100
AcDb2dVertex
 10
49.840198
 20
133.322827
 30
0.0
  0
VERTEX
  5
CDA
100
AcDbEntity
  8
ALPHA
  6
CONTINUOUS
100
AcDbVertex
100
AcDb2dVertex
 10
50.345998
 20
133.311482
 30
0.0
  0
VERTEX
  5
CDB
100
AcDbEntity
  8
ALPHA
  6
CONTINUOUS
100
AcDbVertex
100
AcDb2dVertex
 10
50.915503
 20
133.305644
 30
0.0
  0
VERTEX
  5
CDC
100
AcDbEntity
  8
ALPHA
  6
CONTINUOUS
100
AcDbVertex
100
AcDb2dVertex
 10
51.517085
 20
133.305644
 30
0.0
  0
VERTEX
  5
CDD
100
AcDbEntity
  8
ALPHA
  6
CONTINUOUS
100
AcDbVertex
100
AcDb2dVertex
 10
52.08659
 20
133.311482
 30
0.0
  0
VERTEX
  5
CDE
100
AcDbEntity
  8
ALPHA
  6
CONTINUOUS
100
AcDbVertex
100
AcDb2dVertex
 10
52.59239
 20
133.322827
 30
0.0
  0
VERTEX
  5
CDF
100
AcDbEntity
  8
ALPHA
  6
CONTINUOUS
100
AcDbVertex
100
AcDb2dVertex
 10
52.982011
 20
133.338525
 30
0.0
  0
VERTEX
  5
CE0
100
AcDbEntity
  8
ALPHA
  6
CONTINUOUS
100
AcDbVertex
100
AcDb2dVertex
 10
53.23132
 20
133.357572
 30
0.0
  0
VERTEX
  5
CE1
100
AcDbEntity
  8
ALPHA
  6
CONTINUOUS
100
AcDbVertex
100
AcDb2dVertex
 10
53.316294
 20
133.378222
 30
0.0
  0
SEQEND
  5
CE2
100
AcDbEntity
  8
ALPHA
  0
POLYLINE
  5
CE3
100
AcDbEntity
  8
ALPHA
  6
CONTINUOUS
100
AcDb2dPolyline
 66
     1
 10
0.0
 20
0.0
 30
0.0
  0
VERTEX
  5
CE4
100
AcDbEntity
  8
ALPHA
  6
CONTINUOUS
100
AcDbVertex
100
AcDb2dVertex
 10
63.476294
 20
133.378222
 30
0.0
  0
VERTEX
  5
CE5
100
AcDbEntity
  8
ALPHA
  6
CONTINUOUS
100
AcDbVertex
100
AcDb2dVertex
 10
63.39132
 20
133.398872
 30
0.0
  0
VERTEX
  5
CE6
100
AcDbEntity
  8
ALPHA
  6
CONTINUOUS
100
AcDbVertex
100
AcDb2dVertex
 10
63.142011
 20
133.417919
 30
0.0
  0
VERTEX
  5
CE7
100
AcDbEntity
  8
ALPHA
  6
CONTINUOUS
100
AcDbVertex
100
AcDb2dVertex
 10
62.75239
 20
133.433617
 30
0.0
  0
VERTEX
  5
CE8
100
AcDbEntity
  8
ALPHA
  6
CONTINUOUS
100
AcDbVertex
100
AcDb2dVertex
 10
62.24659
 20
133.444962
 30
0.0
  0
VERTEX
  5
CE9
100
AcDbEntity
  8
ALPHA
  6
CONTINUOUS
100
AcDbVertex
100
AcDb2dVertex
 10
61.677085
 20
133.450799
 30
0.0
  0
VERTEX
  5
CEA
100
AcDbEntity
  8
ALPHA
  6
CONTINUOUS
100
AcDbVertex
100
AcDb2dVertex
 10
61.075503
 20
133.450799
 30
0.0
  0
VERTEX
  5
CEB
100
AcDbEntity
  8
ALPHA
  6
CONTINUOUS
100
AcDbVertex
100
AcDb2dVertex
 10
60.505998
 20
133.444962
 30
0.0
  0
VERTEX
  5
CEC
100
AcDbEntity
  8
ALPHA
  6
CONTINUOUS
100
AcDbVertex
100
AcDb2dVertex
 10
60.000198
 20
133.433617
 30
0.0
  0
VERTEX
  5
CED
100
AcDbEntity
  8
ALPHA
  6
CONTINUOUS
100
AcDbVertex
100
AcDb2dVertex
 10
59.610577
 20
133.417919
 30
0.0
  0
VERTEX
  5
CEE
100
AcDbEntity
  8
ALPHA
  6
CONTINUOUS
100
AcDbVertex
100
AcDb2dVertex
 10
59.361268
 20
133.398872
 30
0.0
  0
VERTEX
  5
CEF
100
AcDbEntity
  8
ALPHA
  6
CONTINUOUS
100
AcDbVertex
100
AcDb2dVertex
 10
59.276294
 20
133.378222
 30
0.0
  0
SEQEND
  5
CF0
100
AcDbEntity
  8
ALPHA
  0
POLYLINE
  5
CF1
100
AcDbEntity
  8
ALPHA
  6
CONTINUOUS
100
AcDb2dPolyline
 66
     1
 10
0.0
 20
0.0
 30
0.0
  0
VERTEX
  5
CF2
100
AcDbEntity
  8
ALPHA
  6
CONTINUOUS
100
AcDbVertex
100
AcDb2dVertex
 10
59.276294
 20
133.378222
 30
0.0
  0
VERTEX
  5
CF3
100
AcDbEntity
  8
ALPHA
  6
CONTINUOUS
100
AcDbVertex
100
AcDb2dVertex
 10
59.361268
 20
133.357572
 30
0.0
  0
VERTEX
  5
CF4
100
AcDbEntity
  8
ALPHA
  6
CONTINUOUS
100
AcDbVertex
100
AcDb2dVertex
 10
59.610577
 20
133.338525
 30
0.0
  0
VERTEX
  5
CF5
100
AcDbEntity
  8
ALPHA
  6
CONTINUOUS
100
AcDbVertex
100
AcDb2dVertex
 10
60.000198
 20
133.322827
 30
0.0
  0
VERTEX
  5
CF6
100
AcDbEntity
  8
ALPHA
  6
CONTINUOUS
100
AcDbVertex
100
AcDb2dVertex
 10
60.505998
 20
133.311482
 30
0.0
  0
VERTEX
  5
CF7
100
AcDbEntity
  8
ALPHA
  6
CONTINUOUS
100
AcDbVertex
100
AcDb2dVertex
 10
61.075503
 20
133.305644
 30
0.0
  0
VERTEX
  5
CF8
100
AcDbEntity
  8
ALPHA
  6
CONTINUOUS
100
AcDbVertex
100
AcDb2dVertex
 10
61.677085
 20
133.305644
 30
0.0
  0
VERTEX
  5
CF9
100
AcDbEntity
  8
ALPHA
  6
CONTINUOUS
100
AcDbVertex
100
AcDb2dVertex
 10
62.24659
 20
133.311482
 30
0.0
  0
VERTEX
  5
CFA
100
AcDbEntity
  8
ALPHA
  6
CONTINUOUS
100
AcDbVertex
100
AcDb2dVertex
 10
62.75239
 20
133.322827
 30
0.0
  0
VERTEX
  5
CFB
100
AcDbEntity
  8
ALPHA
  6
CONTINUOUS
100
AcDbVertex
100
AcDb2dVertex
 10
63.142011
 20
133.338525
 30
0.0
  0
VERTEX
  5
CFC
100
AcDbEntity
  8
ALPHA
  6
CONTINUOUS
100
AcDbVertex
100
AcDb2dVertex
 10
63.39132
 20
133.357572
 30
0.0
  0
VERTEX
  5
CFD
100
AcDbEntity
  8
ALPHA
  6
CONTINUOUS
100
AcDbVertex
100
AcDb2dVertex
 10
63.476294
 20
133.378222
 30
0.0
  0
SEQEND
  5
CFE
100
AcDbEntity
  8
ALPHA
  0
LINE
  5
CFF
100
AcDbEntity
  8
ALPHA
  6
CONTINUOUS
100
AcDbLine
 10
54.567421
 20
130.668899
 30
0.0
 11
54.37497
 21
130.614469
 31
0.0
  0
ARC
  5
D00
100
AcDbEntity
  8
ALPHA
  6
CONTINUOUS
100
AcDbCircle
 10
58.086294
 20
130.532824
 30
0.0
 40
0.499994
100
AcDbArc
 50
15.792242
 51
164.207758
  0
ARC
  5
D01
100
AcDbEntity
  8
ALPHA
  6
CONTINUOUS
100
AcDbCircle
 10
58.086294
 20
130.532824
 30
0.0
 40
0.3
100
AcDbArc
 50
15.792242
 51
164.207758
  0
LINE
  5
D02
100
AcDbEntity
  8
ALPHA
  6
CONTINUOUS
100
AcDbLine
 10
57.605167
 20
130.668899
 30
0.0
 11
57.797617
 21
130.614469
 31
0.0
  0
LINE
  5
D03
100
AcDbEntity
  8
ALPHA
  6
CONTINUOUS
100
AcDbLine
 10
58.567421
 20
130.668899
 30
0.0
 11
58.37497
 21
130.614469
 31
0.0
  0
ARC
  5
D04
100
AcDbEntity
  8
ALPHA
  6
CONTINUOUS
100
AcDbCircle
 10
62.086294
 20
130.532824
 30
0.0
 40
0.499994
100
AcDbArc
 50
15.792242
 51
164.207758
  0
ARC
  5
D05
100
AcDbEntity
  8
ALPHA
  6
CONTINUOUS
100
AcDbCircle
 10
62.086294
 20
130.532824
 30
0.0
 40
0.3
100
AcDbArc
 50
15.792242
 51
164.207758
  0
LINE
  5
D06
100
AcDbEntity
  8
ALPHA
  6
CONTINUOUS
100
AcDbLine
 10
61.605167
 20
130.668899
 30
0.0
 11
61.797617
 21
130.614469
 31
0.0
  0
LINE
  5
D07
100
AcDbEntity
  8
ALPHA
  6
CONTINUOUS
100
AcDbLine
 10
62.567421
 20
130.668899
 30
0.0
 11
62.37497
 21
130.614469
 31
0.0
  0
LINE
  5
D08
100
AcDbEntity
  8
ALPHA
  6
CONTINUOUS
100
AcDbLine
 10
65.605167
 20
130.668899
 30
0.0
 11
65.797617
 21
130.614469
 31
0.0
  0
LINE
  5
D09
100
AcDbEntity
  8
ALPHA
  6
CONTINUOUS
100
AcDbLine
 10
53.871294
 20
150.74362
 30
0.0
 11
54.371294
 21
150.24362
 31
0.0
  0
LINE
  5
D0A
100
AcDbEntity
  8
ALPHA
  6
CONTINUOUS
100
AcDbLine
 10
58.721294
 20
150.74362
 30
0.0
 11
53.871294
 21
150.74362
 31
0.0
  0
LINE
  5
D0B
100
AcDbEntity
  8
ALPHA
  6
CONTINUOUS
100
AcDbLine
 10
53.871294
 20
144.44362
 30
0.0
 11
58.721294
 21
144.44362
 31
0.0
  0
LINE
  5
D0C
100
AcDbEntity
  8
ALPHA
  6
CONTINUOUS
100
AcDbLine
 10
53.871294
 20
144.44362
 30
0.0
 11
54.371294
 21
144.94362
 31
0.0
  0
LINE
  5
D0D
100
AcDbEntity
  8
ALPHA
  6
CONTINUOUS
100
AcDbLine
 10
48.561294
 20
150.74362
 30
0.0
 11
43.711294
 21
150.74362
 31
0.0
  0
LINE
  5
D0E
100
AcDbEntity
  8
ALPHA
  6
CONTINUOUS
100
AcDbLine
 10
48.561294
 20
144.44362
 30
0.0
 11
48.061294
 21
144.94362
 31
0.0
  0
LINE
  5
D0F
100
AcDbEntity
  8
ALPHA
  6
CONTINUOUS
100
AcDbLine
 10
43.711294
 20
144.44362
 30
0.0
 11
48.561294
 21
144.44362
 31
0.0
  0
LINE
  5
D10
100
AcDbEntity
  8
ALPHA
  6
CONTINUOUS
100
AcDbLine
 10
48.561294
 20
150.74362
 30
0.0
 11
48.061294
 21
150.24362
 31
0.0
  0
LINE
  5
D11
100
AcDbEntity
  8
ALPHA
  6
CONTINUOUS
100
AcDbLine
 10
48.061294
 20
144.94362
 30
0.0
 11
48.061294
 21
150.24362
 31
0.0
  0
LINE
  5
D12
100
AcDbEntity
  8
ALPHA
  6
CONTINUOUS
100
AcDbLine
 10
44.221294
 20
150.24362
 30
0.0
 11
44.221294
 21
144.94362
 31
0.0
  0
LINE
  5
D13
100
AcDbEntity
  8
ALPHA
  6
CONTINUOUS
100
AcDbLine
 10
44.211294
 20
150.24362
 30
0.0
 11
44.211294
 21
144.94362
 31
0.0
  0
LINE
  5
D14
100
AcDbEntity
  8
ALPHA
  6
CONTINUOUS
100
AcDbLine
 10
43.711294
 20
150.74362
 30
0.0
 11
43.711294
 21
144.44362
 31
0.0
  0
LINE
  5
D15
100
AcDbEntity
  8
ALPHA
  6
CONTINUOUS
100
AcDbLine
 10
43.481294
 20
144.44362
 30
0.0
 11
43.481294
 21
150.74362
 31
0.0
  0
LINE
  5
D16
100
AcDbEntity
  8
ALPHA
  6
CONTINUOUS
100
AcDbLine
 10
42.981294
 20
144.94362
 30
0.0
 11
42.981294
 21
150.24362
 31
0.0
  0
LINE
  5
D17
100
AcDbEntity
  8
ALPHA
  6
CONTINUOUS
100
AcDbLine
 10
44.211294
 20
144.94362
 30
0.0
 11
48.061294
 21
144.94362
 31
0.0
  0
LINE
  5
D18
100
AcDbEntity
  8
ALPHA
  6
CONTINUOUS
100
AcDbLine
 10
43.481294
 20
144.44362
 30
0.0
 11
42.981294
 21
144.94362
 31
0.0
  0
LINE
  5
D19
100
AcDbEntity
  8
ALPHA
  6
CONTINUOUS
100
AcDbLine
 10
43.711294
 20
144.44362
 30
0.0
 11
44.211294
 21
144.94362
 31
0.0
  0
LINE
  5
D1A
100
AcDbEntity
  8
ALPHA
  6
CONTINUOUS
100
AcDbLine
 10
48.061294
 20
150.24362
 30
0.0
 11
44.211294
 21
150.24362
 31
0.0
  0
LINE
  5
D1B
100
AcDbEntity
  8
ALPHA
  6
CONTINUOUS
100
AcDbLine
 10
43.711294
 20
150.74362
 30
0.0
 11
44.211294
 21
150.24362
 31
0.0
  0
LINE
  5
D1C
100
AcDbEntity
  8
ALPHA
  6
CONTINUOUS
100
AcDbLine
 10
43.481294
 20
150.74362
 30
0.0
 11
42.981294
 21
150.24362
 31
0.0
  0
LINE
  5
D1D
100
AcDbEntity
  8
ALPHA
  6
CONTINUOUS
100
AcDbLine
 10
53.871294
 20
150.74362
 30
0.0
 11
53.871294
 21
144.44362
 31
0.0
  0
LINE
  5
D1E
100
AcDbEntity
  8
ALPHA
  6
CONTINUOUS
100
AcDbLine
 10
53.641294
 20
144.44362
 30
0.0
 11
53.641294
 21
150.74362
 31
0.0
  0
LINE
  5
D1F
100
AcDbEntity
  8
ALPHA
  6
CONTINUOUS
100
AcDbLine
 10
53.141294
 20
144.94362
 30
0.0
 11
53.141294
 21
150.24362
 31
0.0
  0
LINE
  5
D20
100
AcDbEntity
  8
ALPHA
  6
CONTINUOUS
100
AcDbLine
 10
49.301294
 20
150.24362
 30
0.0
 11
49.301294
 21
144.94362
 31
0.0
  0
LINE
  5
D21
100
AcDbEntity
  8
ALPHA
  6
CONTINUOUS
100
AcDbLine
 10
49.291294
 20
150.24362
 30
0.0
 11
49.291294
 21
144.94362
 31
0.0
  0
LINE
  5
D22
100
AcDbEntity
  8
ALPHA
  6
CONTINUOUS
100
AcDbLine
 10
48.791294
 20
150.74362
 30
0.0
 11
48.791294
 21
144.44362
 31
0.0
  0
LINE
  5
D23
100
AcDbEntity
  8
ALPHA
  6
CONTINUOUS
100
AcDbLine
 10
48.561294
 20
144.44362
 30
0.0
 11
48.561294
 21
150.74362
 31
0.0
  0
LINE
  5
D24
100
AcDbEntity
  8
ALPHA
  6
CONTINUOUS
100
AcDbLine
 10
49.291294
 20
144.94362
 30
0.0
 11
53.141294
 21
144.94362
 31
0.0
  0
LINE
  5
D25
100
AcDbEntity
  8
ALPHA
  6
CONTINUOUS
100
AcDbLine
 10
48.791294
 20
144.44362
 30
0.0
 11
53.641294
 21
144.44362
 31
0.0
  0
LINE
  5
D26
100
AcDbEntity
  8
ALPHA
  6
CONTINUOUS
100
AcDbLine
 10
48.791294
 20
144.44362
 30
0.0
 11
49.291294
 21
144.94362
 31
0.0
  0
LINE
  5
D27
100
AcDbEntity
  8
ALPHA
  6
CONTINUOUS
100
AcDbLine
 10
53.641294
 20
144.44362
 30
0.0
 11
53.141294
 21
144.94362
 31
0.0
  0
LINE
  5
D28
100
AcDbEntity
  8
ALPHA
  6
CONTINUOUS
100
AcDbLine
 10
53.641294
 20
150.74362
 30
0.0
 11
48.791294
 21
150.74362
 31
0.0
  0
LINE
  5
D29
100
AcDbEntity
  8
ALPHA
  6
CONTINUOUS
100
AcDbLine
 10
53.141294
 20
150.24362
 30
0.0
 11
49.291294
 21
150.24362
 31
0.0
  0
LINE
  5
D2A
100
AcDbEntity
  8
ALPHA
  6
CONTINUOUS
100
AcDbLine
 10
48.791294
 20
150.74362
 30
0.0
 11
49.291294
 21
150.24362
 31
0.0
  0
LINE
  5
D2B
100
AcDbEntity
  8
ALPHA
  6
CONTINUOUS
100
AcDbLine
 10
53.641294
 20
150.74362
 30
0.0
 11
53.141294
 21
150.24362
 31
0.0
  0
LINE
  5
D2C
100
AcDbEntity
  8
ALPHA
  6
CONTINUOUS
100
AcDbLine
 10
63.801294
 20
150.74362
 30
0.0
 11
58.951294
 21
150.74362
 31
0.0
  0
LINE
  5
D2D
100
AcDbEntity
  8
ALPHA
  6
CONTINUOUS
100
AcDbLine
 10
63.301294
 20
150.24362
 30
0.0
 11
59.451294
 21
150.24362
 31
0.0
  0
LINE
  5
D2E
100
AcDbEntity
  8
ALPHA
  6
CONTINUOUS
100
AcDbLine
 10
59.451294
 20
144.94362
 30
0.0
 11
63.301294
 21
144.94362
 31
0.0
  0
LINE
  5
D2F
100
AcDbEntity
  8
ALPHA
  6
CONTINUOUS
100
AcDbLine
 10
58.951294
 20
144.44362
 30
0.0
 11
63.801294
 21
144.44362
 31
0.0
  0
LINE
  5
D30
100
AcDbEntity
  8
ALPHA
  6
CONTINUOUS
100
AcDbLine
 10
59.461294
 20
150.24362
 30
0.0
 11
59.461294
 21
144.94362
 31
0.0
  0
LINE
  5
D31
100
AcDbEntity
  8
ALPHA
  6
CONTINUOUS
100
AcDbLine
 10
59.451294
 20
150.24362
 30
0.0
 11
59.451294
 21
144.94362
 31
0.0
  0
LINE
  5
D32
100
AcDbEntity
  8
ALPHA
  6
CONTINUOUS
100
AcDbLine
 10
58.951294
 20
150.74362
 30
0.0
 11
58.951294
 21
144.44362
 31
0.0
  0
LINE
  5
D33
100
AcDbEntity
  8
ALPHA
  6
CONTINUOUS
100
AcDbLine
 10
58.721294
 20
144.44362
 30
0.0
 11
58.721294
 21
150.74362
 31
0.0
  0
LINE
  5
D34
100
AcDbEntity
  8
ALPHA
  6
CONTINUOUS
100
AcDbLine
 10
58.221294
 20
144.94362
 30
0.0
 11
58.221294
 21
150.24362
 31
0.0
  0
LINE
  5
D35
100
AcDbEntity
  8
ALPHA
  6
CONTINUOUS
100
AcDbLine
 10
54.381294
 20
150.24362
 30
0.0
 11
54.381294
 21
144.94362
 31
0.0
  0
LINE
  5
D36
100
AcDbEntity
  8
ALPHA
  6
CONTINUOUS
100
AcDbLine
 10
54.371294
 20
150.24362
 30
0.0
 11
54.371294
 21
144.94362
 31
0.0
  0
LINE
  5
D37
100
AcDbEntity
  8
ALPHA
  6
CONTINUOUS
100
AcDbLine
 10
54.371294
 20
144.94362
 30
0.0
 11
58.221294
 21
144.94362
 31
0.0
  0
LINE
  5
D38
100
AcDbEntity
  8
ALPHA
  6
CONTINUOUS
100
AcDbLine
 10
58.721294
 20
144.44362
 30
0.0
 11
58.221294
 21
144.94362
 31
0.0
  0
LINE
  5
D39
100
AcDbEntity
  8
ALPHA
  6
CONTINUOUS
100
AcDbLine
 10
58.951294
 20
144.44362
 30
0.0
 11
59.451294
 21
144.94362
 31
0.0
  0
LINE
  5
D3A
100
AcDbEntity
  8
ALPHA
  6
CONTINUOUS
100
AcDbLine
 10
58.221294
 20
150.24362
 30
0.0
 11
54.371294
 21
150.24362
 31
0.0
  0
LINE
  5
D3B
100
AcDbEntity
  8
ALPHA
  6
CONTINUOUS
100
AcDbLine
 10
58.951294
 20
150.74362
 30
0.0
 11
59.451294
 21
150.24362
 31
0.0
  0
LINE
  5
D3C
100
AcDbEntity
  8
ALPHA
  6
CONTINUOUS
100
AcDbLine
 10
58.721294
 20
150.74362
 30
0.0
 11
58.221294
 21
150.24362
 31
0.0
  0
LINE
  5
D3D
100
AcDbEntity
  8
ALPHA
  6
CONTINUOUS
100
AcDbLine
 10
64.531294
 20
150.24362
 30
0.0
 11
64.531294
 21
144.94362
 31
0.0
  0
LINE
  5
D3E
100
AcDbEntity
  8
ALPHA
  6
CONTINUOUS
100
AcDbLine
 10
64.031294
 20
150.74362
 30
0.0
 11
64.031294
 21
144.44362
 31
0.0
  0
LINE
  5
D3F
100
AcDbEntity
  8
ALPHA
  6
CONTINUOUS
100
AcDbLine
 10
63.801294
 20
144.44362
 30
0.0
 11
63.801294
 21
150.74362
 31
0.0
  0
LINE
  5
D40
100
AcDbEntity
  8
ALPHA
  6
CONTINUOUS
100
AcDbLine
 10
63.301294
 20
144.94362
 30
0.0
 11
63.301294
 21
150.24362
 31
0.0
  0
LINE
  5
D41
100
AcDbEntity
  8
ALPHA
  6
CONTINUOUS
100
AcDbLine
 10
63.801294
 20
144.44362
 30
0.0
 11
63.301294
 21
144.94362
 31
0.0
  0
LINE
  5
D42
100
AcDbEntity
  8
ALPHA
  6
CONTINUOUS
100
AcDbLine
 10
64.031294
 20
144.44362
 30
0.0
 11
64.531294
 21
144.94362
 31
0.0
  0
LINE
  5
D43
100
AcDbEntity
  8
ALPHA
  6
CONTINUOUS
100
AcDbLine
 10
64.031294
 20
150.74362
 30
0.0
 11
64.531294
 21
150.24362
 31
0.0
  0
LINE
  5
D44
100
AcDbEntity
  8
ALPHA
  6
CONTINUOUS
100
AcDbLine
 10
63.801294
 20
150.74362
 30
0.0
 11
63.301294
 21
150.24362
 31
0.0
  0
POLYLINE
  5
D45
100
AcDbEntity
  8
ALPHA
  6
CONTINUOUS
100
AcDb2dPolyline
 66
     1
 10
0.0
 20
0.0
 30
0.0
  0
VERTEX
  5
D46
100
AcDbEntity
  8
ALPHA
  6
CONTINUOUS
100
AcDbVertex
100
AcDb2dVertex
 10
73.636294
 20
133.378222
 30
0.0
  0
VERTEX
  5
D47
100
AcDbEntity
  8
ALPHA
  6
CONTINUOUS
100
AcDbVertex
100
AcDb2dVertex
 10
73.55132
 20
133.398872
 30
0.0
  0
VERTEX
  5
D48
100
AcDbEntity
  8
ALPHA
  6
CONTINUOUS
100
AcDbVertex
100
AcDb2dVertex
 10
73.302011
 20
133.417919
 30
0.0
  0
VERTEX
  5
D49
100
AcDbEntity
  8
ALPHA
  6
CONTINUOUS
100
AcDbVertex
100
AcDb2dVertex
 10
72.91239
 20
133.433617
 30
0.0
  0
VERTEX
  5
D4A
100
AcDbEntity
  8
ALPHA
  6
CONTINUOUS
100
AcDbVertex
100
AcDb2dVertex
 10
72.40659
 20
133.444962
 30
0.0
  0
VERTEX
  5
D4B
100
AcDbEntity
  8
ALPHA
  6
CONTINUOUS
100
AcDbVertex
100
AcDb2dVertex
 10
71.837085
 20
133.450799
 30
0.0
  0
VERTEX
  5
D4C
100
AcDbEntity
  8
ALPHA
  6
CONTINUOUS
100
AcDbVertex
100
AcDb2dVertex
 10
71.235503
 20
133.450799
 30
0.0
  0
VERTEX
  5
D4D
100
AcDbEntity
  8
ALPHA
  6
CONTINUOUS
100
AcDbVertex
100
AcDb2dVertex
 10
70.665998
 20
133.444962
 30
0.0
  0
VERTEX
  5
D4E
100
AcDbEntity
  8
ALPHA
  6
CONTINUOUS
100
AcDbVertex
100
AcDb2dVertex
 10
70.160198
 20
133.433617
 30
0.0
  0
VERTEX
  5
D4F
100
AcDbEntity
  8
ALPHA
  6
CONTINUOUS
100
AcDbVertex
100
AcDb2dVertex
 10
69.770577
 20
133.417919
 30
0.0
  0
VERTEX
  5
D50
100
AcDbEntity
  8
ALPHA
  6
CONTINUOUS
100
AcDbVertex
100
AcDb2dVertex
 10
69.521268
 20
133.398872
 30
0.0
  0
VERTEX
  5
D51
100
AcDbEntity
  8
ALPHA
  6
CONTINUOUS
100
AcDbVertex
100
AcDb2dVertex
 10
69.436294
 20
133.378222
 30
0.0
  0
SEQEND
  5
D52
100
AcDbEntity
  8
ALPHA
  0
POLYLINE
  5
D53
100
AcDbEntity
  8
ALPHA
  6
CONTINUOUS
100
AcDb2dPolyline
 66
     1
 10
0.0
 20
0.0
 30
0.0
  0
VERTEX
  5
D54
100
AcDbEntity
  8
ALPHA
  6
CONTINUOUS
100
AcDbVertex
100
AcDb2dVertex
 10
69.436294
 20
133.378222
 30
0.0
  0
VERTEX
  5
D55
100
AcDbEntity
  8
ALPHA
  6
CONTINUOUS
100
AcDbVertex
100
AcDb2dVertex
 10
69.521268
 20
133.357572
 30
0.0
  0
VERTEX
  5
D56
100
AcDbEntity
  8
ALPHA
  6
CONTINUOUS
100
AcDbVertex
100
AcDb2dVertex
 10
69.770577
 20
133.338525
 30
0.0
  0
VERTEX
  5
D57
100
AcDbEntity
  8
ALPHA
  6
CONTINUOUS
100
AcDbVertex
100
AcDb2dVertex
 10
70.160198
 20
133.322827
 30
0.0
  0
VERTEX
  5
D58
100
AcDbEntity
  8
ALPHA
  6
CONTINUOUS
100
AcDbVertex
100
AcDb2dVertex
 10
70.665998
 20
133.311482
 30
0.0
  0
VERTEX
  5
D59
100
AcDbEntity
  8
ALPHA
  6
CONTINUOUS
100
AcDbVertex
100
AcDb2dVertex
 10
71.235503
 20
133.305644
 30
0.0
  0
VERTEX
  5
D5A
100
AcDbEntity
  8
ALPHA
  6
CONTINUOUS
100
AcDbVertex
100
AcDb2dVertex
 10
71.837085
 20
133.305644
 30
0.0
  0
VERTEX
  5
D5B
100
AcDbEntity
  8
ALPHA
  6
CONTINUOUS
100
AcDbVertex
100
AcDb2dVertex
 10
72.40659
 20
133.311482
 30
0.0
  0
VERTEX
  5
D5C
100
AcDbEntity
  8
ALPHA
  6
CONTINUOUS
100
AcDbVertex
100
AcDb2dVertex
 10
72.91239
 20
133.322827
 30
0.0
  0
VERTEX
  5
D5D
100
AcDbEntity
  8
ALPHA
  6
CONTINUOUS
100
AcDbVertex
100
AcDb2dVertex
 10
73.302011
 20
133.338525
 30
0.0
  0
VERTEX
  5
D5E
100
AcDbEntity
  8
ALPHA
  6
CONTINUOUS
100
AcDbVertex
100
AcDb2dVertex
 10
73.55132
 20
133.357572
 30
0.0
  0
VERTEX
  5
D5F
100
AcDbEntity
  8
ALPHA
  6
CONTINUOUS
100
AcDbVertex
100
AcDb2dVertex
 10
73.636294
 20
133.378222
 30
0.0
  0
SEQEND
  5
D60
100
AcDbEntity
  8
ALPHA
  0
LINE
  5
D61
100
AcDbEntity
  8
ALPHA
  6
CONTINUOUS
100
AcDbLine
 10
66.567421
 20
130.668899
 30
0.0
 11
66.37497
 21
130.614469
 31
0.0
  0
ARC
  5
D62
100
AcDbEntity
  8
ALPHA
  6
CONTINUOUS
100
AcDbCircle
 10
70.086294
 20
130.532824
 30
0.0
 40
0.499994
100
AcDbArc
 50
15.792242
 51
164.207758
  0
ARC
  5
D63
100
AcDbEntity
  8
ALPHA
  6
CONTINUOUS
100
AcDbCircle
 10
70.086294
 20
130.532824
 30
0.0
 40
0.3
100
AcDbArc
 50
15.792242
 51
164.207758
  0
LINE
  5
D64
100
AcDbEntity
  8
ALPHA
  6
CONTINUOUS
100
AcDbLine
 10
69.605167
 20
130.668899
 30
0.0
 11
69.797617
 21
130.614469
 31
0.0
  0
LINE
  5
D65
100
AcDbEntity
  8
ALPHA
  6
CONTINUOUS
100
AcDbLine
 10
70.567421
 20
130.668899
 30
0.0
 11
70.37497
 21
130.614469
 31
0.0
  0
ARC
  5
D66
100
AcDbEntity
  8
ALPHA
  6
CONTINUOUS
100
AcDbCircle
 10
74.086294
 20
130.532824
 30
0.0
 40
0.499994
100
AcDbArc
 50
15.792242
 51
164.207758
  0
ARC
  5
D67
100
AcDbEntity
  8
ALPHA
  6
CONTINUOUS
100
AcDbCircle
 10
74.086294
 20
130.532824
 30
0.0
 40
0.3
100
AcDbArc
 50
15.792242
 51
164.207758
  0
LINE
  5
D68
100
AcDbEntity
  8
ALPHA
  6
CONTINUOUS
100
AcDbLine
 10
73.605167
 20
130.668899
 30
0.0
 11
73.797617
 21
130.614469
 31
0.0
  0
LINE
  5
D69
100
AcDbEntity
  8
ALPHA
  6
CONTINUOUS
100
AcDbLine
 10
74.567421
 20
130.668899
 30
0.0
 11
74.37497
 21
130.614469
 31
0.0
  0
LINE
  5
D6A
100
AcDbEntity
  8
ALPHA
  6
CONTINUOUS
100
AcDbLine
 10
79.65187
 20
134.069755
 30
0.0
 11
79.686294
 21
134.271318
 31
0.0
  0
POLYLINE
  5
D6B
100
AcDbEntity
  8
ALPHA
  6
CONTINUOUS
100
AcDb2dPolyline
 66
     1
 10
0.0
 20
0.0
 30
0.0
  0
VERTEX
  5
D6C
100
AcDbEntity
  8
ALPHA
  6
CONTINUOUS
100
AcDbVertex
100
AcDb2dVertex
 10
79.686294
 20
133.887189
 30
0.0
  0
VERTEX
  5
D6D
100
AcDbEntity
  8
ALPHA
  6
CONTINUOUS
100
AcDbVertex
100
AcDb2dVertex
 10
79.670499
 20
133.749654
 30
0.0
  0
VERTEX
  5
D6E
100
AcDbEntity
  8
ALPHA
  6
CONTINUOUS
100
AcDbVertex
100
AcDb2dVertex
 10
79.620589
 20
133.612182
 30
0.0
  0
VERTEX
  5
D6F
100
AcDbEntity
  8
ALPHA
  6
CONTINUOUS
100
AcDbVertex
100
AcDb2dVertex
 10
79.534065
 20
133.483532
 30
0.0
  0
VERTEX
  5
D70
100
AcDbEntity
  8
ALPHA
  6
CONTINUOUS
100
AcDbVertex
100
AcDb2dVertex
 10
79.408773
 20
133.372776
 30
0.0
  0
VERTEX
  5
D71
100
AcDbEntity
  8
ALPHA
  6
CONTINUOUS
100
AcDbVertex
100
AcDb2dVertex
 10
79.242624
 20
133.291955
 30
0.0
  0
VERTEX
  5
D72
100
AcDbEntity
  8
ALPHA
  6
CONTINUOUS
100
AcDbVertex
100
AcDb2dVertex
 10
79.036294
 20
133.259491
 30
0.0
  0
SEQEND
  5
D73
100
AcDbEntity
  8
ALPHA
  0
POLYLINE
  5
D74
100
AcDbEntity
  8
ALPHA
  6
CONTINUOUS
100
AcDb2dPolyline
 66
     1
 10
0.0
 20
0.0
 30
0.0
  0
VERTEX
  5
D75
100
AcDbEntity
  8
ALPHA
  6
CONTINUOUS
100
AcDbVertex
100
AcDb2dVertex
 10
79.356244
 20
133.724929
 30
0.0
  0
VERTEX
  5
D76
100
AcDbEntity
  8
ALPHA
  6
CONTINUOUS
100
AcDbVertex
100
AcDb2dVertex
 10
79.544981
 20
133.880557
 30
0.0
  0
VERTEX
  5
D77
100
AcDbEntity
  8
ALPHA
  6
CONTINUOUS
100
AcDbVertex
100
AcDb2dVertex
 10
79.65187
 20
134.069755
 30
0.0
  0
SEQEND
  5
D78
100
AcDbEntity
  8
ALPHA
  0
POLYLINE
  5
D79
100
AcDbEntity
  8
ALPHA
  6
CONTINUOUS
100
AcDb2dPolyline
 66
     1
 10
0.0
 20
0.0
 30
0.0
  0
VERTEX
  5
D7A
100
AcDbEntity
  8
ALPHA
  6
CONTINUOUS
100
AcDbVertex
100
AcDb2dVertex
 10
79.356244
 20
133.724929
 30
0.0
  0
VERTEX
  5
D7B
100
AcDbEntity
  8
ALPHA
  6
CONTINUOUS
100
AcDbVertex
100
AcDb2dVertex
 10
79.251998
 20
133.789298
 30
0.0
  0
VERTEX
  5
D7C
100
AcDbEntity
  8
ALPHA
  6
CONTINUOUS
100
AcDbVertex
100
AcDb2dVertex
 10
79.144792
 20
133.859921
 30
0.0
  0
VERTEX
  5
D7D
100
AcDbEntity
  8
ALPHA
  6
CONTINUOUS
100
AcDbVertex
100
AcDb2dVertex
 10
79.036294
 20
133.933326
 30
0.0
  0
SEQEND
  5
D7E
100
AcDbEntity
  8
ALPHA
  0
POLYLINE
  5
D7F
100
AcDbEntity
  8
ALPHA
  6
CONTINUOUS
100
AcDb2dPolyline
 66
     1
 10
0.0
 20
0.0
 30
0.0
  0
VERTEX
  5
D80
100
AcDbEntity
  8
ALPHA
  6
CONTINUOUS
100
AcDbVertex
100
AcDb2dVertex
 10
79.036294
 20
133.633509
 30
0.0
  0
VERTEX
  5
D81
100
AcDbEntity
  8
ALPHA
  6
CONTINUOUS
100
AcDbVertex
100
AcDb2dVertex
 10
79.144792
 20
133.645185
 30
0.0
  0
VERTEX
  5
D82
100
AcDbEntity
  8
ALPHA
  6
CONTINUOUS
100
AcDbVertex
100
AcDb2dVertex
 10
79.251998
 20
133.675348
 30
0.0
  0
VERTEX
  5
D83
100
AcDbEntity
  8
ALPHA
  6
CONTINUOUS
100
AcDbVertex
100
AcDb2dVertex
 10
79.356244
 20
133.724929
 30
0.0
  0
SEQEND
  5
D84
100
AcDbEntity
  8
ALPHA
  0
LINE
  5
D85
100
AcDbEntity
  8
ALPHA
  6
CONTINUOUS
100
AcDbLine
 10
73.961294
 20
150.74362
 30
0.0
 11
69.111294
 21
150.74362
 31
0.0
  0
LINE
  5
D86
100
AcDbEntity
  8
ALPHA
  6
CONTINUOUS
100
AcDbLine
 10
73.461294
 20
150.24362
 30
0.0
 11
69.611294
 21
150.24362
 31
0.0
  0
LINE
  5
D87
100
AcDbEntity
  8
ALPHA
  6
CONTINUOUS
100
AcDbLine
 10
73.461294
 20
148.02362
 30
0.0
 11
69.611294
 21
148.02362
 31
0.0
  0
LINE
  5
D88
100
AcDbEntity
  8
ALPHA
  6
CONTINUOUS
100
AcDbLine
 10
73.461294
 20
147.42382
 30
0.0
 11
69.611294
 21
147.42382
 31
0.0
  0
LINE
  5
D89
100
AcDbEntity
  8
ALPHA
  6
CONTINUOUS
100
AcDbLine
 10
73.461294
 20
147.12382
 30
0.0
 11
69.611294
 21
147.12382
 31
0.0
  0
LINE
  5
D8A
100
AcDbEntity
  8
ALPHA
  6
CONTINUOUS
100
AcDbLine
 10
69.611294
 20
144.94362
 30
0.0
 11
73.461294
 21
144.94362
 31
0.0
  0
LINE
  5
D8B
100
AcDbEntity
  8
ALPHA
  6
CONTINUOUS
100
AcDbLine
 10
69.111294
 20
144.44362
 30
0.0
 11
73.961294
 21
144.44362
 31
0.0
  0
LINE
  5
D8C
100
AcDbEntity
  8
ALPHA
  6
CONTINUOUS
100
AcDbLine
 10
69.611294
 20
150.24362
 30
0.0
 11
69.611294
 21
144.94362
 31
0.0
  0
LINE
  5
D8D
100
AcDbEntity
  8
ALPHA
  6
CONTINUOUS
100
AcDbLine
 10
69.111294
 20
150.74362
 30
0.0
 11
69.111294
 21
144.44362
 31
0.0
  0
LINE
  5
D8E
100
AcDbEntity
  8
ALPHA
  6
CONTINUOUS
100
AcDbLine
 10
68.881294
 20
144.44362
 30
0.0
 11
68.881294
 21
150.74362
 31
0.0
  0
LINE
  5
D8F
100
AcDbEntity
  8
ALPHA
  6
CONTINUOUS
100
AcDbLine
 10
68.381294
 20
144.94362
 30
0.0
 11
68.381294
 21
150.24362
 31
0.0
  0
LINE
  5
D90
100
AcDbEntity
  8
ALPHA
  6
CONTINUOUS
100
AcDbLine
 10
68.881294
 20
144.44362
 30
0.0
 11
68.381294
 21
144.94362
 31
0.0
  0
ARC
  5
D91
100
AcDbEntity
  8
ALPHA
  6
CONTINUOUS
100
AcDbCircle
 10
68.588158
 20
147.12382
 30
0.0
 40
0.3
100
AcDbArc
 50
134.282154
 51
180.0
  0
LINE
  5
D92
100
AcDbEntity
  8
ALPHA
  6
CONTINUOUS
100
AcDbLine
 10
68.288158
 20
147.12382
 30
0.0
 11
68.288158
 21
144.94362
 31
0.0
  0
LINE
  5
D93
100
AcDbEntity
  8
ALPHA
  6
CONTINUOUS
100
AcDbLine
 10
68.381294
 20
147.12382
 30
0.0
 11
68.288158
 21
147.12382
 31
0.0
  0
LINE
  5
D94
100
AcDbEntity
  8
ALPHA
  6
CONTINUOUS
100
AcDbLine
 10
69.111294
 20
144.44362
 30
0.0
 11
69.611294
 21
144.94362
 31
0.0
  0
LINE
  5
D95
100
AcDbEntity
  8
ALPHA
  6
CONTINUOUS
100
AcDbLine
 10
68.881294
 20
150.74362
 30
0.0
 11
68.381294
 21
150.24362
 31
0.0
  0
LINE
  5
D96
100
AcDbEntity
  8
ALPHA
  6
CONTINUOUS
100
AcDbLine
 10
67.956294
 20
150.24362
 30
0.0
 11
67.956294
 21
148.02362
 31
0.0
  0
LINE
  5
D97
100
AcDbEntity
  8
ALPHA
  6
CONTINUOUS
100
AcDbLine
 10
68.381294
 20
148.02362
 30
0.0
 11
67.956294
 21
148.02362
 31
0.0
  0
LINE
  5
D98
100
AcDbEntity
  8
ALPHA
  6
CONTINUOUS
100
AcDbLine
 10
69.111294
 20
150.74362
 30
0.0
 11
69.611294
 21
150.24362
 31
0.0
  0
LINE
  5
D99
100
AcDbEntity
  8
ALPHA
  6
CONTINUOUS
100
AcDbLine
 10
73.961294
 20
144.44362
 30
0.0
 11
73.961294
 21
150.74362
 31
0.0
  0
LINE
  5
D9A
100
AcDbEntity
  8
ALPHA
  6
CONTINUOUS
100
AcDbLine
 10
73.461294
 20
144.94362
 30
0.0
 11
73.461294
 21
150.24362
 31
0.0
  0
LINE
  5
D9B
100
AcDbEntity
  8
ALPHA
  6
CONTINUOUS
100
AcDbLine
 10
73.961294
 20
144.44362
 30
0.0
 11
73.461294
 21
144.94362
 31
0.0
  0
LINE
  5
D9C
100
AcDbEntity
  8
ALPHA
  6
CONTINUOUS
100
AcDbLine
 10
73.961294
 20
150.74362
 30
0.0
 11
73.461294
 21
150.24362
 31
0.0
  0
LINE
  5
D9D
100
AcDbEntity
  8
ALPHA
  6
CONTINUOUS
100
AcDbLine
 10
78.103748
 20
154.64362
 30
0.0
 11
78.099384
 21
154.14362
 31
0.0
  0
LINE
  5
D9E
100
AcDbEntity
  8
ALPHA
  6
CONTINUOUS
100
AcDbLine
 10
78.086294
 20
154.14362
 30
0.0
 11
78.086294
 21
154.64362
 31
0.0
  0
LINE
  5
D9F
100
AcDbEntity
  8
ALPHA
  6
CONTINUOUS
100
AcDbLine
 10
77.986294
 20
154.64362
 30
0.0
 11
77.986294
 21
154.14362
 31
0.0
  0
LINE
  5
DA0
100
AcDbEntity
  8
ALPHA
  6
CONTINUOUS
100
AcDbLine
 10
78.586294
 20
154.64362
 30
0.0
 11
78.886294
 21
154.94362
 31
0.0
  0
LINE
  5
DA1
100
AcDbEntity
  8
ALPHA
  6
CONTINUOUS
100
AcDbLine
 10
79.886294
 20
158.09362
 30
0.0
 11
79.886294
 21
156.97926
 31
0.0
  0
LINE
  5
DA2
100
AcDbEntity
  8
ALPHA
  6
CONTINUOUS
100
AcDbLine
 10
78.986294
 20
158.44362
 30
0.0
 11
78.886294
 21
158.44362
 31
0.0
  0
LINE
  5
DA3
100
AcDbEntity
  8
ALPHA
  6
CONTINUOUS
100
AcDbLine
 10
79.686294
 20
158.09362
 30
0.0
 11
79.886294
 21
158.09362
 31
0.0
  0
LINE
  5
DA4
100
AcDbEntity
  8
ALPHA
  6
CONTINUOUS
100
AcDbLine
 10
79.886294
 20
156.97926
 30
0.0
 11
79.686294
 21
156.63285
 31
0.0
  0
LINE
  5
DA5
100
AcDbEntity
  8
ALPHA
  6
CONTINUOUS
100
AcDbLine
 10
78.886294
 20
167.14362
 30
0.0
 11
78.886294
 21
160.64362
 31
0.0
  0
LINE
  5
DA6
100
AcDbEntity
  8
ALPHA
  6
CONTINUOUS
100
AcDbLine
 10
79.686294
 20
160.64362
 30
0.0
 11
78.886294
 21
160.64362
 31
0.0
  0
LINE
  5
DA7
100
AcDbEntity
  8
ALPHA
  6
CONTINUOUS
100
AcDbLine
 10
78.986294
 20
160.34362
 30
0.0
 11
79.686294
 21
160.34362
 31
0.0
  0
ENDSEC
  0
SECTION
  2
OBJECTS
  0
DICTIONARY
  5
F8
100
AcDbDictionary
  3
ACAD_GROUP
350
F9
  3
ACAD_MLINESTYLE
350
106
  3
ACDBVARIABLEDICTIONARY
350
143
  0
DICTIONARY
  5
F9
102
{ACAD_REACTORS
330
F8
102
}
100
AcDbDictionary
  0
DICTIONARY
  5
106
102
{ACAD_REACTORS
330
F8
102
}
100
AcDbDictionary
  3
STANDARD
350
107
  0
DICTIONARY
  5
143
102
{ACAD_REACTORS
330
F8
102
}
100
AcDbDictionary
  3
DIMADEC
350
144
  0
MLINESTYLE
  5
107
102
{ACAD_REACTORS
330
106
102
}
100
AcDbMlineStyle
  2
STANDARD
 70
     0
  3

 62
   256
 51
90.0
 52
90.0
 71
     2
 49
0.5
 62
   256
  6
BYLAYER
 49
-0.5
 62
   256
  6
BYLAYER
  0
DICTIONARYVAR
  5
144
102
{ACAD_REACTORS
330
143
102
}
100
DictionaryVariables
280
     0
  1
0
  0
ENDSEC
  0
EOF
