  0
SECTION
  2
HEADER
  9
$ACADVER
  1
AC1009
  9
$DWGCODEPAGE
  3
ansi_1250
  9
$INSBASE
 10
0.0
 20
0.0
 30
0.0
  9
$EXTMIN
 10
-4.72
 20
-2.495
 30
0.0
  9
$EXTMAX
 10
0.0
 20
2.305
 30
0.0
  9
$LIMMIN
 10
0.0
 20
0.0
  9
$LIMMAX
 10
0.0
 20
0.0
  9
$ORTHOMODE
 70
     0
  9
$REGENMODE
 70
     1
  9
$FILLMODE
 70
     1
  9
$QTEXTMODE
 70
     0
  9
$MIRRTEXT
 70
     1
  9
$DRAGMODE
 70
     2
  9
$LTSCALE
 40
1.0
  9
$OSMODE
 70
     0
  9
$ATTMODE
 70
     1
  9
$TEXTSIZE
 40
0.2
  9
$TRACEWID
 40
0.05
  9
$TEXTSTYLE
  7
STANDARD
  9
$CLAYER
  8
0
  9
$CELTYPE
  6
CONTINUOUS
  9
$CECOLOR
 62
   256
  9
$DIMSCALE
 40
1.0
  9
$DIMASZ
 40
0.18
  9
$DIMEXO
 40
0.0625
  9
$DIMDLI
 40
0.38
  9
$DIMRND
 40
0.0
  9
$DIMDLE
 40
0.0
  9
$DIMEXE
 40
0.18
  9
$DIMTP
 40
0.0
  9
$DIMTM
 40
0.0
  9
$DIMTXT
 40
0.18
  9
$DIMCEN
 40
0.09
  9
$DIMTSZ
 40
0.0
  9
$DIMTOL
 70
     0
  9
$DIMLIM
 70
     0
  9
$DIMTIH
 70
     1
  9
$DIMTOH
 70
     1
  9
$DIMSE1
 70
     0
  9
$DIMSE2
 70
     0
  9
$DIMTAD
 70
     0
  9
$DIMZIN
 70
     0
  9
$DIMBLK
  1

  9
$DIMASO
 70
     1
  9
$DIMSHO
 70
     1
  9
$DIMPOST
  1

  9
$DIMAPOST
  1

  9
$DIMALT
 70
     0
  9
$DIMALTD
 70
     2
  9
$DIMALTF
 40
25.4
  9
$DIMLFAC
 40
1.0
  9
$DIMTOFL
 70
     0
  9
$DIMTVP
 40
0.0
  9
$DIMTIX
 70
     0
  9
$DIMSOXD
 70
     0
  9
$DIMSAH
 70
     0
  9
$DIMBLK1
  1

  9
$DIMBLK2
  1

  9
$DIMSTYLE
  2
STANDARD
  9
$DIMCLRD
 70
     0
  9
$DIMCLRE
 70
     0
  9
$DIMCLRT
 70
     0
  9
$DIMTFAC
 40
1.0
  9
$DIMGAP
 40
0.09
  9
$LUNITS
 70
     2
  9
$LUPREC
 70
     4
  9
$AXISMODE
 70
     0
  9
$AXISUNIT
 10
0.0
 20
0.0
  9
$SKETCHINC
 40
0.1
  9
$FILLETRAD
 40
0.0
  9
$AUNITS
 70
     0
  9
$AUPREC
 70
     0
  9
$MENU
  1
acad
  9
$ELEVATION
 40
0.0
  9
$PELEVATION
 40
0.0
  9
$THICKNESS
 40
0.0
  9
$LIMCHECK
 70
     0
  9
$BLIPMODE
 70
     1
  9
$CHAMFERA
 40
0.0
  9
$CHAMFERB
 40
0.0
  9
$SKPOLY
 70
     0
  9
$TDCREATE
 40
0.000000000
  9
$TDUPDATE
 40
0.000000000
  9
$TDINDWG
 40
0.0000000000
  9
$TDUSRTIMER
 40
0.0000000000
  9
$USRTIMER
 70
     1
  9
$ANGBASE
 50
0.0
  9
$ANGDIR
 70
     0
  9
$PDMODE
 70
     0
  9
$PDSIZE
 40
0.0
  9
$PLINEWID
 40
0.0
  9
$COORDS
 70
     0
  9
$SPLFRAME
 70
     0
  9
$SPLINETYPE
 70
     6
  9
$SPLINESEGS
 70
     8
  9
$ATTDIA
 70
     0
  9
$ATTREQ
 70
     1
  9
$HANDLING
 70
     1
  9
$HANDSEED
  5
6DC
  9
$SURFTAB1
 70
     6
  9
$SURFTAB2
 70
     6
  9
$SURFTYPE
 70
     6
  9
$SURFU
 70
     6
  9
$SURFV
 70
     6
  9
$UCSNAME
  2

  9
$UCSORG
 10
0.0
 20
0.0
 30
0.0
  9
$UCSXDIR
 10
1.0
 20
0.0
 30
0.0
  9
$UCSYDIR
 10
0.0
 20
1.0
 30
0.0
  9
$PUCSNAME
  2

  9
$PUCSORG
 10
0.0
 20
0.0
 30
0.0
  9
$PUCSXDIR
 10
1.0
 20
0.0
 30
0.0
  9
$PUCSYDIR
 10
0.0
 20
1.0
 30
0.0
  9
$USERI1
 70
     0
  9
$USERI2
 70
     0
  9
$USERI3
 70
     0
  9
$USERI4
 70
     0
  9
$USERI5
 70
     0
  9
$USERR1
 40
0.0
  9
$USERR2
 40
0.0
  9
$USERR3
 40
0.0
  9
$USERR4
 40
0.0
  9
$USERR5
 40
0.0
  9
$WORLDVIEW
 70
     1
  9
$SHADEDGE
 70
     3
  9
$SHADEDIF
 70
    70
  9
$TILEMODE
 70
     1
  9
$MAXACTVP
 70
    16
  9
$PINSBASE
 10
0.0
 20
0.0
 30
0.0
  9
$PLIMCHECK
 70
     0
  9
$PEXTMIN
 10
1.000000E+20
 20
1.000000E+20
 30
1.000000E+20
  9
$PEXTMAX
 10
-1.000000E+20
 20
-1.000000E+20
 30
-1.000000E+20
  9
$PLIMMIN
 10
0.0
 20
0.0
  9
$PLIMMAX
 10
12.0
 20
9.0
  9
$UNITMODE
 70
     0
  9
$VISRETAIN
 70
     0
  9
$PLINEGEN
 70
     1
  9
$PSLTSCALE
 70
     0
  9
$TREEDEPTH
 70
  3020
  0
ENDSEC
  0
SECTION
  2
TABLES
  0
TABLE
  2
VPORT
 70
     1
  0
VPORT
  2
*ACTIVE
 70
     0
 10
0.0
 20
0.0
 11
1.0
 21
1.0
 12
6.591288
 22
4.579184
 13
0.0
 23
0.0
 14
1.0
 24
1.0
 15
0.0
 25
0.0
 16
0.0
 26
0.0
 36
1.0
 17
0.0
 27
0.0
 37
0.0
 40
9.158369
 41
0.688564
 42
50.0
 43
0.0
 44
0.0
 50
0.0
 51
0.0
 71
     0
 72
   100
 73
     1
 74
     1
 75
     0
 76
     0
 77
     0
 78
     0
  0
ENDTAB
  0
TABLE
  2
LTYPE
 70
     5
  0
LTYPE
  2
CONTINUOUS
 70
    64
  3
Solid line
 72
    65
 73
     0
 40
0.0
  0
LTYPE
  2
CENTER
 70
    64
  3
Center ____ _ ____ _ ____ _ ____ _ ____ _ ____
 72
    65
 73
     4
 40
50.8
 49
31.75
 49
-6.35
 49
6.35
 49
-6.35
  0
LTYPE
  2
HIDDEN
 70
    64
  3
Hidden __ __ __ __ __ __ __ __ __ __ __ __ __ __
 72
    65
 73
     2
 40
9.525
 49
6.35
 49
-3.175
  0
LTYPE
  2
CENTER2
 70
    64
  3
Center (.5x) ___ _ ___ _ ___ _ ___ _ ___ _ ___
 72
    65
 73
     4
 40
28.575
 49
19.05
 49
-3.175
 49
3.175
 49
-3.175
  0
LTYPE
  2
HIDDEN2
 70
    64
  3
Hidden (.5x) _ _ _ _ _ _ _ _ _ _ _ _ _ _ _ _ _
 72
    65
 73
     2
 40
4.7625
 49
3.175
 49
-1.5875
  0
ENDTAB
  0
TABLE
  2
LAYER
 70
     1
  0
LAYER
  2
0
 70
     0
 62
     7
  6
CONTINUOUS
  0
ENDTAB
  0
TABLE
  2
STYLE
 70
     1
  0
STYLE
  2
STANDARD
 70
     0
 40
0.0
 41
1.0
 50
0.0
 71
     0
 42
0.0
  3
txt
  4

  0
ENDTAB
  0
TABLE
  2
VIEW
 70
     0
  0
ENDTAB
  0
TABLE
  2
UCS
 70
     0
  0
ENDTAB
  0
TABLE
  2
APPID
 70
     1
  0
APPID
  2
ACAD
 70
     0
  0
ENDTAB
  0
TABLE
  2
DIMSTYLE
 70
     1
  0
DIMSTYLE
  2
STANDARD
 70
     0
  3

  4

  5

  6

  7

 40
1.0
 41
0.18
 42
0.0625
 43
0.38
 44
0.18
 45
0.0
 46
0.0
 47
0.0
 48
0.0
 71
     0
 72
     0
 73
     1
 74
     1
 75
     0
 76
     0
 77
     0
 78
     0
140
0.18
141
0.09
142
0.0
143
25.4
144
1.0
145
0.0
146
1.0
147
0.09
170
     0
171
     2
172
     0
173
     0
174
     0
175
     0
176
     0
177
     0
178
     0
  0
ENDTAB
  0
ENDSEC
  0
SECTION
  2
BLOCKS
  0
ENDSEC
  0
SECTION
  2
ENTITIES
  0
LINE
  8
0
  6
CONTINUOUS
 62
     7
  5
393
 10
-1.34
 20
-2.045
 30
0.0
 11
0.0
 21
-2.045
 31
0.0
  0
LINE
  8
0
  6
CONTINUOUS
 62
     7
  5
394
 10
-0.3304
 20
-2.305
 30
0.0
 11
-1.34
 21
-2.305
 31
0.0
  0
LINE
  8
0
  6
CONTINUOUS
 62
     7
  5
395
 10
0.0
 20
-0.687575
 30
0.0
 11
0.0
 21
-2.045
 31
0.0
  0
LINE
  8
0
  6
CONTINUOUS
 62
     7
  5
396
 10
0.0
 20
-2.045
 30
0.0
 11
0.0
 21
-2.495
 31
0.0
  0
LINE
  8
0
  6
CONTINUOUS
 62
     7
  5
397
 10
0.0
 20
1.825
 30
0.0
 11
0.0
 21
0.6885
 31
0.0
  0
LINE
  8
0
  6
CONTINUOUS
 62
     7
  5
398
 10
0.0
 20
0.6885
 30
0.0
 11
0.0
 21
0.5785
 31
0.0
  0
LINE
  8
0
  6
CONTINUOUS
 62
     7
  5
399
 10
-0.3304
 20
-2.495
 30
0.0
 11
-0.3304
 21
-2.305
 31
0.0
  0
LINE
  8
0
  6
CONTINUOUS
 62
     7
  5
39A
 10
0.0
 20
-2.495
 30
0.0
 11
-0.3304
 21
-2.495
 31
0.0
  0
LINE
  8
0
  6
CONTINUOUS
 62
     7
  5
39B
 10
-1.407
 20
-0.68256
 30
0.0
 11
-0.279
 21
-0.68256
 31
0.0
  0
LINE
  8
0
  6
CONTINUOUS
 62
     7
  5
39C
 10
-0.279
 20
-1.11456
 30
0.0
 11
-1.407
 21
-1.11456
 31
0.0
  0
LINE
  8
0
  6
CONTINUOUS
 62
     7
  5
39D
 10
-1.407
 20
-1.11456
 30
0.0
 11
-1.407
 21
-0.68256
 31
0.0
  0
LINE
  8
0
  6
CONTINUOUS
 62
     7
  5
39E
 10
-0.279
 20
-0.68256
 30
0.0
 11
-0.279
 21
-1.11456
 31
0.0
  0
LINE
  8
0
  6
CONTINUOUS
 62
     7
  5
39F
 10
-1.407
 20
1.11456
 30
0.0
 11
-0.279
 21
1.11456
 31
0.0
  0
LINE
  8
0
  6
CONTINUOUS
 62
     7
  5
3A0
 10
-0.279
 20
0.68256
 30
0.0
 11
-1.407
 21
0.68256
 31
0.0
  0
LINE
  8
0
  6
CONTINUOUS
 62
     7
  5
3A1
 10
-1.407
 20
0.68256
 30
0.0
 11
-1.407
 21
1.11456
 31
0.0
  0
LINE
  8
0
  6
CONTINUOUS
 62
     7
  5
3A2
 10
-0.279
 20
1.11456
 30
0.0
 11
-0.279
 21
0.68256
 31
0.0
  0
LINE
  8
0
  6
CONTINUOUS
 62
     7
  5
3A3
 10
0.0
 20
0.5785
 30
0.0
 11
-0.161
 21
0.5785
 31
0.0
  0
LINE
  8
0
  6
CONTINUOUS
 62
     7
  5
3A4
 10
-0.161
 20
0.6885
 30
0.0
 11
-0.161
 21
0.5785
 31
0.0
  0
LINE
  8
0
  6
CONTINUOUS
 62
     7
  5
3A5
 10
-0.1415
 20
-0.60588
 30
0.0
 11
-0.161
 21
-0.60588
 31
0.0
  0
LINE
  8
0
  6
CONTINUOUS
 62
     7
  5
3A6
 10
-0.161
 20
-0.60588
 30
0.0
 11
-0.161
 21
-0.6885
 31
0.0
  0
LINE
  8
0
  6
CONTINUOUS
 62
     7
  5
3A7
 10
0.0
 20
-0.687575
 30
0.0
 11
-0.1415
 21
-0.60588
 31
0.0
  0
LINE
  8
0
  6
CONTINUOUS
 62
     7
  5
3A8
 10
-0.161
 20
-0.6885
 30
0.0
 11
-0.2
 21
-0.6885
 31
0.0
  0
LINE
  8
0
  6
CONTINUOUS
 62
     7
  5
3A9
 10
-0.2
 20
-0.6885
 30
0.0
 11
-0.2
 21
0.6885
 31
0.0
  0
LINE
  8
0
  6
CONTINUOUS
 62
     7
  5
3AA
 10
-0.2
 20
0.6885
 30
0.0
 11
0.0
 21
0.6885
 31
0.0
  0
LINE
  8
0
  6
CONTINUOUS
 62
     7
  5
3AB
 10
-1.34
 20
1.825
 30
0.0
 11
0.0
 21
1.825
 31
0.0
  0
LINE
  8
0
  6
CONTINUOUS
 62
     7
  5
3AC
 10
-1.88
 20
-1.635
 30
0.0
 11
-1.88
 21
1.635
 31
0.0
  0
LINE
  8
0
  6
CONTINUOUS
 62
     7
  5
3AD
 10
-3.688947
 20
1.635
 30
0.0
 11
-3.78
 21
1.635
 31
0.0
  0
LINE
  8
0
  6
CONTINUOUS
 62
     7
  5
3AE
 10
-3.688947
 20
-1.635
 30
0.0
 11
-3.688947
 21
1.635
 31
0.0
  0
LINE
  8
0
  6
CONTINUOUS
 62
     7
  5
3AF
 10
-3.688947
 20
-1.635
 30
0.0
 11
-3.78
 21
-1.635
 31
0.0
  0
LINE
  8
0
  6
CONTINUOUS
 62
     7
  5
3B0
 10
-3.78
 20
-1.2
 30
0.0
 11
-3.78
 21
-1.635
 31
0.0
  0
LINE
  8
0
  6
CONTINUOUS
 62
     7
  5
3B1
 10
-3.78
 20
1.635
 30
0.0
 11
-3.78
 21
1.2
 31
0.0
  0
LINE
  8
0
  6
CONTINUOUS
 62
     7
  5
3B2
 10
-3.747368
 20
1.78575
 30
0.0
 11
-3.748164
 21
1.785922
 31
0.0
  0
LINE
  8
0
  6
CONTINUOUS
 62
     7
  5
3B3
 10
-3.748164
 20
1.785922
 30
0.0
 11
-3.748958
 21
1.786448
 31
0.0
  0
LINE
  8
0
  6
CONTINUOUS
 62
     7
  5
3B4
 10
-3.748958
 20
1.786448
 30
0.0
 11
-3.749749
 21
1.787338
 31
0.0
  0
LINE
  8
0
  6
CONTINUOUS
 62
     7
  5
3B5
 10
-3.749749
 20
1.787338
 30
0.0
 11
-3.750531
 21
1.7886
 31
0.0
  0
LINE
  8
0
  6
CONTINUOUS
 62
     7
  5
3B6
 10
-3.750531
 20
1.7886
 30
0.0
 11
-3.751303
 21
1.790238
 31
0.0
  0
LINE
  8
0
  6
CONTINUOUS
 62
     7
  5
3B7
 10
-3.751303
 20
1.790238
 30
0.0
 11
-3.752061
 21
1.792254
 31
0.0
  0
LINE
  8
0
  6
CONTINUOUS
 62
     7
  5
3B8
 10
-3.752061
 20
1.792254
 30
0.0
 11
-3.752803
 21
1.794644
 31
0.0
  0
LINE
  8
0
  6
CONTINUOUS
 62
     7
  5
3B9
 10
-3.752803
 20
1.794644
 30
0.0
 11
-3.753526
 21
1.797405
 31
0.0
  0
LINE
  8
0
  6
CONTINUOUS
 62
     7
  5
3BA
 10
-3.753526
 20
1.797405
 30
0.0
 11
-3.754227
 21
1.800527
 31
0.0
  0
LINE
  8
0
  6
CONTINUOUS
 62
     7
  5
3BB
 10
-3.754227
 20
1.800527
 30
0.0
 11
-3.754906
 21
1.804003
 31
0.0
  0
LINE
  8
0
  6
CONTINUOUS
 62
     7
  5
3BC
 10
-3.754906
 20
1.804003
 30
0.0
 11
-3.755561
 21
1.807819
 31
0.0
  0
LINE
  8
0
  6
CONTINUOUS
 62
     7
  5
3BD
 10
-3.755561
 20
1.807819
 30
0.0
 11
-3.756189
 21
1.811961
 31
0.0
  0
LINE
  8
0
  6
CONTINUOUS
 62
     7
  5
3BE
 10
-3.756189
 20
1.811961
 30
0.0
 11
-3.756791
 21
1.81641
 31
0.0
  0
LINE
  8
0
  6
CONTINUOUS
 62
     7
  5
3BF
 10
-3.756791
 20
1.81641
 30
0.0
 11
-3.757363
 21
1.821144
 31
0.0
  0
LINE
  8
0
  6
CONTINUOUS
 62
     7
  5
3C0
 10
-3.757363
 20
1.821144
 30
0.0
 11
-3.757906
 21
1.826139
 31
0.0
  0
LINE
  8
0
  6
CONTINUOUS
 62
     7
  5
3C1
 10
-3.757906
 20
1.826139
 30
0.0
 11
-3.758419
 21
1.831367
 31
0.0
  0
LINE
  8
0
  6
CONTINUOUS
 62
     7
  5
3C2
 10
-3.758419
 20
1.831367
 30
0.0
 11
-3.758901
 21
1.8368
 31
0.0
  0
LINE
  8
0
  6
CONTINUOUS
 62
     7
  5
3C3
 10
-3.758901
 20
1.8368
 30
0.0
 11
-3.759354
 21
1.842426
 31
0.0
  0
LINE
  8
0
  6
CONTINUOUS
 62
     7
  5
3C4
 10
-3.759354
 20
1.842426
 30
0.0
 11
-3.759786
 21
1.84835
 31
0.0
  0
LINE
  8
0
  6
CONTINUOUS
 62
     7
  5
3C5
 10
-3.759786
 20
1.84835
 30
0.0
 11
-3.760198
 21
1.854585
 31
0.0
  0
LINE
  8
0
  6
CONTINUOUS
 62
     7
  5
3C6
 10
-3.760198
 20
1.854585
 30
0.0
 11
-3.760588
 21
1.861115
 31
0.0
  0
LINE
  8
0
  6
CONTINUOUS
 62
     7
  5
3C7
 10
-3.760588
 20
1.861115
 30
0.0
 11
-3.760954
 21
1.867919
 31
0.0
  0
LINE
  8
0
  6
CONTINUOUS
 62
     7
  5
3C8
 10
-3.760954
 20
1.867919
 30
0.0
 11
-3.761295
 21
1.874976
 31
0.0
  0
LINE
  8
0
  6
CONTINUOUS
 62
     7
  5
3C9
 10
-3.761295
 20
1.874976
 30
0.0
 11
-3.76161
 21
1.882263
 31
0.0
  0
LINE
  8
0
  6
CONTINUOUS
 62
     7
  5
3CA
 10
-3.76161
 20
1.882263
 30
0.0
 11
-3.761898
 21
1.889756
 31
0.0
  0
LINE
  8
0
  6
CONTINUOUS
 62
     7
  5
3CB
 10
-3.761898
 20
1.889756
 30
0.0
 11
-3.762158
 21
1.897427
 31
0.0
  0
LINE
  8
0
  6
CONTINUOUS
 62
     7
  5
3CC
 10
-3.762158
 20
1.897427
 30
0.0
 11
-3.762391
 21
1.905254
 31
0.0
  0
LINE
  8
0
  6
CONTINUOUS
 62
     7
  5
3CD
 10
-3.762391
 20
1.905254
 30
0.0
 11
-3.762595
 21
1.913211
 31
0.0
  0
LINE
  8
0
  6
CONTINUOUS
 62
     7
  5
3CE
 10
-3.762595
 20
1.913211
 30
0.0
 11
-3.762771
 21
1.921269
 31
0.0
  0
LINE
  8
0
  6
CONTINUOUS
 62
     7
  5
3CF
 10
-3.762771
 20
1.921269
 30
0.0
 11
-3.762919
 21
1.9294
 31
0.0
  0
LINE
  8
0
  6
CONTINUOUS
 62
     7
  5
3D0
 10
-3.762919
 20
1.9294
 30
0.0
 11
-3.763039
 21
1.937571
 31
0.0
  0
LINE
  8
0
  6
CONTINUOUS
 62
     7
  5
3D1
 10
-3.763039
 20
1.937571
 30
0.0
 11
-3.763131
 21
1.94575
 31
0.0
  0
LINE
  8
0
  6
CONTINUOUS
 62
     7
  5
3D2
 10
-3.763131
 20
1.94575
 30
0.0
 11
-3.763195
 21
1.953903
 31
0.0
  0
LINE
  8
0
  6
CONTINUOUS
 62
     7
  5
3D3
 10
-3.763195
 20
1.953903
 30
0.0
 11
-3.763234
 21
1.961997
 31
0.0
  0
LINE
  8
0
  6
CONTINUOUS
 62
     7
  5
3D4
 10
-3.763234
 20
1.961997
 30
0.0
 11
-3.763246
 21
1.97
 31
0.0
  0
LINE
  8
0
  6
CONTINUOUS
 62
     7
  5
3D5
 10
-3.747368
 20
2.15425
 30
0.0
 11
-3.745737
 21
2.153551
 31
0.0
  0
LINE
  8
0
  6
CONTINUOUS
 62
     7
  5
3D6
 10
-3.745737
 20
2.153551
 30
0.0
 11
-3.74404
 21
2.151396
 31
0.0
  0
LINE
  8
0
  6
CONTINUOUS
 62
     7
  5
3D7
 10
-3.74404
 20
2.151396
 30
0.0
 11
-3.742305
 21
2.14774
 31
0.0
  0
LINE
  8
0
  6
CONTINUOUS
 62
     7
  5
3D8
 10
-3.742305
 20
2.14774
 30
0.0
 11
-3.74056
 21
2.142589
 31
0.0
  0
LINE
  8
0
  6
CONTINUOUS
 62
     7
  5
3D9
 10
-3.74056
 20
2.142589
 30
0.0
 11
-3.738832
 21
2.135993
 31
0.0
  0
LINE
  8
0
  6
CONTINUOUS
 62
     7
  5
3DA
 10
-3.738832
 20
2.135993
 30
0.0
 11
-3.737148
 21
2.128041
 31
0.0
  0
LINE
  8
0
  6
CONTINUOUS
 62
     7
  5
3DB
 10
-3.737148
 20
2.128041
 30
0.0
 11
-3.735536
 21
2.118865
 31
0.0
  0
LINE
  8
0
  6
CONTINUOUS
 62
     7
  5
3DC
 10
-3.735536
 20
2.118865
 30
0.0
 11
-3.734023
 21
2.108651
 31
0.0
  0
LINE
  8
0
  6
CONTINUOUS
 62
     7
  5
3DD
 10
-3.734023
 20
2.108651
 30
0.0
 11
-3.73263
 21
2.097602
 31
0.0
  0
LINE
  8
0
  6
CONTINUOUS
 62
     7
  5
3DE
 10
-3.73263
 20
2.097602
 30
0.0
 11
-3.731325
 21
2.085455
 31
0.0
  0
LINE
  8
0
  6
CONTINUOUS
 62
     7
  5
3DF
 10
-3.731325
 20
2.085455
 30
0.0
 11
-3.730117
 21
2.07213
 31
0.0
  0
LINE
  8
0
  6
CONTINUOUS
 62
     7
  5
3E0
 10
-3.730117
 20
2.07213
 30
0.0
 11
-3.729036
 21
2.05779
 31
0.0
  0
LINE
  8
0
  6
CONTINUOUS
 62
     7
  5
3E1
 10
-3.729036
 20
2.05779
 30
0.0
 11
-3.728108
 21
2.042626
 31
0.0
  0
LINE
  8
0
  6
CONTINUOUS
 62
     7
  5
3E2
 10
-3.728108
 20
2.042626
 30
0.0
 11
-3.727351
 21
2.026839
 31
0.0
  0
LINE
  8
0
  6
CONTINUOUS
 62
     7
  5
3E3
 10
-3.727351
 20
2.026839
 30
0.0
 11
-3.726781
 21
2.01064
 31
0.0
  0
LINE
  8
0
  6
CONTINUOUS
 62
     7
  5
3E4
 10
-3.726781
 20
2.01064
 30
0.0
 11
-3.726403
 21
1.994276
 31
0.0
  0
LINE
  8
0
  6
CONTINUOUS
 62
     7
  5
3E5
 10
-3.726403
 20
1.994276
 30
0.0
 11
-3.726218
 21
1.978013
 31
0.0
  0
LINE
  8
0
  6
CONTINUOUS
 62
     7
  5
3E6
 10
-3.726218
 20
1.978013
 30
0.0
 11
-3.726218
 21
1.961987
 31
0.0
  0
LINE
  8
0
  6
CONTINUOUS
 62
     7
  5
3E7
 10
-3.726218
 20
1.961987
 30
0.0
 11
-3.726403
 21
1.945724
 31
0.0
  0
LINE
  8
0
  6
CONTINUOUS
 62
     7
  5
3E8
 10
-3.726403
 20
1.945724
 30
0.0
 11
-3.726781
 21
1.92936
 31
0.0
  0
LINE
  8
0
  6
CONTINUOUS
 62
     7
  5
3E9
 10
-3.726781
 20
1.92936
 30
0.0
 11
-3.727351
 21
1.913161
 31
0.0
  0
LINE
  8
0
  6
CONTINUOUS
 62
     7
  5
3EA
 10
-3.727351
 20
1.913161
 30
0.0
 11
-3.728108
 21
1.897374
 31
0.0
  0
LINE
  8
0
  6
CONTINUOUS
 62
     7
  5
3EB
 10
-3.728108
 20
1.897374
 30
0.0
 11
-3.729036
 21
1.88221
 31
0.0
  0
LINE
  8
0
  6
CONTINUOUS
 62
     7
  5
3EC
 10
-3.729036
 20
1.88221
 30
0.0
 11
-3.730117
 21
1.86787
 31
0.0
  0
LINE
  8
0
  6
CONTINUOUS
 62
     7
  5
3ED
 10
-3.730117
 20
1.86787
 30
0.0
 11
-3.731325
 21
1.854545
 31
0.0
  0
LINE
  8
0
  6
CONTINUOUS
 62
     7
  5
3EE
 10
-3.731325
 20
1.854545
 30
0.0
 11
-3.73263
 21
1.842398
 31
0.0
  0
LINE
  8
0
  6
CONTINUOUS
 62
     7
  5
3EF
 10
-3.73263
 20
1.842398
 30
0.0
 11
-3.734023
 21
1.831349
 31
0.0
  0
LINE
  8
0
  6
CONTINUOUS
 62
     7
  5
3F0
 10
-3.734023
 20
1.831349
 30
0.0
 11
-3.735536
 21
1.821135
 31
0.0
  0
LINE
  8
0
  6
CONTINUOUS
 62
     7
  5
3F1
 10
-3.735536
 20
1.821135
 30
0.0
 11
-3.737148
 21
1.811959
 31
0.0
  0
LINE
  8
0
  6
CONTINUOUS
 62
     7
  5
3F2
 10
-3.737148
 20
1.811959
 30
0.0
 11
-3.738832
 21
1.804007
 31
0.0
  0
LINE
  8
0
  6
CONTINUOUS
 62
     7
  5
3F3
 10
-3.738832
 20
1.804007
 30
0.0
 11
-3.74056
 21
1.797411
 31
0.0
  0
LINE
  8
0
  6
CONTINUOUS
 62
     7
  5
3F4
 10
-3.74056
 20
1.797411
 30
0.0
 11
-3.742305
 21
1.79226
 31
0.0
  0
LINE
  8
0
  6
CONTINUOUS
 62
     7
  5
3F5
 10
-3.742305
 20
1.79226
 30
0.0
 11
-3.74404
 21
1.788604
 31
0.0
  0
LINE
  8
0
  6
CONTINUOUS
 62
     7
  5
3F6
 10
-3.74404
 20
1.788604
 30
0.0
 11
-3.745737
 21
1.786449
 31
0.0
  0
LINE
  8
0
  6
CONTINUOUS
 62
     7
  5
3F7
 10
-3.745737
 20
1.786449
 30
0.0
 11
-3.747368
 21
1.78575
 31
0.0
  0
LINE
  8
0
  6
CONTINUOUS
 62
     7
  5
3F8
 10
-3.763246
 20
1.97
 30
0.0
 11
-3.763234
 21
1.978003
 31
0.0
  0
LINE
  8
0
  6
CONTINUOUS
 62
     7
  5
3F9
 10
-3.763234
 20
1.978003
 30
0.0
 11
-3.763195
 21
1.986097
 31
0.0
  0
LINE
  8
0
  6
CONTINUOUS
 62
     7
  5
3FA
 10
-3.763195
 20
1.986097
 30
0.0
 11
-3.763131
 21
1.99425
 31
0.0
  0
LINE
  8
0
  6
CONTINUOUS
 62
     7
  5
3FB
 10
-3.763131
 20
1.99425
 30
0.0
 11
-3.763039
 21
2.002429
 31
0.0
  0
LINE
  8
0
  6
CONTINUOUS
 62
     7
  5
3FC
 10
-3.763039
 20
2.002429
 30
0.0
 11
-3.762919
 21
2.0106
 31
0.0
  0
LINE
  8
0
  6
CONTINUOUS
 62
     7
  5
3FD
 10
-3.762919
 20
2.0106
 30
0.0
 11
-3.762771
 21
2.018731
 31
0.0
  0
LINE
  8
0
  6
CONTINUOUS
 62
     7
  5
3FE
 10
-3.762771
 20
2.018731
 30
0.0
 11
-3.762595
 21
2.026789
 31
0.0
  0
LINE
  8
0
  6
CONTINUOUS
 62
     7
  5
3FF
 10
-3.762595
 20
2.026789
 30
0.0
 11
-3.762391
 21
2.034746
 31
0.0
  0
LINE
  8
0
  6
CONTINUOUS
 62
     7
  5
400
 10
-3.762391
 20
2.034746
 30
0.0
 11
-3.762158
 21
2.042573
 31
0.0
  0
LINE
  8
0
  6
CONTINUOUS
 62
     7
  5
401
 10
-3.762158
 20
2.042573
 30
0.0
 11
-3.761898
 21
2.050244
 31
0.0
  0
LINE
  8
0
  6
CONTINUOUS
 62
     7
  5
402
 10
-3.761898
 20
2.050244
 30
0.0
 11
-3.76161
 21
2.057737
 31
0.0
  0
LINE
  8
0
  6
CONTINUOUS
 62
     7
  5
403
 10
-3.76161
 20
2.057737
 30
0.0
 11
-3.761295
 21
2.065024
 31
0.0
  0
LINE
  8
0
  6
CONTINUOUS
 62
     7
  5
404
 10
-3.761295
 20
2.065024
 30
0.0
 11
-3.760954
 21
2.072081
 31
0.0
  0
LINE
  8
0
  6
CONTINUOUS
 62
     7
  5
405
 10
-3.760954
 20
2.072081
 30
0.0
 11
-3.760588
 21
2.078885
 31
0.0
  0
LINE
  8
0
  6
CONTINUOUS
 62
     7
  5
406
 10
-3.760588
 20
2.078885
 30
0.0
 11
-3.760198
 21
2.085415
 31
0.0
  0
LINE
  8
0
  6
CONTINUOUS
 62
     7
  5
407
 10
-3.760198
 20
2.085415
 30
0.0
 11
-3.759786
 21
2.09165
 31
0.0
  0
LINE
  8
0
  6
CONTINUOUS
 62
     7
  5
408
 10
-3.759786
 20
2.09165
 30
0.0
 11
-3.759354
 21
2.097574
 31
0.0
  0
LINE
  8
0
  6
CONTINUOUS
 62
     7
  5
409
 10
-3.759354
 20
2.097574
 30
0.0
 11
-3.758901
 21
2.1032
 31
0.0
  0
LINE
  8
0
  6
CONTINUOUS
 62
     7
  5
40A
 10
-3.758901
 20
2.1032
 30
0.0
 11
-3.758419
 21
2.108633
 31
0.0
  0
LINE
  8
0
  6
CONTINUOUS
 62
     7
  5
40B
 10
-3.758419
 20
2.108633
 30
0.0
 11
-3.757906
 21
2.113861
 31
0.0
  0
LINE
  8
0
  6
CONTINUOUS
 62
     7
  5
40C
 10
-3.757906
 20
2.113861
 30
0.0
 11
-3.757363
 21
2.118856
 31
0.0
  0
LINE
  8
0
  6
CONTINUOUS
 62
     7
  5
40D
 10
-3.757363
 20
2.118856
 30
0.0
 11
-3.756791
 21
2.12359
 31
0.0
  0
LINE
  8
0
  6
CONTINUOUS
 62
     7
  5
40E
 10
-3.756791
 20
2.12359
 30
0.0
 11
-3.756189
 21
2.128039
 31
0.0
  0
LINE
  8
0
  6
CONTINUOUS
 62
     7
  5
40F
 10
-3.756189
 20
2.128039
 30
0.0
 11
-3.755561
 21
2.132181
 31
0.0
  0
LINE
  8
0
  6
CONTINUOUS
 62
     7
  5
410
 10
-3.755561
 20
2.132181
 30
0.0
 11
-3.754906
 21
2.135997
 31
0.0
  0
LINE
  8
0
  6
CONTINUOUS
 62
     7
  5
411
 10
-3.754906
 20
2.135997
 30
0.0
 11
-3.754227
 21
2.139473
 31
0.0
  0
LINE
  8
0
  6
CONTINUOUS
 62
     7
  5
412
 10
-3.754227
 20
2.139473
 30
0.0
 11
-3.753526
 21
2.142595
 31
0.0
  0
LINE
  8
0
  6
CONTINUOUS
 62
     7
  5
413
 10
-3.753526
 20
2.142595
 30
0.0
 11
-3.752803
 21
2.145356
 31
0.0
  0
LINE
  8
0
  6
CONTINUOUS
 62
     7
  5
414
 10
-3.752803
 20
2.145356
 30
0.0
 11
-3.752061
 21
2.147746
 31
0.0
  0
LINE
  8
0
  6
CONTINUOUS
 62
     7
  5
415
 10
-3.752061
 20
2.147746
 30
0.0
 11
-3.751303
 21
2.149762
 31
0.0
  0
LINE
  8
0
  6
CONTINUOUS
 62
     7
  5
416
 10
-3.751303
 20
2.149762
 30
0.0
 11
-3.750531
 21
2.1514
 31
0.0
  0
LINE
  8
0
  6
CONTINUOUS
 62
     7
  5
417
 10
-3.750531
 20
2.1514
 30
0.0
 11
-3.749749
 21
2.152662
 31
0.0
  0
LINE
  8
0
  6
CONTINUOUS
 62
     7
  5
418
 10
-3.749749
 20
2.152662
 30
0.0
 11
-3.748958
 21
2.153552
 31
0.0
  0
LINE
  8
0
  6
CONTINUOUS
 62
     7
  5
419
 10
-3.748958
 20
2.153552
 30
0.0
 11
-3.748164
 21
2.154078
 31
0.0
  0
LINE
  8
0
  6
CONTINUOUS
 62
     7
  5
41A
 10
-3.748164
 20
2.154078
 30
0.0
 11
-3.747368
 21
2.15425
 31
0.0
  0
LINE
  8
0
  6
CONTINUOUS
 62
     7
  5
41B
 10
-3.78
 20
1.78575
 30
0.0
 11
-3.779995
 21
1.785923
 31
0.0
  0
LINE
  8
0
  6
CONTINUOUS
 62
     7
  5
41C
 10
-3.779995
 20
1.785923
 30
0.0
 11
-3.77998
 21
1.786452
 31
0.0
  0
LINE
  8
0
  6
CONTINUOUS
 62
     7
  5
41D
 10
-3.77998
 20
1.786452
 30
0.0
 11
-3.779955
 21
1.787347
 31
0.0
  0
LINE
  8
0
  6
CONTINUOUS
 62
     7
  5
41E
 10
-3.779955
 20
1.787347
 30
0.0
 11
-3.77992
 21
1.788615
 31
0.0
  0
LINE
  8
0
  6
CONTINUOUS
 62
     7
  5
41F
 10
-3.77992
 20
1.788615
 30
0.0
 11
-3.779874
 21
1.790262
 31
0.0
  0
LINE
  8
0
  6
CONTINUOUS
 62
     7
  5
420
 10
-3.779874
 20
1.790262
 30
0.0
 11
-3.779818
 21
1.792287
 31
0.0
  0
LINE
  8
0
  6
CONTINUOUS
 62
     7
  5
421
 10
-3.779818
 20
1.792287
 30
0.0
 11
-3.779753
 21
1.794688
 31
0.0
  0
LINE
  8
0
  6
CONTINUOUS
 62
     7
  5
422
 10
-3.779753
 20
1.794688
 30
0.0
 11
-3.779679
 21
1.797459
 31
0.0
  0
LINE
  8
0
  6
CONTINUOUS
 62
     7
  5
423
 10
-3.779679
 20
1.797459
 30
0.0
 11
-3.779597
 21
1.800593
 31
0.0
  0
LINE
  8
0
  6
CONTINUOUS
 62
     7
  5
424
 10
-3.779597
 20
1.800593
 30
0.0
 11
-3.779507
 21
1.80408
 31
0.0
  0
LINE
  8
0
  6
CONTINUOUS
 62
     7
  5
425
 10
-3.779507
 20
1.80408
 30
0.0
 11
-3.779411
 21
1.807907
 31
0.0
  0
LINE
  8
0
  6
CONTINUOUS
 62
     7
  5
426
 10
-3.779411
 20
1.807907
 30
0.0
 11
-3.779308
 21
1.81206
 31
0.0
  0
LINE
  8
0
  6
CONTINUOUS
 62
     7
  5
427
 10
-3.779308
 20
1.81206
 30
0.0
 11
-3.779202
 21
1.816518
 31
0.0
  0
LINE
  8
0
  6
CONTINUOUS
 62
     7
  5
428
 10
-3.779202
 20
1.816518
 30
0.0
 11
-3.779092
 21
1.821261
 31
0.0
  0
LINE
  8
0
  6
CONTINUOUS
 62
     7
  5
429
 10
-3.779092
 20
1.821261
 30
0.0
 11
-3.778979
 21
1.826262
 31
0.0
  0
LINE
  8
0
  6
CONTINUOUS
 62
     7
  5
42A
 10
-3.778979
 20
1.826262
 30
0.0
 11
-3.778866
 21
1.831496
 31
0.0
  0
LINE
  8
0
  6
CONTINUOUS
 62
     7
  5
42B
 10
-3.778866
 20
1.831496
 30
0.0
 11
-3.778753
 21
1.836931
 31
0.0
  0
LINE
  8
0
  6
CONTINUOUS
 62
     7
  5
42C
 10
-3.778753
 20
1.836931
 30
0.0
 11
-3.77864
 21
1.84256
 31
0.0
  0
LINE
  8
0
  6
CONTINUOUS
 62
     7
  5
42D
 10
-3.77864
 20
1.84256
 30
0.0
 11
-3.778526
 21
1.84849
 31
0.0
  0
LINE
  8
0
  6
CONTINUOUS
 62
     7
  5
42E
 10
-3.778526
 20
1.84849
 30
0.0
 11
-3.778413
 21
1.854728
 31
0.0
  0
LINE
  8
0
  6
CONTINUOUS
 62
     7
  5
42F
 10
-3.778413
 20
1.854728
 30
0.0
 11
-3.778301
 21
1.861259
 31
0.0
  0
LINE
  8
0
  6
CONTINUOUS
 62
     7
  5
430
 10
-3.778301
 20
1.861259
 30
0.0
 11
-3.77819
 21
1.868062
 31
0.0
  0
LINE
  8
0
  6
CONTINUOUS
 62
     7
  5
431
 10
-3.77819
 20
1.868062
 30
0.0
 11
-3.778084
 21
1.875116
 31
0.0
  0
LINE
  8
0
  6
CONTINUOUS
 62
     7
  5
432
 10
-3.778084
 20
1.875116
 30
0.0
 11
-3.777982
 21
1.882399
 31
0.0
  0
LINE
  8
0
  6
CONTINUOUS
 62
     7
  5
433
 10
-3.777982
 20
1.882399
 30
0.0
 11
-3.777885
 21
1.889884
 31
0.0
  0
LINE
  8
0
  6
CONTINUOUS
 62
     7
  5
434
 10
-3.777885
 20
1.889884
 30
0.0
 11
-3.777795
 21
1.897548
 31
0.0
  0
LINE
  8
0
  6
CONTINUOUS
 62
     7
  5
435
 10
-3.777795
 20
1.897548
 30
0.0
 11
-3.777713
 21
1.905365
 31
0.0
  0
LINE
  8
0
  6
CONTINUOUS
 62
     7
  5
436
 10
-3.777713
 20
1.905365
 30
0.0
 11
-3.777639
 21
1.913311
 31
0.0
  0
LINE
  8
0
  6
CONTINUOUS
 62
     7
  5
437
 10
-3.777639
 20
1.913311
 30
0.0
 11
-3.777574
 21
1.921357
 31
0.0
  0
LINE
  8
0
  6
CONTINUOUS
 62
     7
  5
438
 10
-3.777574
 20
1.921357
 30
0.0
 11
-3.777518
 21
1.929475
 31
0.0
  0
LINE
  8
0
  6
CONTINUOUS
 62
     7
  5
439
 10
-3.777518
 20
1.929475
 30
0.0
 11
-3.777473
 21
1.937632
 31
0.0
  0
LINE
  8
0
  6
CONTINUOUS
 62
     7
  5
43A
 10
-3.777473
 20
1.937632
 30
0.0
 11
-3.777437
 21
1.945796
 31
0.0
  0
LINE
  8
0
  6
CONTINUOUS
 62
     7
  5
43B
 10
-3.777437
 20
1.945796
 30
0.0
 11
-3.777412
 21
1.953933
 31
0.0
  0
LINE
  8
0
  6
CONTINUOUS
 62
     7
  5
43C
 10
-3.777412
 20
1.953933
 30
0.0
 11
-3.777397
 21
1.962012
 31
0.0
  0
LINE
  8
0
  6
CONTINUOUS
 62
     7
  5
43D
 10
-3.777397
 20
1.962012
 30
0.0
 11
-3.777392
 21
1.97
 31
0.0
  0
LINE
  8
0
  6
CONTINUOUS
 62
     7
  5
43E
 10
-3.78
 20
2.15425
 30
0.0
 11
-3.77998
 21
2.153548
 31
0.0
  0
LINE
  8
0
  6
CONTINUOUS
 62
     7
  5
43F
 10
-3.77998
 20
2.153548
 30
0.0
 11
-3.77992
 21
2.151385
 31
0.0
  0
LINE
  8
0
  6
CONTINUOUS
 62
     7
  5
440
 10
-3.77992
 20
2.151385
 30
0.0
 11
-3.779818
 21
2.147713
 31
0.0
  0
LINE
  8
0
  6
CONTINUOUS
 62
     7
  5
441
 10
-3.779818
 20
2.147713
 30
0.0
 11
-3.779679
 21
2.142541
 31
0.0
  0
LINE
  8
0
  6
CONTINUOUS
 62
     7
  5
442
 10
-3.779679
 20
2.142541
 30
0.0
 11
-3.779507
 21
2.13592
 31
0.0
  0
LINE
  8
0
  6
CONTINUOUS
 62
     7
  5
443
 10
-3.779507
 20
2.13592
 30
0.0
 11
-3.779308
 21
2.12794
 31
0.0
  0
LINE
  8
0
  6
CONTINUOUS
 62
     7
  5
444
 10
-3.779308
 20
2.12794
 30
0.0
 11
-3.779092
 21
2.118739
 31
0.0
  0
LINE
  8
0
  6
CONTINUOUS
 62
     7
  5
445
 10
-3.779092
 20
2.118739
 30
0.0
 11
-3.778866
 21
2.108504
 31
0.0
  0
LINE
  8
0
  6
CONTINUOUS
 62
     7
  5
446
 10
-3.778866
 20
2.108504
 30
0.0
 11
-3.77864
 21
2.09744
 31
0.0
  0
LINE
  8
0
  6
CONTINUOUS
 62
     7
  5
447
 10
-3.77864
 20
2.09744
 30
0.0
 11
-3.778413
 21
2.085272
 31
0.0
  0
LINE
  8
0
  6
CONTINUOUS
 62
     7
  5
448
 10
-3.778413
 20
2.085272
 30
0.0
 11
-3.77819
 21
2.071938
 31
0.0
  0
LINE
  8
0
  6
CONTINUOUS
 62
     7
  5
449
 10
-3.77819
 20
2.071938
 30
0.0
 11
-3.777982
 21
2.057601
 31
0.0
  0
LINE
  8
0
  6
CONTINUOUS
 62
     7
  5
44A
 10
-3.777982
 20
2.057601
 30
0.0
 11
-3.777795
 21
2.042452
 31
0.0
  0
LINE
  8
0
  6
CONTINUOUS
 62
     7
  5
44B
 10
-3.777795
 20
2.042452
 30
0.0
 11
-3.777639
 21
2.026689
 31
0.0
  0
LINE
  8
0
  6
CONTINUOUS
 62
     7
  5
44C
 10
-3.777639
 20
2.026689
 30
0.0
 11
-3.777518
 21
2.010525
 31
0.0
  0
LINE
  8
0
  6
CONTINUOUS
 62
     7
  5
44D
 10
-3.777518
 20
2.010525
 30
0.0
 11
-3.777437
 21
1.994204
 31
0.0
  0
LINE
  8
0
  6
CONTINUOUS
 62
     7
  5
44E
 10
-3.777437
 20
1.994204
 30
0.0
 11
-3.777397
 21
1.977988
 31
0.0
  0
LINE
  8
0
  6
CONTINUOUS
 62
     7
  5
44F
 10
-3.777397
 20
1.977988
 30
0.0
 11
-3.777397
 21
1.962012
 31
0.0
  0
LINE
  8
0
  6
CONTINUOUS
 62
     7
  5
450
 10
-3.777397
 20
1.962012
 30
0.0
 11
-3.777437
 21
1.945796
 31
0.0
  0
LINE
  8
0
  6
CONTINUOUS
 62
     7
  5
451
 10
-3.777437
 20
1.945796
 30
0.0
 11
-3.777518
 21
1.929475
 31
0.0
  0
LINE
  8
0
  6
CONTINUOUS
 62
     7
  5
452
 10
-3.777518
 20
1.929475
 30
0.0
 11
-3.777639
 21
1.913311
 31
0.0
  0
LINE
  8
0
  6
CONTINUOUS
 62
     7
  5
453
 10
-3.777639
 20
1.913311
 30
0.0
 11
-3.777795
 21
1.897548
 31
0.0
  0
LINE
  8
0
  6
CONTINUOUS
 62
     7
  5
454
 10
-3.777795
 20
1.897548
 30
0.0
 11
-3.777982
 21
1.882399
 31
0.0
  0
LINE
  8
0
  6
CONTINUOUS
 62
     7
  5
455
 10
-3.777982
 20
1.882399
 30
0.0
 11
-3.77819
 21
1.868062
 31
0.0
  0
LINE
  8
0
  6
CONTINUOUS
 62
     7
  5
456
 10
-3.77819
 20
1.868062
 30
0.0
 11
-3.778413
 21
1.854728
 31
0.0
  0
LINE
  8
0
  6
CONTINUOUS
 62
     7
  5
457
 10
-3.778413
 20
1.854728
 30
0.0
 11
-3.77864
 21
1.84256
 31
0.0
  0
LINE
  8
0
  6
CONTINUOUS
 62
     7
  5
458
 10
-3.77864
 20
1.84256
 30
0.0
 11
-3.778866
 21
1.831496
 31
0.0
  0
LINE
  8
0
  6
CONTINUOUS
 62
     7
  5
459
 10
-3.778866
 20
1.831496
 30
0.0
 11
-3.779092
 21
1.821261
 31
0.0
  0
LINE
  8
0
  6
CONTINUOUS
 62
     7
  5
45A
 10
-3.779092
 20
1.821261
 30
0.0
 11
-3.779308
 21
1.81206
 31
0.0
  0
LINE
  8
0
  6
CONTINUOUS
 62
     7
  5
45B
 10
-3.779308
 20
1.81206
 30
0.0
 11
-3.779507
 21
1.80408
 31
0.0
  0
LINE
  8
0
  6
CONTINUOUS
 62
     7
  5
45C
 10
-3.779507
 20
1.80408
 30
0.0
 11
-3.779679
 21
1.797459
 31
0.0
  0
LINE
  8
0
  6
CONTINUOUS
 62
     7
  5
45D
 10
-3.779679
 20
1.797459
 30
0.0
 11
-3.779818
 21
1.792287
 31
0.0
  0
LINE
  8
0
  6
CONTINUOUS
 62
     7
  5
45E
 10
-3.779818
 20
1.792287
 30
0.0
 11
-3.77992
 21
1.788615
 31
0.0
  0
LINE
  8
0
  6
CONTINUOUS
 62
     7
  5
45F
 10
-3.77992
 20
1.788615
 30
0.0
 11
-3.77998
 21
1.786452
 31
0.0
  0
LINE
  8
0
  6
CONTINUOUS
 62
     7
  5
460
 10
-3.77998
 20
1.786452
 30
0.0
 11
-3.78
 21
1.78575
 31
0.0
  0
LINE
  8
0
  6
CONTINUOUS
 62
     7
  5
461
 10
-1.34
 20
1.635
 30
0.0
 11
-1.34
 21
2.305
 31
0.0
  0
LINE
  8
0
  6
CONTINUOUS
 62
     7
  5
462
 10
-3.688947
 20
2.305
 30
0.0
 11
-3.78
 21
2.305
 31
0.0
  0
LINE
  8
0
  6
CONTINUOUS
 62
     7
  5
463
 10
-1.34
 20
2.305
 30
0.0
 11
-3.688947
 21
2.305
 31
0.0
  0
LINE
  8
0
  6
CONTINUOUS
 62
     7
  5
464
 10
-3.688947
 20
1.635
 30
0.0
 11
-3.688947
 21
2.305
 31
0.0
  0
LINE
  8
0
  6
CONTINUOUS
 62
     7
  5
465
 10
-1.34
 20
1.635
 30
0.0
 11
-3.688947
 21
1.635
 31
0.0
  0
LINE
  8
0
  6
CONTINUOUS
 62
     7
  5
466
 10
-3.78
 20
2.305
 30
0.0
 11
-3.78
 21
2.15425
 31
0.0
  0
LINE
  8
0
  6
CONTINUOUS
 62
     7
  5
467
 10
-3.78
 20
1.78575
 30
0.0
 11
-3.78
 21
1.635
 31
0.0
  0
LINE
  8
0
  6
CONTINUOUS
 62
     7
  5
468
 10
-3.747368
 20
-1.78575
 30
0.0
 11
-3.746562
 21
-1.785923
 31
0.0
  0
LINE
  8
0
  6
CONTINUOUS
 62
     7
  5
469
 10
-3.746562
 20
-1.785923
 30
0.0
 11
-3.745737
 21
-1.786449
 31
0.0
  0
LINE
  8
0
  6
CONTINUOUS
 62
     7
  5
46A
 10
-3.745737
 20
-1.786449
 30
0.0
 11
-3.744895
 21
-1.78734
 31
0.0
  0
LINE
  8
0
  6
CONTINUOUS
 62
     7
  5
46B
 10
-3.744895
 20
-1.78734
 30
0.0
 11
-3.74404
 21
-1.788604
 31
0.0
  0
LINE
  8
0
  6
CONTINUOUS
 62
     7
  5
46C
 10
-3.74404
 20
-1.788604
 30
0.0
 11
-3.743176
 21
-1.790243
 31
0.0
  0
LINE
  8
0
  6
CONTINUOUS
 62
     7
  5
46D
 10
-3.743176
 20
-1.790243
 30
0.0
 11
-3.742305
 21
-1.79226
 31
0.0
  0
LINE
  8
0
  6
CONTINUOUS
 62
     7
  5
46E
 10
-3.742305
 20
-1.79226
 30
0.0
 11
-3.741432
 21
-1.794651
 31
0.0
  0
LINE
  8
0
  6
CONTINUOUS
 62
     7
  5
46F
 10
-3.741432
 20
-1.794651
 30
0.0
 11
-3.74056
 21
-1.797411
 31
0.0
  0
LINE
  8
0
  6
CONTINUOUS
 62
     7
  5
470
 10
-3.74056
 20
-1.797411
 30
0.0
 11
-3.739692
 21
-1.800533
 31
0.0
  0
LINE
  8
0
  6
CONTINUOUS
 62
     7
  5
471
 10
-3.739692
 20
-1.800533
 30
0.0
 11
-3.738832
 21
-1.804007
 31
0.0
  0
LINE
  8
0
  6
CONTINUOUS
 62
     7
  5
472
 10
-3.738832
 20
-1.804007
 30
0.0
 11
-3.737983
 21
-1.807821
 31
0.0
  0
LINE
  8
0
  6
CONTINUOUS
 62
     7
  5
473
 10
-3.737983
 20
-1.807821
 30
0.0
 11
-3.737148
 21
-1.811959
 31
0.0
  0
LINE
  8
0
  6
CONTINUOUS
 62
     7
  5
474
 10
-3.737148
 20
-1.811959
 30
0.0
 11
-3.736331
 21
-1.816405
 31
0.0
  0
LINE
  8
0
  6
CONTINUOUS
 62
     7
  5
475
 10
-3.736331
 20
-1.816405
 30
0.0
 11
-3.735536
 21
-1.821135
 31
0.0
  0
LINE
  8
0
  6
CONTINUOUS
 62
     7
  5
476
 10
-3.735536
 20
-1.821135
 30
0.0
 11
-3.734765
 21
-1.826125
 31
0.0
  0
LINE
  8
0
  6
CONTINUOUS
 62
     7
  5
477
 10
-3.734765
 20
-1.826125
 30
0.0
 11
-3.734023
 21
-1.831349
 31
0.0
  0
LINE
  8
0
  6
CONTINUOUS
 62
     7
  5
478
 10
-3.734023
 20
-1.831349
 30
0.0
 11
-3.73331
 21
-1.836778
 31
0.0
  0
LINE
  8
0
  6
CONTINUOUS
 62
     7
  5
479
 10
-3.73331
 20
-1.836778
 30
0.0
 11
-3.73263
 21
-1.842398
 31
0.0
  0
LINE
  8
0
  6
CONTINUOUS
 62
     7
  5
47A
 10
-3.73263
 20
-1.842398
 30
0.0
 11
-3.731968
 21
-1.848316
 31
0.0
  0
LINE
  8
0
  6
CONTINUOUS
 62
     7
  5
47B
 10
-3.731968
 20
-1.848316
 30
0.0
 11
-3.731325
 21
-1.854545
 31
0.0
  0
LINE
  8
0
  6
CONTINUOUS
 62
     7
  5
47C
 10
-3.731325
 20
-1.854545
 30
0.0
 11
-3.730707
 21
-1.861069
 31
0.0
  0
LINE
  8
0
  6
CONTINUOUS
 62
     7
  5
47D
 10
-3.730707
 20
-1.861069
 30
0.0
 11
-3.730117
 21
-1.86787
 31
0.0
  0
LINE
  8
0
  6
CONTINUOUS
 62
     7
  5
47E
 10
-3.730117
 20
-1.86787
 30
0.0
 11
-3.729559
 21
-1.874924
 31
0.0
  0
LINE
  8
0
  6
CONTINUOUS
 62
     7
  5
47F
 10
-3.729559
 20
-1.874924
 30
0.0
 11
-3.729036
 21
-1.88221
 31
0.0
  0
LINE
  8
0
  6
CONTINUOUS
 62
     7
  5
480
 10
-3.729036
 20
-1.88221
 30
0.0
 11
-3.728551
 21
-1.889701
 31
0.0
  0
LINE
  8
0
  6
CONTINUOUS
 62
     7
  5
481
 10
-3.728551
 20
-1.889701
 30
0.0
 11
-3.728108
 21
-1.897374
 31
0.0
  0
LINE
  8
0
  6
CONTINUOUS
 62
     7
  5
482
 10
-3.728108
 20
-1.897374
 30
0.0
 11
-3.727707
 21
-1.905202
 31
0.0
  0
LINE
  8
0
  6
CONTINUOUS
 62
     7
  5
483
 10
-3.727707
 20
-1.905202
 30
0.0
 11
-3.727351
 21
-1.913161
 31
0.0
  0
LINE
  8
0
  6
CONTINUOUS
 62
     7
  5
484
 10
-3.727351
 20
-1.913161
 30
0.0
 11
-3.727042
 21
-1.921224
 31
0.0
  0
LINE
  8
0
  6
CONTINUOUS
 62
     7
  5
485
 10
-3.727042
 20
-1.921224
 30
0.0
 11
-3.726781
 21
-1.92936
 31
0.0
  0
LINE
  8
0
  6
CONTINUOUS
 62
     7
  5
486
 10
-3.726781
 20
-1.92936
 30
0.0
 11
-3.726568
 21
-1.937538
 31
0.0
  0
LINE
  8
0
  6
CONTINUOUS
 62
     7
  5
487
 10
-3.726568
 20
-1.937538
 30
0.0
 11
-3.726403
 21
-1.945724
 31
0.0
  0
LINE
  8
0
  6
CONTINUOUS
 62
     7
  5
488
 10
-3.726403
 20
-1.945724
 30
0.0
 11
-3.726287
 21
-1.953885
 31
0.0
  0
LINE
  8
0
  6
CONTINUOUS
 62
     7
  5
489
 10
-3.726287
 20
-1.953885
 30
0.0
 11
-3.726218
 21
-1.961987
 31
0.0
  0
LINE
  8
0
  6
CONTINUOUS
 62
     7
  5
48A
 10
-3.726218
 20
-1.961987
 30
0.0
 11
-3.726195
 21
-1.97
 31
0.0
  0
LINE
  8
0
  6
CONTINUOUS
 62
     7
  5
48B
 10
-3.747368
 20
-2.15425
 30
0.0
 11
-3.748958
 21
-2.153552
 31
0.0
  0
LINE
  8
0
  6
CONTINUOUS
 62
     7
  5
48C
 10
-3.748958
 20
-2.153552
 30
0.0
 11
-3.750531
 21
-2.1514
 31
0.0
  0
LINE
  8
0
  6
CONTINUOUS
 62
     7
  5
48D
 10
-3.750531
 20
-2.1514
 30
0.0
 11
-3.752061
 21
-2.147746
 31
0.0
  0
LINE
  8
0
  6
CONTINUOUS
 62
     7
  5
48E
 10
-3.752061
 20
-2.147746
 30
0.0
 11
-3.753526
 21
-2.142595
 31
0.0
  0
LINE
  8
0
  6
CONTINUOUS
 62
     7
  5
48F
 10
-3.753526
 20
-2.142595
 30
0.0
 11
-3.754906
 21
-2.135997
 31
0.0
  0
LINE
  8
0
  6
CONTINUOUS
 62
     7
  5
490
 10
-3.754906
 20
-2.135997
 30
0.0
 11
-3.756189
 21
-2.128039
 31
0.0
  0
LINE
  8
0
  6
CONTINUOUS
 62
     7
  5
491
 10
-3.756189
 20
-2.128039
 30
0.0
 11
-3.757363
 21
-2.118856
 31
0.0
  0
LINE
  8
0
  6
CONTINUOUS
 62
     7
  5
492
 10
-3.757363
 20
-2.118856
 30
0.0
 11
-3.758419
 21
-2.108633
 31
0.0
  0
LINE
  8
0
  6
CONTINUOUS
 62
     7
  5
493
 10
-3.758419
 20
-2.108633
 30
0.0
 11
-3.759354
 21
-2.097574
 31
0.0
  0
LINE
  8
0
  6
CONTINUOUS
 62
     7
  5
494
 10
-3.759354
 20
-2.097574
 30
0.0
 11
-3.760198
 21
-2.085415
 31
0.0
  0
LINE
  8
0
  6
CONTINUOUS
 62
     7
  5
495
 10
-3.760198
 20
-2.085415
 30
0.0
 11
-3.760954
 21
-2.072081
 31
0.0
  0
LINE
  8
0
  6
CONTINUOUS
 62
     7
  5
496
 10
-3.760954
 20
-2.072081
 30
0.0
 11
-3.76161
 21
-2.057737
 31
0.0
  0
LINE
  8
0
  6
CONTINUOUS
 62
     7
  5
497
 10
-3.76161
 20
-2.057737
 30
0.0
 11
-3.762158
 21
-2.042573
 31
0.0
  0
LINE
  8
0
  6
CONTINUOUS
 62
     7
  5
498
 10
-3.762158
 20
-2.042573
 30
0.0
 11
-3.762595
 21
-2.026789
 31
0.0
  0
LINE
  8
0
  6
CONTINUOUS
 62
     7
  5
499
 10
-3.762595
 20
-2.026789
 30
0.0
 11
-3.762919
 21
-2.0106
 31
0.0
  0
LINE
  8
0
  6
CONTINUOUS
 62
     7
  5
49A
 10
-3.762919
 20
-2.0106
 30
0.0
 11
-3.763131
 21
-1.99425
 31
0.0
  0
LINE
  8
0
  6
CONTINUOUS
 62
     7
  5
49B
 10
-3.763131
 20
-1.99425
 30
0.0
 11
-3.763234
 21
-1.978003
 31
0.0
  0
LINE
  8
0
  6
CONTINUOUS
 62
     7
  5
49C
 10
-3.763234
 20
-1.978003
 30
0.0
 11
-3.763234
 21
-1.961997
 31
0.0
  0
LINE
  8
0
  6
CONTINUOUS
 62
     7
  5
49D
 10
-3.763234
 20
-1.961997
 30
0.0
 11
-3.763131
 21
-1.94575
 31
0.0
  0
LINE
  8
0
  6
CONTINUOUS
 62
     7
  5
49E
 10
-3.763131
 20
-1.94575
 30
0.0
 11
-3.762919
 21
-1.9294
 31
0.0
  0
LINE
  8
0
  6
CONTINUOUS
 62
     7
  5
49F
 10
-3.762919
 20
-1.9294
 30
0.0
 11
-3.762595
 21
-1.913211
 31
0.0
  0
LINE
  8
0
  6
CONTINUOUS
 62
     7
  5
4A0
 10
-3.762595
 20
-1.913211
 30
0.0
 11
-3.762158
 21
-1.897427
 31
0.0
  0
LINE
  8
0
  6
CONTINUOUS
 62
     7
  5
4A1
 10
-3.762158
 20
-1.897427
 30
0.0
 11
-3.76161
 21
-1.882263
 31
0.0
  0
LINE
  8
0
  6
CONTINUOUS
 62
     7
  5
4A2
 10
-3.76161
 20
-1.882263
 30
0.0
 11
-3.760954
 21
-1.867919
 31
0.0
  0
LINE
  8
0
  6
CONTINUOUS
 62
     7
  5
4A3
 10
-3.760954
 20
-1.867919
 30
0.0
 11
-3.760198
 21
-1.854585
 31
0.0
  0
LINE
  8
0
  6
CONTINUOUS
 62
     7
  5
4A4
 10
-3.760198
 20
-1.854585
 30
0.0
 11
-3.759354
 21
-1.842426
 31
0.0
  0
LINE
  8
0
  6
CONTINUOUS
 62
     7
  5
4A5
 10
-3.759354
 20
-1.842426
 30
0.0
 11
-3.758419
 21
-1.831367
 31
0.0
  0
LINE
  8
0
  6
CONTINUOUS
 62
     7
  5
4A6
 10
-3.758419
 20
-1.831367
 30
0.0
 11
-3.757363
 21
-1.821144
 31
0.0
  0
LINE
  8
0
  6
CONTINUOUS
 62
     7
  5
4A7
 10
-3.757363
 20
-1.821144
 30
0.0
 11
-3.756189
 21
-1.811961
 31
0.0
  0
LINE
  8
0
  6
CONTINUOUS
 62
     7
  5
4A8
 10
-3.756189
 20
-1.811961
 30
0.0
 11
-3.754906
 21
-1.804003
 31
0.0
  0
LINE
  8
0
  6
CONTINUOUS
 62
     7
  5
4A9
 10
-3.754906
 20
-1.804003
 30
0.0
 11
-3.753526
 21
-1.797405
 31
0.0
  0
LINE
  8
0
  6
CONTINUOUS
 62
     7
  5
4AA
 10
-3.753526
 20
-1.797405
 30
0.0
 11
-3.752061
 21
-1.792254
 31
0.0
  0
LINE
  8
0
  6
CONTINUOUS
 62
     7
  5
4AB
 10
-3.752061
 20
-1.792254
 30
0.0
 11
-3.750531
 21
-1.7886
 31
0.0
  0
LINE
  8
0
  6
CONTINUOUS
 62
     7
  5
4AC
 10
-3.750531
 20
-1.7886
 30
0.0
 11
-3.748958
 21
-1.786448
 31
0.0
  0
LINE
  8
0
  6
CONTINUOUS
 62
     7
  5
4AD
 10
-3.748958
 20
-1.786448
 30
0.0
 11
-3.747368
 21
-1.78575
 31
0.0
  0
LINE
  8
0
  6
CONTINUOUS
 62
     7
  5
4AE
 10
-3.726195
 20
-1.97
 30
0.0
 11
-3.726218
 21
-1.978013
 31
0.0
  0
LINE
  8
0
  6
CONTINUOUS
 62
     7
  5
4AF
 10
-3.726218
 20
-1.978013
 30
0.0
 11
-3.726287
 21
-1.986115
 31
0.0
  0
LINE
  8
0
  6
CONTINUOUS
 62
     7
  5
4B0
 10
-3.726287
 20
-1.986115
 30
0.0
 11
-3.726403
 21
-1.994276
 31
0.0
  0
LINE
  8
0
  6
CONTINUOUS
 62
     7
  5
4B1
 10
-3.726403
 20
-1.994276
 30
0.0
 11
-3.726568
 21
-2.002462
 31
0.0
  0
LINE
  8
0
  6
CONTINUOUS
 62
     7
  5
4B2
 10
-3.726568
 20
-2.002462
 30
0.0
 11
-3.726781
 21
-2.01064
 31
0.0
  0
LINE
  8
0
  6
CONTINUOUS
 62
     7
  5
4B3
 10
-3.726781
 20
-2.01064
 30
0.0
 11
-3.727042
 21
-2.018776
 31
0.0
  0
LINE
  8
0
  6
CONTINUOUS
 62
     7
  5
4B4
 10
-3.727042
 20
-2.018776
 30
0.0
 11
-3.727351
 21
-2.026839
 31
0.0
  0
LINE
  8
0
  6
CONTINUOUS
 62
     7
  5
4B5
 10
-3.727351
 20
-2.026839
 30
0.0
 11
-3.727707
 21
-2.034798
 31
0.0
  0
LINE
  8
0
  6
CONTINUOUS
 62
     7
  5
4B6
 10
-3.727707
 20
-2.034798
 30
0.0
 11
-3.728108
 21
-2.042626
 31
0.0
  0
LINE
  8
0
  6
CONTINUOUS
 62
     7
  5
4B7
 10
-3.728108
 20
-2.042626
 30
0.0
 11
-3.728551
 21
-2.050299
 31
0.0
  0
LINE
  8
0
  6
CONTINUOUS
 62
     7
  5
4B8
 10
-3.728551
 20
-2.050299
 30
0.0
 11
-3.729036
 21
-2.05779
 31
0.0
  0
LINE
  8
0
  6
CONTINUOUS
 62
     7
  5
4B9
 10
-3.729036
 20
-2.05779
 30
0.0
 11
-3.729559
 21
-2.065076
 31
0.0
  0
LINE
  8
0
  6
CONTINUOUS
 62
     7
  5
4BA
 10
-3.729559
 20
-2.065076
 30
0.0
 11
-3.730117
 21
-2.07213
 31
0.0
  0
LINE
  8
0
  6
CONTINUOUS
 62
     7
  5
4BB
 10
-3.730117
 20
-2.07213
 30
0.0
 11
-3.730707
 21
-2.078931
 31
0.0
  0
LINE
  8
0
  6
CONTINUOUS
 62
     7
  5
4BC
 10
-3.730707
 20
-2.078931
 30
0.0
 11
-3.731325
 21
-2.085455
 31
0.0
  0
LINE
  8
0
  6
CONTINUOUS
 62
     7
  5
4BD
 10
-3.731325
 20
-2.085455
 30
0.0
 11
-3.731968
 21
-2.091684
 31
0.0
  0
LINE
  8
0
  6
CONTINUOUS
 62
     7
  5
4BE
 10
-3.731968
 20
-2.091684
 30
0.0
 11
-3.73263
 21
-2.097602
 31
0.0
  0
LINE
  8
0
  6
CONTINUOUS
 62
     7
  5
4BF
 10
-3.73263
 20
-2.097602
 30
0.0
 11
-3.73331
 21
-2.103222
 31
0.0
  0
LINE
  8
0
  6
CONTINUOUS
 62
     7
  5
4C0
 10
-3.73331
 20
-2.103222
 30
0.0
 11
-3.734023
 21
-2.108651
 31
0.0
  0
LINE
  8
0
  6
CONTINUOUS
 62
     7
  5
4C1
 10
-3.734023
 20
-2.108651
 30
0.0
 11
-3.734765
 21
-2.113875
 31
0.0
  0
LINE
  8
0
  6
CONTINUOUS
 62
     7
  5
4C2
 10
-3.734765
 20
-2.113875
 30
0.0
 11
-3.735536
 21
-2.118865
 31
0.0
  0
LINE
  8
0
  6
CONTINUOUS
 62
     7
  5
4C3
 10
-3.735536
 20
-2.118865
 30
0.0
 11
-3.736331
 21
-2.123595
 31
0.0
  0
LINE
  8
0
  6
CONTINUOUS
 62
     7
  5
4C4
 10
-3.736331
 20
-2.123595
 30
0.0
 11
-3.737148
 21
-2.128041
 31
0.0
  0
LINE
  8
0
  6
CONTINUOUS
 62
     7
  5
4C5
 10
-3.737148
 20
-2.128041
 30
0.0
 11
-3.737983
 21
-2.132179
 31
0.0
  0
LINE
  8
0
  6
CONTINUOUS
 62
     7
  5
4C6
 10
-3.737983
 20
-2.132179
 30
0.0
 11
-3.738832
 21
-2.135993
 31
0.0
  0
LINE
  8
0
  6
CONTINUOUS
 62
     7
  5
4C7
 10
-3.738832
 20
-2.135993
 30
0.0
 11
-3.739692
 21
-2.139467
 31
0.0
  0
LINE
  8
0
  6
CONTINUOUS
 62
     7
  5
4C8
 10
-3.739692
 20
-2.139467
 30
0.0
 11
-3.74056
 21
-2.142589
 31
0.0
  0
LINE
  8
0
  6
CONTINUOUS
 62
     7
  5
4C9
 10
-3.74056
 20
-2.142589
 30
0.0
 11
-3.741432
 21
-2.145349
 31
0.0
  0
LINE
  8
0
  6
CONTINUOUS
 62
     7
  5
4CA
 10
-3.741432
 20
-2.145349
 30
0.0
 11
-3.742305
 21
-2.14774
 31
0.0
  0
LINE
  8
0
  6
CONTINUOUS
 62
     7
  5
4CB
 10
-3.742305
 20
-2.14774
 30
0.0
 11
-3.743176
 21
-2.149757
 31
0.0
  0
LINE
  8
0
  6
CONTINUOUS
 62
     7
  5
4CC
 10
-3.743176
 20
-2.149757
 30
0.0
 11
-3.74404
 21
-2.151396
 31
0.0
  0
LINE
  8
0
  6
CONTINUOUS
 62
     7
  5
4CD
 10
-3.74404
 20
-2.151396
 30
0.0
 11
-3.744895
 21
-2.15266
 31
0.0
  0
LINE
  8
0
  6
CONTINUOUS
 62
     7
  5
4CE
 10
-3.744895
 20
-2.15266
 30
0.0
 11
-3.745737
 21
-2.153551
 31
0.0
  0
LINE
  8
0
  6
CONTINUOUS
 62
     7
  5
4CF
 10
-3.745737
 20
-2.153551
 30
0.0
 11
-3.746562
 21
-2.154077
 31
0.0
  0
LINE
  8
0
  6
CONTINUOUS
 62
     7
  5
4D0
 10
-3.746562
 20
-2.154077
 30
0.0
 11
-3.747368
 21
-2.15425
 31
0.0
  0
LINE
  8
0
  6
CONTINUOUS
 62
     7
  5
4D1
 10
-3.78
 20
-1.78575
 30
0.0
 11
-3.779995
 21
-1.785923
 31
0.0
  0
LINE
  8
0
  6
CONTINUOUS
 62
     7
  5
4D2
 10
-3.779995
 20
-1.785923
 30
0.0
 11
-3.77998
 21
-1.786452
 31
0.0
  0
LINE
  8
0
  6
CONTINUOUS
 62
     7
  5
4D3
 10
-3.77998
 20
-1.786452
 30
0.0
 11
-3.779955
 21
-1.787347
 31
0.0
  0
LINE
  8
0
  6
CONTINUOUS
 62
     7
  5
4D4
 10
-3.779955
 20
-1.787347
 30
0.0
 11
-3.77992
 21
-1.788615
 31
0.0
  0
LINE
  8
0
  6
CONTINUOUS
 62
     7
  5
4D5
 10
-3.77992
 20
-1.788615
 30
0.0
 11
-3.779874
 21
-1.790262
 31
0.0
  0
LINE
  8
0
  6
CONTINUOUS
 62
     7
  5
4D6
 10
-3.779874
 20
-1.790262
 30
0.0
 11
-3.779818
 21
-1.792287
 31
0.0
  0
LINE
  8
0
  6
CONTINUOUS
 62
     7
  5
4D7
 10
-3.779818
 20
-1.792287
 30
0.0
 11
-3.779753
 21
-1.794688
 31
0.0
  0
LINE
  8
0
  6
CONTINUOUS
 62
     7
  5
4D8
 10
-3.779753
 20
-1.794688
 30
0.0
 11
-3.779679
 21
-1.797459
 31
0.0
  0
LINE
  8
0
  6
CONTINUOUS
 62
     7
  5
4D9
 10
-3.779679
 20
-1.797459
 30
0.0
 11
-3.779597
 21
-1.800593
 31
0.0
  0
LINE
  8
0
  6
CONTINUOUS
 62
     7
  5
4DA
 10
-3.779597
 20
-1.800593
 30
0.0
 11
-3.779507
 21
-1.80408
 31
0.0
  0
LINE
  8
0
  6
CONTINUOUS
 62
     7
  5
4DB
 10
-3.779507
 20
-1.80408
 30
0.0
 11
-3.779411
 21
-1.807907
 31
0.0
  0
LINE
  8
0
  6
CONTINUOUS
 62
     7
  5
4DC
 10
-3.779411
 20
-1.807907
 30
0.0
 11
-3.779308
 21
-1.81206
 31
0.0
  0
LINE
  8
0
  6
CONTINUOUS
 62
     7
  5
4DD
 10
-3.779308
 20
-1.81206
 30
0.0
 11
-3.779202
 21
-1.816518
 31
0.0
  0
LINE
  8
0
  6
CONTINUOUS
 62
     7
  5
4DE
 10
-3.779202
 20
-1.816518
 30
0.0
 11
-3.779092
 21
-1.821261
 31
0.0
  0
LINE
  8
0
  6
CONTINUOUS
 62
     7
  5
4DF
 10
-3.779092
 20
-1.821261
 30
0.0
 11
-3.778979
 21
-1.826262
 31
0.0
  0
LINE
  8
0
  6
CONTINUOUS
 62
     7
  5
4E0
 10
-3.778979
 20
-1.826262
 30
0.0
 11
-3.778866
 21
-1.831496
 31
0.0
  0
LINE
  8
0
  6
CONTINUOUS
 62
     7
  5
4E1
 10
-3.778866
 20
-1.831496
 30
0.0
 11
-3.778753
 21
-1.836931
 31
0.0
  0
LINE
  8
0
  6
CONTINUOUS
 62
     7
  5
4E2
 10
-3.778753
 20
-1.836931
 30
0.0
 11
-3.77864
 21
-1.84256
 31
0.0
  0
LINE
  8
0
  6
CONTINUOUS
 62
     7
  5
4E3
 10
-3.77864
 20
-1.84256
 30
0.0
 11
-3.778526
 21
-1.84849
 31
0.0
  0
LINE
  8
0
  6
CONTINUOUS
 62
     7
  5
4E4
 10
-3.778526
 20
-1.84849
 30
0.0
 11
-3.778413
 21
-1.854728
 31
0.0
  0
LINE
  8
0
  6
CONTINUOUS
 62
     7
  5
4E5
 10
-3.778413
 20
-1.854728
 30
0.0
 11
-3.778301
 21
-1.861259
 31
0.0
  0
LINE
  8
0
  6
CONTINUOUS
 62
     7
  5
4E6
 10
-3.778301
 20
-1.861259
 30
0.0
 11
-3.77819
 21
-1.868062
 31
0.0
  0
LINE
  8
0
  6
CONTINUOUS
 62
     7
  5
4E7
 10
-3.77819
 20
-1.868062
 30
0.0
 11
-3.778084
 21
-1.875116
 31
0.0
  0
LINE
  8
0
  6
CONTINUOUS
 62
     7
  5
4E8
 10
-3.778084
 20
-1.875116
 30
0.0
 11
-3.777982
 21
-1.882399
 31
0.0
  0
LINE
  8
0
  6
CONTINUOUS
 62
     7
  5
4E9
 10
-3.777982
 20
-1.882399
 30
0.0
 11
-3.777885
 21
-1.889884
 31
0.0
  0
LINE
  8
0
  6
CONTINUOUS
 62
     7
  5
4EA
 10
-3.777885
 20
-1.889884
 30
0.0
 11
-3.777795
 21
-1.897548
 31
0.0
  0
LINE
  8
0
  6
CONTINUOUS
 62
     7
  5
4EB
 10
-3.777795
 20
-1.897548
 30
0.0
 11
-3.777713
 21
-1.905365
 31
0.0
  0
LINE
  8
0
  6
CONTINUOUS
 62
     7
  5
4EC
 10
-3.777713
 20
-1.905365
 30
0.0
 11
-3.777639
 21
-1.913311
 31
0.0
  0
LINE
  8
0
  6
CONTINUOUS
 62
     7
  5
4ED
 10
-3.777639
 20
-1.913311
 30
0.0
 11
-3.777574
 21
-1.921357
 31
0.0
  0
LINE
  8
0
  6
CONTINUOUS
 62
     7
  5
4EE
 10
-3.777574
 20
-1.921357
 30
0.0
 11
-3.777518
 21
-1.929475
 31
0.0
  0
LINE
  8
0
  6
CONTINUOUS
 62
     7
  5
4EF
 10
-3.777518
 20
-1.929475
 30
0.0
 11
-3.777473
 21
-1.937632
 31
0.0
  0
LINE
  8
0
  6
CONTINUOUS
 62
     7
  5
4F0
 10
-3.777473
 20
-1.937632
 30
0.0
 11
-3.777437
 21
-1.945796
 31
0.0
  0
LINE
  8
0
  6
CONTINUOUS
 62
     7
  5
4F1
 10
-3.777437
 20
-1.945796
 30
0.0
 11
-3.777412
 21
-1.953933
 31
0.0
  0
LINE
  8
0
  6
CONTINUOUS
 62
     7
  5
4F2
 10
-3.777412
 20
-1.953933
 30
0.0
 11
-3.777397
 21
-1.962012
 31
0.0
  0
LINE
  8
0
  6
CONTINUOUS
 62
     7
  5
4F3
 10
-3.777397
 20
-1.962012
 30
0.0
 11
-3.777392
 21
-1.97
 31
0.0
  0
LINE
  8
0
  6
CONTINUOUS
 62
     7
  5
4F4
 10
-3.777392
 20
-1.97
 30
0.0
 11
-3.777397
 21
-1.977988
 31
0.0
  0
LINE
  8
0
  6
CONTINUOUS
 62
     7
  5
4F5
 10
-3.777397
 20
-1.977988
 30
0.0
 11
-3.777412
 21
-1.986067
 31
0.0
  0
LINE
  8
0
  6
CONTINUOUS
 62
     7
  5
4F6
 10
-3.777412
 20
-1.986067
 30
0.0
 11
-3.777437
 21
-1.994204
 31
0.0
  0
LINE
  8
0
  6
CONTINUOUS
 62
     7
  5
4F7
 10
-3.777437
 20
-1.994204
 30
0.0
 11
-3.777473
 21
-2.002368
 31
0.0
  0
LINE
  8
0
  6
CONTINUOUS
 62
     7
  5
4F8
 10
-3.777473
 20
-2.002368
 30
0.0
 11
-3.777518
 21
-2.010525
 31
0.0
  0
LINE
  8
0
  6
CONTINUOUS
 62
     7
  5
4F9
 10
-3.777518
 20
-2.010525
 30
0.0
 11
-3.777574
 21
-2.018643
 31
0.0
  0
LINE
  8
0
  6
CONTINUOUS
 62
     7
  5
4FA
 10
-3.777574
 20
-2.018643
 30
0.0
 11
-3.777639
 21
-2.026689
 31
0.0
  0
LINE
  8
0
  6
CONTINUOUS
 62
     7
  5
4FB
 10
-3.777639
 20
-2.026689
 30
0.0
 11
-3.777713
 21
-2.034635
 31
0.0
  0
LINE
  8
0
  6
CONTINUOUS
 62
     7
  5
4FC
 10
-3.777713
 20
-2.034635
 30
0.0
 11
-3.777795
 21
-2.042452
 31
0.0
  0
LINE
  8
0
  6
CONTINUOUS
 62
     7
  5
4FD
 10
-3.777795
 20
-2.042452
 30
0.0
 11
-3.777885
 21
-2.050116
 31
0.0
  0
LINE
  8
0
  6
CONTINUOUS
 62
     7
  5
4FE
 10
-3.777885
 20
-2.050116
 30
0.0
 11
-3.777982
 21
-2.057601
 31
0.0
  0
LINE
  8
0
  6
CONTINUOUS
 62
     7
  5
4FF
 10
-3.777982
 20
-2.057601
 30
0.0
 11
-3.778084
 21
-2.064884
 31
0.0
  0
LINE
  8
0
  6
CONTINUOUS
 62
     7
  5
500
 10
-3.778084
 20
-2.064884
 30
0.0
 11
-3.77819
 21
-2.071938
 31
0.0
  0
LINE
  8
0
  6
CONTINUOUS
 62
     7
  5
501
 10
-3.77819
 20
-2.071938
 30
0.0
 11
-3.778301
 21
-2.078741
 31
0.0
  0
LINE
  8
0
  6
CONTINUOUS
 62
     7
  5
502
 10
-3.778301
 20
-2.078741
 30
0.0
 11
-3.778413
 21
-2.085272
 31
0.0
  0
LINE
  8
0
  6
CONTINUOUS
 62
     7
  5
503
 10
-3.778413
 20
-2.085272
 30
0.0
 11
-3.778526
 21
-2.09151
 31
0.0
  0
LINE
  8
0
  6
CONTINUOUS
 62
     7
  5
504
 10
-3.778526
 20
-2.09151
 30
0.0
 11
-3.77864
 21
-2.09744
 31
0.0
  0
LINE
  8
0
  6
CONTINUOUS
 62
     7
  5
505
 10
-3.77864
 20
-2.09744
 30
0.0
 11
-3.778753
 21
-2.103069
 31
0.0
  0
LINE
  8
0
  6
CONTINUOUS
 62
     7
  5
506
 10
-3.778753
 20
-2.103069
 30
0.0
 11
-3.778866
 21
-2.108504
 31
0.0
  0
LINE
  8
0
  6
CONTINUOUS
 62
     7
  5
507
 10
-3.778866
 20
-2.108504
 30
0.0
 11
-3.778979
 21
-2.113738
 31
0.0
  0
LINE
  8
0
  6
CONTINUOUS
 62
     7
  5
508
 10
-3.778979
 20
-2.113738
 30
0.0
 11
-3.779092
 21
-2.118739
 31
0.0
  0
LINE
  8
0
  6
CONTINUOUS
 62
     7
  5
509
 10
-3.779092
 20
-2.118739
 30
0.0
 11
-3.779202
 21
-2.123482
 31
0.0
  0
LINE
  8
0
  6
CONTINUOUS
 62
     7
  5
50A
 10
-3.779202
 20
-2.123482
 30
0.0
 11
-3.779308
 21
-2.12794
 31
0.0
  0
LINE
  8
0
  6
CONTINUOUS
 62
     7
  5
50B
 10
-3.779308
 20
-2.12794
 30
0.0
 11
-3.779411
 21
-2.132093
 31
0.0
  0
LINE
  8
0
  6
CONTINUOUS
 62
     7
  5
50C
 10
-3.779411
 20
-2.132093
 30
0.0
 11
-3.779507
 21
-2.13592
 31
0.0
  0
LINE
  8
0
  6
CONTINUOUS
 62
     7
  5
50D
 10
-3.779507
 20
-2.13592
 30
0.0
 11
-3.779597
 21
-2.139407
 31
0.0
  0
LINE
  8
0
  6
CONTINUOUS
 62
     7
  5
50E
 10
-3.779597
 20
-2.139407
 30
0.0
 11
-3.779679
 21
-2.142541
 31
0.0
  0
LINE
  8
0
  6
CONTINUOUS
 62
     7
  5
50F
 10
-3.779679
 20
-2.142541
 30
0.0
 11
-3.779753
 21
-2.145312
 31
0.0
  0
LINE
  8
0
  6
CONTINUOUS
 62
     7
  5
510
 10
-3.779753
 20
-2.145312
 30
0.0
 11
-3.779818
 21
-2.147713
 31
0.0
  0
LINE
  8
0
  6
CONTINUOUS
 62
     7
  5
511
 10
-3.779818
 20
-2.147713
 30
0.0
 11
-3.779874
 21
-2.149738
 31
0.0
  0
LINE
  8
0
  6
CONTINUOUS
 62
     7
  5
512
 10
-3.779874
 20
-2.149738
 30
0.0
 11
-3.77992
 21
-2.151385
 31
0.0
  0
LINE
  8
0
  6
CONTINUOUS
 62
     7
  5
513
 10
-3.77992
 20
-2.151385
 30
0.0
 11
-3.779955
 21
-2.152653
 31
0.0
  0
LINE
  8
0
  6
CONTINUOUS
 62
     7
  5
514
 10
-3.779955
 20
-2.152653
 30
0.0
 11
-3.77998
 21
-2.153548
 31
0.0
  0
LINE
  8
0
  6
CONTINUOUS
 62
     7
  5
515
 10
-3.77998
 20
-2.153548
 30
0.0
 11
-3.779995
 21
-2.154077
 31
0.0
  0
LINE
  8
0
  6
CONTINUOUS
 62
     7
  5
516
 10
-3.779995
 20
-2.154077
 30
0.0
 11
-3.78
 21
-2.15425
 31
0.0
  0
LINE
  8
0
  6
CONTINUOUS
 62
     7
  5
517
 10
-1.34
 20
-2.305
 30
0.0
 11
-1.34
 21
-1.635
 31
0.0
  0
LINE
  8
0
  6
CONTINUOUS
 62
     7
  5
518
 10
-3.688947
 20
-2.305
 30
0.0
 11
-1.34
 21
-2.305
 31
0.0
  0
LINE
  8
0
  6
CONTINUOUS
 62
     7
  5
519
 10
-3.78
 20
-2.305
 30
0.0
 11
-3.688947
 21
-2.305
 31
0.0
  0
LINE
  8
0
  6
CONTINUOUS
 62
     7
  5
51A
 10
-3.688947
 20
-1.635
 30
0.0
 11
-1.34
 21
-1.635
 31
0.0
  0
LINE
  8
0
  6
CONTINUOUS
 62
     7
  5
51B
 10
-3.688947
 20
-1.635
 30
0.0
 11
-3.688947
 21
-2.305
 31
0.0
  0
LINE
  8
0
  6
CONTINUOUS
 62
     7
  5
51C
 10
-3.78
 20
-1.635
 30
0.0
 11
-3.78
 21
-1.78575
 31
0.0
  0
LINE
  8
0
  6
CONTINUOUS
 62
     7
  5
51D
 10
-3.78
 20
-2.15425
 30
0.0
 11
-3.78
 21
-2.305
 31
0.0
  0
LINE
  8
0
  6
CONTINUOUS
 62
     7
  5
51E
 10
-4.72
 20
0.36
 30
0.0
 11
-4.687368
 21
0.36
 31
0.0
  0
LINE
  8
0
  6
CONTINUOUS
 62
     7
  5
51F
 10
-4.687368
 20
0.36
 30
0.0
 11
-4.687368
 21
-0.36
 31
0.0
  0
LINE
  8
0
  6
CONTINUOUS
 62
     7
  5
520
 10
-4.687368
 20
-0.36
 30
0.0
 11
-4.72
 21
-0.36
 31
0.0
  0
LINE
  8
0
  6
CONTINUOUS
 62
     7
  5
521
 10
-4.3393
 20
-1.2
 30
0.0
 11
-4.3393
 21
-1.32
 31
0.0
  0
LINE
  8
0
  6
CONTINUOUS
 62
     7
  5
522
 10
-3.8458
 20
-1.32
 30
0.0
 11
-4.3393
 21
-1.32
 31
0.0
  0
LINE
  8
0
  6
CONTINUOUS
 62
     7
  5
523
 10
-3.8458
 20
-1.2
 30
0.0
 11
-3.8458
 21
-1.32
 31
0.0
  0
LINE
  8
0
  6
CONTINUOUS
 62
     7
  5
524
 10
-3.8458
 20
1.32
 30
0.0
 11
-3.8458
 21
1.2
 31
0.0
  0
LINE
  8
0
  6
CONTINUOUS
 62
     7
  5
525
 10
-4.3393
 20
1.32
 30
0.0
 11
-3.8458
 21
1.32
 31
0.0
  0
LINE
  8
0
  6
CONTINUOUS
 62
     7
  5
526
 10
-4.3393
 20
1.32
 30
0.0
 11
-4.3393
 21
1.2
 31
0.0
  0
LINE
  8
0
  6
CONTINUOUS
 62
     7
  5
527
 10
-4.409845
 20
-0.9696
 30
0.0
 11
-4.410519
 21
-0.969443
 31
0.0
  0
LINE
  8
0
  6
CONTINUOUS
 62
     7
  5
528
 10
-4.410519
 20
-0.969443
 30
0.0
 11
-4.411192
 21
-0.968963
 31
0.0
  0
LINE
  8
0
  6
CONTINUOUS
 62
     7
  5
529
 10
-4.411192
 20
-0.968963
 30
0.0
 11
-4.411862
 21
-0.968151
 31
0.0
  0
LINE
  8
0
  6
CONTINUOUS
 62
     7
  5
52A
 10
-4.411862
 20
-0.968151
 30
0.0
 11
-4.412525
 21
-0.967
 31
0.0
  0
LINE
  8
0
  6
CONTINUOUS
 62
     7
  5
52B
 10
-4.412525
 20
-0.967
 30
0.0
 11
-4.41318
 21
-0.965505
 31
0.0
  0
LINE
  8
0
  6
CONTINUOUS
 62
     7
  5
52C
 10
-4.41318
 20
-0.965505
 30
0.0
 11
-4.413822
 21
-0.963666
 31
0.0
  0
LINE
  8
0
  6
CONTINUOUS
 62
     7
  5
52D
 10
-4.413822
 20
-0.963666
 30
0.0
 11
-4.414451
 21
-0.961485
 31
0.0
  0
LINE
  8
0
  6
CONTINUOUS
 62
     7
  5
52E
 10
-4.414451
 20
-0.961485
 30
0.0
 11
-4.415065
 21
-0.958966
 31
0.0
  0
LINE
  8
0
  6
CONTINUOUS
 62
     7
  5
52F
 10
-4.415065
 20
-0.958966
 30
0.0
 11
-4.41566
 21
-0.956118
 31
0.0
  0
LINE
  8
0
  6
CONTINUOUS
 62
     7
  5
530
 10
-4.41566
 20
-0.956118
 30
0.0
 11
-4.416236
 21
-0.952948
 31
0.0
  0
LINE
  8
0
  6
CONTINUOUS
 62
     7
  5
531
 10
-4.416236
 20
-0.952948
 30
0.0
 11
-4.416792
 21
-0.949466
 31
0.0
  0
LINE
  8
0
  6
CONTINUOUS
 62
     7
  5
532
 10
-4.416792
 20
-0.949466
 30
0.0
 11
-4.417326
 21
-0.945689
 31
0.0
  0
LINE
  8
0
  6
CONTINUOUS
 62
     7
  5
533
 10
-4.417326
 20
-0.945689
 30
0.0
 11
-4.417836
 21
-0.941631
 31
0.0
  0
LINE
  8
0
  6
CONTINUOUS
 62
     7
  5
534
 10
-4.417836
 20
-0.941631
 30
0.0
 11
-4.418323
 21
-0.937313
 31
0.0
  0
LINE
  8
0
  6
CONTINUOUS
 62
     7
  5
535
 10
-4.418323
 20
-0.937313
 30
0.0
 11
-4.418785
 21
-0.932758
 31
0.0
  0
LINE
  8
0
  6
CONTINUOUS
 62
     7
  5
536
 10
-4.418785
 20
-0.932758
 30
0.0
 11
-4.41922
 21
-0.92799
 31
0.0
  0
LINE
  8
0
  6
CONTINUOUS
 62
     7
  5
537
 10
-4.41922
 20
-0.92799
 30
0.0
 11
-4.41963
 21
-0.923036
 31
0.0
  0
LINE
  8
0
  6
CONTINUOUS
 62
     7
  5
538
 10
-4.41963
 20
-0.923036
 30
0.0
 11
-4.420015
 21
-0.917906
 31
0.0
  0
LINE
  8
0
  6
CONTINUOUS
 62
     7
  5
539
 10
-4.420015
 20
-0.917906
 30
0.0
 11
-4.420383
 21
-0.912503
 31
0.0
  0
LINE
  8
0
  6
CONTINUOUS
 62
     7
  5
53A
 10
-4.420383
 20
-0.912503
 30
0.0
 11
-4.420733
 21
-0.906818
 31
0.0
  0
LINE
  8
0
  6
CONTINUOUS
 62
     7
  5
53B
 10
-4.420733
 20
-0.906818
 30
0.0
 11
-4.421065
 21
-0.900864
 31
0.0
  0
LINE
  8
0
  6
CONTINUOUS
 62
     7
  5
53C
 10
-4.421065
 20
-0.900864
 30
0.0
 11
-4.421377
 21
-0.89466
 31
0.0
  0
LINE
  8
0
  6
CONTINUOUS
 62
     7
  5
53D
 10
-4.421377
 20
-0.89466
 30
0.0
 11
-4.421667
 21
-0.888226
 31
0.0
  0
LINE
  8
0
  6
CONTINUOUS
 62
     7
  5
53E
 10
-4.421667
 20
-0.888226
 30
0.0
 11
-4.421935
 21
-0.881582
 31
0.0
  0
LINE
  8
0
  6
CONTINUOUS
 62
     7
  5
53F
 10
-4.421935
 20
-0.881582
 30
0.0
 11
-4.422181
 21
-0.874751
 31
0.0
  0
LINE
  8
0
  6
CONTINUOUS
 62
     7
  5
540
 10
-4.422181
 20
-0.874751
 30
0.0
 11
-4.422402
 21
-0.867757
 31
0.0
  0
LINE
  8
0
  6
CONTINUOUS
 62
     7
  5
541
 10
-4.422402
 20
-0.867757
 30
0.0
 11
-4.4226
 21
-0.860622
 31
0.0
  0
LINE
  8
0
  6
CONTINUOUS
 62
     7
  5
542
 10
-4.4226
 20
-0.860622
 30
0.0
 11
-4.422775
 21
-0.853368
 31
0.0
  0
LINE
  8
0
  6
CONTINUOUS
 62
     7
  5
543
 10
-4.422775
 20
-0.853368
 30
0.0
 11
-4.422925
 21
-0.846022
 31
0.0
  0
LINE
  8
0
  6
CONTINUOUS
 62
     7
  5
544
 10
-4.422925
 20
-0.846022
 30
0.0
 11
-4.423051
 21
-0.83861
 31
0.0
  0
LINE
  8
0
  6
CONTINUOUS
 62
     7
  5
545
 10
-4.423051
 20
-0.83861
 30
0.0
 11
-4.423153
 21
-0.831161
 31
0.0
  0
LINE
  8
0
  6
CONTINUOUS
 62
     7
  5
546
 10
-4.423153
 20
-0.831161
 30
0.0
 11
-4.423231
 21
-0.823705
 31
0.0
  0
LINE
  8
0
  6
CONTINUOUS
 62
     7
  5
547
 10
-4.423231
 20
-0.823705
 30
0.0
 11
-4.423286
 21
-0.816274
 31
0.0
  0
LINE
  8
0
  6
CONTINUOUS
 62
     7
  5
548
 10
-4.423286
 20
-0.816274
 30
0.0
 11
-4.423319
 21
-0.808895
 31
0.0
  0
LINE
  8
0
  6
CONTINUOUS
 62
     7
  5
549
 10
-4.423319
 20
-0.808895
 30
0.0
 11
-4.42333
 21
-0.8016
 31
0.0
  0
LINE
  8
0
  6
CONTINUOUS
 62
     7
  5
54A
 10
-4.409845
 20
-0.6336
 30
0.0
 11
-4.408464
 21
-0.634238
 31
0.0
  0
LINE
  8
0
  6
CONTINUOUS
 62
     7
  5
54B
 10
-4.408464
 20
-0.634238
 30
0.0
 11
-4.407029
 21
-0.636203
 31
0.0
  0
LINE
  8
0
  6
CONTINUOUS
 62
     7
  5
54C
 10
-4.407029
 20
-0.636203
 30
0.0
 11
-4.405561
 21
-0.639539
 31
0.0
  0
LINE
  8
0
  6
CONTINUOUS
 62
     7
  5
54D
 10
-4.405561
 20
-0.639539
 30
0.0
 11
-4.404086
 21
-0.644238
 31
0.0
  0
LINE
  8
0
  6
CONTINUOUS
 62
     7
  5
54E
 10
-4.404086
 20
-0.644238
 30
0.0
 11
-4.402626
 21
-0.650255
 31
0.0
  0
LINE
  8
0
  6
CONTINUOUS
 62
     7
  5
54F
 10
-4.402626
 20
-0.650255
 30
0.0
 11
-4.401204
 21
-0.65751
 31
0.0
  0
LINE
  8
0
  6
CONTINUOUS
 62
     7
  5
550
 10
-4.401204
 20
-0.65751
 30
0.0
 11
-4.399842
 21
-0.66588
 31
0.0
  0
LINE
  8
0
  6
CONTINUOUS
 62
     7
  5
551
 10
-4.399842
 20
-0.66588
 30
0.0
 11
-4.398565
 21
-0.675196
 31
0.0
  0
LINE
  8
0
  6
CONTINUOUS
 62
     7
  5
552
 10
-4.398565
 20
-0.675196
 30
0.0
 11
-4.39739
 21
-0.685272
 31
0.0
  0
LINE
  8
0
  6
CONTINUOUS
 62
     7
  5
553
 10
-4.39739
 20
-0.685272
 30
0.0
 11
-4.39629
 21
-0.696351
 31
0.0
  0
LINE
  8
0
  6
CONTINUOUS
 62
     7
  5
554
 10
-4.39629
 20
-0.696351
 30
0.0
 11
-4.395272
 21
-0.708502
 31
0.0
  0
LINE
  8
0
  6
CONTINUOUS
 62
     7
  5
555
 10
-4.395272
 20
-0.708502
 30
0.0
 11
-4.394361
 21
-0.721577
 31
0.0
  0
LINE
  8
0
  6
CONTINUOUS
 62
     7
  5
556
 10
-4.394361
 20
-0.721577
 30
0.0
 11
-4.393578
 21
-0.735401
 31
0.0
  0
LINE
  8
0
  6
CONTINUOUS
 62
     7
  5
557
 10
-4.393578
 20
-0.735401
 30
0.0
 11
-4.392941
 21
-0.749794
 31
0.0
  0
LINE
  8
0
  6
CONTINUOUS
 62
     7
  5
558
 10
-4.392941
 20
-0.749794
 30
0.0
 11
-4.392461
 21
-0.764559
 31
0.0
  0
LINE
  8
0
  6
CONTINUOUS
 62
     7
  5
559
 10
-4.392461
 20
-0.764559
 30
0.0
 11
-4.392143
 21
-0.779474
 31
0.0
  0
LINE
  8
0
  6
CONTINUOUS
 62
     7
  5
55A
 10
-4.392143
 20
-0.779474
 30
0.0
 11
-4.391987
 21
-0.794297
 31
0.0
  0
LINE
  8
0
  6
CONTINUOUS
 62
     7
  5
55B
 10
-4.391987
 20
-0.794297
 30
0.0
 11
-4.391987
 21
-0.808903
 31
0.0
  0
LINE
  8
0
  6
CONTINUOUS
 62
     7
  5
55C
 10
-4.391987
 20
-0.808903
 30
0.0
 11
-4.392143
 21
-0.823726
 31
0.0
  0
LINE
  8
0
  6
CONTINUOUS
 62
     7
  5
55D
 10
-4.392143
 20
-0.823726
 30
0.0
 11
-4.392461
 21
-0.838641
 31
0.0
  0
LINE
  8
0
  6
CONTINUOUS
 62
     7
  5
55E
 10
-4.392461
 20
-0.838641
 30
0.0
 11
-4.392941
 21
-0.853406
 31
0.0
  0
LINE
  8
0
  6
CONTINUOUS
 62
     7
  5
55F
 10
-4.392941
 20
-0.853406
 30
0.0
 11
-4.393578
 21
-0.867799
 31
0.0
  0
LINE
  8
0
  6
CONTINUOUS
 62
     7
  5
560
 10
-4.393578
 20
-0.867799
 30
0.0
 11
-4.394361
 21
-0.881623
 31
0.0
  0
LINE
  8
0
  6
CONTINUOUS
 62
     7
  5
561
 10
-4.394361
 20
-0.881623
 30
0.0
 11
-4.395272
 21
-0.894698
 31
0.0
  0
LINE
  8
0
  6
CONTINUOUS
 62
     7
  5
562
 10
-4.395272
 20
-0.894698
 30
0.0
 11
-4.39629
 21
-0.906849
 31
0.0
  0
LINE
  8
0
  6
CONTINUOUS
 62
     7
  5
563
 10
-4.39629
 20
-0.906849
 30
0.0
 11
-4.39739
 21
-0.917928
 31
0.0
  0
LINE
  8
0
  6
CONTINUOUS
 62
     7
  5
564
 10
-4.39739
 20
-0.917928
 30
0.0
 11
-4.398565
 21
-0.928004
 31
0.0
  0
LINE
  8
0
  6
CONTINUOUS
 62
     7
  5
565
 10
-4.398565
 20
-0.928004
 30
0.0
 11
-4.399842
 21
-0.93732
 31
0.0
  0
LINE
  8
0
  6
CONTINUOUS
 62
     7
  5
566
 10
-4.399842
 20
-0.93732
 30
0.0
 11
-4.401204
 21
-0.94569
 31
0.0
  0
LINE
  8
0
  6
CONTINUOUS
 62
     7
  5
567
 10
-4.401204
 20
-0.94569
 30
0.0
 11
-4.402626
 21
-0.952945
 31
0.0
  0
LINE
  8
0
  6
CONTINUOUS
 62
     7
  5
568
 10
-4.402626
 20
-0.952945
 30
0.0
 11
-4.404086
 21
-0.958962
 31
0.0
  0
LINE
  8
0
  6
CONTINUOUS
 62
     7
  5
569
 10
-4.404086
 20
-0.958962
 30
0.0
 11
-4.405561
 21
-0.963661
 31
0.0
  0
LINE
  8
0
  6
CONTINUOUS
 62
     7
  5
56A
 10
-4.405561
 20
-0.963661
 30
0.0
 11
-4.407029
 21
-0.966997
 31
0.0
  0
LINE
  8
0
  6
CONTINUOUS
 62
     7
  5
56B
 10
-4.407029
 20
-0.966997
 30
0.0
 11
-4.408464
 21
-0.968962
 31
0.0
  0
LINE
  8
0
  6
CONTINUOUS
 62
     7
  5
56C
 10
-4.408464
 20
-0.968962
 30
0.0
 11
-4.409845
 21
-0.9696
 31
0.0
  0
LINE
  8
0
  6
CONTINUOUS
 62
     7
  5
56D
 10
-4.42333
 20
-0.8016
 30
0.0
 11
-4.423319
 21
-0.794305
 31
0.0
  0
LINE
  8
0
  6
CONTINUOUS
 62
     7
  5
56E
 10
-4.423319
 20
-0.794305
 30
0.0
 11
-4.423286
 21
-0.786926
 31
0.0
  0
LINE
  8
0
  6
CONTINUOUS
 62
     7
  5
56F
 10
-4.423286
 20
-0.786926
 30
0.0
 11
-4.423231
 21
-0.779495
 31
0.0
  0
LINE
  8
0
  6
CONTINUOUS
 62
     7
  5
570
 10
-4.423231
 20
-0.779495
 30
0.0
 11
-4.423153
 21
-0.772039
 31
0.0
  0
LINE
  8
0
  6
CONTINUOUS
 62
     7
  5
571
 10
-4.423153
 20
-0.772039
 30
0.0
 11
-4.423051
 21
-0.76459
 31
0.0
  0
LINE
  8
0
  6
CONTINUOUS
 62
     7
  5
572
 10
-4.423051
 20
-0.76459
 30
0.0
 11
-4.422925
 21
-0.757178
 31
0.0
  0
LINE
  8
0
  6
CONTINUOUS
 62
     7
  5
573
 10
-4.422925
 20
-0.757178
 30
0.0
 11
-4.422775
 21
-0.749832
 31
0.0
  0
LINE
  8
0
  6
CONTINUOUS
 62
     7
  5
574
 10
-4.422775
 20
-0.749832
 30
0.0
 11
-4.4226
 21
-0.742578
 31
0.0
  0
LINE
  8
0
  6
CONTINUOUS
 62
     7
  5
575
 10
-4.4226
 20
-0.742578
 30
0.0
 11
-4.422402
 21
-0.735443
 31
0.0
  0
LINE
  8
0
  6
CONTINUOUS
 62
     7
  5
576
 10
-4.422402
 20
-0.735443
 30
0.0
 11
-4.422181
 21
-0.728449
 31
0.0
  0
LINE
  8
0
  6
CONTINUOUS
 62
     7
  5
577
 10
-4.422181
 20
-0.728449
 30
0.0
 11
-4.421935
 21
-0.721618
 31
0.0
  0
LINE
  8
0
  6
CONTINUOUS
 62
     7
  5
578
 10
-4.421935
 20
-0.721618
 30
0.0
 11
-4.421667
 21
-0.714974
 31
0.0
  0
LINE
  8
0
  6
CONTINUOUS
 62
     7
  5
579
 10
-4.421667
 20
-0.714974
 30
0.0
 11
-4.421377
 21
-0.70854
 31
0.0
  0
LINE
  8
0
  6
CONTINUOUS
 62
     7
  5
57A
 10
-4.421377
 20
-0.70854
 30
0.0
 11
-4.421065
 21
-0.702336
 31
0.0
  0
LINE
  8
0
  6
CONTINUOUS
 62
     7
  5
57B
 10
-4.421065
 20
-0.702336
 30
0.0
 11
-4.420733
 21
-0.696382
 31
0.0
  0
LINE
  8
0
  6
CONTINUOUS
 62
     7
  5
57C
 10
-4.420733
 20
-0.696382
 30
0.0
 11
-4.420383
 21
-0.690697
 31
0.0
  0
LINE
  8
0
  6
CONTINUOUS
 62
     7
  5
57D
 10
-4.420383
 20
-0.690697
 30
0.0
 11
-4.420015
 21
-0.685294
 31
0.0
  0
LINE
  8
0
  6
CONTINUOUS
 62
     7
  5
57E
 10
-4.420015
 20
-0.685294
 30
0.0
 11
-4.41963
 21
-0.680164
 31
0.0
  0
LINE
  8
0
  6
CONTINUOUS
 62
     7
  5
57F
 10
-4.41963
 20
-0.680164
 30
0.0
 11
-4.41922
 21
-0.67521
 31
0.0
  0
LINE
  8
0
  6
CONTINUOUS
 62
     7
  5
580
 10
-4.41922
 20
-0.67521
 30
0.0
 11
-4.418785
 21
-0.670442
 31
0.0
  0
LINE
  8
0
  6
CONTINUOUS
 62
     7
  5
581
 10
-4.418785
 20
-0.670442
 30
0.0
 11
-4.418323
 21
-0.665887
 31
0.0
  0
LINE
  8
0
  6
CONTINUOUS
 62
     7
  5
582
 10
-4.418323
 20
-0.665887
 30
0.0
 11
-4.417836
 21
-0.661569
 31
0.0
  0
LINE
  8
0
  6
CONTINUOUS
 62
     7
  5
583
 10
-4.417836
 20
-0.661569
 30
0.0
 11
-4.417326
 21
-0.657511
 31
0.0
  0
LINE
  8
0
  6
CONTINUOUS
 62
     7
  5
584
 10
-4.417326
 20
-0.657511
 30
0.0
 11
-4.416792
 21
-0.653734
 31
0.0
  0
LINE
  8
0
  6
CONTINUOUS
 62
     7
  5
585
 10
-4.416792
 20
-0.653734
 30
0.0
 11
-4.416236
 21
-0.650252
 31
0.0
  0
LINE
  8
0
  6
CONTINUOUS
 62
     7
  5
586
 10
-4.416236
 20
-0.650252
 30
0.0
 11
-4.41566
 21
-0.647082
 31
0.0
  0
LINE
  8
0
  6
CONTINUOUS
 62
     7
  5
587
 10
-4.41566
 20
-0.647082
 30
0.0
 11
-4.415065
 21
-0.644234
 31
0.0
  0
LINE
  8
0
  6
CONTINUOUS
 62
     7
  5
588
 10
-4.415065
 20
-0.644234
 30
0.0
 11
-4.414451
 21
-0.641715
 31
0.0
  0
LINE
  8
0
  6
CONTINUOUS
 62
     7
  5
589
 10
-4.414451
 20
-0.641715
 30
0.0
 11
-4.413822
 21
-0.639534
 31
0.0
  0
LINE
  8
0
  6
CONTINUOUS
 62
     7
  5
58A
 10
-4.413822
 20
-0.639534
 30
0.0
 11
-4.41318
 21
-0.637695
 31
0.0
  0
LINE
  8
0
  6
CONTINUOUS
 62
     7
  5
58B
 10
-4.41318
 20
-0.637695
 30
0.0
 11
-4.412525
 21
-0.6362
 31
0.0
  0
LINE
  8
0
  6
CONTINUOUS
 62
     7
  5
58C
 10
-4.412525
 20
-0.6362
 30
0.0
 11
-4.411862
 21
-0.635049
 31
0.0
  0
LINE
  8
0
  6
CONTINUOUS
 62
     7
  5
58D
 10
-4.411862
 20
-0.635049
 30
0.0
 11
-4.411192
 21
-0.634237
 31
0.0
  0
LINE
  8
0
  6
CONTINUOUS
 62
     7
  5
58E
 10
-4.411192
 20
-0.634237
 30
0.0
 11
-4.410519
 21
-0.633757
 31
0.0
  0
LINE
  8
0
  6
CONTINUOUS
 62
     7
  5
58F
 10
-4.410519
 20
-0.633757
 30
0.0
 11
-4.409845
 21
-0.6336
 31
0.0
  0
LINE
  8
0
  6
CONTINUOUS
 62
     7
  5
590
 10
-4.435744
 20
-0.9696
 30
0.0
 11
-4.435932
 21
-0.969442
 31
0.0
  0
LINE
  8
0
  6
CONTINUOUS
 62
     7
  5
591
 10
-4.435932
 20
-0.969442
 30
0.0
 11
-4.436113
 21
-0.96896
 31
0.0
  0
LINE
  8
0
  6
CONTINUOUS
 62
     7
  5
592
 10
-4.436113
 20
-0.96896
 30
0.0
 11
-4.436288
 21
-0.968145
 31
0.0
  0
LINE
  8
0
  6
CONTINUOUS
 62
     7
  5
593
 10
-4.436288
 20
-0.968145
 30
0.0
 11
-4.436454
 21
-0.966989
 31
0.0
  0
LINE
  8
0
  6
CONTINUOUS
 62
     7
  5
594
 10
-4.436454
 20
-0.966989
 30
0.0
 11
-4.436612
 21
-0.965488
 31
0.0
  0
LINE
  8
0
  6
CONTINUOUS
 62
     7
  5
595
 10
-4.436612
 20
-0.965488
 30
0.0
 11
-4.436761
 21
-0.963642
 31
0.0
  0
LINE
  8
0
  6
CONTINUOUS
 62
     7
  5
596
 10
-4.436761
 20
-0.963642
 30
0.0
 11
-4.4369
 21
-0.961454
 31
0.0
  0
LINE
  8
0
  6
CONTINUOUS
 62
     7
  5
597
 10
-4.4369
 20
-0.961454
 30
0.0
 11
-4.437029
 21
-0.958928
 31
0.0
  0
LINE
  8
0
  6
CONTINUOUS
 62
     7
  5
598
 10
-4.437029
 20
-0.958928
 30
0.0
 11
-4.437148
 21
-0.956071
 31
0.0
  0
LINE
  8
0
  6
CONTINUOUS
 62
     7
  5
599
 10
-4.437148
 20
-0.956071
 30
0.0
 11
-4.437257
 21
-0.952892
 31
0.0
  0
LINE
  8
0
  6
CONTINUOUS
 62
     7
  5
59A
 10
-4.437257
 20
-0.952892
 30
0.0
 11
-4.437357
 21
-0.949403
 31
0.0
  0
LINE
  8
0
  6
CONTINUOUS
 62
     7
  5
59B
 10
-4.437357
 20
-0.949403
 30
0.0
 11
-4.437447
 21
-0.945617
 31
0.0
  0
LINE
  8
0
  6
CONTINUOUS
 62
     7
  5
59C
 10
-4.437447
 20
-0.945617
 30
0.0
 11
-4.437528
 21
-0.941552
 31
0.0
  0
LINE
  8
0
  6
CONTINUOUS
 62
     7
  5
59D
 10
-4.437528
 20
-0.941552
 30
0.0
 11
-4.437599
 21
-0.937228
 31
0.0
  0
LINE
  8
0
  6
CONTINUOUS
 62
     7
  5
59E
 10
-4.437599
 20
-0.937228
 30
0.0
 11
-4.437663
 21
-0.932667
 31
0.0
  0
LINE
  8
0
  6
CONTINUOUS
 62
     7
  5
59F
 10
-4.437663
 20
-0.932667
 30
0.0
 11
-4.437718
 21
-0.927895
 31
0.0
  0
LINE
  8
0
  6
CONTINUOUS
 62
     7
  5
5A0
 10
-4.437718
 20
-0.927895
 30
0.0
 11
-4.437766
 21
-0.922939
 31
0.0
  0
LINE
  8
0
  6
CONTINUOUS
 62
     7
  5
5A1
 10
-4.437766
 20
-0.922939
 30
0.0
 11
-4.437808
 21
-0.917806
 31
0.0
  0
LINE
  8
0
  6
CONTINUOUS
 62
     7
  5
5A2
 10
-4.437808
 20
-0.917806
 30
0.0
 11
-4.437844
 21
-0.912399
 31
0.0
  0
LINE
  8
0
  6
CONTINUOUS
 62
     7
  5
5A3
 10
-4.437844
 20
-0.912399
 30
0.0
 11
-4.437875
 21
-0.906711
 31
0.0
  0
LINE
  8
0
  6
CONTINUOUS
 62
     7
  5
5A4
 10
-4.437875
 20
-0.906711
 30
0.0
 11
-4.437902
 21
-0.900756
 31
0.0
  0
LINE
  8
0
  6
CONTINUOUS
 62
     7
  5
5A5
 10
-4.437902
 20
-0.900756
 30
0.0
 11
-4.437924
 21
-0.894553
 31
0.0
  0
LINE
  8
0
  6
CONTINUOUS
 62
     7
  5
5A6
 10
-4.437924
 20
-0.894553
 30
0.0
 11
-4.437943
 21
-0.88812
 31
0.0
  0
LINE
  8
0
  6
CONTINUOUS
 62
     7
  5
5A7
 10
-4.437943
 20
-0.88812
 30
0.0
 11
-4.437957
 21
-0.881479
 31
0.0
  0
LINE
  8
0
  6
CONTINUOUS
 62
     7
  5
5A8
 10
-4.437957
 20
-0.881479
 30
0.0
 11
-4.437969
 21
-0.874653
 31
0.0
  0
LINE
  8
0
  6
CONTINUOUS
 62
     7
  5
5A9
 10
-4.437969
 20
-0.874653
 30
0.0
 11
-4.437978
 21
-0.867665
 31
0.0
  0
LINE
  8
0
  6
CONTINUOUS
 62
     7
  5
5AA
 10
-4.437978
 20
-0.867665
 30
0.0
 11
-4.437985
 21
-0.860537
 31
0.0
  0
LINE
  8
0
  6
CONTINUOUS
 62
     7
  5
5AB
 10
-4.437985
 20
-0.860537
 30
0.0
 11
-4.43799
 21
-0.853292
 31
0.0
  0
LINE
  8
0
  6
CONTINUOUS
 62
     7
  5
5AC
 10
-4.43799
 20
-0.853292
 30
0.0
 11
-4.437993
 21
-0.845955
 31
0.0
  0
LINE
  8
0
  6
CONTINUOUS
 62
     7
  5
5AD
 10
-4.437993
 20
-0.845955
 30
0.0
 11
-4.437996
 21
-0.838552
 31
0.0
  0
LINE
  8
0
  6
CONTINUOUS
 62
     7
  5
5AE
 10
-4.437996
 20
-0.838552
 30
0.0
 11
-4.437997
 21
-0.831114
 31
0.0
  0
LINE
  8
0
  6
CONTINUOUS
 62
     7
  5
5AF
 10
-4.437997
 20
-0.831114
 30
0.0
 11
-4.437998
 21
-0.82367
 31
0.0
  0
LINE
  8
0
  6
CONTINUOUS
 62
     7
  5
5B0
 10
-4.437998
 20
-0.82367
 30
0.0
 11
-4.437999
 21
-0.81625
 31
0.0
  0
LINE
  8
0
  6
CONTINUOUS
 62
     7
  5
5B1
 10
-4.437999
 20
-0.81625
 30
0.0
 11
-4.437999
 21
-0.808884
 31
0.0
  0
LINE
  8
0
  6
CONTINUOUS
 62
     7
  5
5B2
 10
-4.437999
 20
-0.808884
 30
0.0
 11
-4.437999
 21
-0.8016
 31
0.0
  0
LINE
  8
0
  6
CONTINUOUS
 62
     7
  5
5B3
 10
-4.435744
 20
-0.6336
 30
0.0
 11
-4.435342
 21
-0.63424
 31
0.0
  0
LINE
  8
0
  6
CONTINUOUS
 62
     7
  5
5B4
 10
-4.435342
 20
-0.63424
 30
0.0
 11
-4.4349
 21
-0.636212
 31
0.0
  0
LINE
  8
0
  6
CONTINUOUS
 62
     7
  5
5B5
 10
-4.4349
 20
-0.636212
 30
0.0
 11
-4.434425
 21
-0.639559
 31
0.0
  0
LINE
  8
0
  6
CONTINUOUS
 62
     7
  5
5B6
 10
-4.434425
 20
-0.639559
 30
0.0
 11
-4.433926
 21
-0.644274
 31
0.0
  0
LINE
  8
0
  6
CONTINUOUS
 62
     7
  5
5B7
 10
-4.433926
 20
-0.644274
 30
0.0
 11
-4.433411
 21
-0.650309
 31
0.0
  0
LINE
  8
0
  6
CONTINUOUS
 62
     7
  5
5B8
 10
-4.433411
 20
-0.650309
 30
0.0
 11
-4.432891
 21
-0.657583
 31
0.0
  0
LINE
  8
0
  6
CONTINUOUS
 62
     7
  5
5B9
 10
-4.432891
 20
-0.657583
 30
0.0
 11
-4.432378
 21
-0.66597
 31
0.0
  0
LINE
  8
0
  6
CONTINUOUS
 62
     7
  5
5BA
 10
-4.432378
 20
-0.66597
 30
0.0
 11
-4.431883
 21
-0.675301
 31
0.0
  0
LINE
  8
0
  6
CONTINUOUS
 62
     7
  5
5BB
 10
-4.431883
 20
-0.675301
 30
0.0
 11
-4.431417
 21
-0.685388
 31
0.0
  0
LINE
  8
0
  6
CONTINUOUS
 62
     7
  5
5BC
 10
-4.431417
 20
-0.685388
 30
0.0
 11
-4.430972
 21
-0.69648
 31
0.0
  0
LINE
  8
0
  6
CONTINUOUS
 62
     7
  5
5BD
 10
-4.430972
 20
-0.69648
 30
0.0
 11
-4.430553
 21
-0.708637
 31
0.0
  0
LINE
  8
0
  6
CONTINUOUS
 62
     7
  5
5BE
 10
-4.430553
 20
-0.708637
 30
0.0
 11
-4.430172
 21
-0.721709
 31
0.0
  0
LINE
  8
0
  6
CONTINUOUS
 62
     7
  5
5BF
 10
-4.430172
 20
-0.721709
 30
0.0
 11
-4.429841
 21
-0.735523
 31
0.0
  0
LINE
  8
0
  6
CONTINUOUS
 62
     7
  5
5C0
 10
-4.429841
 20
-0.735523
 30
0.0
 11
-4.429569
 21
-0.749898
 31
0.0
  0
LINE
  8
0
  6
CONTINUOUS
 62
     7
  5
5C1
 10
-4.429569
 20
-0.749898
 30
0.0
 11
-4.429362
 21
-0.764639
 31
0.0
  0
LINE
  8
0
  6
CONTINUOUS
 62
     7
  5
5C2
 10
-4.429362
 20
-0.764639
 30
0.0
 11
-4.429225
 21
-0.779524
 31
0.0
  0
LINE
  8
0
  6
CONTINUOUS
 62
     7
  5
5C3
 10
-4.429225
 20
-0.779524
 30
0.0
 11
-4.429157
 21
-0.794314
 31
0.0
  0
LINE
  8
0
  6
CONTINUOUS
 62
     7
  5
5C4
 10
-4.429157
 20
-0.794314
 30
0.0
 11
-4.429157
 21
-0.808886
 31
0.0
  0
LINE
  8
0
  6
CONTINUOUS
 62
     7
  5
5C5
 10
-4.429157
 20
-0.808886
 30
0.0
 11
-4.429225
 21
-0.823676
 31
0.0
  0
LINE
  8
0
  6
CONTINUOUS
 62
     7
  5
5C6
 10
-4.429225
 20
-0.823676
 30
0.0
 11
-4.429362
 21
-0.838561
 31
0.0
  0
LINE
  8
0
  6
CONTINUOUS
 62
     7
  5
5C7
 10
-4.429362
 20
-0.838561
 30
0.0
 11
-4.429569
 21
-0.853302
 31
0.0
  0
LINE
  8
0
  6
CONTINUOUS
 62
     7
  5
5C8
 10
-4.429569
 20
-0.853302
 30
0.0
 11
-4.429841
 21
-0.867677
 31
0.0
  0
LINE
  8
0
  6
CONTINUOUS
 62
     7
  5
5C9
 10
-4.429841
 20
-0.867677
 30
0.0
 11
-4.430172
 21
-0.881491
 31
0.0
  0
LINE
  8
0
  6
CONTINUOUS
 62
     7
  5
5CA
 10
-4.430172
 20
-0.881491
 30
0.0
 11
-4.430553
 21
-0.894563
 31
0.0
  0
LINE
  8
0
  6
CONTINUOUS
 62
     7
  5
5CB
 10
-4.430553
 20
-0.894563
 30
0.0
 11
-4.430972
 21
-0.90672
 31
0.0
  0
LINE
  8
0
  6
CONTINUOUS
 62
     7
  5
5CC
 10
-4.430972
 20
-0.90672
 30
0.0
 11
-4.431417
 21
-0.917812
 31
0.0
  0
LINE
  8
0
  6
CONTINUOUS
 62
     7
  5
5CD
 10
-4.431417
 20
-0.917812
 30
0.0
 11
-4.431883
 21
-0.927899
 31
0.0
  0
LINE
  8
0
  6
CONTINUOUS
 62
     7
  5
5CE
 10
-4.431883
 20
-0.927899
 30
0.0
 11
-4.432378
 21
-0.93723
 31
0.0
  0
LINE
  8
0
  6
CONTINUOUS
 62
     7
  5
5CF
 10
-4.432378
 20
-0.93723
 30
0.0
 11
-4.432891
 21
-0.945617
 31
0.0
  0
LINE
  8
0
  6
CONTINUOUS
 62
     7
  5
5D0
 10
-4.432891
 20
-0.945617
 30
0.0
 11
-4.433411
 21
-0.952891
 31
0.0
  0
LINE
  8
0
  6
CONTINUOUS
 62
     7
  5
5D1
 10
-4.433411
 20
-0.952891
 30
0.0
 11
-4.433926
 21
-0.958926
 31
0.0
  0
LINE
  8
0
  6
CONTINUOUS
 62
     7
  5
5D2
 10
-4.433926
 20
-0.958926
 30
0.0
 11
-4.434425
 21
-0.963641
 31
0.0
  0
LINE
  8
0
  6
CONTINUOUS
 62
     7
  5
5D3
 10
-4.434425
 20
-0.963641
 30
0.0
 11
-4.4349
 21
-0.966988
 31
0.0
  0
LINE
  8
0
  6
CONTINUOUS
 62
     7
  5
5D4
 10
-4.4349
 20
-0.966988
 30
0.0
 11
-4.435342
 21
-0.96896
 31
0.0
  0
LINE
  8
0
  6
CONTINUOUS
 62
     7
  5
5D5
 10
-4.435342
 20
-0.96896
 30
0.0
 11
-4.435744
 21
-0.9696
 31
0.0
  0
LINE
  8
0
  6
CONTINUOUS
 62
     7
  5
5D6
 10
-4.437999
 20
-0.8016
 30
0.0
 11
-4.437999
 21
-0.794316
 31
0.0
  0
LINE
  8
0
  6
CONTINUOUS
 62
     7
  5
5D7
 10
-4.437999
 20
-0.794316
 30
0.0
 11
-4.437999
 21
-0.78695
 31
0.0
  0
LINE
  8
0
  6
CONTINUOUS
 62
     7
  5
5D8
 10
-4.437999
 20
-0.78695
 30
0.0
 11
-4.437998
 21
-0.77953
 31
0.0
  0
LINE
  8
0
  6
CONTINUOUS
 62
     7
  5
5D9
 10
-4.437998
 20
-0.77953
 30
0.0
 11
-4.437997
 21
-0.772086
 31
0.0
  0
LINE
  8
0
  6
CONTINUOUS
 62
     7
  5
5DA
 10
-4.437997
 20
-0.772086
 30
0.0
 11
-4.437996
 21
-0.764648
 31
0.0
  0
LINE
  8
0
  6
CONTINUOUS
 62
     7
  5
5DB
 10
-4.437996
 20
-0.764648
 30
0.0
 11
-4.437993
 21
-0.757245
 31
0.0
  0
LINE
  8
0
  6
CONTINUOUS
 62
     7
  5
5DC
 10
-4.437993
 20
-0.757245
 30
0.0
 11
-4.43799
 21
-0.749908
 31
0.0
  0
LINE
  8
0
  6
CONTINUOUS
 62
     7
  5
5DD
 10
-4.43799
 20
-0.749908
 30
0.0
 11
-4.437985
 21
-0.742663
 31
0.0
  0
LINE
  8
0
  6
CONTINUOUS
 62
     7
  5
5DE
 10
-4.437985
 20
-0.742663
 30
0.0
 11
-4.437978
 21
-0.735535
 31
0.0
  0
LINE
  8
0
  6
CONTINUOUS
 62
     7
  5
5DF
 10
-4.437978
 20
-0.735535
 30
0.0
 11
-4.437969
 21
-0.728547
 31
0.0
  0
LINE
  8
0
  6
CONTINUOUS
 62
     7
  5
5E0
 10
-4.437969
 20
-0.728547
 30
0.0
 11
-4.437957
 21
-0.721721
 31
0.0
  0
LINE
  8
0
  6
CONTINUOUS
 62
     7
  5
5E1
 10
-4.437957
 20
-0.721721
 30
0.0
 11
-4.437943
 21
-0.71508
 31
0.0
  0
LINE
  8
0
  6
CONTINUOUS
 62
     7
  5
5E2
 10
-4.437943
 20
-0.71508
 30
0.0
 11
-4.437924
 21
-0.708647
 31
0.0
  0
LINE
  8
0
  6
CONTINUOUS
 62
     7
  5
5E3
 10
-4.437924
 20
-0.708647
 30
0.0
 11
-4.437902
 21
-0.702444
 31
0.0
  0
LINE
  8
0
  6
CONTINUOUS
 62
     7
  5
5E4
 10
-4.437902
 20
-0.702444
 30
0.0
 11
-4.437875
 21
-0.696489
 31
0.0
  0
LINE
  8
0
  6
CONTINUOUS
 62
     7
  5
5E5
 10
-4.437875
 20
-0.696489
 30
0.0
 11
-4.437844
 21
-0.690801
 31
0.0
  0
LINE
  8
0
  6
CONTINUOUS
 62
     7
  5
5E6
 10
-4.437844
 20
-0.690801
 30
0.0
 11
-4.437808
 21
-0.685394
 31
0.0
  0
LINE
  8
0
  6
CONTINUOUS
 62
     7
  5
5E7
 10
-4.437808
 20
-0.685394
 30
0.0
 11
-4.437766
 21
-0.680261
 31
0.0
  0
LINE
  8
0
  6
CONTINUOUS
 62
     7
  5
5E8
 10
-4.437766
 20
-0.680261
 30
0.0
 11
-4.437718
 21
-0.675305
 31
0.0
  0
LINE
  8
0
  6
CONTINUOUS
 62
     7
  5
5E9
 10
-4.437718
 20
-0.675305
 30
0.0
 11
-4.437663
 21
-0.670533
 31
0.0
  0
LINE
  8
0
  6
CONTINUOUS
 62
     7
  5
5EA
 10
-4.437663
 20
-0.670533
 30
0.0
 11
-4.437599
 21
-0.665972
 31
0.0
  0
LINE
  8
0
  6
CONTINUOUS
 62
     7
  5
5EB
 10
-4.437599
 20
-0.665972
 30
0.0
 11
-4.437528
 21
-0.661648
 31
0.0
  0
LINE
  8
0
  6
CONTINUOUS
 62
     7
  5
5EC
 10
-4.437528
 20
-0.661648
 30
0.0
 11
-4.437447
 21
-0.657583
 31
0.0
  0
LINE
  8
0
  6
CONTINUOUS
 62
     7
  5
5ED
 10
-4.437447
 20
-0.657583
 30
0.0
 11
-4.437357
 21
-0.653797
 31
0.0
  0
LINE
  8
0
  6
CONTINUOUS
 62
     7
  5
5EE
 10
-4.437357
 20
-0.653797
 30
0.0
 11
-4.437257
 21
-0.650308
 31
0.0
  0
LINE
  8
0
  6
CONTINUOUS
 62
     7
  5
5EF
 10
-4.437257
 20
-0.650308
 30
0.0
 11
-4.437148
 21
-0.647129
 31
0.0
  0
LINE
  8
0
  6
CONTINUOUS
 62
     7
  5
5F0
 10
-4.437148
 20
-0.647129
 30
0.0
 11
-4.437029
 21
-0.644272
 31
0.0
  0
LINE
  8
0
  6
CONTINUOUS
 62
     7
  5
5F1
 10
-4.437029
 20
-0.644272
 30
0.0
 11
-4.4369
 21
-0.641746
 31
0.0
  0
LINE
  8
0
  6
CONTINUOUS
 62
     7
  5
5F2
 10
-4.4369
 20
-0.641746
 30
0.0
 11
-4.436761
 21
-0.639558
 31
0.0
  0
LINE
  8
0
  6
CONTINUOUS
 62
     7
  5
5F3
 10
-4.436761
 20
-0.639558
 30
0.0
 11
-4.436612
 21
-0.637712
 31
0.0
  0
LINE
  8
0
  6
CONTINUOUS
 62
     7
  5
5F4
 10
-4.436612
 20
-0.637712
 30
0.0
 11
-4.436454
 21
-0.636211
 31
0.0
  0
LINE
  8
0
  6
CONTINUOUS
 62
     7
  5
5F5
 10
-4.436454
 20
-0.636211
 30
0.0
 11
-4.436288
 21
-0.635055
 31
0.0
  0
LINE
  8
0
  6
CONTINUOUS
 62
     7
  5
5F6
 10
-4.436288
 20
-0.635055
 30
0.0
 11
-4.436113
 21
-0.63424
 31
0.0
  0
LINE
  8
0
  6
CONTINUOUS
 62
     7
  5
5F7
 10
-4.436113
 20
-0.63424
 30
0.0
 11
-4.435932
 21
-0.633758
 31
0.0
  0
LINE
  8
0
  6
CONTINUOUS
 62
     7
  5
5F8
 10
-4.435932
 20
-0.633758
 30
0.0
 11
-4.435744
 21
-0.6336
 31
0.0
  0
LINE
  8
0
  6
CONTINUOUS
 62
     7
  5
5F9
 10
-4.409845
 20
0.6336
 30
0.0
 11
-4.410519
 21
0.633757
 31
0.0
  0
LINE
  8
0
  6
CONTINUOUS
 62
     7
  5
5FA
 10
-4.410519
 20
0.633757
 30
0.0
 11
-4.411192
 21
0.634237
 31
0.0
  0
LINE
  8
0
  6
CONTINUOUS
 62
     7
  5
5FB
 10
-4.411192
 20
0.634237
 30
0.0
 11
-4.411862
 21
0.635049
 31
0.0
  0
LINE
  8
0
  6
CONTINUOUS
 62
     7
  5
5FC
 10
-4.411862
 20
0.635049
 30
0.0
 11
-4.412525
 21
0.6362
 31
0.0
  0
LINE
  8
0
  6
CONTINUOUS
 62
     7
  5
5FD
 10
-4.412525
 20
0.6362
 30
0.0
 11
-4.41318
 21
0.637695
 31
0.0
  0
LINE
  8
0
  6
CONTINUOUS
 62
     7
  5
5FE
 10
-4.41318
 20
0.637695
 30
0.0
 11
-4.413822
 21
0.639534
 31
0.0
  0
LINE
  8
0
  6
CONTINUOUS
 62
     7
  5
5FF
 10
-4.413822
 20
0.639534
 30
0.0
 11
-4.414451
 21
0.641715
 31
0.0
  0
LINE
  8
0
  6
CONTINUOUS
 62
     7
  5
600
 10
-4.414451
 20
0.641715
 30
0.0
 11
-4.415065
 21
0.644234
 31
0.0
  0
LINE
  8
0
  6
CONTINUOUS
 62
     7
  5
601
 10
-4.415065
 20
0.644234
 30
0.0
 11
-4.41566
 21
0.647082
 31
0.0
  0
LINE
  8
0
  6
CONTINUOUS
 62
     7
  5
602
 10
-4.41566
 20
0.647082
 30
0.0
 11
-4.416236
 21
0.650252
 31
0.0
  0
LINE
  8
0
  6
CONTINUOUS
 62
     7
  5
603
 10
-4.416236
 20
0.650252
 30
0.0
 11
-4.416792
 21
0.653734
 31
0.0
  0
LINE
  8
0
  6
CONTINUOUS
 62
     7
  5
604
 10
-4.416792
 20
0.653734
 30
0.0
 11
-4.417326
 21
0.657511
 31
0.0
  0
LINE
  8
0
  6
CONTINUOUS
 62
     7
  5
605
 10
-4.417326
 20
0.657511
 30
0.0
 11
-4.417836
 21
0.661569
 31
0.0
  0
LINE
  8
0
  6
CONTINUOUS
 62
     7
  5
606
 10
-4.417836
 20
0.661569
 30
0.0
 11
-4.418323
 21
0.665887
 31
0.0
  0
LINE
  8
0
  6
CONTINUOUS
 62
     7
  5
607
 10
-4.418323
 20
0.665887
 30
0.0
 11
-4.418785
 21
0.670442
 31
0.0
  0
LINE
  8
0
  6
CONTINUOUS
 62
     7
  5
608
 10
-4.418785
 20
0.670442
 30
0.0
 11
-4.41922
 21
0.67521
 31
0.0
  0
LINE
  8
0
  6
CONTINUOUS
 62
     7
  5
609
 10
-4.41922
 20
0.67521
 30
0.0
 11
-4.41963
 21
0.680164
 31
0.0
  0
LINE
  8
0
  6
CONTINUOUS
 62
     7
  5
60A
 10
-4.41963
 20
0.680164
 30
0.0
 11
-4.420015
 21
0.685294
 31
0.0
  0
LINE
  8
0
  6
CONTINUOUS
 62
     7
  5
60B
 10
-4.420015
 20
0.685294
 30
0.0
 11
-4.420383
 21
0.690697
 31
0.0
  0
LINE
  8
0
  6
CONTINUOUS
 62
     7
  5
60C
 10
-4.420383
 20
0.690697
 30
0.0
 11
-4.420733
 21
0.696382
 31
0.0
  0
LINE
  8
0
  6
CONTINUOUS
 62
     7
  5
60D
 10
-4.420733
 20
0.696382
 30
0.0
 11
-4.421065
 21
0.702336
 31
0.0
  0
LINE
  8
0
  6
CONTINUOUS
 62
     7
  5
60E
 10
-4.421065
 20
0.702336
 30
0.0
 11
-4.421377
 21
0.70854
 31
0.0
  0
LINE
  8
0
  6
CONTINUOUS
 62
     7
  5
60F
 10
-4.421377
 20
0.70854
 30
0.0
 11
-4.421667
 21
0.714974
 31
0.0
  0
LINE
  8
0
  6
CONTINUOUS
 62
     7
  5
610
 10
-4.421667
 20
0.714974
 30
0.0
 11
-4.421935
 21
0.721618
 31
0.0
  0
LINE
  8
0
  6
CONTINUOUS
 62
     7
  5
611
 10
-4.421935
 20
0.721618
 30
0.0
 11
-4.422181
 21
0.728449
 31
0.0
  0
LINE
  8
0
  6
CONTINUOUS
 62
     7
  5
612
 10
-4.422181
 20
0.728449
 30
0.0
 11
-4.422402
 21
0.735443
 31
0.0
  0
LINE
  8
0
  6
CONTINUOUS
 62
     7
  5
613
 10
-4.422402
 20
0.735443
 30
0.0
 11
-4.4226
 21
0.742578
 31
0.0
  0
LINE
  8
0
  6
CONTINUOUS
 62
     7
  5
614
 10
-4.4226
 20
0.742578
 30
0.0
 11
-4.422775
 21
0.749832
 31
0.0
  0
LINE
  8
0
  6
CONTINUOUS
 62
     7
  5
615
 10
-4.422775
 20
0.749832
 30
0.0
 11
-4.422925
 21
0.757178
 31
0.0
  0
LINE
  8
0
  6
CONTINUOUS
 62
     7
  5
616
 10
-4.422925
 20
0.757178
 30
0.0
 11
-4.423051
 21
0.76459
 31
0.0
  0
LINE
  8
0
  6
CONTINUOUS
 62
     7
  5
617
 10
-4.423051
 20
0.76459
 30
0.0
 11
-4.423153
 21
0.772039
 31
0.0
  0
LINE
  8
0
  6
CONTINUOUS
 62
     7
  5
618
 10
-4.423153
 20
0.772039
 30
0.0
 11
-4.423231
 21
0.779495
 31
0.0
  0
LINE
  8
0
  6
CONTINUOUS
 62
     7
  5
619
 10
-4.423231
 20
0.779495
 30
0.0
 11
-4.423286
 21
0.786926
 31
0.0
  0
LINE
  8
0
  6
CONTINUOUS
 62
     7
  5
61A
 10
-4.423286
 20
0.786926
 30
0.0
 11
-4.423319
 21
0.794305
 31
0.0
  0
LINE
  8
0
  6
CONTINUOUS
 62
     7
  5
61B
 10
-4.423319
 20
0.794305
 30
0.0
 11
-4.42333
 21
0.8016
 31
0.0
  0
LINE
  8
0
  6
CONTINUOUS
 62
     7
  5
61C
 10
-4.409845
 20
0.9696
 30
0.0
 11
-4.408464
 21
0.968962
 31
0.0
  0
LINE
  8
0
  6
CONTINUOUS
 62
     7
  5
61D
 10
-4.408464
 20
0.968962
 30
0.0
 11
-4.407028
 21
0.966996
 31
0.0
  0
LINE
  8
0
  6
CONTINUOUS
 62
     7
  5
61E
 10
-4.407028
 20
0.966996
 30
0.0
 11
-4.405561
 21
0.96366
 31
0.0
  0
LINE
  8
0
  6
CONTINUOUS
 62
     7
  5
61F
 10
-4.405561
 20
0.96366
 30
0.0
 11
-4.404086
 21
0.95896
 31
0.0
  0
LINE
  8
0
  6
CONTINUOUS
 62
     7
  5
620
 10
-4.404086
 20
0.95896
 30
0.0
 11
-4.402625
 21
0.952942
 31
0.0
  0
LINE
  8
0
  6
CONTINUOUS
 62
     7
  5
621
 10
-4.402625
 20
0.952942
 30
0.0
 11
-4.401203
 21
0.945686
 31
0.0
  0
LINE
  8
0
  6
CONTINUOUS
 62
     7
  5
622
 10
-4.401203
 20
0.945686
 30
0.0
 11
-4.399842
 21
0.937316
 31
0.0
  0
LINE
  8
0
  6
CONTINUOUS
 62
     7
  5
623
 10
-4.399842
 20
0.937316
 30
0.0
 11
-4.398565
 21
0.928001
 31
0.0
  0
LINE
  8
0
  6
CONTINUOUS
 62
     7
  5
624
 10
-4.398565
 20
0.928001
 30
0.0
 11
-4.39739
 21
0.917926
 31
0.0
  0
LINE
  8
0
  6
CONTINUOUS
 62
     7
  5
625
 10
-4.39739
 20
0.917926
 30
0.0
 11
-4.39629
 21
0.906844
 31
0.0
  0
LINE
  8
0
  6
CONTINUOUS
 62
     7
  5
626
 10
-4.39629
 20
0.906844
 30
0.0
 11
-4.395271
 21
0.894692
 31
0.0
  0
LINE
  8
0
  6
CONTINUOUS
 62
     7
  5
627
 10
-4.395271
 20
0.894692
 30
0.0
 11
-4.39436
 21
0.881617
 31
0.0
  0
LINE
  8
0
  6
CONTINUOUS
 62
     7
  5
628
 10
-4.39436
 20
0.881617
 30
0.0
 11
-4.393578
 21
0.867793
 31
0.0
  0
LINE
  8
0
  6
CONTINUOUS
 62
     7
  5
629
 10
-4.393578
 20
0.867793
 30
0.0
 11
-4.392941
 21
0.853402
 31
0.0
  0
LINE
  8
0
  6
CONTINUOUS
 62
     7
  5
62A
 10
-4.392941
 20
0.853402
 30
0.0
 11
-4.392461
 21
0.838638
 31
0.0
  0
LINE
  8
0
  6
CONTINUOUS
 62
     7
  5
62B
 10
-4.392461
 20
0.838638
 30
0.0
 11
-4.392143
 21
0.823725
 31
0.0
  0
LINE
  8
0
  6
CONTINUOUS
 62
     7
  5
62C
 10
-4.392143
 20
0.823725
 30
0.0
 11
-4.391987
 21
0.808903
 31
0.0
  0
LINE
  8
0
  6
CONTINUOUS
 62
     7
  5
62D
 10
-4.391987
 20
0.808903
 30
0.0
 11
-4.391987
 21
0.794297
 31
0.0
  0
LINE
  8
0
  6
CONTINUOUS
 62
     7
  5
62E
 10
-4.391987
 20
0.794297
 30
0.0
 11
-4.392143
 21
0.779474
 31
0.0
  0
LINE
  8
0
  6
CONTINUOUS
 62
     7
  5
62F
 10
-4.392143
 20
0.779474
 30
0.0
 11
-4.392461
 21
0.764559
 31
0.0
  0
LINE
  8
0
  6
CONTINUOUS
 62
     7
  5
630
 10
-4.392461
 20
0.764559
 30
0.0
 11
-4.392941
 21
0.749794
 31
0.0
  0
LINE
  8
0
  6
CONTINUOUS
 62
     7
  5
631
 10
-4.392941
 20
0.749794
 30
0.0
 11
-4.393578
 21
0.735401
 31
0.0
  0
LINE
  8
0
  6
CONTINUOUS
 62
     7
  5
632
 10
-4.393578
 20
0.735401
 30
0.0
 11
-4.394361
 21
0.721577
 31
0.0
  0
LINE
  8
0
  6
CONTINUOUS
 62
     7
  5
633
 10
-4.394361
 20
0.721577
 30
0.0
 11
-4.395272
 21
0.708502
 31
0.0
  0
LINE
  8
0
  6
CONTINUOUS
 62
     7
  5
634
 10
-4.395272
 20
0.708502
 30
0.0
 11
-4.39629
 21
0.696351
 31
0.0
  0
LINE
  8
0
  6
CONTINUOUS
 62
     7
  5
635
 10
-4.39629
 20
0.696351
 30
0.0
 11
-4.39739
 21
0.685272
 31
0.0
  0
LINE
  8
0
  6
CONTINUOUS
 62
     7
  5
636
 10
-4.39739
 20
0.685272
 30
0.0
 11
-4.398565
 21
0.675196
 31
0.0
  0
LINE
  8
0
  6
CONTINUOUS
 62
     7
  5
637
 10
-4.398565
 20
0.675196
 30
0.0
 11
-4.399842
 21
0.66588
 31
0.0
  0
LINE
  8
0
  6
CONTINUOUS
 62
     7
  5
638
 10
-4.399842
 20
0.66588
 30
0.0
 11
-4.401204
 21
0.65751
 31
0.0
  0
LINE
  8
0
  6
CONTINUOUS
 62
     7
  5
639
 10
-4.401204
 20
0.65751
 30
0.0
 11
-4.402626
 21
0.650255
 31
0.0
  0
LINE
  8
0
  6
CONTINUOUS
 62
     7
  5
63A
 10
-4.402626
 20
0.650255
 30
0.0
 11
-4.404086
 21
0.644238
 31
0.0
  0
LINE
  8
0
  6
CONTINUOUS
 62
     7
  5
63B
 10
-4.404086
 20
0.644238
 30
0.0
 11
-4.405561
 21
0.639539
 31
0.0
  0
LINE
  8
0
  6
CONTINUOUS
 62
     7
  5
63C
 10
-4.405561
 20
0.639539
 30
0.0
 11
-4.407029
 21
0.636203
 31
0.0
  0
LINE
  8
0
  6
CONTINUOUS
 62
     7
  5
63D
 10
-4.407029
 20
0.636203
 30
0.0
 11
-4.408464
 21
0.634238
 31
0.0
  0
LINE
  8
0
  6
CONTINUOUS
 62
     7
  5
63E
 10
-4.408464
 20
0.634238
 30
0.0
 11
-4.409845
 21
0.6336
 31
0.0
  0
LINE
  8
0
  6
CONTINUOUS
 62
     7
  5
63F
 10
-4.42333
 20
0.8016
 30
0.0
 11
-4.423319
 21
0.808895
 31
0.0
  0
LINE
  8
0
  6
CONTINUOUS
 62
     7
  5
640
 10
-4.423319
 20
0.808895
 30
0.0
 11
-4.423286
 21
0.816273
 31
0.0
  0
LINE
  8
0
  6
CONTINUOUS
 62
     7
  5
641
 10
-4.423286
 20
0.816273
 30
0.0
 11
-4.423231
 21
0.823705
 31
0.0
  0
LINE
  8
0
  6
CONTINUOUS
 62
     7
  5
642
 10
-4.423231
 20
0.823705
 30
0.0
 11
-4.423153
 21
0.83116
 31
0.0
  0
LINE
  8
0
  6
CONTINUOUS
 62
     7
  5
643
 10
-4.423153
 20
0.83116
 30
0.0
 11
-4.423051
 21
0.838608
 31
0.0
  0
LINE
  8
0
  6
CONTINUOUS
 62
     7
  5
644
 10
-4.423051
 20
0.838608
 30
0.0
 11
-4.422925
 21
0.84602
 31
0.0
  0
LINE
  8
0
  6
CONTINUOUS
 62
     7
  5
645
 10
-4.422925
 20
0.84602
 30
0.0
 11
-4.422775
 21
0.853366
 31
0.0
  0
LINE
  8
0
  6
CONTINUOUS
 62
     7
  5
646
 10
-4.422775
 20
0.853366
 30
0.0
 11
-4.422601
 21
0.860619
 31
0.0
  0
LINE
  8
0
  6
CONTINUOUS
 62
     7
  5
647
 10
-4.422601
 20
0.860619
 30
0.0
 11
-4.422403
 21
0.867754
 31
0.0
  0
LINE
  8
0
  6
CONTINUOUS
 62
     7
  5
648
 10
-4.422403
 20
0.867754
 30
0.0
 11
-4.422181
 21
0.874748
 31
0.0
  0
LINE
  8
0
  6
CONTINUOUS
 62
     7
  5
649
 10
-4.422181
 20
0.874748
 30
0.0
 11
-4.421935
 21
0.881578
 31
0.0
  0
LINE
  8
0
  6
CONTINUOUS
 62
     7
  5
64A
 10
-4.421935
 20
0.881578
 30
0.0
 11
-4.421667
 21
0.888222
 31
0.0
  0
LINE
  8
0
  6
CONTINUOUS
 62
     7
  5
64B
 10
-4.421667
 20
0.888222
 30
0.0
 11
-4.421377
 21
0.894657
 31
0.0
  0
LINE
  8
0
  6
CONTINUOUS
 62
     7
  5
64C
 10
-4.421377
 20
0.894657
 30
0.0
 11
-4.421065
 21
0.900861
 31
0.0
  0
LINE
  8
0
  6
CONTINUOUS
 62
     7
  5
64D
 10
-4.421065
 20
0.900861
 30
0.0
 11
-4.420733
 21
0.906815
 31
0.0
  0
LINE
  8
0
  6
CONTINUOUS
 62
     7
  5
64E
 10
-4.420733
 20
0.906815
 30
0.0
 11
-4.420383
 21
0.912502
 31
0.0
  0
LINE
  8
0
  6
CONTINUOUS
 62
     7
  5
64F
 10
-4.420383
 20
0.912502
 30
0.0
 11
-4.420015
 21
0.917905
 31
0.0
  0
LINE
  8
0
  6
CONTINUOUS
 62
     7
  5
650
 10
-4.420015
 20
0.917905
 30
0.0
 11
-4.41963
 21
0.923035
 31
0.0
  0
LINE
  8
0
  6
CONTINUOUS
 62
     7
  5
651
 10
-4.41963
 20
0.923035
 30
0.0
 11
-4.419221
 21
0.927988
 31
0.0
  0
LINE
  8
0
  6
CONTINUOUS
 62
     7
  5
652
 10
-4.419221
 20
0.927988
 30
0.0
 11
-4.418785
 21
0.932756
 31
0.0
  0
LINE
  8
0
  6
CONTINUOUS
 62
     7
  5
653
 10
-4.418785
 20
0.932756
 30
0.0
 11
-4.418323
 21
0.937311
 31
0.0
  0
LINE
  8
0
  6
CONTINUOUS
 62
     7
  5
654
 10
-4.418323
 20
0.937311
 30
0.0
 11
-4.417837
 21
0.941629
 31
0.0
  0
LINE
  8
0
  6
CONTINUOUS
 62
     7
  5
655
 10
-4.417837
 20
0.941629
 30
0.0
 11
-4.417326
 21
0.945686
 31
0.0
  0
LINE
  8
0
  6
CONTINUOUS
 62
     7
  5
656
 10
-4.417326
 20
0.945686
 30
0.0
 11
-4.416792
 21
0.949464
 31
0.0
  0
LINE
  8
0
  6
CONTINUOUS
 62
     7
  5
657
 10
-4.416792
 20
0.949464
 30
0.0
 11
-4.416236
 21
0.952946
 31
0.0
  0
LINE
  8
0
  6
CONTINUOUS
 62
     7
  5
658
 10
-4.416236
 20
0.952946
 30
0.0
 11
-4.41566
 21
0.956116
 31
0.0
  0
LINE
  8
0
  6
CONTINUOUS
 62
     7
  5
659
 10
-4.41566
 20
0.956116
 30
0.0
 11
-4.415065
 21
0.958965
 31
0.0
  0
LINE
  8
0
  6
CONTINUOUS
 62
     7
  5
65A
 10
-4.415065
 20
0.958965
 30
0.0
 11
-4.414452
 21
0.961484
 31
0.0
  0
LINE
  8
0
  6
CONTINUOUS
 62
     7
  5
65B
 10
-4.414452
 20
0.961484
 30
0.0
 11
-4.413823
 21
0.963665
 31
0.0
  0
LINE
  8
0
  6
CONTINUOUS
 62
     7
  5
65C
 10
-4.413823
 20
0.963665
 30
0.0
 11
-4.41318
 21
0.965504
 31
0.0
  0
LINE
  8
0
  6
CONTINUOUS
 62
     7
  5
65D
 10
-4.41318
 20
0.965504
 30
0.0
 11
-4.412525
 21
0.966999
 31
0.0
  0
LINE
  8
0
  6
CONTINUOUS
 62
     7
  5
65E
 10
-4.412525
 20
0.966999
 30
0.0
 11
-4.411862
 21
0.968151
 31
0.0
  0
LINE
  8
0
  6
CONTINUOUS
 62
     7
  5
65F
 10
-4.411862
 20
0.968151
 30
0.0
 11
-4.411192
 21
0.968963
 31
0.0
  0
LINE
  8
0
  6
CONTINUOUS
 62
     7
  5
660
 10
-4.411192
 20
0.968963
 30
0.0
 11
-4.410519
 21
0.969443
 31
0.0
  0
LINE
  8
0
  6
CONTINUOUS
 62
     7
  5
661
 10
-4.410519
 20
0.969443
 30
0.0
 11
-4.409845
 21
0.9696
 31
0.0
  0
LINE
  8
0
  6
CONTINUOUS
 62
     7
  5
662
 10
-4.435744
 20
0.6336
 30
0.0
 11
-4.435932
 21
0.633758
 31
0.0
  0
LINE
  8
0
  6
CONTINUOUS
 62
     7
  5
663
 10
-4.435932
 20
0.633758
 30
0.0
 11
-4.436113
 21
0.63424
 31
0.0
  0
LINE
  8
0
  6
CONTINUOUS
 62
     7
  5
664
 10
-4.436113
 20
0.63424
 30
0.0
 11
-4.436288
 21
0.635055
 31
0.0
  0
LINE
  8
0
  6
CONTINUOUS
 62
     7
  5
665
 10
-4.436288
 20
0.635055
 30
0.0
 11
-4.436454
 21
0.636211
 31
0.0
  0
LINE
  8
0
  6
CONTINUOUS
 62
     7
  5
666
 10
-4.436454
 20
0.636211
 30
0.0
 11
-4.436612
 21
0.637712
 31
0.0
  0
LINE
  8
0
  6
CONTINUOUS
 62
     7
  5
667
 10
-4.436612
 20
0.637712
 30
0.0
 11
-4.436761
 21
0.639558
 31
0.0
  0
LINE
  8
0
  6
CONTINUOUS
 62
     7
  5
668
 10
-4.436761
 20
0.639558
 30
0.0
 11
-4.4369
 21
0.641746
 31
0.0
  0
LINE
  8
0
  6
CONTINUOUS
 62
     7
  5
669
 10
-4.4369
 20
0.641746
 30
0.0
 11
-4.437029
 21
0.644272
 31
0.0
  0
LINE
  8
0
  6
CONTINUOUS
 62
     7
  5
66A
 10
-4.437029
 20
0.644272
 30
0.0
 11
-4.437148
 21
0.647129
 31
0.0
  0
LINE
  8
0
  6
CONTINUOUS
 62
     7
  5
66B
 10
-4.437148
 20
0.647129
 30
0.0
 11
-4.437257
 21
0.650308
 31
0.0
  0
LINE
  8
0
  6
CONTINUOUS
 62
     7
  5
66C
 10
-4.437257
 20
0.650308
 30
0.0
 11
-4.437357
 21
0.653797
 31
0.0
  0
LINE
  8
0
  6
CONTINUOUS
 62
     7
  5
66D
 10
-4.437357
 20
0.653797
 30
0.0
 11
-4.437447
 21
0.657583
 31
0.0
  0
LINE
  8
0
  6
CONTINUOUS
 62
     7
  5
66E
 10
-4.437447
 20
0.657583
 30
0.0
 11
-4.437528
 21
0.661648
 31
0.0
  0
LINE
  8
0
  6
CONTINUOUS
 62
     7
  5
66F
 10
-4.437528
 20
0.661648
 30
0.0
 11
-4.437599
 21
0.665972
 31
0.0
  0
LINE
  8
0
  6
CONTINUOUS
 62
     7
  5
670
 10
-4.437599
 20
0.665972
 30
0.0
 11
-4.437663
 21
0.670533
 31
0.0
  0
LINE
  8
0
  6
CONTINUOUS
 62
     7
  5
671
 10
-4.437663
 20
0.670533
 30
0.0
 11
-4.437718
 21
0.675305
 31
0.0
  0
LINE
  8
0
  6
CONTINUOUS
 62
     7
  5
672
 10
-4.437718
 20
0.675305
 30
0.0
 11
-4.437766
 21
0.680261
 31
0.0
  0
LINE
  8
0
  6
CONTINUOUS
 62
     7
  5
673
 10
-4.437766
 20
0.680261
 30
0.0
 11
-4.437808
 21
0.685394
 31
0.0
  0
LINE
  8
0
  6
CONTINUOUS
 62
     7
  5
674
 10
-4.437808
 20
0.685394
 30
0.0
 11
-4.437844
 21
0.690801
 31
0.0
  0
LINE
  8
0
  6
CONTINUOUS
 62
     7
  5
675
 10
-4.437844
 20
0.690801
 30
0.0
 11
-4.437875
 21
0.696489
 31
0.0
  0
LINE
  8
0
  6
CONTINUOUS
 62
     7
  5
676
 10
-4.437875
 20
0.696489
 30
0.0
 11
-4.437902
 21
0.702444
 31
0.0
  0
LINE
  8
0
  6
CONTINUOUS
 62
     7
  5
677
 10
-4.437902
 20
0.702444
 30
0.0
 11
-4.437924
 21
0.708647
 31
0.0
  0
LINE
  8
0
  6
CONTINUOUS
 62
     7
  5
678
 10
-4.437924
 20
0.708647
 30
0.0
 11
-4.437943
 21
0.71508
 31
0.0
  0
LINE
  8
0
  6
CONTINUOUS
 62
     7
  5
679
 10
-4.437943
 20
0.71508
 30
0.0
 11
-4.437957
 21
0.721721
 31
0.0
  0
LINE
  8
0
  6
CONTINUOUS
 62
     7
  5
67A
 10
-4.437957
 20
0.721721
 30
0.0
 11
-4.437969
 21
0.728547
 31
0.0
  0
LINE
  8
0
  6
CONTINUOUS
 62
     7
  5
67B
 10
-4.437969
 20
0.728547
 30
0.0
 11
-4.437978
 21
0.735535
 31
0.0
  0
LINE
  8
0
  6
CONTINUOUS
 62
     7
  5
67C
 10
-4.437978
 20
0.735535
 30
0.0
 11
-4.437985
 21
0.742663
 31
0.0
  0
LINE
  8
0
  6
CONTINUOUS
 62
     7
  5
67D
 10
-4.437985
 20
0.742663
 30
0.0
 11
-4.43799
 21
0.749908
 31
0.0
  0
LINE
  8
0
  6
CONTINUOUS
 62
     7
  5
67E
 10
-4.43799
 20
0.749908
 30
0.0
 11
-4.437993
 21
0.757245
 31
0.0
  0
LINE
  8
0
  6
CONTINUOUS
 62
     7
  5
67F
 10
-4.437993
 20
0.757245
 30
0.0
 11
-4.437996
 21
0.764648
 31
0.0
  0
LINE
  8
0
  6
CONTINUOUS
 62
     7
  5
680
 10
-4.437996
 20
0.764648
 30
0.0
 11
-4.437997
 21
0.772086
 31
0.0
  0
LINE
  8
0
  6
CONTINUOUS
 62
     7
  5
681
 10
-4.437997
 20
0.772086
 30
0.0
 11
-4.437998
 21
0.77953
 31
0.0
  0
LINE
  8
0
  6
CONTINUOUS
 62
     7
  5
682
 10
-4.437998
 20
0.77953
 30
0.0
 11
-4.437999
 21
0.78695
 31
0.0
  0
LINE
  8
0
  6
CONTINUOUS
 62
     7
  5
683
 10
-4.437999
 20
0.78695
 30
0.0
 11
-4.437999
 21
0.794316
 31
0.0
  0
LINE
  8
0
  6
CONTINUOUS
 62
     7
  5
684
 10
-4.437999
 20
0.794316
 30
0.0
 11
-4.437999
 21
0.8016
 31
0.0
  0
LINE
  8
0
  6
CONTINUOUS
 62
     7
  5
685
 10
-4.435744
 20
0.9696
 30
0.0
 11
-4.435342
 21
0.96896
 31
0.0
  0
LINE
  8
0
  6
CONTINUOUS
 62
     7
  5
686
 10
-4.435342
 20
0.96896
 30
0.0
 11
-4.4349
 21
0.966988
 31
0.0
  0
LINE
  8
0
  6
CONTINUOUS
 62
     7
  5
687
 10
-4.4349
 20
0.966988
 30
0.0
 11
-4.434425
 21
0.963641
 31
0.0
  0
LINE
  8
0
  6
CONTINUOUS
 62
     7
  5
688
 10
-4.434425
 20
0.963641
 30
0.0
 11
-4.433926
 21
0.958926
 31
0.0
  0
LINE
  8
0
  6
CONTINUOUS
 62
     7
  5
689
 10
-4.433926
 20
0.958926
 30
0.0
 11
-4.433411
 21
0.952891
 31
0.0
  0
LINE
  8
0
  6
CONTINUOUS
 62
     7
  5
68A
 10
-4.433411
 20
0.952891
 30
0.0
 11
-4.432891
 21
0.945617
 31
0.0
  0
LINE
  8
0
  6
CONTINUOUS
 62
     7
  5
68B
 10
-4.432891
 20
0.945617
 30
0.0
 11
-4.432378
 21
0.937229
 31
0.0
  0
LINE
  8
0
  6
CONTINUOUS
 62
     7
  5
68C
 10
-4.432378
 20
0.937229
 30
0.0
 11
-4.431883
 21
0.927899
 31
0.0
  0
LINE
  8
0
  6
CONTINUOUS
 62
     7
  5
68D
 10
-4.431883
 20
0.927899
 30
0.0
 11
-4.431417
 21
0.917812
 31
0.0
  0
LINE
  8
0
  6
CONTINUOUS
 62
     7
  5
68E
 10
-4.431417
 20
0.917812
 30
0.0
 11
-4.430972
 21
0.906719
 31
0.0
  0
LINE
  8
0
  6
CONTINUOUS
 62
     7
  5
68F
 10
-4.430972
 20
0.906719
 30
0.0
 11
-4.430553
 21
0.894563
 31
0.0
  0
LINE
  8
0
  6
CONTINUOUS
 62
     7
  5
690
 10
-4.430553
 20
0.894563
 30
0.0
 11
-4.430172
 21
0.88149
 31
0.0
  0
LINE
  8
0
  6
CONTINUOUS
 62
     7
  5
691
 10
-4.430172
 20
0.88149
 30
0.0
 11
-4.429841
 21
0.867676
 31
0.0
  0
LINE
  8
0
  6
CONTINUOUS
 62
     7
  5
692
 10
-4.429841
 20
0.867676
 30
0.0
 11
-4.429569
 21
0.853302
 31
0.0
  0
LINE
  8
0
  6
CONTINUOUS
 62
     7
  5
693
 10
-4.429569
 20
0.853302
 30
0.0
 11
-4.429362
 21
0.838561
 31
0.0
  0
LINE
  8
0
  6
CONTINUOUS
 62
     7
  5
694
 10
-4.429362
 20
0.838561
 30
0.0
 11
-4.429225
 21
0.823676
 31
0.0
  0
LINE
  8
0
  6
CONTINUOUS
 62
     7
  5
695
 10
-4.429225
 20
0.823676
 30
0.0
 11
-4.429157
 21
0.808886
 31
0.0
  0
LINE
  8
0
  6
CONTINUOUS
 62
     7
  5
696
 10
-4.429157
 20
0.808886
 30
0.0
 11
-4.429157
 21
0.794314
 31
0.0
  0
LINE
  8
0
  6
CONTINUOUS
 62
     7
  5
697
 10
-4.429157
 20
0.794314
 30
0.0
 11
-4.429225
 21
0.779524
 31
0.0
  0
LINE
  8
0
  6
CONTINUOUS
 62
     7
  5
698
 10
-4.429225
 20
0.779524
 30
0.0
 11
-4.429362
 21
0.764639
 31
0.0
  0
LINE
  8
0
  6
CONTINUOUS
 62
     7
  5
699
 10
-4.429362
 20
0.764639
 30
0.0
 11
-4.429569
 21
0.749898
 31
0.0
  0
LINE
  8
0
  6
CONTINUOUS
 62
     7
  5
69A
 10
-4.429569
 20
0.749898
 30
0.0
 11
-4.429841
 21
0.735523
 31
0.0
  0
LINE
  8
0
  6
CONTINUOUS
 62
     7
  5
69B
 10
-4.429841
 20
0.735523
 30
0.0
 11
-4.430172
 21
0.721709
 31
0.0
  0
LINE
  8
0
  6
CONTINUOUS
 62
     7
  5
69C
 10
-4.430172
 20
0.721709
 30
0.0
 11
-4.430553
 21
0.708637
 31
0.0
  0
LINE
  8
0
  6
CONTINUOUS
 62
     7
  5
69D
 10
-4.430553
 20
0.708637
 30
0.0
 11
-4.430972
 21
0.69648
 31
0.0
  0
LINE
  8
0
  6
CONTINUOUS
 62
     7
  5
69E
 10
-4.430972
 20
0.69648
 30
0.0
 11
-4.431417
 21
0.685388
 31
0.0
  0
LINE
  8
0
  6
CONTINUOUS
 62
     7
  5
69F
 10
-4.431417
 20
0.685388
 30
0.0
 11
-4.431883
 21
0.675301
 31
0.0
  0
LINE
  8
0
  6
CONTINUOUS
 62
     7
  5
6A0
 10
-4.431883
 20
0.675301
 30
0.0
 11
-4.432378
 21
0.66597
 31
0.0
  0
LINE
  8
0
  6
CONTINUOUS
 62
     7
  5
6A1
 10
-4.432378
 20
0.66597
 30
0.0
 11
-4.432891
 21
0.657583
 31
0.0
  0
LINE
  8
0
  6
CONTINUOUS
 62
     7
  5
6A2
 10
-4.432891
 20
0.657583
 30
0.0
 11
-4.433411
 21
0.650309
 31
0.0
  0
LINE
  8
0
  6
CONTINUOUS
 62
     7
  5
6A3
 10
-4.433411
 20
0.650309
 30
0.0
 11
-4.433926
 21
0.644274
 31
0.0
  0
LINE
  8
0
  6
CONTINUOUS
 62
     7
  5
6A4
 10
-4.433926
 20
0.644274
 30
0.0
 11
-4.434425
 21
0.639559
 31
0.0
  0
LINE
  8
0
  6
CONTINUOUS
 62
     7
  5
6A5
 10
-4.434425
 20
0.639559
 30
0.0
 11
-4.4349
 21
0.636212
 31
0.0
  0
LINE
  8
0
  6
CONTINUOUS
 62
     7
  5
6A6
 10
-4.4349
 20
0.636212
 30
0.0
 11
-4.435342
 21
0.63424
 31
0.0
  0
LINE
  8
0
  6
CONTINUOUS
 62
     7
  5
6A7
 10
-4.435342
 20
0.63424
 30
0.0
 11
-4.435744
 21
0.6336
 31
0.0
  0
LINE
  8
0
  6
CONTINUOUS
 62
     7
  5
6A8
 10
-4.437999
 20
0.8016
 30
0.0
 11
-4.437999
 21
0.808884
 31
0.0
  0
LINE
  8
0
  6
CONTINUOUS
 62
     7
  5
6A9
 10
-4.437999
 20
0.808884
 30
0.0
 11
-4.437999
 21
0.81625
 31
0.0
  0
LINE
  8
0
  6
CONTINUOUS
 62
     7
  5
6AA
 10
-4.437999
 20
0.81625
 30
0.0
 11
-4.437998
 21
0.82367
 31
0.0
  0
LINE
  8
0
  6
CONTINUOUS
 62
     7
  5
6AB
 10
-4.437998
 20
0.82367
 30
0.0
 11
-4.437997
 21
0.831114
 31
0.0
  0
LINE
  8
0
  6
CONTINUOUS
 62
     7
  5
6AC
 10
-4.437997
 20
0.831114
 30
0.0
 11
-4.437996
 21
0.838552
 31
0.0
  0
LINE
  8
0
  6
CONTINUOUS
 62
     7
  5
6AD
 10
-4.437996
 20
0.838552
 30
0.0
 11
-4.437993
 21
0.845955
 31
0.0
  0
LINE
  8
0
  6
CONTINUOUS
 62
     7
  5
6AE
 10
-4.437993
 20
0.845955
 30
0.0
 11
-4.43799
 21
0.853292
 31
0.0
  0
LINE
  8
0
  6
CONTINUOUS
 62
     7
  5
6AF
 10
-4.43799
 20
0.853292
 30
0.0
 11
-4.437985
 21
0.860537
 31
0.0
  0
LINE
  8
0
  6
CONTINUOUS
 62
     7
  5
6B0
 10
-4.437985
 20
0.860537
 30
0.0
 11
-4.437978
 21
0.867665
 31
0.0
  0
LINE
  8
0
  6
CONTINUOUS
 62
     7
  5
6B1
 10
-4.437978
 20
0.867665
 30
0.0
 11
-4.437969
 21
0.874653
 31
0.0
  0
LINE
  8
0
  6
CONTINUOUS
 62
     7
  5
6B2
 10
-4.437969
 20
0.874653
 30
0.0
 11
-4.437957
 21
0.881479
 31
0.0
  0
LINE
  8
0
  6
CONTINUOUS
 62
     7
  5
6B3
 10
-4.437957
 20
0.881479
 30
0.0
 11
-4.437943
 21
0.88812
 31
0.0
  0
LINE
  8
0
  6
CONTINUOUS
 62
     7
  5
6B4
 10
-4.437943
 20
0.88812
 30
0.0
 11
-4.437924
 21
0.894553
 31
0.0
  0
LINE
  8
0
  6
CONTINUOUS
 62
     7
  5
6B5
 10
-4.437924
 20
0.894553
 30
0.0
 11
-4.437902
 21
0.900756
 31
0.0
  0
LINE
  8
0
  6
CONTINUOUS
 62
     7
  5
6B6
 10
-4.437902
 20
0.900756
 30
0.0
 11
-4.437875
 21
0.906711
 31
0.0
  0
LINE
  8
0
  6
CONTINUOUS
 62
     7
  5
6B7
 10
-4.437875
 20
0.906711
 30
0.0
 11
-4.437844
 21
0.912399
 31
0.0
  0
LINE
  8
0
  6
CONTINUOUS
 62
     7
  5
6B8
 10
-4.437844
 20
0.912399
 30
0.0
 11
-4.437808
 21
0.917806
 31
0.0
  0
LINE
  8
0
  6
CONTINUOUS
 62
     7
  5
6B9
 10
-4.437808
 20
0.917806
 30
0.0
 11
-4.437766
 21
0.922939
 31
0.0
  0
LINE
  8
0
  6
CONTINUOUS
 62
     7
  5
6BA
 10
-4.437766
 20
0.922939
 30
0.0
 11
-4.437718
 21
0.927895
 31
0.0
  0
LINE
  8
0
  6
CONTINUOUS
 62
     7
  5
6BB
 10
-4.437718
 20
0.927895
 30
0.0
 11
-4.437663
 21
0.932667
 31
0.0
  0
LINE
  8
0
  6
CONTINUOUS
 62
     7
  5
6BC
 10
-4.437663
 20
0.932667
 30
0.0
 11
-4.437599
 21
0.937228
 31
0.0
  0
LINE
  8
0
  6
CONTINUOUS
 62
     7
  5
6BD
 10
-4.437599
 20
0.937228
 30
0.0
 11
-4.437528
 21
0.941552
 31
0.0
  0
LINE
  8
0
  6
CONTINUOUS
 62
     7
  5
6BE
 10
-4.437528
 20
0.941552
 30
0.0
 11
-4.437447
 21
0.945617
 31
0.0
  0
LINE
  8
0
  6
CONTINUOUS
 62
     7
  5
6BF
 10
-4.437447
 20
0.945617
 30
0.0
 11
-4.437357
 21
0.949403
 31
0.0
  0
LINE
  8
0
  6
CONTINUOUS
 62
     7
  5
6C0
 10
-4.437357
 20
0.949403
 30
0.0
 11
-4.437257
 21
0.952892
 31
0.0
  0
LINE
  8
0
  6
CONTINUOUS
 62
     7
  5
6C1
 10
-4.437257
 20
0.952892
 30
0.0
 11
-4.437148
 21
0.956071
 31
0.0
  0
LINE
  8
0
  6
CONTINUOUS
 62
     7
  5
6C2
 10
-4.437148
 20
0.956071
 30
0.0
 11
-4.437029
 21
0.958928
 31
0.0
  0
LINE
  8
0
  6
CONTINUOUS
 62
     7
  5
6C3
 10
-4.437029
 20
0.958928
 30
0.0
 11
-4.4369
 21
0.961454
 31
0.0
  0
LINE
  8
0
  6
CONTINUOUS
 62
     7
  5
6C4
 10
-4.4369
 20
0.961454
 30
0.0
 11
-4.436761
 21
0.963642
 31
0.0
  0
LINE
  8
0
  6
CONTINUOUS
 62
     7
  5
6C5
 10
-4.436761
 20
0.963642
 30
0.0
 11
-4.436612
 21
0.965488
 31
0.0
  0
LINE
  8
0
  6
CONTINUOUS
 62
     7
  5
6C6
 10
-4.436612
 20
0.965488
 30
0.0
 11
-4.436454
 21
0.966989
 31
0.0
  0
LINE
  8
0
  6
CONTINUOUS
 62
     7
  5
6C7
 10
-4.436454
 20
0.966989
 30
0.0
 11
-4.436288
 21
0.968145
 31
0.0
  0
LINE
  8
0
  6
CONTINUOUS
 62
     7
  5
6C8
 10
-4.436288
 20
0.968145
 30
0.0
 11
-4.436113
 21
0.96896
 31
0.0
  0
LINE
  8
0
  6
CONTINUOUS
 62
     7
  5
6C9
 10
-4.436113
 20
0.96896
 30
0.0
 11
-4.435932
 21
0.969442
 31
0.0
  0
LINE
  8
0
  6
CONTINUOUS
 62
     7
  5
6CA
 10
-4.435932
 20
0.969442
 30
0.0
 11
-4.435744
 21
0.9696
 31
0.0
  0
LINE
  8
0
  6
CONTINUOUS
 62
     7
  5
6CB
 10
-3.688947
 20
-1.2
 30
0.0
 11
-4.346947
 21
-1.2
 31
0.0
  0
LINE
  8
0
  6
CONTINUOUS
 62
     7
  5
6CC
 10
-4.346947
 20
-1.2
 30
0.0
 11
-4.438
 21
-1.2
 31
0.0
  0
LINE
  8
0
  6
CONTINUOUS
 62
     7
  5
6CD
 10
-4.346947
 20
0.6
 30
0.0
 11
-4.346947
 21
1.2
 31
0.0
  0
LINE
  8
0
  6
CONTINUOUS
 62
     7
  5
6CE
 10
-4.346947
 20
1.2
 30
0.0
 11
-4.438
 21
1.2
 31
0.0
  0
LINE
  8
0
  6
CONTINUOUS
 62
     7
  5
6CF
 10
-4.346947
 20
-1.2
 30
0.0
 11
-4.346947
 21
-0.6
 31
0.0
  0
LINE
  8
0
  6
CONTINUOUS
 62
     7
  5
6D0
 10
-3.688947
 20
1.2
 30
0.0
 11
-4.346947
 21
1.2
 31
0.0
  0
LINE
  8
0
  6
CONTINUOUS
 62
     7
  5
6D1
 10
-4.628947
 20
-0.6
 30
0.0
 11
-4.346947
 21
-0.6
 31
0.0
  0
LINE
  8
0
  6
CONTINUOUS
 62
     7
  5
6D2
 10
-4.72
 20
-0.6
 30
0.0
 11
-4.628947
 21
-0.6
 31
0.0
  0
LINE
  8
0
  6
CONTINUOUS
 62
     7
  5
6D3
 10
-4.346947
 20
0.6
 30
0.0
 11
-4.628947
 21
0.6
 31
0.0
  0
LINE
  8
0
  6
CONTINUOUS
 62
     7
  5
6D4
 10
-4.628947
 20
0.6
 30
0.0
 11
-4.628947
 21
-0.6
 31
0.0
  0
LINE
  8
0
  6
CONTINUOUS
 62
     7
  5
6D5
 10
-4.628947
 20
0.6
 30
0.0
 11
-4.72
 21
0.6
 31
0.0
  0
LINE
  8
0
  6
CONTINUOUS
 62
     7
  5
6D6
 10
-4.438
 20
1.2
 30
0.0
 11
-4.438
 21
0.6
 31
0.0
  0
LINE
  8
0
  6
CONTINUOUS
 62
     7
  5
6D7
 10
-4.438
 20
-0.6
 30
0.0
 11
-4.438
 21
-1.2
 31
0.0
  0
LINE
  8
0
  6
CONTINUOUS
 62
     7
  5
6D8
 10
-4.72
 20
0.6
 30
0.0
 11
-4.72
 21
0.36
 31
0.0
  0
LINE
  8
0
  6
CONTINUOUS
 62
     7
  5
6D9
 10
-4.72
 20
-0.36
 30
0.0
 11
-4.72
 21
-0.6
 31
0.0
  0
ENDSEC
  0
EOF
