  0
SECTION
  2
HEADER
  9
$ACADVER
  1
AC1009
  9
$DWGCODEPAGE
  3
ansi_1250
  9
$INSBASE
 10
0.0
 20
0.0
 30
0.0
  9
$EXTMIN
 10
-1.6305
 20
-8.9355
 30
0.0
  9
$EXTMAX
 10
3.832479
 20
0.203
 30
0.0
  9
$LIMMIN
 10
0.0
 20
0.0
  9
$LIMMAX
 10
0.0
 20
0.0
  9
$ORTHOMODE
 70
     0
  9
$REGENMODE
 70
     1
  9
$FILLMODE
 70
     1
  9
$QTEXTMODE
 70
     0
  9
$MIRRTEXT
 70
     1
  9
$DRAGMODE
 70
     2
  9
$LTSCALE
 40
1.0
  9
$OSMODE
 70
     0
  9
$ATTMODE
 70
     1
  9
$TEXTSIZE
 40
0.2
  9
$TRACEWID
 40
0.05
  9
$TEXTSTYLE
  7
STANDARD
  9
$CLAYER
  8
0
  9
$CELTYPE
  6
CONTINUOUS
  9
$CECOLOR
 62
   256
  9
$DIMSCALE
 40
1.0
  9
$DIMASZ
 40
0.18
  9
$DIMEXO
 40
0.0625
  9
$DIMDLI
 40
0.38
  9
$DIMRND
 40
0.0
  9
$DIMDLE
 40
0.0
  9
$DIMEXE
 40
0.18
  9
$DIMTP
 40
0.0
  9
$DIMTM
 40
0.0
  9
$DIMTXT
 40
0.18
  9
$DIMCEN
 40
0.09
  9
$DIMTSZ
 40
0.0
  9
$DIMTOL
 70
     0
  9
$DIMLIM
 70
     0
  9
$DIMTIH
 70
     1
  9
$DIMTOH
 70
     1
  9
$DIMSE1
 70
     0
  9
$DIMSE2
 70
     0
  9
$DIMTAD
 70
     0
  9
$DIMZIN
 70
     0
  9
$DIMBLK
  1

  9
$DIMASO
 70
     1
  9
$DIMSHO
 70
     1
  9
$DIMPOST
  1

  9
$DIMAPOST
  1

  9
$DIMALT
 70
     0
  9
$DIMALTD
 70
     2
  9
$DIMALTF
 40
25.4
  9
$DIMLFAC
 40
1.0
  9
$DIMTOFL
 70
     0
  9
$DIMTVP
 40
0.0
  9
$DIMTIX
 70
     0
  9
$DIMSOXD
 70
     0
  9
$DIMSAH
 70
     0
  9
$DIMBLK1
  1

  9
$DIMBLK2
  1

  9
$DIMSTYLE
  2
STANDARD
  9
$DIMCLRD
 70
     0
  9
$DIMCLRE
 70
     0
  9
$DIMCLRT
 70
     0
  9
$DIMTFAC
 40
1.0
  9
$DIMGAP
 40
0.09
  9
$LUNITS
 70
     2
  9
$LUPREC
 70
     4
  9
$AXISMODE
 70
     0
  9
$AXISUNIT
 10
0.0
 20
0.0
  9
$SKETCHINC
 40
0.1
  9
$FILLETRAD
 40
0.0
  9
$AUNITS
 70
     0
  9
$AUPREC
 70
     0
  9
$MENU
  1
acad
  9
$ELEVATION
 40
0.0
  9
$PELEVATION
 40
0.0
  9
$THICKNESS
 40
0.0
  9
$LIMCHECK
 70
     0
  9
$BLIPMODE
 70
     1
  9
$CHAMFERA
 40
0.0
  9
$CHAMFERB
 40
0.0
  9
$SKPOLY
 70
     0
  9
$TDCREATE
 40
0.000000000
  9
$TDUPDATE
 40
0.000000000
  9
$TDINDWG
 40
0.0000000000
  9
$TDUSRTIMER
 40
0.0000000000
  9
$USRTIMER
 70
     1
  9
$ANGBASE
 50
0.0
  9
$ANGDIR
 70
     0
  9
$PDMODE
 70
     0
  9
$PDSIZE
 40
0.0
  9
$PLINEWID
 40
0.0
  9
$COORDS
 70
     0
  9
$SPLFRAME
 70
     0
  9
$SPLINETYPE
 70
     6
  9
$SPLINESEGS
 70
     8
  9
$ATTDIA
 70
     0
  9
$ATTREQ
 70
     1
  9
$HANDLING
 70
     1
  9
$HANDSEED
  5
A5D
  9
$SURFTAB1
 70
     6
  9
$SURFTAB2
 70
     6
  9
$SURFTYPE
 70
     6
  9
$SURFU
 70
     6
  9
$SURFV
 70
     6
  9
$UCSNAME
  2

  9
$UCSORG
 10
0.0
 20
0.0
 30
0.0
  9
$UCSXDIR
 10
1.0
 20
0.0
 30
0.0
  9
$UCSYDIR
 10
0.0
 20
1.0
 30
0.0
  9
$PUCSNAME
  2

  9
$PUCSORG
 10
0.0
 20
0.0
 30
0.0
  9
$PUCSXDIR
 10
1.0
 20
0.0
 30
0.0
  9
$PUCSYDIR
 10
0.0
 20
1.0
 30
0.0
  9
$USERI1
 70
     0
  9
$USERI2
 70
     0
  9
$USERI3
 70
     0
  9
$USERI4
 70
     0
  9
$USERI5
 70
     0
  9
$USERR1
 40
0.0
  9
$USERR2
 40
0.0
  9
$USERR3
 40
0.0
  9
$USERR4
 40
0.0
  9
$USERR5
 40
0.0
  9
$WORLDVIEW
 70
     1
  9
$SHADEDGE
 70
     3
  9
$SHADEDIF
 70
    70
  9
$TILEMODE
 70
     1
  9
$MAXACTVP
 70
    16
  9
$PINSBASE
 10
0.0
 20
0.0
 30
0.0
  9
$PLIMCHECK
 70
     0
  9
$PEXTMIN
 10
1.000000E+20
 20
1.000000E+20
 30
1.000000E+20
  9
$PEXTMAX
 10
-1.000000E+20
 20
-1.000000E+20
 30
-1.000000E+20
  9
$PLIMMIN
 10
0.0
 20
0.0
  9
$PLIMMAX
 10
12.0
 20
9.0
  9
$UNITMODE
 70
     0
  9
$VISRETAIN
 70
     0
  9
$PLINEGEN
 70
     1
  9
$PSLTSCALE
 70
     0
  9
$TREEDEPTH
 70
  3020
  0
ENDSEC
  0
SECTION
  2
TABLES
  0
TABLE
  2
VPORT
 70
     1
  0
VPORT
  2
*ACTIVE
 70
     0
 10
0.0
 20
0.0
 11
1.0
 21
1.0
 12
6.591288
 22
4.579184
 13
0.0
 23
0.0
 14
1.0
 24
1.0
 15
0.0
 25
0.0
 16
0.0
 26
0.0
 36
1.0
 17
0.0
 27
0.0
 37
0.0
 40
9.158369
 41
0.688564
 42
50.0
 43
0.0
 44
0.0
 50
0.0
 51
0.0
 71
     0
 72
   100
 73
     1
 74
     1
 75
     0
 76
     0
 77
     0
 78
     0
  0
ENDTAB
  0
TABLE
  2
LTYPE
 70
     5
  0
LTYPE
  2
CONTINUOUS
 70
    64
  3
Solid line
 72
    65
 73
     0
 40
0.0
  0
LTYPE
  2
CENTER
 70
    64
  3
Center ____ _ ____ _ ____ _ ____ _ ____ _ ____
 72
    65
 73
     4
 40
50.8
 49
31.75
 49
-6.35
 49
6.35
 49
-6.35
  0
LTYPE
  2
HIDDEN
 70
    64
  3
Hidden __ __ __ __ __ __ __ __ __ __ __ __ __ __
 72
    65
 73
     2
 40
9.525
 49
6.35
 49
-3.175
  0
LTYPE
  2
CENTER2
 70
    64
  3
Center (.5x) ___ _ ___ _ ___ _ ___ _ ___ _ ___
 72
    65
 73
     4
 40
28.575
 49
19.05
 49
-3.175
 49
3.175
 49
-3.175
  0
LTYPE
  2
HIDDEN2
 70
    64
  3
Hidden (.5x) _ _ _ _ _ _ _ _ _ _ _ _ _ _ _ _ _
 72
    65
 73
     2
 40
4.7625
 49
3.175
 49
-1.5875
  0
ENDTAB
  0
TABLE
  2
LAYER
 70
     1
  0
LAYER
  2
0
 70
     0
 62
     7
  6
CONTINUOUS
  0
ENDTAB
  0
TABLE
  2
STYLE
 70
     1
  0
STYLE
  2
STANDARD
 70
     0
 40
0.0
 41
1.0
 50
0.0
 71
     0
 42
0.0
  3
txt
  4

  0
ENDTAB
  0
TABLE
  2
VIEW
 70
     0
  0
ENDTAB
  0
TABLE
  2
UCS
 70
     0
  0
ENDTAB
  0
TABLE
  2
APPID
 70
     1
  0
APPID
  2
ACAD
 70
     0
  0
ENDTAB
  0
TABLE
  2
DIMSTYLE
 70
     1
  0
DIMSTYLE
  2
STANDARD
 70
     0
  3

  4

  5

  6

  7

 40
1.0
 41
0.18
 42
0.0625
 43
0.38
 44
0.18
 45
0.0
 46
0.0
 47
0.0
 48
0.0
 71
     0
 72
     0
 73
     1
 74
     1
 75
     0
 76
     0
 77
     0
 78
     0
140
0.18
141
0.09
142
0.0
143
25.4
144
1.0
145
0.0
146
1.0
147
0.09
170
     0
171
     2
172
     0
173
     0
174
     0
175
     0
176
     0
177
     0
178
     0
  0
ENDTAB
  0
ENDSEC
  0
SECTION
  2
BLOCKS
  0
ENDSEC
  0
SECTION
  2
ENTITIES
  0
LINE
  8
0
  6
CONTINUOUS
 62
     7
  5
579
 10
1.122434
 20
-4.094
 30
0.0
 11
1.085
 21
-4.094
 31
0.0
  0
ARC
  8
0
  6
CONTINUOUS
 62
     7
  5
57A
 10
0.0
 20
-0.62
 30
0.0
 40
0.25
 50
180.0
 51
219.138712
  0
ARC
  8
0
  6
CONTINUOUS
 62
     7
  5
57B
 10
0.0
 20
-0.62
 30
0.0
 40
0.25
 50
320.861288
 51
0.0
  0
LINE
  8
0
  6
CONTINUOUS
 62
     7
  5
57C
 10
-0.25
 20
-0.62
 30
0.0
 11
-0.25
 21
-0.547711
 31
0.0
  0
LINE
  8
0
  6
CONTINUOUS
 62
     7
  5
57D
 10
-1.593
 20
-5.921
 30
0.0
 11
-1.593
 21
-0.547711
 31
0.0
  0
LINE
  8
0
  6
CONTINUOUS
 62
     7
  5
57E
 10
1.6305
 20
-6.107
 30
0.0
 11
3.593
 21
-6.107
 31
0.0
  0
LINE
  8
0
  6
CONTINUOUS
 62
     7
  5
57F
 10
3.593
 20
-0.7778
 30
0.0
 11
3.593
 21
-0.547711
 31
0.0
  0
LINE
  8
0
  6
CONTINUOUS
 62
     7
  5
580
 10
3.593
 20
-6.107
 30
0.0
 11
3.593
 21
-5.3878
 31
0.0
  0
LINE
  8
0
  6
CONTINUOUS
 62
     7
  5
581
 10
0.25
 20
-0.547711
 30
0.0
 11
0.25
 21
-0.62
 31
0.0
  0
LINE
  8
0
  6
CONTINUOUS
 62
     7
  5
582
 10
0.109
 20
-0.15
 30
0.0
 11
0.25
 21
-0.15
 31
0.0
  0
LINE
  8
0
  6
CONTINUOUS
 62
     7
  5
583
 10
0.25
 20
-0.15
 30
0.0
 11
0.25
 21
-0.332223
 31
0.0
  0
LINE
  8
0
  6
CONTINUOUS
 62
     7
  5
584
 10
0.25
 20
-0.459322
 30
0.0
 11
0.25
 21
-0.547711
 31
0.0
  0
LINE
  8
0
  6
CONTINUOUS
 62
     7
  5
585
 10
0.25
 20
-0.367579
 30
0.0
 11
0.25
 21
-0.459322
 31
0.0
  0
LINE
  8
0
  6
CONTINUOUS
 62
     7
  5
586
 10
0.25
 20
-0.332223
 30
0.0
 11
0.25
 21
-0.367579
 31
0.0
  0
LINE
  8
0
  6
CONTINUOUS
 62
     7
  5
587
 10
-0.25
 20
-0.332223
 30
0.0
 11
-0.25
 21
-0.15
 31
0.0
  0
LINE
  8
0
  6
CONTINUOUS
 62
     7
  5
588
 10
-0.25
 20
-0.367579
 30
0.0
 11
-0.25
 21
-0.332223
 31
0.0
  0
LINE
  8
0
  6
CONTINUOUS
 62
     7
  5
589
 10
-0.25
 20
-0.459322
 30
0.0
 11
-0.25
 21
-0.367579
 31
0.0
  0
LINE
  8
0
  6
CONTINUOUS
 62
     7
  5
58A
 10
-0.25
 20
-0.547711
 30
0.0
 11
-0.25
 21
-0.459322
 31
0.0
  0
LINE
  8
0
  6
CONTINUOUS
 62
     7
  5
58B
 10
-0.25
 20
-0.15
 30
0.0
 11
-0.109
 21
-0.15
 31
0.0
  0
LINE
  8
0
  6
CONTINUOUS
 62
     7
  5
58C
 10
-0.109
 20
-0.15
 30
0.0
 11
-0.109
 21
0.0
 31
0.0
  0
LINE
  8
0
  6
CONTINUOUS
 62
     7
  5
58D
 10
3.593
 20
-0.367579
 30
0.0
 11
3.593
 21
-0.332223
 31
0.0
  0
LINE
  8
0
  6
CONTINUOUS
 62
     7
  5
58E
 10
3.593
 20
-0.459322
 30
0.0
 11
3.593
 21
-0.367579
 31
0.0
  0
LINE
  8
0
  6
CONTINUOUS
 62
     7
  5
58F
 10
3.593
 20
-0.547711
 30
0.0
 11
3.593
 21
-0.459322
 31
0.0
  0
LINE
  8
0
  6
CONTINUOUS
 62
     7
  5
590
 10
0.109
 20
0.0
 30
0.0
 11
0.109
 21
-0.15
 31
0.0
  0
LINE
  8
0
  6
CONTINUOUS
 62
     7
  5
591
 10
-1.593
 20
-0.547711
 30
0.0
 11
-1.593
 21
-0.459322
 31
0.0
  0
LINE
  8
0
  6
CONTINUOUS
 62
     7
  5
592
 10
-1.593
 20
-0.459322
 30
0.0
 11
-1.593
 21
-0.367579
 31
0.0
  0
LINE
  8
0
  6
CONTINUOUS
 62
     7
  5
593
 10
-1.593
 20
-0.367579
 30
0.0
 11
-1.593
 21
-0.332223
 31
0.0
  0
ARC
  8
0
  6
CONTINUOUS
 62
     7
  5
594
 10
0.0
 20
0.0
 30
0.0
 40
0.109
 50
0.0
 51
180.0
  0
LINE
  8
0
  6
CONTINUOUS
 62
     7
  5
595
 10
3.593
 20
-0.332223
 30
0.0
 11
3.593
 21
0.203
 31
0.0
  0
LINE
  8
0
  6
CONTINUOUS
 62
     7
  5
596
 10
-1.593
 20
0.203
 30
0.0
 11
3.593
 21
0.203
 31
0.0
  0
LINE
  8
0
  6
CONTINUOUS
 62
     7
  5
597
 10
-1.593
 20
-0.332223
 30
0.0
 11
-1.593
 21
0.203
 31
0.0
  0
LINE
  8
0
  6
CONTINUOUS
 62
     7
  5
598
 10
-0.484094
 20
-0.630739
 30
0.0
 11
-0.484094
 21
-0.7778
 31
0.0
  0
LINE
  8
0
  6
CONTINUOUS
 62
     7
  5
599
 10
-0.526938
 20
-0.587895
 30
0.0
 11
-0.484094
 21
-0.630739
 31
0.0
  0
ARC
  8
0
  6
CONTINUOUS
 62
     7
  5
59A
 10
-0.74
 20
-1.128073
 30
0.0
 40
0.580679
 50
68.474246
 51
111.525754
  0
LINE
  8
0
  6
CONTINUOUS
 62
     7
  5
59B
 10
-0.995906
 20
-0.630739
 30
0.0
 11
-0.953062
 21
-0.587895
 31
0.0
  0
LINE
  8
0
  6
CONTINUOUS
 62
     7
  5
59C
 10
-0.995906
 20
-0.7778
 30
0.0
 11
-0.995906
 21
-0.630739
 31
0.0
  0
LINE
  8
0
  6
CONTINUOUS
 62
     7
  5
59D
 10
-0.836457
 20
-0.7778
 30
0.0
 11
-0.836457
 21
-0.689124
 31
0.0
  0
ARC
  8
0
  6
CONTINUOUS
 62
     7
  5
59E
 10
-0.777402
 20
-0.689124
 30
0.0
 40
0.059055
 50
90.0
 51
180.0
  0
LINE
  8
0
  6
CONTINUOUS
 62
     7
  5
59F
 10
-0.777402
 20
-0.630069
 30
0.0
 11
-0.702598
 21
-0.630069
 31
0.0
  0
ARC
  8
0
  6
CONTINUOUS
 62
     7
  5
5A0
 10
-0.702598
 20
-0.689124
 30
0.0
 40
0.059055
 50
0.0
 51
90.0
  0
LINE
  8
0
  6
CONTINUOUS
 62
     7
  5
5A1
 10
-0.643543
 20
-0.689124
 30
0.0
 11
-0.643543
 21
-0.7778
 31
0.0
  0
LINE
  8
0
  6
CONTINUOUS
 62
     7
  5
5A2
 10
0.995906
 20
-0.630739
 30
0.0
 11
0.995906
 21
-0.7778
 31
0.0
  0
LINE
  8
0
  6
CONTINUOUS
 62
     7
  5
5A3
 10
0.953062
 20
-0.587895
 30
0.0
 11
0.995906
 21
-0.630739
 31
0.0
  0
ARC
  8
0
  6
CONTINUOUS
 62
     7
  5
5A4
 10
0.74
 20
-1.128073
 30
0.0
 40
0.580679
 50
68.474246
 51
111.525754
  0
LINE
  8
0
  6
CONTINUOUS
 62
     7
  5
5A5
 10
0.484094
 20
-0.630739
 30
0.0
 11
0.526938
 21
-0.587895
 31
0.0
  0
LINE
  8
0
  6
CONTINUOUS
 62
     7
  5
5A6
 10
0.484094
 20
-0.7778
 30
0.0
 11
0.484094
 21
-0.630739
 31
0.0
  0
LINE
  8
0
  6
CONTINUOUS
 62
     7
  5
5A7
 10
0.643543
 20
-0.7778
 30
0.0
 11
0.643543
 21
-0.689124
 31
0.0
  0
ARC
  8
0
  6
CONTINUOUS
 62
     7
  5
5A8
 10
0.702598
 20
-0.689124
 30
0.0
 40
0.059055
 50
90.0
 51
180.0
  0
LINE
  8
0
  6
CONTINUOUS
 62
     7
  5
5A9
 10
0.702598
 20
-0.630069
 30
0.0
 11
0.777402
 21
-0.630069
 31
0.0
  0
ARC
  8
0
  6
CONTINUOUS
 62
     7
  5
5AA
 10
0.777402
 20
-0.689124
 30
0.0
 40
0.059055
 50
0.0
 51
90.0
  0
LINE
  8
0
  6
CONTINUOUS
 62
     7
  5
5AB
 10
0.836457
 20
-0.689124
 30
0.0
 11
0.836457
 21
-0.7778
 31
0.0
  0
LINE
  8
0
  6
CONTINUOUS
 62
     7
  5
5AC
 10
-0.14
 20
-6.0228
 30
0.0
 11
-0.200854
 21
-6.0228
 31
0.0
  0
LINE
  8
0
  6
CONTINUOUS
 62
     7
  5
5AD
 10
0.200854
 20
-6.0228
 30
0.0
 11
0.14
 21
-6.0228
 31
0.0
  0
LINE
  8
0
  6
CONTINUOUS
 62
     7
  5
5AE
 10
-0.200854
 20
-6.0228
 30
0.0
 11
-0.224454
 21
-6.0228
 31
0.0
  0
LINE
  8
0
  6
CONTINUOUS
 62
     7
  5
5AF
 10
-0.224454
 20
-6.0228
 30
0.0
 11
-0.224454
 21
-5.5503
 31
0.0
  0
LINE
  8
0
  6
CONTINUOUS
 62
     7
  5
5B0
 10
-0.224454
 20
-6.0228
 30
0.0
 11
-0.295254
 21
-6.0228
 31
0.0
  0
LINE
  8
0
  6
CONTINUOUS
 62
     7
  5
5B1
 10
-0.354331
 20
-6.0228
 30
0.0
 11
-0.354331
 21
-5.5503
 31
0.0
  0
LINE
  8
0
  6
CONTINUOUS
 62
     7
  5
5B2
 10
-0.295254
 20
-6.0228
 30
0.0
 11
-0.354331
 21
-6.0228
 31
0.0
  0
LINE
  8
0
  6
CONTINUOUS
 62
     7
  5
5B3
 10
0.354331
 20
-6.0228
 30
0.0
 11
0.354331
 21
-5.5503
 31
0.0
  0
LINE
  8
0
  6
CONTINUOUS
 62
     7
  5
5B4
 10
0.354331
 20
-6.0228
 30
0.0
 11
0.295254
 21
-6.0228
 31
0.0
  0
LINE
  8
0
  6
CONTINUOUS
 62
     7
  5
5B5
 10
0.224454
 20
-6.0228
 30
0.0
 11
0.224454
 21
-5.5503
 31
0.0
  0
LINE
  8
0
  6
CONTINUOUS
 62
     7
  5
5B6
 10
0.295254
 20
-6.0228
 30
0.0
 11
0.224454
 21
-6.0228
 31
0.0
  0
LINE
  8
0
  6
CONTINUOUS
 62
     7
  5
5B7
 10
0.224454
 20
-6.0228
 30
0.0
 11
0.200854
 21
-6.0228
 31
0.0
  0
LINE
  8
0
  6
CONTINUOUS
 62
     7
  5
5B8
 10
-0.43
 20
-5.3878
 30
0.0
 11
-0.43
 21
-5.5503
 31
0.0
  0
LINE
  8
0
  6
CONTINUOUS
 62
     7
  5
5B9
 10
-0.14
 20
-5.5503
 30
0.0
 11
-0.43
 21
-5.5503
 31
0.0
  0
LINE
  8
0
  6
CONTINUOUS
 62
     7
  5
5BA
 10
0.43
 20
-5.5503
 30
0.0
 11
0.14
 21
-5.5503
 31
0.0
  0
LINE
  8
0
  6
CONTINUOUS
 62
     7
  5
5BB
 10
0.43
 20
-5.5503
 30
0.0
 11
0.43
 21
-5.3878
 31
0.0
  0
LINE
  8
0
  6
CONTINUOUS
 62
     7
  5
5BC
 10
-0.873509
 20
-1.1796
 30
0.0
 11
-0.504491
 21
-1.1796
 31
0.0
  0
LINE
  8
0
  6
CONTINUOUS
 62
     7
  5
5BD
 10
1.085
 20
-1.4478
 30
0.0
 11
-1.085
 21
-1.4478
 31
0.0
  0
LINE
  8
0
  6
CONTINUOUS
 62
     7
  5
5BE
 10
-1.085
 20
-4.7178
 30
0.0
 11
-1.085
 21
-1.4478
 31
0.0
  0
LINE
  8
0
  6
CONTINUOUS
 62
     7
  5
5BF
 10
1.085
 20
-4.7178
 30
0.0
 11
1.085
 21
-1.4478
 31
0.0
  0
LINE
  8
0
  6
CONTINUOUS
 62
     7
  5
5C0
 10
1.085
 20
-4.7178
 30
0.0
 11
-1.085
 21
-4.7178
 31
0.0
  0
LINE
  8
0
  6
CONTINUOUS
 62
     7
  5
5C1
 10
0.50315
 20
-1.1576
 30
0.0
 11
0.506057
 21
-1.12486
 31
0.0
  0
LINE
  8
0
  6
CONTINUOUS
 62
     7
  5
5C2
 10
0.506057
 20
-1.12486
 30
0.0
 11
0.515024
 21
-1.092235
 31
0.0
  0
LINE
  8
0
  6
CONTINUOUS
 62
     7
  5
5C3
 10
0.515024
 20
-1.092235
 30
0.0
 11
0.529819
 21
-1.061676
 31
0.0
  0
LINE
  8
0
  6
CONTINUOUS
 62
     7
  5
5C4
 10
0.529819
 20
-1.061676
 30
0.0
 11
0.549489
 21
-1.034812
 31
0.0
  0
LINE
  8
0
  6
CONTINUOUS
 62
     7
  5
5C5
 10
0.549489
 20
-1.034812
 30
0.0
 11
0.572987
 21
-1.012406
 31
0.0
  0
LINE
  8
0
  6
CONTINUOUS
 62
     7
  5
5C6
 10
0.572987
 20
-1.012406
 30
0.0
 11
0.60094
 21
-0.993937
 31
0.0
  0
LINE
  8
0
  6
CONTINUOUS
 62
     7
  5
5C7
 10
0.60094
 20
-0.993937
 30
0.0
 11
0.632117
 21
-0.980669
 31
0.0
  0
LINE
  8
0
  6
CONTINUOUS
 62
     7
  5
5C8
 10
0.632117
 20
-0.980669
 30
0.0
 11
0.664834
 21
-0.973328
 31
0.0
  0
LINE
  8
0
  6
CONTINUOUS
 62
     7
  5
5C9
 10
0.664834
 20
-0.973328
 30
0.0
 11
0.69722
 21
-0.971932
 31
0.0
  0
LINE
  8
0
  6
CONTINUOUS
 62
     7
  5
5CA
 10
0.69722
 20
-0.971932
 30
0.0
 11
0.729944
 21
-0.976316
 31
0.0
  0
LINE
  8
0
  6
CONTINUOUS
 62
     7
  5
5CB
 10
0.729944
 20
-0.976316
 30
0.0
 11
0.762055
 21
-0.986711
 31
0.0
  0
LINE
  8
0
  6
CONTINUOUS
 62
     7
  5
5CC
 10
0.762055
 20
-0.986711
 30
0.0
 11
0.791731
 21
-1.002724
 31
0.0
  0
LINE
  8
0
  6
CONTINUOUS
 62
     7
  5
5CD
 10
0.791731
 20
-1.002724
 30
0.0
 11
0.817434
 21
-1.023268
 31
0.0
  0
LINE
  8
0
  6
CONTINUOUS
 62
     7
  5
5CE
 10
0.817434
 20
-1.023268
 30
0.0
 11
0.83892
 21
-1.047763
 31
0.0
  0
LINE
  8
0
  6
CONTINUOUS
 62
     7
  5
5CF
 10
0.83892
 20
-1.047763
 30
0.0
 11
0.856286
 21
-1.076633
 31
0.0
  0
LINE
  8
0
  6
CONTINUOUS
 62
     7
  5
5D0
 10
0.856286
 20
-1.076633
 30
0.0
 11
0.868224
 21
-1.108418
 31
0.0
  0
LINE
  8
0
  6
CONTINUOUS
 62
     7
  5
5D1
 10
0.868224
 20
-1.108418
 30
0.0
 11
0.874138
 21
-1.14135
 31
0.0
  0
LINE
  8
0
  6
CONTINUOUS
 62
     7
  5
5D2
 10
0.874138
 20
-1.14135
 30
0.0
 11
0.874138
 21
-1.17385
 31
0.0
  0
LINE
  8
0
  6
CONTINUOUS
 62
     7
  5
5D3
 10
0.874138
 20
-1.17385
 30
0.0
 11
0.868224
 21
-1.206782
 31
0.0
  0
LINE
  8
0
  6
CONTINUOUS
 62
     7
  5
5D4
 10
0.868224
 20
-1.206782
 30
0.0
 11
0.856286
 21
-1.238567
 31
0.0
  0
LINE
  8
0
  6
CONTINUOUS
 62
     7
  5
5D5
 10
0.856286
 20
-1.238567
 30
0.0
 11
0.83892
 21
-1.267437
 31
0.0
  0
LINE
  8
0
  6
CONTINUOUS
 62
     7
  5
5D6
 10
0.83892
 20
-1.267437
 30
0.0
 11
0.817434
 21
-1.291932
 31
0.0
  0
LINE
  8
0
  6
CONTINUOUS
 62
     7
  5
5D7
 10
0.817434
 20
-1.291932
 30
0.0
 11
0.791731
 21
-1.312476
 31
0.0
  0
LINE
  8
0
  6
CONTINUOUS
 62
     7
  5
5D8
 10
0.791731
 20
-1.312476
 30
0.0
 11
0.762055
 21
-1.328489
 31
0.0
  0
LINE
  8
0
  6
CONTINUOUS
 62
     7
  5
5D9
 10
0.762055
 20
-1.328489
 30
0.0
 11
0.729944
 21
-1.338884
 31
0.0
  0
LINE
  8
0
  6
CONTINUOUS
 62
     7
  5
5DA
 10
0.729944
 20
-1.338884
 30
0.0
 11
0.69722
 21
-1.343268
 31
0.0
  0
LINE
  8
0
  6
CONTINUOUS
 62
     7
  5
5DB
 10
0.69722
 20
-1.343268
 30
0.0
 11
0.664834
 21
-1.341872
 31
0.0
  0
LINE
  8
0
  6
CONTINUOUS
 62
     7
  5
5DC
 10
0.664834
 20
-1.341872
 30
0.0
 11
0.632117
 21
-1.334531
 31
0.0
  0
LINE
  8
0
  6
CONTINUOUS
 62
     7
  5
5DD
 10
0.632117
 20
-1.334531
 30
0.0
 11
0.60094
 21
-1.321263
 31
0.0
  0
LINE
  8
0
  6
CONTINUOUS
 62
     7
  5
5DE
 10
0.60094
 20
-1.321263
 30
0.0
 11
0.572987
 21
-1.302794
 31
0.0
  0
LINE
  8
0
  6
CONTINUOUS
 62
     7
  5
5DF
 10
0.572987
 20
-1.302794
 30
0.0
 11
0.549489
 21
-1.280388
 31
0.0
  0
LINE
  8
0
  6
CONTINUOUS
 62
     7
  5
5E0
 10
0.549489
 20
-1.280388
 30
0.0
 11
0.529819
 21
-1.253524
 31
0.0
  0
LINE
  8
0
  6
CONTINUOUS
 62
     7
  5
5E1
 10
0.529819
 20
-1.253524
 30
0.0
 11
0.515024
 21
-1.222965
 31
0.0
  0
LINE
  8
0
  6
CONTINUOUS
 62
     7
  5
5E2
 10
0.515024
 20
-1.222965
 30
0.0
 11
0.506057
 21
-1.19034
 31
0.0
  0
LINE
  8
0
  6
CONTINUOUS
 62
     7
  5
5E3
 10
0.506057
 20
-1.19034
 30
0.0
 11
0.50315
 21
-1.1576
 31
0.0
  0
LINE
  8
0
  6
CONTINUOUS
 62
     7
  5
5E4
 10
-0.87485
 20
-1.1576
 30
0.0
 11
-0.871945
 21
-1.124867
 31
0.0
  0
LINE
  8
0
  6
CONTINUOUS
 62
     7
  5
5E5
 10
-0.871945
 20
-1.124867
 30
0.0
 11
-0.862986
 21
-1.092262
 31
0.0
  0
LINE
  8
0
  6
CONTINUOUS
 62
     7
  5
5E6
 10
-0.862986
 20
-1.092262
 30
0.0
 11
-0.848216
 21
-1.061734
 31
0.0
  0
LINE
  8
0
  6
CONTINUOUS
 62
     7
  5
5E7
 10
-0.848216
 20
-1.061734
 30
0.0
 11
-0.828591
 21
-1.034903
 31
0.0
  0
LINE
  8
0
  6
CONTINUOUS
 62
     7
  5
5E8
 10
-0.828591
 20
-1.034903
 30
0.0
 11
-0.805164
 21
-1.012527
 31
0.0
  0
LINE
  8
0
  6
CONTINUOUS
 62
     7
  5
5E9
 10
-0.805164
 20
-1.012527
 30
0.0
 11
-0.777298
 21
-0.994065
 31
0.0
  0
LINE
  8
0
  6
CONTINUOUS
 62
     7
  5
5EA
 10
-0.777298
 20
-0.994065
 30
0.0
 11
-0.7462
 21
-0.980771
 31
0.0
  0
LINE
  8
0
  6
CONTINUOUS
 62
     7
  5
5EB
 10
-0.7462
 20
-0.980771
 30
0.0
 11
-0.713531
 21
-0.973376
 31
0.0
  0
LINE
  8
0
  6
CONTINUOUS
 62
     7
  5
5EC
 10
-0.713531
 20
-0.973376
 30
0.0
 11
-0.68115
 21
-0.971916
 31
0.0
  0
LINE
  8
0
  6
CONTINUOUS
 62
     7
  5
5ED
 10
-0.68115
 20
-0.971916
 30
0.0
 11
-0.648403
 21
-0.976238
 31
0.0
  0
LINE
  8
0
  6
CONTINUOUS
 62
     7
  5
5EE
 10
-0.648403
 20
-0.976238
 30
0.0
 11
-0.616225
 21
-0.986591
 31
0.0
  0
LINE
  8
0
  6
CONTINUOUS
 62
     7
  5
5EF
 10
-0.616225
 20
-0.986591
 30
0.0
 11
-0.586463
 21
-1.002596
 31
0.0
  0
LINE
  8
0
  6
CONTINUOUS
 62
     7
  5
5F0
 10
-0.586463
 20
-1.002596
 30
0.0
 11
-0.560678
 21
-1.023161
 31
0.0
  0
LINE
  8
0
  6
CONTINUOUS
 62
     7
  5
5F1
 10
-0.560678
 20
-1.023161
 30
0.0
 11
-0.539134
 21
-1.047688
 31
0.0
  0
LINE
  8
0
  6
CONTINUOUS
 62
     7
  5
5F2
 10
-0.539134
 20
-1.047688
 30
0.0
 11
-0.521734
 21
-1.076591
 31
0.0
  0
LINE
  8
0
  6
CONTINUOUS
 62
     7
  5
5F3
 10
-0.521734
 20
-1.076591
 30
0.0
 11
-0.50978
 21
-1.108402
 31
0.0
  0
LINE
  8
0
  6
CONTINUOUS
 62
     7
  5
5F4
 10
-0.50978
 20
-1.108402
 30
0.0
 11
-0.503862
 21
-1.141348
 31
0.0
  0
LINE
  8
0
  6
CONTINUOUS
 62
     7
  5
5F5
 10
-0.503862
 20
-1.141348
 30
0.0
 11
-0.503862
 21
-1.173852
 31
0.0
  0
LINE
  8
0
  6
CONTINUOUS
 62
     7
  5
5F6
 10
-0.503862
 20
-1.173852
 30
0.0
 11
-0.50978
 21
-1.206798
 31
0.0
  0
LINE
  8
0
  6
CONTINUOUS
 62
     7
  5
5F7
 10
-0.50978
 20
-1.206798
 30
0.0
 11
-0.521734
 21
-1.238609
 31
0.0
  0
LINE
  8
0
  6
CONTINUOUS
 62
     7
  5
5F8
 10
-0.521734
 20
-1.238609
 30
0.0
 11
-0.539134
 21
-1.267512
 31
0.0
  0
LINE
  8
0
  6
CONTINUOUS
 62
     7
  5
5F9
 10
-0.539134
 20
-1.267512
 30
0.0
 11
-0.560678
 21
-1.292039
 31
0.0
  0
LINE
  8
0
  6
CONTINUOUS
 62
     7
  5
5FA
 10
-0.560678
 20
-1.292039
 30
0.0
 11
-0.586463
 21
-1.312604
 31
0.0
  0
LINE
  8
0
  6
CONTINUOUS
 62
     7
  5
5FB
 10
-0.586463
 20
-1.312604
 30
0.0
 11
-0.616225
 21
-1.328609
 31
0.0
  0
LINE
  8
0
  6
CONTINUOUS
 62
     7
  5
5FC
 10
-0.616225
 20
-1.328609
 30
0.0
 11
-0.648403
 21
-1.338962
 31
0.0
  0
LINE
  8
0
  6
CONTINUOUS
 62
     7
  5
5FD
 10
-0.648403
 20
-1.338962
 30
0.0
 11
-0.68115
 21
-1.343284
 31
0.0
  0
LINE
  8
0
  6
CONTINUOUS
 62
     7
  5
5FE
 10
-0.68115
 20
-1.343284
 30
0.0
 11
-0.713531
 21
-1.341824
 31
0.0
  0
LINE
  8
0
  6
CONTINUOUS
 62
     7
  5
5FF
 10
-0.713531
 20
-1.341824
 30
0.0
 11
-0.7462
 21
-1.334429
 31
0.0
  0
LINE
  8
0
  6
CONTINUOUS
 62
     7
  5
600
 10
-0.7462
 20
-1.334429
 30
0.0
 11
-0.777298
 21
-1.321135
 31
0.0
  0
LINE
  8
0
  6
CONTINUOUS
 62
     7
  5
601
 10
-0.777298
 20
-1.321135
 30
0.0
 11
-0.805164
 21
-1.302673
 31
0.0
  0
LINE
  8
0
  6
CONTINUOUS
 62
     7
  5
602
 10
-0.805164
 20
-1.302673
 30
0.0
 11
-0.828591
 21
-1.280297
 31
0.0
  0
LINE
  8
0
  6
CONTINUOUS
 62
     7
  5
603
 10
-0.828591
 20
-1.280297
 30
0.0
 11
-0.848216
 21
-1.253466
 31
0.0
  0
LINE
  8
0
  6
CONTINUOUS
 62
     7
  5
604
 10
-0.848216
 20
-1.253466
 30
0.0
 11
-0.862986
 21
-1.222938
 31
0.0
  0
LINE
  8
0
  6
CONTINUOUS
 62
     7
  5
605
 10
-0.862986
 20
-1.222938
 30
0.0
 11
-0.871945
 21
-1.190333
 31
0.0
  0
LINE
  8
0
  6
CONTINUOUS
 62
     7
  5
606
 10
-0.871945
 20
-1.190333
 30
0.0
 11
-0.87485
 21
-1.1576
 31
0.0
  0
LINE
  8
0
  6
CONTINUOUS
 62
     7
  5
607
 10
-0.18585
 20
-1.1576
 30
0.0
 11
-0.18296
 21
-1.124951
 31
0.0
  0
LINE
  8
0
  6
CONTINUOUS
 62
     7
  5
608
 10
-0.18296
 20
-1.124951
 30
0.0
 11
-0.174039
 21
-1.092404
 31
0.0
  0
LINE
  8
0
  6
CONTINUOUS
 62
     7
  5
609
 10
-0.174039
 20
-1.092404
 30
0.0
 11
-0.159312
 21
-1.061892
 31
0.0
  0
LINE
  8
0
  6
CONTINUOUS
 62
     7
  5
60A
 10
-0.159312
 20
-1.061892
 30
0.0
 11
-0.139707
 21
-1.035035
 31
0.0
  0
LINE
  8
0
  6
CONTINUOUS
 62
     7
  5
60B
 10
-0.139707
 20
-1.035035
 30
0.0
 11
-0.116273
 21
-1.012614
 31
0.0
  0
LINE
  8
0
  6
CONTINUOUS
 62
     7
  5
60C
 10
-0.116273
 20
-1.012614
 30
0.0
 11
-0.088362
 21
-0.9941
 31
0.0
  0
LINE
  8
0
  6
CONTINUOUS
 62
     7
  5
60D
 10
-0.088362
 20
-0.9941
 30
0.0
 11
-0.057182
 21
-0.980765
 31
0.0
  0
LINE
  8
0
  6
CONTINUOUS
 62
     7
  5
60E
 10
-0.057182
 20
-0.980765
 30
0.0
 11
-0.024414
 21
-0.973361
 31
0.0
  0
LINE
  8
0
  6
CONTINUOUS
 62
     7
  5
60F
 10
-0.024414
 20
-0.973361
 30
0.0
 11
0.008057
 21
-0.971925
 31
0.0
  0
LINE
  8
0
  6
CONTINUOUS
 62
     7
  5
610
 10
0.008057
 20
-0.971925
 30
0.0
 11
0.040877
 21
-0.976301
 31
0.0
  0
LINE
  8
0
  6
CONTINUOUS
 62
     7
  5
611
 10
0.040877
 20
-0.976301
 30
0.0
 11
0.073081
 21
-0.986722
 31
0.0
  0
LINE
  8
0
  6
CONTINUOUS
 62
     7
  5
612
 10
0.073081
 20
-0.986722
 30
0.0
 11
0.102823
 21
-1.002785
 31
0.0
  0
LINE
  8
0
  6
CONTINUOUS
 62
     7
  5
613
 10
0.102823
 20
-1.002785
 30
0.0
 11
0.128546
 21
-1.023376
 31
0.0
  0
LINE
  8
0
  6
CONTINUOUS
 62
     7
  5
614
 10
0.128546
 20
-1.023376
 30
0.0
 11
0.150031
 21
-1.047914
 31
0.0
  0
LINE
  8
0
  6
CONTINUOUS
 62
     7
  5
615
 10
0.150031
 20
-1.047914
 30
0.0
 11
0.167361
 21
-1.076789
 31
0.0
  0
LINE
  8
0
  6
CONTINUOUS
 62
     7
  5
616
 10
0.167361
 20
-1.076789
 30
0.0
 11
0.179256
 21
-1.108535
 31
0.0
  0
LINE
  8
0
  6
CONTINUOUS
 62
     7
  5
617
 10
0.179256
 20
-1.108535
 30
0.0
 11
0.185142
 21
-1.141394
 31
0.0
  0
LINE
  8
0
  6
CONTINUOUS
 62
     7
  5
618
 10
0.185142
 20
-1.141394
 30
0.0
 11
0.185142
 21
-1.173806
 31
0.0
  0
LINE
  8
0
  6
CONTINUOUS
 62
     7
  5
619
 10
0.185142
 20
-1.173806
 30
0.0
 11
0.179256
 21
-1.206665
 31
0.0
  0
LINE
  8
0
  6
CONTINUOUS
 62
     7
  5
61A
 10
0.179256
 20
-1.206665
 30
0.0
 11
0.167361
 21
-1.238411
 31
0.0
  0
LINE
  8
0
  6
CONTINUOUS
 62
     7
  5
61B
 10
0.167361
 20
-1.238411
 30
0.0
 11
0.150031
 21
-1.267286
 31
0.0
  0
LINE
  8
0
  6
CONTINUOUS
 62
     7
  5
61C
 10
0.150031
 20
-1.267286
 30
0.0
 11
0.128546
 21
-1.291824
 31
0.0
  0
LINE
  8
0
  6
CONTINUOUS
 62
     7
  5
61D
 10
0.128546
 20
-1.291824
 30
0.0
 11
0.102823
 21
-1.312415
 31
0.0
  0
LINE
  8
0
  6
CONTINUOUS
 62
     7
  5
61E
 10
0.102823
 20
-1.312415
 30
0.0
 11
0.073081
 21
-1.328478
 31
0.0
  0
LINE
  8
0
  6
CONTINUOUS
 62
     7
  5
61F
 10
0.073081
 20
-1.328478
 30
0.0
 11
0.040877
 21
-1.338899
 31
0.0
  0
LINE
  8
0
  6
CONTINUOUS
 62
     7
  5
620
 10
0.040877
 20
-1.338899
 30
0.0
 11
0.008057
 21
-1.343275
 31
0.0
  0
LINE
  8
0
  6
CONTINUOUS
 62
     7
  5
621
 10
0.008057
 20
-1.343275
 30
0.0
 11
-0.024414
 21
-1.341839
 31
0.0
  0
LINE
  8
0
  6
CONTINUOUS
 62
     7
  5
622
 10
-0.024414
 20
-1.341839
 30
0.0
 11
-0.057182
 21
-1.334435
 31
0.0
  0
LINE
  8
0
  6
CONTINUOUS
 62
     7
  5
623
 10
-0.057182
 20
-1.334435
 30
0.0
 11
-0.088362
 21
-1.3211
 31
0.0
  0
LINE
  8
0
  6
CONTINUOUS
 62
     7
  5
624
 10
-0.088362
 20
-1.3211
 30
0.0
 11
-0.116273
 21
-1.302586
 31
0.0
  0
LINE
  8
0
  6
CONTINUOUS
 62
     7
  5
625
 10
-0.116273
 20
-1.302586
 30
0.0
 11
-0.139707
 21
-1.280165
 31
0.0
  0
LINE
  8
0
  6
CONTINUOUS
 62
     7
  5
626
 10
-0.139707
 20
-1.280165
 30
0.0
 11
-0.159312
 21
-1.253308
 31
0.0
  0
LINE
  8
0
  6
CONTINUOUS
 62
     7
  5
627
 10
-0.159312
 20
-1.253308
 30
0.0
 11
-0.174039
 21
-1.222796
 31
0.0
  0
LINE
  8
0
  6
CONTINUOUS
 62
     7
  5
628
 10
-0.174039
 20
-1.222796
 30
0.0
 11
-0.18296
 21
-1.190249
 31
0.0
  0
LINE
  8
0
  6
CONTINUOUS
 62
     7
  5
629
 10
-0.18296
 20
-1.190249
 30
0.0
 11
-0.18585
 21
-1.1576
 31
0.0
  0
LINE
  8
0
  6
CONTINUOUS
 62
     7
  5
62A
 10
1.085
 20
-0.7778
 30
0.0
 11
-1.085
 21
-0.7778
 31
0.0
  0
LINE
  8
0
  6
CONTINUOUS
 62
     7
  5
62B
 10
-1.085
 20
-1.4478
 30
0.0
 11
-1.085
 21
-0.7778
 31
0.0
  0
LINE
  8
0
  6
CONTINUOUS
 62
     7
  5
62C
 10
1.085
 20
-1.4478
 30
0.0
 11
1.085
 21
-0.7778
 31
0.0
  0
LINE
  8
0
  6
CONTINUOUS
 62
     7
  5
62D
 10
1.085
 20
-1.4478
 30
0.0
 11
-1.085
 21
-1.4478
 31
0.0
  0
LINE
  8
0
  6
CONTINUOUS
 62
     7
  5
62E
 10
-0.50315
 20
-5.008
 30
0.0
 11
-0.506057
 21
-5.04074
 31
0.0
  0
LINE
  8
0
  6
CONTINUOUS
 62
     7
  5
62F
 10
-0.506057
 20
-5.04074
 30
0.0
 11
-0.515024
 21
-5.073365
 31
0.0
  0
LINE
  8
0
  6
CONTINUOUS
 62
     7
  5
630
 10
-0.515024
 20
-5.073365
 30
0.0
 11
-0.529819
 21
-5.103924
 31
0.0
  0
LINE
  8
0
  6
CONTINUOUS
 62
     7
  5
631
 10
-0.529819
 20
-5.103924
 30
0.0
 11
-0.549489
 21
-5.130788
 31
0.0
  0
LINE
  8
0
  6
CONTINUOUS
 62
     7
  5
632
 10
-0.549489
 20
-5.130788
 30
0.0
 11
-0.572987
 21
-5.153194
 31
0.0
  0
LINE
  8
0
  6
CONTINUOUS
 62
     7
  5
633
 10
-0.572987
 20
-5.153194
 30
0.0
 11
-0.60094
 21
-5.171663
 31
0.0
  0
LINE
  8
0
  6
CONTINUOUS
 62
     7
  5
634
 10
-0.60094
 20
-5.171663
 30
0.0
 11
-0.632117
 21
-5.184931
 31
0.0
  0
LINE
  8
0
  6
CONTINUOUS
 62
     7
  5
635
 10
-0.632117
 20
-5.184931
 30
0.0
 11
-0.664834
 21
-5.192272
 31
0.0
  0
LINE
  8
0
  6
CONTINUOUS
 62
     7
  5
636
 10
-0.664834
 20
-5.192272
 30
0.0
 11
-0.69722
 21
-5.193668
 31
0.0
  0
LINE
  8
0
  6
CONTINUOUS
 62
     7
  5
637
 10
-0.69722
 20
-5.193668
 30
0.0
 11
-0.729944
 21
-5.189284
 31
0.0
  0
LINE
  8
0
  6
CONTINUOUS
 62
     7
  5
638
 10
-0.729944
 20
-5.189284
 30
0.0
 11
-0.762055
 21
-5.178889
 31
0.0
  0
LINE
  8
0
  6
CONTINUOUS
 62
     7
  5
639
 10
-0.762055
 20
-5.178889
 30
0.0
 11
-0.791731
 21
-5.162876
 31
0.0
  0
LINE
  8
0
  6
CONTINUOUS
 62
     7
  5
63A
 10
-0.791731
 20
-5.162876
 30
0.0
 11
-0.817434
 21
-5.142332
 31
0.0
  0
LINE
  8
0
  6
CONTINUOUS
 62
     7
  5
63B
 10
-0.817434
 20
-5.142332
 30
0.0
 11
-0.83892
 21
-5.117837
 31
0.0
  0
LINE
  8
0
  6
CONTINUOUS
 62
     7
  5
63C
 10
-0.83892
 20
-5.117837
 30
0.0
 11
-0.856286
 21
-5.088967
 31
0.0
  0
LINE
  8
0
  6
CONTINUOUS
 62
     7
  5
63D
 10
-0.856286
 20
-5.088967
 30
0.0
 11
-0.868224
 21
-5.057182
 31
0.0
  0
LINE
  8
0
  6
CONTINUOUS
 62
     7
  5
63E
 10
-0.868224
 20
-5.057182
 30
0.0
 11
-0.874138
 21
-5.02425
 31
0.0
  0
LINE
  8
0
  6
CONTINUOUS
 62
     7
  5
63F
 10
-0.874138
 20
-5.02425
 30
0.0
 11
-0.874138
 21
-4.99175
 31
0.0
  0
LINE
  8
0
  6
CONTINUOUS
 62
     7
  5
640
 10
-0.874138
 20
-4.99175
 30
0.0
 11
-0.868224
 21
-4.958818
 31
0.0
  0
LINE
  8
0
  6
CONTINUOUS
 62
     7
  5
641
 10
-0.868224
 20
-4.958818
 30
0.0
 11
-0.856286
 21
-4.927033
 31
0.0
  0
LINE
  8
0
  6
CONTINUOUS
 62
     7
  5
642
 10
-0.856286
 20
-4.927033
 30
0.0
 11
-0.83892
 21
-4.898163
 31
0.0
  0
LINE
  8
0
  6
CONTINUOUS
 62
     7
  5
643
 10
-0.83892
 20
-4.898163
 30
0.0
 11
-0.817434
 21
-4.873668
 31
0.0
  0
LINE
  8
0
  6
CONTINUOUS
 62
     7
  5
644
 10
-0.817434
 20
-4.873668
 30
0.0
 11
-0.791731
 21
-4.853124
 31
0.0
  0
LINE
  8
0
  6
CONTINUOUS
 62
     7
  5
645
 10
-0.791731
 20
-4.853124
 30
0.0
 11
-0.762055
 21
-4.837111
 31
0.0
  0
LINE
  8
0
  6
CONTINUOUS
 62
     7
  5
646
 10
-0.762055
 20
-4.837111
 30
0.0
 11
-0.729944
 21
-4.826716
 31
0.0
  0
LINE
  8
0
  6
CONTINUOUS
 62
     7
  5
647
 10
-0.729944
 20
-4.826716
 30
0.0
 11
-0.69722
 21
-4.822332
 31
0.0
  0
LINE
  8
0
  6
CONTINUOUS
 62
     7
  5
648
 10
-0.69722
 20
-4.822332
 30
0.0
 11
-0.664834
 21
-4.823728
 31
0.0
  0
LINE
  8
0
  6
CONTINUOUS
 62
     7
  5
649
 10
-0.664834
 20
-4.823728
 30
0.0
 11
-0.632117
 21
-4.831069
 31
0.0
  0
LINE
  8
0
  6
CONTINUOUS
 62
     7
  5
64A
 10
-0.632117
 20
-4.831069
 30
0.0
 11
-0.60094
 21
-4.844337
 31
0.0
  0
LINE
  8
0
  6
CONTINUOUS
 62
     7
  5
64B
 10
-0.60094
 20
-4.844337
 30
0.0
 11
-0.572987
 21
-4.862806
 31
0.0
  0
LINE
  8
0
  6
CONTINUOUS
 62
     7
  5
64C
 10
-0.572987
 20
-4.862806
 30
0.0
 11
-0.549489
 21
-4.885212
 31
0.0
  0
LINE
  8
0
  6
CONTINUOUS
 62
     7
  5
64D
 10
-0.549489
 20
-4.885212
 30
0.0
 11
-0.529819
 21
-4.912076
 31
0.0
  0
LINE
  8
0
  6
CONTINUOUS
 62
     7
  5
64E
 10
-0.529819
 20
-4.912076
 30
0.0
 11
-0.515024
 21
-4.942635
 31
0.0
  0
LINE
  8
0
  6
CONTINUOUS
 62
     7
  5
64F
 10
-0.515024
 20
-4.942635
 30
0.0
 11
-0.506057
 21
-4.97526
 31
0.0
  0
LINE
  8
0
  6
CONTINUOUS
 62
     7
  5
650
 10
-0.506057
 20
-4.97526
 30
0.0
 11
-0.50315
 21
-5.008
 31
0.0
  0
LINE
  8
0
  6
CONTINUOUS
 62
     7
  5
651
 10
0.87485
 20
-5.008
 30
0.0
 11
0.871945
 21
-5.040733
 31
0.0
  0
LINE
  8
0
  6
CONTINUOUS
 62
     7
  5
652
 10
0.871945
 20
-5.040733
 30
0.0
 11
0.862986
 21
-5.073338
 31
0.0
  0
LINE
  8
0
  6
CONTINUOUS
 62
     7
  5
653
 10
0.862986
 20
-5.073338
 30
0.0
 11
0.848216
 21
-5.103866
 31
0.0
  0
LINE
  8
0
  6
CONTINUOUS
 62
     7
  5
654
 10
0.848216
 20
-5.103866
 30
0.0
 11
0.828591
 21
-5.130697
 31
0.0
  0
LINE
  8
0
  6
CONTINUOUS
 62
     7
  5
655
 10
0.828591
 20
-5.130697
 30
0.0
 11
0.805164
 21
-5.153073
 31
0.0
  0
LINE
  8
0
  6
CONTINUOUS
 62
     7
  5
656
 10
0.805164
 20
-5.153073
 30
0.0
 11
0.777298
 21
-5.171535
 31
0.0
  0
LINE
  8
0
  6
CONTINUOUS
 62
     7
  5
657
 10
0.777298
 20
-5.171535
 30
0.0
 11
0.7462
 21
-5.184829
 31
0.0
  0
LINE
  8
0
  6
CONTINUOUS
 62
     7
  5
658
 10
0.7462
 20
-5.184829
 30
0.0
 11
0.713531
 21
-5.192224
 31
0.0
  0
LINE
  8
0
  6
CONTINUOUS
 62
     7
  5
659
 10
0.713531
 20
-5.192224
 30
0.0
 11
0.68115
 21
-5.193684
 31
0.0
  0
LINE
  8
0
  6
CONTINUOUS
 62
     7
  5
65A
 10
0.68115
 20
-5.193684
 30
0.0
 11
0.648403
 21
-5.189362
 31
0.0
  0
LINE
  8
0
  6
CONTINUOUS
 62
     7
  5
65B
 10
0.648403
 20
-5.189362
 30
0.0
 11
0.616225
 21
-5.179009
 31
0.0
  0
LINE
  8
0
  6
CONTINUOUS
 62
     7
  5
65C
 10
0.616225
 20
-5.179009
 30
0.0
 11
0.586463
 21
-5.163004
 31
0.0
  0
LINE
  8
0
  6
CONTINUOUS
 62
     7
  5
65D
 10
0.586463
 20
-5.163004
 30
0.0
 11
0.560678
 21
-5.142439
 31
0.0
  0
LINE
  8
0
  6
CONTINUOUS
 62
     7
  5
65E
 10
0.560678
 20
-5.142439
 30
0.0
 11
0.539134
 21
-5.117912
 31
0.0
  0
LINE
  8
0
  6
CONTINUOUS
 62
     7
  5
65F
 10
0.539134
 20
-5.117912
 30
0.0
 11
0.521734
 21
-5.089009
 31
0.0
  0
LINE
  8
0
  6
CONTINUOUS
 62
     7
  5
660
 10
0.521734
 20
-5.089009
 30
0.0
 11
0.50978
 21
-5.057198
 31
0.0
  0
LINE
  8
0
  6
CONTINUOUS
 62
     7
  5
661
 10
0.50978
 20
-5.057198
 30
0.0
 11
0.503862
 21
-5.024252
 31
0.0
  0
LINE
  8
0
  6
CONTINUOUS
 62
     7
  5
662
 10
0.503862
 20
-5.024252
 30
0.0
 11
0.503862
 21
-4.991748
 31
0.0
  0
LINE
  8
0
  6
CONTINUOUS
 62
     7
  5
663
 10
0.503862
 20
-4.991748
 30
0.0
 11
0.50978
 21
-4.958802
 31
0.0
  0
LINE
  8
0
  6
CONTINUOUS
 62
     7
  5
664
 10
0.50978
 20
-4.958802
 30
0.0
 11
0.521734
 21
-4.926991
 31
0.0
  0
LINE
  8
0
  6
CONTINUOUS
 62
     7
  5
665
 10
0.521734
 20
-4.926991
 30
0.0
 11
0.539134
 21
-4.898088
 31
0.0
  0
LINE
  8
0
  6
CONTINUOUS
 62
     7
  5
666
 10
0.539134
 20
-4.898088
 30
0.0
 11
0.560678
 21
-4.873561
 31
0.0
  0
LINE
  8
0
  6
CONTINUOUS
 62
     7
  5
667
 10
0.560678
 20
-4.873561
 30
0.0
 11
0.586463
 21
-4.852996
 31
0.0
  0
LINE
  8
0
  6
CONTINUOUS
 62
     7
  5
668
 10
0.586463
 20
-4.852996
 30
0.0
 11
0.616225
 21
-4.836991
 31
0.0
  0
LINE
  8
0
  6
CONTINUOUS
 62
     7
  5
669
 10
0.616225
 20
-4.836991
 30
0.0
 11
0.648403
 21
-4.826638
 31
0.0
  0
LINE
  8
0
  6
CONTINUOUS
 62
     7
  5
66A
 10
0.648403
 20
-4.826638
 30
0.0
 11
0.68115
 21
-4.822316
 31
0.0
  0
LINE
  8
0
  6
CONTINUOUS
 62
     7
  5
66B
 10
0.68115
 20
-4.822316
 30
0.0
 11
0.713531
 21
-4.823776
 31
0.0
  0
LINE
  8
0
  6
CONTINUOUS
 62
     7
  5
66C
 10
0.713531
 20
-4.823776
 30
0.0
 11
0.7462
 21
-4.831171
 31
0.0
  0
LINE
  8
0
  6
CONTINUOUS
 62
     7
  5
66D
 10
0.7462
 20
-4.831171
 30
0.0
 11
0.777298
 21
-4.844465
 31
0.0
  0
LINE
  8
0
  6
CONTINUOUS
 62
     7
  5
66E
 10
0.777298
 20
-4.844465
 30
0.0
 11
0.805164
 21
-4.862927
 31
0.0
  0
LINE
  8
0
  6
CONTINUOUS
 62
     7
  5
66F
 10
0.805164
 20
-4.862927
 30
0.0
 11
0.828591
 21
-4.885303
 31
0.0
  0
LINE
  8
0
  6
CONTINUOUS
 62
     7
  5
670
 10
0.828591
 20
-4.885303
 30
0.0
 11
0.848216
 21
-4.912134
 31
0.0
  0
LINE
  8
0
  6
CONTINUOUS
 62
     7
  5
671
 10
0.848216
 20
-4.912134
 30
0.0
 11
0.862986
 21
-4.942662
 31
0.0
  0
LINE
  8
0
  6
CONTINUOUS
 62
     7
  5
672
 10
0.862986
 20
-4.942662
 30
0.0
 11
0.871945
 21
-4.975267
 31
0.0
  0
LINE
  8
0
  6
CONTINUOUS
 62
     7
  5
673
 10
0.871945
 20
-4.975267
 30
0.0
 11
0.87485
 21
-5.008
 31
0.0
  0
LINE
  8
0
  6
CONTINUOUS
 62
     7
  5
674
 10
0.18585
 20
-5.008
 30
0.0
 11
0.18296
 21
-5.040649
 31
0.0
  0
LINE
  8
0
  6
CONTINUOUS
 62
     7
  5
675
 10
0.18296
 20
-5.040649
 30
0.0
 11
0.174039
 21
-5.073196
 31
0.0
  0
LINE
  8
0
  6
CONTINUOUS
 62
     7
  5
676
 10
0.174039
 20
-5.073196
 30
0.0
 11
0.159312
 21
-5.103708
 31
0.0
  0
LINE
  8
0
  6
CONTINUOUS
 62
     7
  5
677
 10
0.159312
 20
-5.103708
 30
0.0
 11
0.139707
 21
-5.130565
 31
0.0
  0
LINE
  8
0
  6
CONTINUOUS
 62
     7
  5
678
 10
0.139707
 20
-5.130565
 30
0.0
 11
0.116273
 21
-5.152986
 31
0.0
  0
LINE
  8
0
  6
CONTINUOUS
 62
     7
  5
679
 10
0.116273
 20
-5.152986
 30
0.0
 11
0.088362
 21
-5.1715
 31
0.0
  0
LINE
  8
0
  6
CONTINUOUS
 62
     7
  5
67A
 10
0.088362
 20
-5.1715
 30
0.0
 11
0.057182
 21
-5.184835
 31
0.0
  0
LINE
  8
0
  6
CONTINUOUS
 62
     7
  5
67B
 10
0.057182
 20
-5.184835
 30
0.0
 11
0.024414
 21
-5.192239
 31
0.0
  0
LINE
  8
0
  6
CONTINUOUS
 62
     7
  5
67C
 10
0.024414
 20
-5.192239
 30
0.0
 11
-0.008057
 21
-5.193675
 31
0.0
  0
LINE
  8
0
  6
CONTINUOUS
 62
     7
  5
67D
 10
-0.008057
 20
-5.193675
 30
0.0
 11
-0.040877
 21
-5.189299
 31
0.0
  0
LINE
  8
0
  6
CONTINUOUS
 62
     7
  5
67E
 10
-0.040877
 20
-5.189299
 30
0.0
 11
-0.073081
 21
-5.178878
 31
0.0
  0
LINE
  8
0
  6
CONTINUOUS
 62
     7
  5
67F
 10
-0.073081
 20
-5.178878
 30
0.0
 11
-0.102823
 21
-5.162815
 31
0.0
  0
LINE
  8
0
  6
CONTINUOUS
 62
     7
  5
680
 10
-0.102823
 20
-5.162815
 30
0.0
 11
-0.128546
 21
-5.142224
 31
0.0
  0
LINE
  8
0
  6
CONTINUOUS
 62
     7
  5
681
 10
-0.128546
 20
-5.142224
 30
0.0
 11
-0.150031
 21
-5.117686
 31
0.0
  0
LINE
  8
0
  6
CONTINUOUS
 62
     7
  5
682
 10
-0.150031
 20
-5.117686
 30
0.0
 11
-0.167361
 21
-5.088811
 31
0.0
  0
LINE
  8
0
  6
CONTINUOUS
 62
     7
  5
683
 10
-0.167361
 20
-5.088811
 30
0.0
 11
-0.179256
 21
-5.057065
 31
0.0
  0
LINE
  8
0
  6
CONTINUOUS
 62
     7
  5
684
 10
-0.179256
 20
-5.057065
 30
0.0
 11
-0.185142
 21
-5.024206
 31
0.0
  0
LINE
  8
0
  6
CONTINUOUS
 62
     7
  5
685
 10
-0.185142
 20
-5.024206
 30
0.0
 11
-0.185142
 21
-4.991794
 31
0.0
  0
LINE
  8
0
  6
CONTINUOUS
 62
     7
  5
686
 10
-0.185142
 20
-4.991794
 30
0.0
 11
-0.179256
 21
-4.958935
 31
0.0
  0
LINE
  8
0
  6
CONTINUOUS
 62
     7
  5
687
 10
-0.179256
 20
-4.958935
 30
0.0
 11
-0.167361
 21
-4.927189
 31
0.0
  0
LINE
  8
0
  6
CONTINUOUS
 62
     7
  5
688
 10
-0.167361
 20
-4.927189
 30
0.0
 11
-0.150031
 21
-4.898314
 31
0.0
  0
LINE
  8
0
  6
CONTINUOUS
 62
     7
  5
689
 10
-0.150031
 20
-4.898314
 30
0.0
 11
-0.128546
 21
-4.873776
 31
0.0
  0
LINE
  8
0
  6
CONTINUOUS
 62
     7
  5
68A
 10
-0.128546
 20
-4.873776
 30
0.0
 11
-0.102823
 21
-4.853185
 31
0.0
  0
LINE
  8
0
  6
CONTINUOUS
 62
     7
  5
68B
 10
-0.102823
 20
-4.853185
 30
0.0
 11
-0.073081
 21
-4.837122
 31
0.0
  0
LINE
  8
0
  6
CONTINUOUS
 62
     7
  5
68C
 10
-0.073081
 20
-4.837122
 30
0.0
 11
-0.040877
 21
-4.826701
 31
0.0
  0
LINE
  8
0
  6
CONTINUOUS
 62
     7
  5
68D
 10
-0.040877
 20
-4.826701
 30
0.0
 11
-0.008057
 21
-4.822325
 31
0.0
  0
LINE
  8
0
  6
CONTINUOUS
 62
     7
  5
68E
 10
-0.008057
 20
-4.822325
 30
0.0
 11
0.024414
 21
-4.823761
 31
0.0
  0
LINE
  8
0
  6
CONTINUOUS
 62
     7
  5
68F
 10
0.024414
 20
-4.823761
 30
0.0
 11
0.057182
 21
-4.831165
 31
0.0
  0
LINE
  8
0
  6
CONTINUOUS
 62
     7
  5
690
 10
0.057182
 20
-4.831165
 30
0.0
 11
0.088362
 21
-4.8445
 31
0.0
  0
LINE
  8
0
  6
CONTINUOUS
 62
     7
  5
691
 10
0.088362
 20
-4.8445
 30
0.0
 11
0.116273
 21
-4.863014
 31
0.0
  0
LINE
  8
0
  6
CONTINUOUS
 62
     7
  5
692
 10
0.116273
 20
-4.863014
 30
0.0
 11
0.139707
 21
-4.885435
 31
0.0
  0
LINE
  8
0
  6
CONTINUOUS
 62
     7
  5
693
 10
0.139707
 20
-4.885435
 30
0.0
 11
0.159312
 21
-4.912292
 31
0.0
  0
LINE
  8
0
  6
CONTINUOUS
 62
     7
  5
694
 10
0.159312
 20
-4.912292
 30
0.0
 11
0.174039
 21
-4.942804
 31
0.0
  0
LINE
  8
0
  6
CONTINUOUS
 62
     7
  5
695
 10
0.174039
 20
-4.942804
 30
0.0
 11
0.18296
 21
-4.975351
 31
0.0
  0
LINE
  8
0
  6
CONTINUOUS
 62
     7
  5
696
 10
0.18296
 20
-4.975351
 30
0.0
 11
0.18585
 21
-5.008
 31
0.0
  0
LINE
  8
0
  6
CONTINUOUS
 62
     7
  5
697
 10
-1.085
 20
-5.3878
 30
0.0
 11
1.085
 21
-5.3878
 31
0.0
  0
LINE
  8
0
  6
CONTINUOUS
 62
     7
  5
698
 10
1.085
 20
-4.7178
 30
0.0
 11
1.085
 21
-5.3878
 31
0.0
  0
LINE
  8
0
  6
CONTINUOUS
 62
     7
  5
699
 10
-1.085
 20
-4.7178
 30
0.0
 11
-1.085
 21
-5.3878
 31
0.0
  0
LINE
  8
0
  6
CONTINUOUS
 62
     7
  5
69A
 10
-1.085
 20
-4.7178
 30
0.0
 11
1.085
 21
-4.7178
 31
0.0
  0
LINE
  8
0
  6
CONTINUOUS
 62
     7
  5
69B
 10
0.815
 20
-4.09855
 30
0.0
 11
0.815
 21
-4.21471
 31
0.0
  0
LINE
  8
0
  6
CONTINUOUS
 62
     7
  5
69C
 10
0.437
 20
-4.21471
 30
0.0
 11
0.437
 21
-4.09855
 31
0.0
  0
LINE
  8
0
  6
CONTINUOUS
 62
     7
  5
69D
 10
0.8543
 20
-4.21471
 30
0.0
 11
0.815
 21
-4.21471
 31
0.0
  0
LINE
  8
0
  6
CONTINUOUS
 62
     7
  5
69E
 10
0.8543
 20
-4.09855
 30
0.0
 11
0.8543
 21
-4.21471
 31
0.0
  0
LINE
  8
0
  6
CONTINUOUS
 62
     7
  5
69F
 10
0.3977
 20
-4.09855
 30
0.0
 11
0.3977
 21
-4.21471
 31
0.0
  0
LINE
  8
0
  6
CONTINUOUS
 62
     7
  5
6A0
 10
0.0197
 20
-4.21471
 30
0.0
 11
0.0197
 21
-4.09855
 31
0.0
  0
LINE
  8
0
  6
CONTINUOUS
 62
     7
  5
6A1
 10
-0.0196
 20
-4.09855
 30
0.0
 11
-0.0196
 21
-4.21471
 31
0.0
  0
LINE
  8
0
  6
CONTINUOUS
 62
     7
  5
6A2
 10
0.0197
 20
-4.21471
 30
0.0
 11
-0.0196
 21
-4.21471
 31
0.0
  0
LINE
  8
0
  6
CONTINUOUS
 62
     7
  5
6A3
 10
0.437
 20
-4.21471
 30
0.0
 11
0.3977
 21
-4.21471
 31
0.0
  0
LINE
  8
0
  6
CONTINUOUS
 62
     7
  5
6A4
 10
-0.3976
 20
-4.21471
 30
0.0
 11
-0.3976
 21
-4.09855
 31
0.0
  0
LINE
  8
0
  6
CONTINUOUS
 62
     7
  5
6A5
 10
-0.3976
 20
-4.21471
 30
0.0
 11
-0.437
 21
-4.21471
 31
0.0
  0
LINE
  8
0
  6
CONTINUOUS
 62
     7
  5
6A6
 10
0.815
 20
-1.95089
 30
0.0
 11
0.815
 21
-2.06705
 31
0.0
  0
LINE
  8
0
  6
CONTINUOUS
 62
     7
  5
6A7
 10
0.437
 20
-2.06705
 30
0.0
 11
0.437
 21
-1.95089
 31
0.0
  0
LINE
  8
0
  6
CONTINUOUS
 62
     7
  5
6A8
 10
0.3977
 20
-1.95089
 30
0.0
 11
0.437
 21
-1.95089
 31
0.0
  0
LINE
  8
0
  6
CONTINUOUS
 62
     7
  5
6A9
 10
0.3977
 20
-1.95089
 30
0.0
 11
0.3977
 21
-2.06705
 31
0.0
  0
LINE
  8
0
  6
CONTINUOUS
 62
     7
  5
6AA
 10
0.815
 20
-1.95089
 30
0.0
 11
0.8543
 21
-1.95089
 31
0.0
  0
LINE
  8
0
  6
CONTINUOUS
 62
     7
  5
6AB
 10
0.0197
 20
-2.06705
 30
0.0
 11
0.0197
 21
-1.95089
 31
0.0
  0
LINE
  8
0
  6
CONTINUOUS
 62
     7
  5
6AC
 10
-0.0196
 20
-1.95089
 30
0.0
 11
0.0197
 21
-1.95089
 31
0.0
  0
LINE
  8
0
  6
CONTINUOUS
 62
     7
  5
6AD
 10
-0.0196
 20
-1.95089
 30
0.0
 11
-0.0196
 21
-2.06705
 31
0.0
  0
LINE
  8
0
  6
CONTINUOUS
 62
     7
  5
6AE
 10
-0.3976
 20
-2.06705
 30
0.0
 11
-0.3976
 21
-1.95089
 31
0.0
  0
LINE
  8
0
  6
CONTINUOUS
 62
     7
  5
6AF
 10
-0.437
 20
-1.95089
 30
0.0
 11
-0.3976
 21
-1.95089
 31
0.0
  0
LINE
  8
0
  6
CONTINUOUS
 62
     7
  5
6B0
 10
0.8543
 20
-1.95089
 30
0.0
 11
0.8543
 21
-2.06705
 31
0.0
  0
LINE
  8
0
  6
CONTINUOUS
 62
     7
  5
6B1
 10
-0.437
 20
-1.95089
 30
0.0
 11
-0.437
 21
-2.06705
 31
0.0
  0
LINE
  8
0
  6
CONTINUOUS
 62
     7
  5
6B2
 10
-0.437
 20
-4.09855
 30
0.0
 11
-0.437
 21
-4.21471
 31
0.0
  0
LINE
  8
0
  6
CONTINUOUS
 62
     7
  5
6B3
 10
0.506214
 20
-3.8427
 30
0.0
 11
0.508117
 21
-3.821257
 31
0.0
  0
LINE
  8
0
  6
CONTINUOUS
 62
     7
  5
6B4
 10
0.508117
 20
-3.821257
 30
0.0
 11
0.513987
 21
-3.799889
 31
0.0
  0
LINE
  8
0
  6
CONTINUOUS
 62
     7
  5
6B5
 10
0.513987
 20
-3.799889
 30
0.0
 11
0.523672
 21
-3.779871
 31
0.0
  0
LINE
  8
0
  6
CONTINUOUS
 62
     7
  5
6B6
 10
0.523672
 20
-3.779871
 30
0.0
 11
0.536552
 21
-3.76227
 31
0.0
  0
LINE
  8
0
  6
CONTINUOUS
 62
     7
  5
6B7
 10
0.536552
 20
-3.76227
 30
0.0
 11
0.551937
 21
-3.747588
 31
0.0
  0
LINE
  8
0
  6
CONTINUOUS
 62
     7
  5
6B8
 10
0.551937
 20
-3.747588
 30
0.0
 11
0.570244
 21
-3.73548
 31
0.0
  0
LINE
  8
0
  6
CONTINUOUS
 62
     7
  5
6B9
 10
0.570244
 20
-3.73548
 30
0.0
 11
0.590668
 21
-3.726777
 31
0.0
  0
LINE
  8
0
  6
CONTINUOUS
 62
     7
  5
6BA
 10
0.590668
 20
-3.726777
 30
0.0
 11
0.612109
 21
-3.721955
 31
0.0
  0
LINE
  8
0
  6
CONTINUOUS
 62
     7
  5
6BB
 10
0.612109
 20
-3.721955
 30
0.0
 11
0.63334
 21
-3.721031
 31
0.0
  0
LINE
  8
0
  6
CONTINUOUS
 62
     7
  5
6BC
 10
0.63334
 20
-3.721031
 30
0.0
 11
0.654796
 21
-3.723898
 31
0.0
  0
LINE
  8
0
  6
CONTINUOUS
 62
     7
  5
6BD
 10
0.654796
 20
-3.723898
 30
0.0
 11
0.675853
 21
-3.730709
 31
0.0
  0
LINE
  8
0
  6
CONTINUOUS
 62
     7
  5
6BE
 10
0.675853
 20
-3.730709
 30
0.0
 11
0.695314
 21
-3.741208
 31
0.0
  0
LINE
  8
0
  6
CONTINUOUS
 62
     7
  5
6BF
 10
0.695314
 20
-3.741208
 30
0.0
 11
0.712165
 21
-3.754677
 31
0.0
  0
LINE
  8
0
  6
CONTINUOUS
 62
     7
  5
6C0
 10
0.712165
 20
-3.754677
 30
0.0
 11
0.72625
 21
-3.770736
 31
0.0
  0
LINE
  8
0
  6
CONTINUOUS
 62
     7
  5
6C1
 10
0.72625
 20
-3.770736
 30
0.0
 11
0.737628
 21
-3.789658
 31
0.0
  0
LINE
  8
0
  6
CONTINUOUS
 62
     7
  5
6C2
 10
0.737628
 20
-3.789658
 30
0.0
 11
0.745448
 21
-3.810484
 31
0.0
  0
LINE
  8
0
  6
CONTINUOUS
 62
     7
  5
6C3
 10
0.745448
 20
-3.810484
 30
0.0
 11
0.74932
 21
-3.832057
 31
0.0
  0
LINE
  8
0
  6
CONTINUOUS
 62
     7
  5
6C4
 10
0.74932
 20
-3.832057
 30
0.0
 11
0.74932
 21
-3.853343
 31
0.0
  0
LINE
  8
0
  6
CONTINUOUS
 62
     7
  5
6C5
 10
0.74932
 20
-3.853343
 30
0.0
 11
0.745448
 21
-3.874916
 31
0.0
  0
LINE
  8
0
  6
CONTINUOUS
 62
     7
  5
6C6
 10
0.745448
 20
-3.874916
 30
0.0
 11
0.737628
 21
-3.895742
 31
0.0
  0
LINE
  8
0
  6
CONTINUOUS
 62
     7
  5
6C7
 10
0.737628
 20
-3.895742
 30
0.0
 11
0.72625
 21
-3.914664
 31
0.0
  0
LINE
  8
0
  6
CONTINUOUS
 62
     7
  5
6C8
 10
0.72625
 20
-3.914664
 30
0.0
 11
0.712165
 21
-3.930723
 31
0.0
  0
LINE
  8
0
  6
CONTINUOUS
 62
     7
  5
6C9
 10
0.712165
 20
-3.930723
 30
0.0
 11
0.695314
 21
-3.944192
 31
0.0
  0
LINE
  8
0
  6
CONTINUOUS
 62
     7
  5
6CA
 10
0.695314
 20
-3.944192
 30
0.0
 11
0.675853
 21
-3.954691
 31
0.0
  0
LINE
  8
0
  6
CONTINUOUS
 62
     7
  5
6CB
 10
0.675853
 20
-3.954691
 30
0.0
 11
0.654796
 21
-3.961502
 31
0.0
  0
LINE
  8
0
  6
CONTINUOUS
 62
     7
  5
6CC
 10
0.654796
 20
-3.961502
 30
0.0
 11
0.63334
 21
-3.964369
 31
0.0
  0
LINE
  8
0
  6
CONTINUOUS
 62
     7
  5
6CD
 10
0.63334
 20
-3.964369
 30
0.0
 11
0.612109
 21
-3.963445
 31
0.0
  0
LINE
  8
0
  6
CONTINUOUS
 62
     7
  5
6CE
 10
0.612109
 20
-3.963445
 30
0.0
 11
0.590668
 21
-3.958623
 31
0.0
  0
LINE
  8
0
  6
CONTINUOUS
 62
     7
  5
6CF
 10
0.590668
 20
-3.958623
 30
0.0
 11
0.570244
 21
-3.94992
 31
0.0
  0
LINE
  8
0
  6
CONTINUOUS
 62
     7
  5
6D0
 10
0.570244
 20
-3.94992
 30
0.0
 11
0.551937
 21
-3.937812
 31
0.0
  0
LINE
  8
0
  6
CONTINUOUS
 62
     7
  5
6D1
 10
0.551937
 20
-3.937812
 30
0.0
 11
0.536552
 21
-3.92313
 31
0.0
  0
LINE
  8
0
  6
CONTINUOUS
 62
     7
  5
6D2
 10
0.536552
 20
-3.92313
 30
0.0
 11
0.523672
 21
-3.905529
 31
0.0
  0
LINE
  8
0
  6
CONTINUOUS
 62
     7
  5
6D3
 10
0.523672
 20
-3.905529
 30
0.0
 11
0.513987
 21
-3.885511
 31
0.0
  0
LINE
  8
0
  6
CONTINUOUS
 62
     7
  5
6D4
 10
0.513987
 20
-3.885511
 30
0.0
 11
0.508117
 21
-3.864143
 31
0.0
  0
LINE
  8
0
  6
CONTINUOUS
 62
     7
  5
6D5
 10
0.508117
 20
-3.864143
 30
0.0
 11
0.506214
 21
-3.8427
 31
0.0
  0
LINE
  8
0
  6
CONTINUOUS
 62
     7
  5
6D6
 10
0.086914
 20
-3.8427
 30
0.0
 11
0.088809
 21
-3.8213
 31
0.0
  0
LINE
  8
0
  6
CONTINUOUS
 62
     7
  5
6D7
 10
0.088809
 20
-3.8213
 30
0.0
 11
0.094657
 21
-3.799967
 31
0.0
  0
LINE
  8
0
  6
CONTINUOUS
 62
     7
  5
6D8
 10
0.094657
 20
-3.799967
 30
0.0
 11
0.104313
 21
-3.779969
 31
0.0
  0
LINE
  8
0
  6
CONTINUOUS
 62
     7
  5
6D9
 10
0.104313
 20
-3.779969
 30
0.0
 11
0.117166
 21
-3.762368
 31
0.0
  0
LINE
  8
0
  6
CONTINUOUS
 62
     7
  5
6DA
 10
0.117166
 20
-3.762368
 30
0.0
 11
0.132528
 21
-3.747675
 31
0.0
  0
LINE
  8
0
  6
CONTINUOUS
 62
     7
  5
6DB
 10
0.132528
 20
-3.747675
 30
0.0
 11
0.150824
 21
-3.735545
 31
0.0
  0
LINE
  8
0
  6
CONTINUOUS
 62
     7
  5
6DC
 10
0.150824
 20
-3.735545
 30
0.0
 11
0.171259
 21
-3.726812
 31
0.0
  0
LINE
  8
0
  6
CONTINUOUS
 62
     7
  5
6DD
 10
0.171259
 20
-3.726812
 30
0.0
 11
0.192729
 21
-3.721966
 31
0.0
  0
LINE
  8
0
  6
CONTINUOUS
 62
     7
  5
6DE
 10
0.192729
 20
-3.721966
 30
0.0
 11
0.214002
 21
-3.721029
 31
0.0
  0
LINE
  8
0
  6
CONTINUOUS
 62
     7
  5
6DF
 10
0.214002
 20
-3.721029
 30
0.0
 11
0.235502
 21
-3.7239
 31
0.0
  0
LINE
  8
0
  6
CONTINUOUS
 62
     7
  5
6E0
 10
0.235502
 20
-3.7239
 30
0.0
 11
0.256597
 21
-3.730728
 31
0.0
  0
LINE
  8
0
  6
CONTINUOUS
 62
     7
  5
6E1
 10
0.256597
 20
-3.730728
 30
0.0
 11
0.27608
 21
-3.741252
 31
0.0
  0
LINE
  8
0
  6
CONTINUOUS
 62
     7
  5
6E2
 10
0.27608
 20
-3.741252
 30
0.0
 11
0.292932
 21
-3.754741
 31
0.0
  0
LINE
  8
0
  6
CONTINUOUS
 62
     7
  5
6E3
 10
0.292932
 20
-3.754741
 30
0.0
 11
0.307009
 21
-3.770818
 31
0.0
  0
LINE
  8
0
  6
CONTINUOUS
 62
     7
  5
6E4
 10
0.307009
 20
-3.770818
 30
0.0
 11
0.318367
 21
-3.789738
 31
0.0
  0
LINE
  8
0
  6
CONTINUOUS
 62
     7
  5
6E5
 10
0.318367
 20
-3.789738
 30
0.0
 11
0.326164
 21
-3.810542
 31
0.0
  0
LINE
  8
0
  6
CONTINUOUS
 62
     7
  5
6E6
 10
0.326164
 20
-3.810542
 30
0.0
 11
0.330022
 21
-3.832078
 31
0.0
  0
LINE
  8
0
  6
CONTINUOUS
 62
     7
  5
6E7
 10
0.330022
 20
-3.832078
 30
0.0
 11
0.330022
 21
-3.853322
 31
0.0
  0
LINE
  8
0
  6
CONTINUOUS
 62
     7
  5
6E8
 10
0.330022
 20
-3.853322
 30
0.0
 11
0.326164
 21
-3.874858
 31
0.0
  0
LINE
  8
0
  6
CONTINUOUS
 62
     7
  5
6E9
 10
0.326164
 20
-3.874858
 30
0.0
 11
0.318367
 21
-3.895662
 31
0.0
  0
LINE
  8
0
  6
CONTINUOUS
 62
     7
  5
6EA
 10
0.318367
 20
-3.895662
 30
0.0
 11
0.307009
 21
-3.914582
 31
0.0
  0
LINE
  8
0
  6
CONTINUOUS
 62
     7
  5
6EB
 10
0.307009
 20
-3.914582
 30
0.0
 11
0.292932
 21
-3.930659
 31
0.0
  0
LINE
  8
0
  6
CONTINUOUS
 62
     7
  5
6EC
 10
0.292932
 20
-3.930659
 30
0.0
 11
0.27608
 21
-3.944148
 31
0.0
  0
LINE
  8
0
  6
CONTINUOUS
 62
     7
  5
6ED
 10
0.27608
 20
-3.944148
 30
0.0
 11
0.256597
 21
-3.954672
 31
0.0
  0
LINE
  8
0
  6
CONTINUOUS
 62
     7
  5
6EE
 10
0.256597
 20
-3.954672
 30
0.0
 11
0.235502
 21
-3.9615
 31
0.0
  0
LINE
  8
0
  6
CONTINUOUS
 62
     7
  5
6EF
 10
0.235502
 20
-3.9615
 30
0.0
 11
0.214002
 21
-3.964371
 31
0.0
  0
LINE
  8
0
  6
CONTINUOUS
 62
     7
  5
6F0
 10
0.214002
 20
-3.964371
 30
0.0
 11
0.192729
 21
-3.963434
 31
0.0
  0
LINE
  8
0
  6
CONTINUOUS
 62
     7
  5
6F1
 10
0.192729
 20
-3.963434
 30
0.0
 11
0.171259
 21
-3.958588
 31
0.0
  0
LINE
  8
0
  6
CONTINUOUS
 62
     7
  5
6F2
 10
0.171259
 20
-3.958588
 30
0.0
 11
0.150824
 21
-3.949855
 31
0.0
  0
LINE
  8
0
  6
CONTINUOUS
 62
     7
  5
6F3
 10
0.150824
 20
-3.949855
 30
0.0
 11
0.132528
 21
-3.937725
 31
0.0
  0
LINE
  8
0
  6
CONTINUOUS
 62
     7
  5
6F4
 10
0.132528
 20
-3.937725
 30
0.0
 11
0.117166
 21
-3.923032
 31
0.0
  0
LINE
  8
0
  6
CONTINUOUS
 62
     7
  5
6F5
 10
0.117166
 20
-3.923032
 30
0.0
 11
0.104313
 21
-3.905431
 31
0.0
  0
LINE
  8
0
  6
CONTINUOUS
 62
     7
  5
6F6
 10
0.104313
 20
-3.905431
 30
0.0
 11
0.094657
 21
-3.885433
 31
0.0
  0
LINE
  8
0
  6
CONTINUOUS
 62
     7
  5
6F7
 10
0.094657
 20
-3.885433
 30
0.0
 11
0.088809
 21
-3.8641
 31
0.0
  0
LINE
  8
0
  6
CONTINUOUS
 62
     7
  5
6F8
 10
0.088809
 20
-3.8641
 30
0.0
 11
0.086914
 21
-3.8427
 31
0.0
  0
LINE
  8
0
  6
CONTINUOUS
 62
     7
  5
6F9
 10
-0.330486
 20
-3.8427
 30
0.0
 11
-0.328591
 21
-3.821301
 31
0.0
  0
LINE
  8
0
  6
CONTINUOUS
 62
     7
  5
6FA
 10
-0.328591
 20
-3.821301
 30
0.0
 11
-0.322744
 21
-3.799971
 31
0.0
  0
LINE
  8
0
  6
CONTINUOUS
 62
     7
  5
6FB
 10
-0.322744
 20
-3.799971
 30
0.0
 11
-0.313092
 21
-3.779977
 31
0.0
  0
LINE
  8
0
  6
CONTINUOUS
 62
     7
  5
6FC
 10
-0.313092
 20
-3.779977
 30
0.0
 11
-0.300245
 21
-3.762379
 31
0.0
  0
LINE
  8
0
  6
CONTINUOUS
 62
     7
  5
6FD
 10
-0.300245
 20
-3.762379
 30
0.0
 11
-0.284891
 21
-3.747691
 31
0.0
  0
LINE
  8
0
  6
CONTINUOUS
 62
     7
  5
6FE
 10
-0.284891
 20
-3.747691
 30
0.0
 11
-0.266607
 21
-3.735561
 31
0.0
  0
LINE
  8
0
  6
CONTINUOUS
 62
     7
  5
6FF
 10
-0.266607
 20
-3.735561
 30
0.0
 11
-0.246182
 21
-3.726825
 31
0.0
  0
LINE
  8
0
  6
CONTINUOUS
 62
     7
  5
700
 10
-0.246182
 20
-3.726825
 30
0.0
 11
-0.224718
 21
-3.721972
 31
0.0
  0
LINE
  8
0
  6
CONTINUOUS
 62
     7
  5
701
 10
-0.224718
 20
-3.721972
 30
0.0
 11
-0.203445
 21
-3.721027
 31
0.0
  0
LINE
  8
0
  6
CONTINUOUS
 62
     7
  5
702
 10
-0.203445
 20
-3.721027
 30
0.0
 11
-0.181943
 21
-3.72389
 31
0.0
  0
LINE
  8
0
  6
CONTINUOUS
 62
     7
  5
703
 10
-0.181943
 20
-3.72389
 30
0.0
 11
-0.160839
 21
-3.730713
 31
0.0
  0
LINE
  8
0
  6
CONTINUOUS
 62
     7
  5
704
 10
-0.160839
 20
-3.730713
 30
0.0
 11
-0.141345
 21
-3.741235
 31
0.0
  0
LINE
  8
0
  6
CONTINUOUS
 62
     7
  5
705
 10
-0.141345
 20
-3.741235
 30
0.0
 11
-0.124482
 21
-3.754728
 31
0.0
  0
LINE
  8
0
  6
CONTINUOUS
 62
     7
  5
706
 10
-0.124482
 20
-3.754728
 30
0.0
 11
-0.110397
 21
-3.770808
 31
0.0
  0
LINE
  8
0
  6
CONTINUOUS
 62
     7
  5
707
 10
-0.110397
 20
-3.770808
 30
0.0
 11
-0.099036
 21
-3.789732
 31
0.0
  0
LINE
  8
0
  6
CONTINUOUS
 62
     7
  5
708
 10
-0.099036
 20
-3.789732
 30
0.0
 11
-0.091237
 21
-3.81054
 31
0.0
  0
LINE
  8
0
  6
CONTINUOUS
 62
     7
  5
709
 10
-0.091237
 20
-3.81054
 30
0.0
 11
-0.087378
 21
-3.832078
 31
0.0
  0
LINE
  8
0
  6
CONTINUOUS
 62
     7
  5
70A
 10
-0.087378
 20
-3.832078
 30
0.0
 11
-0.087378
 21
-3.853322
 31
0.0
  0
LINE
  8
0
  6
CONTINUOUS
 62
     7
  5
70B
 10
-0.087378
 20
-3.853322
 30
0.0
 11
-0.091237
 21
-3.87486
 31
0.0
  0
LINE
  8
0
  6
CONTINUOUS
 62
     7
  5
70C
 10
-0.091237
 20
-3.87486
 30
0.0
 11
-0.099036
 21
-3.895668
 31
0.0
  0
LINE
  8
0
  6
CONTINUOUS
 62
     7
  5
70D
 10
-0.099036
 20
-3.895668
 30
0.0
 11
-0.110397
 21
-3.914592
 31
0.0
  0
LINE
  8
0
  6
CONTINUOUS
 62
     7
  5
70E
 10
-0.110397
 20
-3.914592
 30
0.0
 11
-0.124482
 21
-3.930672
 31
0.0
  0
LINE
  8
0
  6
CONTINUOUS
 62
     7
  5
70F
 10
-0.124482
 20
-3.930672
 30
0.0
 11
-0.141345
 21
-3.944165
 31
0.0
  0
LINE
  8
0
  6
CONTINUOUS
 62
     7
  5
710
 10
-0.141345
 20
-3.944165
 30
0.0
 11
-0.160839
 21
-3.954687
 31
0.0
  0
LINE
  8
0
  6
CONTINUOUS
 62
     7
  5
711
 10
-0.160839
 20
-3.954687
 30
0.0
 11
-0.181943
 21
-3.96151
 31
0.0
  0
LINE
  8
0
  6
CONTINUOUS
 62
     7
  5
712
 10
-0.181943
 20
-3.96151
 30
0.0
 11
-0.203445
 21
-3.964373
 31
0.0
  0
LINE
  8
0
  6
CONTINUOUS
 62
     7
  5
713
 10
-0.203445
 20
-3.964373
 30
0.0
 11
-0.224718
 21
-3.963428
 31
0.0
  0
LINE
  8
0
  6
CONTINUOUS
 62
     7
  5
714
 10
-0.224718
 20
-3.963428
 30
0.0
 11
-0.246182
 21
-3.958575
 31
0.0
  0
LINE
  8
0
  6
CONTINUOUS
 62
     7
  5
715
 10
-0.246182
 20
-3.958575
 30
0.0
 11
-0.266607
 21
-3.949839
 31
0.0
  0
LINE
  8
0
  6
CONTINUOUS
 62
     7
  5
716
 10
-0.266607
 20
-3.949839
 30
0.0
 11
-0.284891
 21
-3.937709
 31
0.0
  0
LINE
  8
0
  6
CONTINUOUS
 62
     7
  5
717
 10
-0.284891
 20
-3.937709
 30
0.0
 11
-0.300245
 21
-3.923021
 31
0.0
  0
LINE
  8
0
  6
CONTINUOUS
 62
     7
  5
718
 10
-0.300245
 20
-3.923021
 30
0.0
 11
-0.313092
 21
-3.905423
 31
0.0
  0
LINE
  8
0
  6
CONTINUOUS
 62
     7
  5
719
 10
-0.313092
 20
-3.905423
 30
0.0
 11
-0.322744
 21
-3.885429
 31
0.0
  0
LINE
  8
0
  6
CONTINUOUS
 62
     7
  5
71A
 10
-0.322744
 20
-3.885429
 30
0.0
 11
-0.328591
 21
-3.864099
 31
0.0
  0
LINE
  8
0
  6
CONTINUOUS
 62
     7
  5
71B
 10
-0.328591
 20
-3.864099
 30
0.0
 11
-0.330486
 21
-3.8427
 31
0.0
  0
LINE
  8
0
  6
CONTINUOUS
 62
     7
  5
71C
 10
0.506214
 20
-2.3229
 30
0.0
 11
0.508117
 21
-2.301457
 31
0.0
  0
LINE
  8
0
  6
CONTINUOUS
 62
     7
  5
71D
 10
0.508117
 20
-2.301457
 30
0.0
 11
0.513987
 21
-2.280089
 31
0.0
  0
LINE
  8
0
  6
CONTINUOUS
 62
     7
  5
71E
 10
0.513987
 20
-2.280089
 30
0.0
 11
0.523672
 21
-2.260071
 31
0.0
  0
LINE
  8
0
  6
CONTINUOUS
 62
     7
  5
71F
 10
0.523672
 20
-2.260071
 30
0.0
 11
0.536552
 21
-2.24247
 31
0.0
  0
LINE
  8
0
  6
CONTINUOUS
 62
     7
  5
720
 10
0.536552
 20
-2.24247
 30
0.0
 11
0.551937
 21
-2.227788
 31
0.0
  0
LINE
  8
0
  6
CONTINUOUS
 62
     7
  5
721
 10
0.551937
 20
-2.227788
 30
0.0
 11
0.570244
 21
-2.21568
 31
0.0
  0
LINE
  8
0
  6
CONTINUOUS
 62
     7
  5
722
 10
0.570244
 20
-2.21568
 30
0.0
 11
0.590668
 21
-2.206977
 31
0.0
  0
LINE
  8
0
  6
CONTINUOUS
 62
     7
  5
723
 10
0.590668
 20
-2.206977
 30
0.0
 11
0.612109
 21
-2.202155
 31
0.0
  0
LINE
  8
0
  6
CONTINUOUS
 62
     7
  5
724
 10
0.612109
 20
-2.202155
 30
0.0
 11
0.63334
 21
-2.201231
 31
0.0
  0
LINE
  8
0
  6
CONTINUOUS
 62
     7
  5
725
 10
0.63334
 20
-2.201231
 30
0.0
 11
0.654796
 21
-2.204098
 31
0.0
  0
LINE
  8
0
  6
CONTINUOUS
 62
     7
  5
726
 10
0.654796
 20
-2.204098
 30
0.0
 11
0.675853
 21
-2.210909
 31
0.0
  0
LINE
  8
0
  6
CONTINUOUS
 62
     7
  5
727
 10
0.675853
 20
-2.210909
 30
0.0
 11
0.695314
 21
-2.221408
 31
0.0
  0
LINE
  8
0
  6
CONTINUOUS
 62
     7
  5
728
 10
0.695314
 20
-2.221408
 30
0.0
 11
0.712165
 21
-2.234877
 31
0.0
  0
LINE
  8
0
  6
CONTINUOUS
 62
     7
  5
729
 10
0.712165
 20
-2.234877
 30
0.0
 11
0.72625
 21
-2.250936
 31
0.0
  0
LINE
  8
0
  6
CONTINUOUS
 62
     7
  5
72A
 10
0.72625
 20
-2.250936
 30
0.0
 11
0.737628
 21
-2.269858
 31
0.0
  0
LINE
  8
0
  6
CONTINUOUS
 62
     7
  5
72B
 10
0.737628
 20
-2.269858
 30
0.0
 11
0.745448
 21
-2.290684
 31
0.0
  0
LINE
  8
0
  6
CONTINUOUS
 62
     7
  5
72C
 10
0.745448
 20
-2.290684
 30
0.0
 11
0.74932
 21
-2.312257
 31
0.0
  0
LINE
  8
0
  6
CONTINUOUS
 62
     7
  5
72D
 10
0.74932
 20
-2.312257
 30
0.0
 11
0.74932
 21
-2.333543
 31
0.0
  0
LINE
  8
0
  6
CONTINUOUS
 62
     7
  5
72E
 10
0.74932
 20
-2.333543
 30
0.0
 11
0.745448
 21
-2.355116
 31
0.0
  0
LINE
  8
0
  6
CONTINUOUS
 62
     7
  5
72F
 10
0.745448
 20
-2.355116
 30
0.0
 11
0.737628
 21
-2.375942
 31
0.0
  0
LINE
  8
0
  6
CONTINUOUS
 62
     7
  5
730
 10
0.737628
 20
-2.375942
 30
0.0
 11
0.72625
 21
-2.394864
 31
0.0
  0
LINE
  8
0
  6
CONTINUOUS
 62
     7
  5
731
 10
0.72625
 20
-2.394864
 30
0.0
 11
0.712165
 21
-2.410923
 31
0.0
  0
LINE
  8
0
  6
CONTINUOUS
 62
     7
  5
732
 10
0.712165
 20
-2.410923
 30
0.0
 11
0.695314
 21
-2.424392
 31
0.0
  0
LINE
  8
0
  6
CONTINUOUS
 62
     7
  5
733
 10
0.695314
 20
-2.424392
 30
0.0
 11
0.675853
 21
-2.434891
 31
0.0
  0
LINE
  8
0
  6
CONTINUOUS
 62
     7
  5
734
 10
0.675853
 20
-2.434891
 30
0.0
 11
0.654796
 21
-2.441702
 31
0.0
  0
LINE
  8
0
  6
CONTINUOUS
 62
     7
  5
735
 10
0.654796
 20
-2.441702
 30
0.0
 11
0.63334
 21
-2.444569
 31
0.0
  0
LINE
  8
0
  6
CONTINUOUS
 62
     7
  5
736
 10
0.63334
 20
-2.444569
 30
0.0
 11
0.612109
 21
-2.443645
 31
0.0
  0
LINE
  8
0
  6
CONTINUOUS
 62
     7
  5
737
 10
0.612109
 20
-2.443645
 30
0.0
 11
0.590668
 21
-2.438823
 31
0.0
  0
LINE
  8
0
  6
CONTINUOUS
 62
     7
  5
738
 10
0.590668
 20
-2.438823
 30
0.0
 11
0.570244
 21
-2.43012
 31
0.0
  0
LINE
  8
0
  6
CONTINUOUS
 62
     7
  5
739
 10
0.570244
 20
-2.43012
 30
0.0
 11
0.551937
 21
-2.418012
 31
0.0
  0
LINE
  8
0
  6
CONTINUOUS
 62
     7
  5
73A
 10
0.551937
 20
-2.418012
 30
0.0
 11
0.536552
 21
-2.40333
 31
0.0
  0
LINE
  8
0
  6
CONTINUOUS
 62
     7
  5
73B
 10
0.536552
 20
-2.40333
 30
0.0
 11
0.523672
 21
-2.385729
 31
0.0
  0
LINE
  8
0
  6
CONTINUOUS
 62
     7
  5
73C
 10
0.523672
 20
-2.385729
 30
0.0
 11
0.513987
 21
-2.365711
 31
0.0
  0
LINE
  8
0
  6
CONTINUOUS
 62
     7
  5
73D
 10
0.513987
 20
-2.365711
 30
0.0
 11
0.508117
 21
-2.344343
 31
0.0
  0
LINE
  8
0
  6
CONTINUOUS
 62
     7
  5
73E
 10
0.508117
 20
-2.344343
 30
0.0
 11
0.506214
 21
-2.3229
 31
0.0
  0
LINE
  8
0
  6
CONTINUOUS
 62
     7
  5
73F
 10
0.086914
 20
-2.3229
 30
0.0
 11
0.088809
 21
-2.3015
 31
0.0
  0
LINE
  8
0
  6
CONTINUOUS
 62
     7
  5
740
 10
0.088809
 20
-2.3015
 30
0.0
 11
0.094657
 21
-2.280167
 31
0.0
  0
LINE
  8
0
  6
CONTINUOUS
 62
     7
  5
741
 10
0.094657
 20
-2.280167
 30
0.0
 11
0.104313
 21
-2.260169
 31
0.0
  0
LINE
  8
0
  6
CONTINUOUS
 62
     7
  5
742
 10
0.104313
 20
-2.260169
 30
0.0
 11
0.117166
 21
-2.242568
 31
0.0
  0
LINE
  8
0
  6
CONTINUOUS
 62
     7
  5
743
 10
0.117166
 20
-2.242568
 30
0.0
 11
0.132528
 21
-2.227875
 31
0.0
  0
LINE
  8
0
  6
CONTINUOUS
 62
     7
  5
744
 10
0.132528
 20
-2.227875
 30
0.0
 11
0.150824
 21
-2.215745
 31
0.0
  0
LINE
  8
0
  6
CONTINUOUS
 62
     7
  5
745
 10
0.150824
 20
-2.215745
 30
0.0
 11
0.171259
 21
-2.207012
 31
0.0
  0
LINE
  8
0
  6
CONTINUOUS
 62
     7
  5
746
 10
0.171259
 20
-2.207012
 30
0.0
 11
0.192729
 21
-2.202166
 31
0.0
  0
LINE
  8
0
  6
CONTINUOUS
 62
     7
  5
747
 10
0.192729
 20
-2.202166
 30
0.0
 11
0.214002
 21
-2.201229
 31
0.0
  0
LINE
  8
0
  6
CONTINUOUS
 62
     7
  5
748
 10
0.214002
 20
-2.201229
 30
0.0
 11
0.235502
 21
-2.2041
 31
0.0
  0
LINE
  8
0
  6
CONTINUOUS
 62
     7
  5
749
 10
0.235502
 20
-2.2041
 30
0.0
 11
0.256597
 21
-2.210928
 31
0.0
  0
LINE
  8
0
  6
CONTINUOUS
 62
     7
  5
74A
 10
0.256597
 20
-2.210928
 30
0.0
 11
0.27608
 21
-2.221452
 31
0.0
  0
LINE
  8
0
  6
CONTINUOUS
 62
     7
  5
74B
 10
0.27608
 20
-2.221452
 30
0.0
 11
0.292932
 21
-2.234941
 31
0.0
  0
LINE
  8
0
  6
CONTINUOUS
 62
     7
  5
74C
 10
0.292932
 20
-2.234941
 30
0.0
 11
0.307009
 21
-2.251018
 31
0.0
  0
LINE
  8
0
  6
CONTINUOUS
 62
     7
  5
74D
 10
0.307009
 20
-2.251018
 30
0.0
 11
0.318367
 21
-2.269938
 31
0.0
  0
LINE
  8
0
  6
CONTINUOUS
 62
     7
  5
74E
 10
0.318367
 20
-2.269938
 30
0.0
 11
0.326164
 21
-2.290742
 31
0.0
  0
LINE
  8
0
  6
CONTINUOUS
 62
     7
  5
74F
 10
0.326164
 20
-2.290742
 30
0.0
 11
0.330022
 21
-2.312278
 31
0.0
  0
LINE
  8
0
  6
CONTINUOUS
 62
     7
  5
750
 10
0.330022
 20
-2.312278
 30
0.0
 11
0.330022
 21
-2.333522
 31
0.0
  0
LINE
  8
0
  6
CONTINUOUS
 62
     7
  5
751
 10
0.330022
 20
-2.333522
 30
0.0
 11
0.326164
 21
-2.355058
 31
0.0
  0
LINE
  8
0
  6
CONTINUOUS
 62
     7
  5
752
 10
0.326164
 20
-2.355058
 30
0.0
 11
0.318367
 21
-2.375862
 31
0.0
  0
LINE
  8
0
  6
CONTINUOUS
 62
     7
  5
753
 10
0.318367
 20
-2.375862
 30
0.0
 11
0.307009
 21
-2.394782
 31
0.0
  0
LINE
  8
0
  6
CONTINUOUS
 62
     7
  5
754
 10
0.307009
 20
-2.394782
 30
0.0
 11
0.292932
 21
-2.410859
 31
0.0
  0
LINE
  8
0
  6
CONTINUOUS
 62
     7
  5
755
 10
0.292932
 20
-2.410859
 30
0.0
 11
0.27608
 21
-2.424348
 31
0.0
  0
LINE
  8
0
  6
CONTINUOUS
 62
     7
  5
756
 10
0.27608
 20
-2.424348
 30
0.0
 11
0.256597
 21
-2.434872
 31
0.0
  0
LINE
  8
0
  6
CONTINUOUS
 62
     7
  5
757
 10
0.256597
 20
-2.434872
 30
0.0
 11
0.235502
 21
-2.4417
 31
0.0
  0
LINE
  8
0
  6
CONTINUOUS
 62
     7
  5
758
 10
0.235502
 20
-2.4417
 30
0.0
 11
0.214002
 21
-2.444571
 31
0.0
  0
LINE
  8
0
  6
CONTINUOUS
 62
     7
  5
759
 10
0.214002
 20
-2.444571
 30
0.0
 11
0.192729
 21
-2.443634
 31
0.0
  0
LINE
  8
0
  6
CONTINUOUS
 62
     7
  5
75A
 10
0.192729
 20
-2.443634
 30
0.0
 11
0.171259
 21
-2.438788
 31
0.0
  0
LINE
  8
0
  6
CONTINUOUS
 62
     7
  5
75B
 10
0.171259
 20
-2.438788
 30
0.0
 11
0.150824
 21
-2.430055
 31
0.0
  0
LINE
  8
0
  6
CONTINUOUS
 62
     7
  5
75C
 10
0.150824
 20
-2.430055
 30
0.0
 11
0.132528
 21
-2.417925
 31
0.0
  0
LINE
  8
0
  6
CONTINUOUS
 62
     7
  5
75D
 10
0.132528
 20
-2.417925
 30
0.0
 11
0.117166
 21
-2.403232
 31
0.0
  0
LINE
  8
0
  6
CONTINUOUS
 62
     7
  5
75E
 10
0.117166
 20
-2.403232
 30
0.0
 11
0.104313
 21
-2.385631
 31
0.0
  0
LINE
  8
0
  6
CONTINUOUS
 62
     7
  5
75F
 10
0.104313
 20
-2.385631
 30
0.0
 11
0.094657
 21
-2.365633
 31
0.0
  0
LINE
  8
0
  6
CONTINUOUS
 62
     7
  5
760
 10
0.094657
 20
-2.365633
 30
0.0
 11
0.088809
 21
-2.3443
 31
0.0
  0
LINE
  8
0
  6
CONTINUOUS
 62
     7
  5
761
 10
0.088809
 20
-2.3443
 30
0.0
 11
0.086914
 21
-2.3229
 31
0.0
  0
LINE
  8
0
  6
CONTINUOUS
 62
     7
  5
762
 10
-0.330486
 20
-2.3229
 30
0.0
 11
-0.328591
 21
-2.301501
 31
0.0
  0
LINE
  8
0
  6
CONTINUOUS
 62
     7
  5
763
 10
-0.328591
 20
-2.301501
 30
0.0
 11
-0.322744
 21
-2.280171
 31
0.0
  0
LINE
  8
0
  6
CONTINUOUS
 62
     7
  5
764
 10
-0.322744
 20
-2.280171
 30
0.0
 11
-0.313092
 21
-2.260177
 31
0.0
  0
LINE
  8
0
  6
CONTINUOUS
 62
     7
  5
765
 10
-0.313092
 20
-2.260177
 30
0.0
 11
-0.300245
 21
-2.242579
 31
0.0
  0
LINE
  8
0
  6
CONTINUOUS
 62
     7
  5
766
 10
-0.300245
 20
-2.242579
 30
0.0
 11
-0.284891
 21
-2.227891
 31
0.0
  0
LINE
  8
0
  6
CONTINUOUS
 62
     7
  5
767
 10
-0.284891
 20
-2.227891
 30
0.0
 11
-0.266607
 21
-2.215761
 31
0.0
  0
LINE
  8
0
  6
CONTINUOUS
 62
     7
  5
768
 10
-0.266607
 20
-2.215761
 30
0.0
 11
-0.246182
 21
-2.207025
 31
0.0
  0
LINE
  8
0
  6
CONTINUOUS
 62
     7
  5
769
 10
-0.246182
 20
-2.207025
 30
0.0
 11
-0.224718
 21
-2.202172
 31
0.0
  0
LINE
  8
0
  6
CONTINUOUS
 62
     7
  5
76A
 10
-0.224718
 20
-2.202172
 30
0.0
 11
-0.203445
 21
-2.201227
 31
0.0
  0
LINE
  8
0
  6
CONTINUOUS
 62
     7
  5
76B
 10
-0.203445
 20
-2.201227
 30
0.0
 11
-0.181943
 21
-2.20409
 31
0.0
  0
LINE
  8
0
  6
CONTINUOUS
 62
     7
  5
76C
 10
-0.181943
 20
-2.20409
 30
0.0
 11
-0.160839
 21
-2.210913
 31
0.0
  0
LINE
  8
0
  6
CONTINUOUS
 62
     7
  5
76D
 10
-0.160839
 20
-2.210913
 30
0.0
 11
-0.141345
 21
-2.221435
 31
0.0
  0
LINE
  8
0
  6
CONTINUOUS
 62
     7
  5
76E
 10
-0.141345
 20
-2.221435
 30
0.0
 11
-0.124482
 21
-2.234928
 31
0.0
  0
LINE
  8
0
  6
CONTINUOUS
 62
     7
  5
76F
 10
-0.124482
 20
-2.234928
 30
0.0
 11
-0.110397
 21
-2.251008
 31
0.0
  0
LINE
  8
0
  6
CONTINUOUS
 62
     7
  5
770
 10
-0.110397
 20
-2.251008
 30
0.0
 11
-0.099036
 21
-2.269932
 31
0.0
  0
LINE
  8
0
  6
CONTINUOUS
 62
     7
  5
771
 10
-0.099036
 20
-2.269932
 30
0.0
 11
-0.091237
 21
-2.29074
 31
0.0
  0
LINE
  8
0
  6
CONTINUOUS
 62
     7
  5
772
 10
-0.091237
 20
-2.29074
 30
0.0
 11
-0.087378
 21
-2.312278
 31
0.0
  0
LINE
  8
0
  6
CONTINUOUS
 62
     7
  5
773
 10
-0.087378
 20
-2.312278
 30
0.0
 11
-0.087378
 21
-2.333522
 31
0.0
  0
LINE
  8
0
  6
CONTINUOUS
 62
     7
  5
774
 10
-0.087378
 20
-2.333522
 30
0.0
 11
-0.091237
 21
-2.35506
 31
0.0
  0
LINE
  8
0
  6
CONTINUOUS
 62
     7
  5
775
 10
-0.091237
 20
-2.35506
 30
0.0
 11
-0.099036
 21
-2.375868
 31
0.0
  0
LINE
  8
0
  6
CONTINUOUS
 62
     7
  5
776
 10
-0.099036
 20
-2.375868
 30
0.0
 11
-0.110397
 21
-2.394792
 31
0.0
  0
LINE
  8
0
  6
CONTINUOUS
 62
     7
  5
777
 10
-0.110397
 20
-2.394792
 30
0.0
 11
-0.124482
 21
-2.410872
 31
0.0
  0
LINE
  8
0
  6
CONTINUOUS
 62
     7
  5
778
 10
-0.124482
 20
-2.410872
 30
0.0
 11
-0.141345
 21
-2.424365
 31
0.0
  0
LINE
  8
0
  6
CONTINUOUS
 62
     7
  5
779
 10
-0.141345
 20
-2.424365
 30
0.0
 11
-0.160839
 21
-2.434887
 31
0.0
  0
LINE
  8
0
  6
CONTINUOUS
 62
     7
  5
77A
 10
-0.160839
 20
-2.434887
 30
0.0
 11
-0.181943
 21
-2.44171
 31
0.0
  0
LINE
  8
0
  6
CONTINUOUS
 62
     7
  5
77B
 10
-0.181943
 20
-2.44171
 30
0.0
 11
-0.203445
 21
-2.444573
 31
0.0
  0
LINE
  8
0
  6
CONTINUOUS
 62
     7
  5
77C
 10
-0.203445
 20
-2.444573
 30
0.0
 11
-0.224718
 21
-2.443628
 31
0.0
  0
LINE
  8
0
  6
CONTINUOUS
 62
     7
  5
77D
 10
-0.224718
 20
-2.443628
 30
0.0
 11
-0.246182
 21
-2.438775
 31
0.0
  0
LINE
  8
0
  6
CONTINUOUS
 62
     7
  5
77E
 10
-0.246182
 20
-2.438775
 30
0.0
 11
-0.266607
 21
-2.430039
 31
0.0
  0
LINE
  8
0
  6
CONTINUOUS
 62
     7
  5
77F
 10
-0.266607
 20
-2.430039
 30
0.0
 11
-0.284891
 21
-2.417909
 31
0.0
  0
LINE
  8
0
  6
CONTINUOUS
 62
     7
  5
780
 10
-0.284891
 20
-2.417909
 30
0.0
 11
-0.300245
 21
-2.403221
 31
0.0
  0
LINE
  8
0
  6
CONTINUOUS
 62
     7
  5
781
 10
-0.300245
 20
-2.403221
 30
0.0
 11
-0.313092
 21
-2.385623
 31
0.0
  0
LINE
  8
0
  6
CONTINUOUS
 62
     7
  5
782
 10
-0.313092
 20
-2.385623
 30
0.0
 11
-0.322744
 21
-2.365629
 31
0.0
  0
LINE
  8
0
  6
CONTINUOUS
 62
     7
  5
783
 10
-0.322744
 20
-2.365629
 30
0.0
 11
-0.328591
 21
-2.344299
 31
0.0
  0
LINE
  8
0
  6
CONTINUOUS
 62
     7
  5
784
 10
-0.328591
 20
-2.344299
 30
0.0
 11
-0.330486
 21
-2.3229
 31
0.0
  0
LINE
  8
0
  6
CONTINUOUS
 62
     7
  5
785
 10
-1.085
 20
-4.09855
 30
0.0
 11
-1.085
 21
-3.6646
 31
0.0
  0
LINE
  8
0
  6
CONTINUOUS
 62
     7
  5
786
 10
-1.085
 20
-2.501
 30
0.0
 11
-1.085
 21
-3.6646
 31
0.0
  0
LINE
  8
0
  6
CONTINUOUS
 62
     7
  5
787
 10
-1.085
 20
-2.501
 30
0.0
 11
-1.085
 21
-2.06705
 31
0.0
  0
LINE
  8
0
  6
CONTINUOUS
 62
     7
  5
788
 10
1.085
 20
-4.09855
 30
0.0
 11
-1.085
 21
-4.09855
 31
0.0
  0
LINE
  8
0
  6
CONTINUOUS
 62
     7
  5
789
 10
1.085
 20
-2.501
 30
0.0
 11
1.085
 21
-2.06705
 31
0.0
  0
LINE
  8
0
  6
CONTINUOUS
 62
     7
  5
78A
 10
1.085
 20
-2.06705
 30
0.0
 11
-1.085
 21
-2.06705
 31
0.0
  0
LINE
  8
0
  6
CONTINUOUS
 62
     7
  5
78B
 10
1.085
 20
-4.09855
 30
0.0
 11
1.085
 21
-3.6646
 31
0.0
  0
LINE
  8
0
  6
CONTINUOUS
 62
     7
  5
78C
 10
1.085
 20
-3.6646
 30
0.0
 11
0.0
 21
-3.6646
 31
0.0
  0
LINE
  8
0
  6
CONTINUOUS
 62
     7
  5
78D
 10
1.085
 20
-2.501
 30
0.0
 11
1.085
 21
-3.6646
 31
0.0
  0
LINE
  8
0
  6
CONTINUOUS
 62
     7
  5
78E
 10
-1.085
 20
-2.501
 30
0.0
 11
0.0
 21
-2.501
 31
0.0
  0
LINE
  8
0
  6
CONTINUOUS
 62
     7
  5
78F
 10
0.0
 20
-2.501
 30
0.0
 11
1.085
 21
-2.501
 31
0.0
  0
LINE
  8
0
  6
CONTINUOUS
 62
     7
  5
790
 10
0.0
 20
-3.6646
 30
0.0
 11
-1.085
 21
-3.6646
 31
0.0
  0
LINE
  8
0
  6
CONTINUOUS
 62
     7
  5
791
 10
-0.88085
 20
-3.6636
 30
0.0
 11
0.88085
 21
-3.6636
 31
0.0
  0
LINE
  8
0
  6
CONTINUOUS
 62
     7
  5
792
 10
0.88085
 20
-2.502
 30
0.0
 11
0.88085
 21
-2.7009
 31
0.0
  0
LINE
  8
0
  6
CONTINUOUS
 62
     7
  5
793
 10
0.88085
 20
-2.7009
 30
0.0
 11
0.88085
 21
-3.0198
 31
0.0
  0
LINE
  8
0
  6
CONTINUOUS
 62
     7
  5
794
 10
0.88085
 20
-3.0198
 30
0.0
 11
0.88085
 21
-3.6636
 31
0.0
  0
LINE
  8
0
  6
CONTINUOUS
 62
     7
  5
795
 10
-0.7244
 20
-3.0198
 30
0.0
 11
-0.7244
 21
-2.7009
 31
0.0
  0
LINE
  8
0
  6
CONTINUOUS
 62
     7
  5
796
 10
-0.7244
 20
-2.7009
 30
0.0
 11
0.88085
 21
-2.7009
 31
0.0
  0
LINE
  8
0
  6
CONTINUOUS
 62
     7
  5
797
 10
0.88085
 20
-2.502
 30
0.0
 11
-0.88085
 21
-2.502
 31
0.0
  0
LINE
  8
0
  6
CONTINUOUS
 62
     7
  5
798
 10
0.88085
 20
-3.0198
 30
0.0
 11
-0.7244
 21
-3.0198
 31
0.0
  0
LINE
  8
0
  6
CONTINUOUS
 62
     7
  5
799
 10
-0.88085
 20
-2.502
 30
0.0
 11
-0.88085
 21
-3.6636
 31
0.0
  0
LINE
  8
0
  6
CONTINUOUS
 62
     7
  5
79A
 10
2.027706
 20
-0.630739
 30
0.0
 11
2.027706
 21
-0.7778
 31
0.0
  0
LINE
  8
0
  6
CONTINUOUS
 62
     7
  5
79B
 10
1.984862
 20
-0.587895
 30
0.0
 11
2.027706
 21
-0.630739
 31
0.0
  0
ARC
  8
0
  6
CONTINUOUS
 62
     7
  5
79C
 10
1.7718
 20
-1.128073
 30
0.0
 40
0.580679
 50
68.474246
 51
111.525754
  0
LINE
  8
0
  6
CONTINUOUS
 62
     7
  5
79D
 10
1.515894
 20
-0.630739
 30
0.0
 11
1.558738
 21
-0.587895
 31
0.0
  0
LINE
  8
0
  6
CONTINUOUS
 62
     7
  5
79E
 10
1.515894
 20
-0.7778
 30
0.0
 11
1.515894
 21
-0.630739
 31
0.0
  0
LINE
  8
0
  6
CONTINUOUS
 62
     7
  5
79F
 10
1.675343
 20
-0.7778
 30
0.0
 11
1.675343
 21
-0.689124
 31
0.0
  0
ARC
  8
0
  6
CONTINUOUS
 62
     7
  5
7A0
 10
1.734398
 20
-0.689124
 30
0.0
 40
0.059055
 50
90.0
 51
180.0
  0
LINE
  8
0
  6
CONTINUOUS
 62
     7
  5
7A1
 10
1.734398
 20
-0.630069
 30
0.0
 11
1.809202
 21
-0.630069
 31
0.0
  0
ARC
  8
0
  6
CONTINUOUS
 62
     7
  5
7A2
 10
1.809202
 20
-0.689124
 30
0.0
 40
0.059055
 50
0.0
 51
90.0
  0
LINE
  8
0
  6
CONTINUOUS
 62
     7
  5
7A3
 10
1.868257
 20
-0.689124
 30
0.0
 11
1.868257
 21
-0.7778
 31
0.0
  0
LINE
  8
0
  6
CONTINUOUS
 62
     7
  5
7A4
 10
3.507706
 20
-0.630739
 30
0.0
 11
3.507706
 21
-0.7778
 31
0.0
  0
LINE
  8
0
  6
CONTINUOUS
 62
     7
  5
7A5
 10
3.464862
 20
-0.587895
 30
0.0
 11
3.507706
 21
-0.630739
 31
0.0
  0
ARC
  8
0
  6
CONTINUOUS
 62
     7
  5
7A6
 10
3.2518
 20
-1.128073
 30
0.0
 40
0.580679
 50
68.474246
 51
111.525754
  0
LINE
  8
0
  6
CONTINUOUS
 62
     7
  5
7A7
 10
2.995894
 20
-0.630739
 30
0.0
 11
3.038738
 21
-0.587895
 31
0.0
  0
LINE
  8
0
  6
CONTINUOUS
 62
     7
  5
7A8
 10
2.995894
 20
-0.7778
 30
0.0
 11
2.995894
 21
-0.630739
 31
0.0
  0
LINE
  8
0
  6
CONTINUOUS
 62
     7
  5
7A9
 10
3.155343
 20
-0.7778
 30
0.0
 11
3.155343
 21
-0.689124
 31
0.0
  0
ARC
  8
0
  6
CONTINUOUS
 62
     7
  5
7AA
 10
3.214398
 20
-0.689124
 30
0.0
 40
0.059055
 50
90.0
 51
180.0
  0
LINE
  8
0
  6
CONTINUOUS
 62
     7
  5
7AB
 10
3.214398
 20
-0.630069
 30
0.0
 11
3.289202
 21
-0.630069
 31
0.0
  0
ARC
  8
0
  6
CONTINUOUS
 62
     7
  5
7AC
 10
3.289202
 20
-0.689124
 30
0.0
 40
0.059055
 50
0.0
 51
90.0
  0
LINE
  8
0
  6
CONTINUOUS
 62
     7
  5
7AD
 10
3.348257
 20
-0.689124
 30
0.0
 11
3.348257
 21
-0.7778
 31
0.0
  0
LINE
  8
0
  6
CONTINUOUS
 62
     7
  5
7AE
 10
2.712654
 20
-6.0228
 30
0.0
 11
2.310946
 21
-6.0228
 31
0.0
  0
ARC
  8
0
  6
CONTINUOUS
 62
     7
  5
7AF
 10
2.5118
 20
-5.7228
 30
0.0
 40
0.096457
 50
0.0
 51
180.0
  0
LINE
  8
0
  6
CONTINUOUS
 62
     7
  5
7B0
 10
2.608257
 20
-5.7228
 30
0.0
 11
2.608257
 21
-5.82911
 31
0.0
  0
ARC
  8
0
  6
CONTINUOUS
 62
     7
  5
7B1
 10
2.620057
 20
-5.82911
 30
0.0
 40
0.0118
 50
180.0
 51
270.0
  0
LINE
  8
0
  6
CONTINUOUS
 62
     7
  5
7B2
 10
2.620057
 20
-5.84091
 30
0.0
 11
2.627953
 21
-5.84091
 31
0.0
  0
ARC
  8
0
  6
CONTINUOUS
 62
     7
  5
7B3
 10
2.627953
 20
-5.85271
 30
0.0
 40
0.0118
 50
0.0
 51
90.0
  0
LINE
  8
0
  6
CONTINUOUS
 62
     7
  5
7B4
 10
2.639753
 20
-5.85271
 30
0.0
 11
2.639753
 21
-5.927535
 31
0.0
  0
ARC
  8
0
  6
CONTINUOUS
 62
     7
  5
7B5
 10
2.627953
 20
-5.927535
 30
0.0
 40
0.0118
 50
270.0
 51
0.0
  0
LINE
  8
0
  6
CONTINUOUS
 62
     7
  5
7B6
 10
2.627953
 20
-5.939335
 30
0.0
 11
2.395647
 21
-5.939335
 31
0.0
  0
ARC
  8
0
  6
CONTINUOUS
 62
     7
  5
7B7
 10
2.395647
 20
-5.927535
 30
0.0
 40
0.0118
 50
180.0
 51
270.0
  0
LINE
  8
0
  6
CONTINUOUS
 62
     7
  5
7B8
 10
2.383847
 20
-5.927535
 30
0.0
 11
2.383847
 21
-5.85271
 31
0.0
  0
ARC
  8
0
  6
CONTINUOUS
 62
     7
  5
7B9
 10
2.395647
 20
-5.85271
 30
0.0
 40
0.0118
 50
90.0
 51
180.0
  0
LINE
  8
0
  6
CONTINUOUS
 62
     7
  5
7BA
 10
2.395647
 20
-5.84091
 30
0.0
 11
2.403543
 21
-5.84091
 31
0.0
  0
ARC
  8
0
  6
CONTINUOUS
 62
     7
  5
7BB
 10
2.403543
 20
-5.82911
 30
0.0
 40
0.0118
 50
270.0
 51
0.0
  0
LINE
  8
0
  6
CONTINUOUS
 62
     7
  5
7BC
 10
2.415343
 20
-5.82911
 30
0.0
 11
2.415343
 21
-5.7228
 31
0.0
  0
LINE
  8
0
  6
CONTINUOUS
 62
     7
  5
7BD
 10
2.310946
 20
-6.0228
 30
0.0
 11
2.287346
 21
-6.0228
 31
0.0
  0
LINE
  8
0
  6
CONTINUOUS
 62
     7
  5
7BE
 10
2.287346
 20
-6.0228
 30
0.0
 11
2.287346
 21
-5.5503
 31
0.0
  0
LINE
  8
0
  6
CONTINUOUS
 62
     7
  5
7BF
 10
2.287346
 20
-6.0228
 30
0.0
 11
2.216546
 21
-6.0228
 31
0.0
  0
LINE
  8
0
  6
CONTINUOUS
 62
     7
  5
7C0
 10
2.157469
 20
-6.0228
 30
0.0
 11
2.157469
 21
-5.5503
 31
0.0
  0
LINE
  8
0
  6
CONTINUOUS
 62
     7
  5
7C1
 10
2.216546
 20
-6.0228
 30
0.0
 11
2.157469
 21
-6.0228
 31
0.0
  0
LINE
  8
0
  6
CONTINUOUS
 62
     7
  5
7C2
 10
2.866131
 20
-6.0228
 30
0.0
 11
2.866131
 21
-5.5503
 31
0.0
  0
LINE
  8
0
  6
CONTINUOUS
 62
     7
  5
7C3
 10
2.866131
 20
-6.0228
 30
0.0
 11
2.807054
 21
-6.0228
 31
0.0
  0
LINE
  8
0
  6
CONTINUOUS
 62
     7
  5
7C4
 10
2.736254
 20
-6.0228
 30
0.0
 11
2.736254
 21
-5.5503
 31
0.0
  0
LINE
  8
0
  6
CONTINUOUS
 62
     7
  5
7C5
 10
2.807054
 20
-6.0228
 30
0.0
 11
2.736254
 21
-6.0228
 31
0.0
  0
LINE
  8
0
  6
CONTINUOUS
 62
     7
  5
7C6
 10
2.736254
 20
-6.0228
 30
0.0
 11
2.712654
 21
-6.0228
 31
0.0
  0
LINE
  8
0
  6
CONTINUOUS
 62
     7
  5
7C7
 10
2.0818
 20
-5.3878
 30
0.0
 11
2.0818
 21
-5.5503
 31
0.0
  0
LINE
  8
0
  6
CONTINUOUS
 62
     7
  5
7C8
 10
2.9418
 20
-5.5503
 30
0.0
 11
2.0818
 21
-5.5503
 31
0.0
  0
LINE
  8
0
  6
CONTINUOUS
 62
     7
  5
7C9
 10
2.9418
 20
-5.5503
 30
0.0
 11
2.9418
 21
-5.3878
 31
0.0
  0
LINE
  8
0
  6
CONTINUOUS
 62
     7
  5
7CA
 10
1.638291
 20
-1.1796
 30
0.0
 11
2.007309
 21
-1.1796
 31
0.0
  0
LINE
  8
0
  6
CONTINUOUS
 62
     7
  5
7CB
 10
3.5968
 20
-1.4478
 30
0.0
 11
1.4268
 21
-1.4478
 31
0.0
  0
LINE
  8
0
  6
CONTINUOUS
 62
     7
  5
7CC
 10
1.4268
 20
-4.7178
 30
0.0
 11
1.4268
 21
-1.4478
 31
0.0
  0
LINE
  8
0
  6
CONTINUOUS
 62
     7
  5
7CD
 10
3.5968
 20
-4.7178
 30
0.0
 11
3.5968
 21
-1.4478
 31
0.0
  0
LINE
  8
0
  6
CONTINUOUS
 62
     7
  5
7CE
 10
3.5968
 20
-4.7178
 30
0.0
 11
1.4268
 21
-4.7178
 31
0.0
  0
LINE
  8
0
  6
CONTINUOUS
 62
     7
  5
7CF
 10
3.01495
 20
-1.1576
 30
0.0
 11
3.017857
 21
-1.12486
 31
0.0
  0
LINE
  8
0
  6
CONTINUOUS
 62
     7
  5
7D0
 10
3.017857
 20
-1.12486
 30
0.0
 11
3.026824
 21
-1.092235
 31
0.0
  0
LINE
  8
0
  6
CONTINUOUS
 62
     7
  5
7D1
 10
3.026824
 20
-1.092235
 30
0.0
 11
3.041619
 21
-1.061676
 31
0.0
  0
LINE
  8
0
  6
CONTINUOUS
 62
     7
  5
7D2
 10
3.041619
 20
-1.061676
 30
0.0
 11
3.061289
 21
-1.034812
 31
0.0
  0
LINE
  8
0
  6
CONTINUOUS
 62
     7
  5
7D3
 10
3.061289
 20
-1.034812
 30
0.0
 11
3.084787
 21
-1.012406
 31
0.0
  0
LINE
  8
0
  6
CONTINUOUS
 62
     7
  5
7D4
 10
3.084787
 20
-1.012406
 30
0.0
 11
3.11274
 21
-0.993937
 31
0.0
  0
LINE
  8
0
  6
CONTINUOUS
 62
     7
  5
7D5
 10
3.11274
 20
-0.993937
 30
0.0
 11
3.143917
 21
-0.980669
 31
0.0
  0
LINE
  8
0
  6
CONTINUOUS
 62
     7
  5
7D6
 10
3.143917
 20
-0.980669
 30
0.0
 11
3.176634
 21
-0.973328
 31
0.0
  0
LINE
  8
0
  6
CONTINUOUS
 62
     7
  5
7D7
 10
3.176634
 20
-0.973328
 30
0.0
 11
3.20902
 21
-0.971932
 31
0.0
  0
LINE
  8
0
  6
CONTINUOUS
 62
     7
  5
7D8
 10
3.20902
 20
-0.971932
 30
0.0
 11
3.241744
 21
-0.976316
 31
0.0
  0
LINE
  8
0
  6
CONTINUOUS
 62
     7
  5
7D9
 10
3.241744
 20
-0.976316
 30
0.0
 11
3.273855
 21
-0.986711
 31
0.0
  0
LINE
  8
0
  6
CONTINUOUS
 62
     7
  5
7DA
 10
3.273855
 20
-0.986711
 30
0.0
 11
3.303531
 21
-1.002724
 31
0.0
  0
LINE
  8
0
  6
CONTINUOUS
 62
     7
  5
7DB
 10
3.303531
 20
-1.002724
 30
0.0
 11
3.329234
 21
-1.023268
 31
0.0
  0
LINE
  8
0
  6
CONTINUOUS
 62
     7
  5
7DC
 10
3.329234
 20
-1.023268
 30
0.0
 11
3.35072
 21
-1.047763
 31
0.0
  0
LINE
  8
0
  6
CONTINUOUS
 62
     7
  5
7DD
 10
3.35072
 20
-1.047763
 30
0.0
 11
3.368086
 21
-1.076633
 31
0.0
  0
LINE
  8
0
  6
CONTINUOUS
 62
     7
  5
7DE
 10
3.368086
 20
-1.076633
 30
0.0
 11
3.380024
 21
-1.108418
 31
0.0
  0
LINE
  8
0
  6
CONTINUOUS
 62
     7
  5
7DF
 10
3.380024
 20
-1.108418
 30
0.0
 11
3.385938
 21
-1.14135
 31
0.0
  0
LINE
  8
0
  6
CONTINUOUS
 62
     7
  5
7E0
 10
3.385938
 20
-1.14135
 30
0.0
 11
3.385938
 21
-1.17385
 31
0.0
  0
LINE
  8
0
  6
CONTINUOUS
 62
     7
  5
7E1
 10
3.385938
 20
-1.17385
 30
0.0
 11
3.380024
 21
-1.206782
 31
0.0
  0
LINE
  8
0
  6
CONTINUOUS
 62
     7
  5
7E2
 10
3.380024
 20
-1.206782
 30
0.0
 11
3.368086
 21
-1.238567
 31
0.0
  0
LINE
  8
0
  6
CONTINUOUS
 62
     7
  5
7E3
 10
3.368086
 20
-1.238567
 30
0.0
 11
3.35072
 21
-1.267437
 31
0.0
  0
LINE
  8
0
  6
CONTINUOUS
 62
     7
  5
7E4
 10
3.35072
 20
-1.267437
 30
0.0
 11
3.329234
 21
-1.291932
 31
0.0
  0
LINE
  8
0
  6
CONTINUOUS
 62
     7
  5
7E5
 10
3.329234
 20
-1.291932
 30
0.0
 11
3.303531
 21
-1.312476
 31
0.0
  0
LINE
  8
0
  6
CONTINUOUS
 62
     7
  5
7E6
 10
3.303531
 20
-1.312476
 30
0.0
 11
3.273855
 21
-1.328489
 31
0.0
  0
LINE
  8
0
  6
CONTINUOUS
 62
     7
  5
7E7
 10
3.273855
 20
-1.328489
 30
0.0
 11
3.241744
 21
-1.338884
 31
0.0
  0
LINE
  8
0
  6
CONTINUOUS
 62
     7
  5
7E8
 10
3.241744
 20
-1.338884
 30
0.0
 11
3.20902
 21
-1.343268
 31
0.0
  0
LINE
  8
0
  6
CONTINUOUS
 62
     7
  5
7E9
 10
3.20902
 20
-1.343268
 30
0.0
 11
3.176634
 21
-1.341872
 31
0.0
  0
LINE
  8
0
  6
CONTINUOUS
 62
     7
  5
7EA
 10
3.176634
 20
-1.341872
 30
0.0
 11
3.143917
 21
-1.334531
 31
0.0
  0
LINE
  8
0
  6
CONTINUOUS
 62
     7
  5
7EB
 10
3.143917
 20
-1.334531
 30
0.0
 11
3.11274
 21
-1.321263
 31
0.0
  0
LINE
  8
0
  6
CONTINUOUS
 62
     7
  5
7EC
 10
3.11274
 20
-1.321263
 30
0.0
 11
3.084787
 21
-1.302794
 31
0.0
  0
LINE
  8
0
  6
CONTINUOUS
 62
     7
  5
7ED
 10
3.084787
 20
-1.302794
 30
0.0
 11
3.061289
 21
-1.280388
 31
0.0
  0
LINE
  8
0
  6
CONTINUOUS
 62
     7
  5
7EE
 10
3.061289
 20
-1.280388
 30
0.0
 11
3.041619
 21
-1.253524
 31
0.0
  0
LINE
  8
0
  6
CONTINUOUS
 62
     7
  5
7EF
 10
3.041619
 20
-1.253524
 30
0.0
 11
3.026824
 21
-1.222965
 31
0.0
  0
LINE
  8
0
  6
CONTINUOUS
 62
     7
  5
7F0
 10
3.026824
 20
-1.222965
 30
0.0
 11
3.017857
 21
-1.19034
 31
0.0
  0
LINE
  8
0
  6
CONTINUOUS
 62
     7
  5
7F1
 10
3.017857
 20
-1.19034
 30
0.0
 11
3.01495
 21
-1.1576
 31
0.0
  0
LINE
  8
0
  6
CONTINUOUS
 62
     7
  5
7F2
 10
1.63695
 20
-1.1576
 30
0.0
 11
1.639855
 21
-1.124867
 31
0.0
  0
LINE
  8
0
  6
CONTINUOUS
 62
     7
  5
7F3
 10
1.639855
 20
-1.124867
 30
0.0
 11
1.648814
 21
-1.092262
 31
0.0
  0
LINE
  8
0
  6
CONTINUOUS
 62
     7
  5
7F4
 10
1.648814
 20
-1.092262
 30
0.0
 11
1.663584
 21
-1.061734
 31
0.0
  0
LINE
  8
0
  6
CONTINUOUS
 62
     7
  5
7F5
 10
1.663584
 20
-1.061734
 30
0.0
 11
1.683209
 21
-1.034903
 31
0.0
  0
LINE
  8
0
  6
CONTINUOUS
 62
     7
  5
7F6
 10
1.683209
 20
-1.034903
 30
0.0
 11
1.706636
 21
-1.012527
 31
0.0
  0
LINE
  8
0
  6
CONTINUOUS
 62
     7
  5
7F7
 10
1.706636
 20
-1.012527
 30
0.0
 11
1.734502
 21
-0.994065
 31
0.0
  0
LINE
  8
0
  6
CONTINUOUS
 62
     7
  5
7F8
 10
1.734502
 20
-0.994065
 30
0.0
 11
1.7656
 21
-0.980771
 31
0.0
  0
LINE
  8
0
  6
CONTINUOUS
 62
     7
  5
7F9
 10
1.7656
 20
-0.980771
 30
0.0
 11
1.798269
 21
-0.973376
 31
0.0
  0
LINE
  8
0
  6
CONTINUOUS
 62
     7
  5
7FA
 10
1.798269
 20
-0.973376
 30
0.0
 11
1.83065
 21
-0.971916
 31
0.0
  0
LINE
  8
0
  6
CONTINUOUS
 62
     7
  5
7FB
 10
1.83065
 20
-0.971916
 30
0.0
 11
1.863397
 21
-0.976238
 31
0.0
  0
LINE
  8
0
  6
CONTINUOUS
 62
     7
  5
7FC
 10
1.863397
 20
-0.976238
 30
0.0
 11
1.895575
 21
-0.986591
 31
0.0
  0
LINE
  8
0
  6
CONTINUOUS
 62
     7
  5
7FD
 10
1.895575
 20
-0.986591
 30
0.0
 11
1.925337
 21
-1.002596
 31
0.0
  0
LINE
  8
0
  6
CONTINUOUS
 62
     7
  5
7FE
 10
1.925337
 20
-1.002596
 30
0.0
 11
1.951122
 21
-1.023161
 31
0.0
  0
LINE
  8
0
  6
CONTINUOUS
 62
     7
  5
7FF
 10
1.951122
 20
-1.023161
 30
0.0
 11
1.972666
 21
-1.047688
 31
0.0
  0
LINE
  8
0
  6
CONTINUOUS
 62
     7
  5
800
 10
1.972666
 20
-1.047688
 30
0.0
 11
1.990066
 21
-1.076591
 31
0.0
  0
LINE
  8
0
  6
CONTINUOUS
 62
     7
  5
801
 10
1.990066
 20
-1.076591
 30
0.0
 11
2.00202
 21
-1.108402
 31
0.0
  0
LINE
  8
0
  6
CONTINUOUS
 62
     7
  5
802
 10
2.00202
 20
-1.108402
 30
0.0
 11
2.007938
 21
-1.141348
 31
0.0
  0
LINE
  8
0
  6
CONTINUOUS
 62
     7
  5
803
 10
2.007938
 20
-1.141348
 30
0.0
 11
2.007938
 21
-1.173852
 31
0.0
  0
LINE
  8
0
  6
CONTINUOUS
 62
     7
  5
804
 10
2.007938
 20
-1.173852
 30
0.0
 11
2.00202
 21
-1.206798
 31
0.0
  0
LINE
  8
0
  6
CONTINUOUS
 62
     7
  5
805
 10
2.00202
 20
-1.206798
 30
0.0
 11
1.990066
 21
-1.238609
 31
0.0
  0
LINE
  8
0
  6
CONTINUOUS
 62
     7
  5
806
 10
1.990066
 20
-1.238609
 30
0.0
 11
1.972666
 21
-1.267512
 31
0.0
  0
LINE
  8
0
  6
CONTINUOUS
 62
     7
  5
807
 10
1.972666
 20
-1.267512
 30
0.0
 11
1.951122
 21
-1.292039
 31
0.0
  0
LINE
  8
0
  6
CONTINUOUS
 62
     7
  5
808
 10
1.951122
 20
-1.292039
 30
0.0
 11
1.925337
 21
-1.312604
 31
0.0
  0
LINE
  8
0
  6
CONTINUOUS
 62
     7
  5
809
 10
1.925337
 20
-1.312604
 30
0.0
 11
1.895575
 21
-1.328609
 31
0.0
  0
LINE
  8
0
  6
CONTINUOUS
 62
     7
  5
80A
 10
1.895575
 20
-1.328609
 30
0.0
 11
1.863397
 21
-1.338962
 31
0.0
  0
LINE
  8
0
  6
CONTINUOUS
 62
     7
  5
80B
 10
1.863397
 20
-1.338962
 30
0.0
 11
1.83065
 21
-1.343284
 31
0.0
  0
LINE
  8
0
  6
CONTINUOUS
 62
     7
  5
80C
 10
1.83065
 20
-1.343284
 30
0.0
 11
1.798269
 21
-1.341824
 31
0.0
  0
LINE
  8
0
  6
CONTINUOUS
 62
     7
  5
80D
 10
1.798269
 20
-1.341824
 30
0.0
 11
1.7656
 21
-1.334429
 31
0.0
  0
LINE
  8
0
  6
CONTINUOUS
 62
     7
  5
80E
 10
1.7656
 20
-1.334429
 30
0.0
 11
1.734502
 21
-1.321135
 31
0.0
  0
LINE
  8
0
  6
CONTINUOUS
 62
     7
  5
80F
 10
1.734502
 20
-1.321135
 30
0.0
 11
1.706636
 21
-1.302673
 31
0.0
  0
LINE
  8
0
  6
CONTINUOUS
 62
     7
  5
810
 10
1.706636
 20
-1.302673
 30
0.0
 11
1.683209
 21
-1.280297
 31
0.0
  0
LINE
  8
0
  6
CONTINUOUS
 62
     7
  5
811
 10
1.683209
 20
-1.280297
 30
0.0
 11
1.663584
 21
-1.253466
 31
0.0
  0
LINE
  8
0
  6
CONTINUOUS
 62
     7
  5
812
 10
1.663584
 20
-1.253466
 30
0.0
 11
1.648814
 21
-1.222938
 31
0.0
  0
LINE
  8
0
  6
CONTINUOUS
 62
     7
  5
813
 10
1.648814
 20
-1.222938
 30
0.0
 11
1.639855
 21
-1.190333
 31
0.0
  0
LINE
  8
0
  6
CONTINUOUS
 62
     7
  5
814
 10
1.639855
 20
-1.190333
 30
0.0
 11
1.63695
 21
-1.1576
 31
0.0
  0
LINE
  8
0
  6
CONTINUOUS
 62
     7
  5
815
 10
2.32595
 20
-1.1576
 30
0.0
 11
2.32884
 21
-1.124951
 31
0.0
  0
LINE
  8
0
  6
CONTINUOUS
 62
     7
  5
816
 10
2.32884
 20
-1.124951
 30
0.0
 11
2.337761
 21
-1.092404
 31
0.0
  0
LINE
  8
0
  6
CONTINUOUS
 62
     7
  5
817
 10
2.337761
 20
-1.092404
 30
0.0
 11
2.352488
 21
-1.061892
 31
0.0
  0
LINE
  8
0
  6
CONTINUOUS
 62
     7
  5
818
 10
2.352488
 20
-1.061892
 30
0.0
 11
2.372093
 21
-1.035035
 31
0.0
  0
LINE
  8
0
  6
CONTINUOUS
 62
     7
  5
819
 10
2.372093
 20
-1.035035
 30
0.0
 11
2.395527
 21
-1.012614
 31
0.0
  0
LINE
  8
0
  6
CONTINUOUS
 62
     7
  5
81A
 10
2.395527
 20
-1.012614
 30
0.0
 11
2.423438
 21
-0.9941
 31
0.0
  0
LINE
  8
0
  6
CONTINUOUS
 62
     7
  5
81B
 10
2.423438
 20
-0.9941
 30
0.0
 11
2.454618
 21
-0.980765
 31
0.0
  0
LINE
  8
0
  6
CONTINUOUS
 62
     7
  5
81C
 10
2.454618
 20
-0.980765
 30
0.0
 11
2.487386
 21
-0.973361
 31
0.0
  0
LINE
  8
0
  6
CONTINUOUS
 62
     7
  5
81D
 10
2.487386
 20
-0.973361
 30
0.0
 11
2.519857
 21
-0.971925
 31
0.0
  0
LINE
  8
0
  6
CONTINUOUS
 62
     7
  5
81E
 10
2.519857
 20
-0.971925
 30
0.0
 11
2.552677
 21
-0.976301
 31
0.0
  0
LINE
  8
0
  6
CONTINUOUS
 62
     7
  5
81F
 10
2.552677
 20
-0.976301
 30
0.0
 11
2.584881
 21
-0.986722
 31
0.0
  0
LINE
  8
0
  6
CONTINUOUS
 62
     7
  5
820
 10
2.584881
 20
-0.986722
 30
0.0
 11
2.614623
 21
-1.002785
 31
0.0
  0
LINE
  8
0
  6
CONTINUOUS
 62
     7
  5
821
 10
2.614623
 20
-1.002785
 30
0.0
 11
2.640346
 21
-1.023376
 31
0.0
  0
LINE
  8
0
  6
CONTINUOUS
 62
     7
  5
822
 10
2.640346
 20
-1.023376
 30
0.0
 11
2.661831
 21
-1.047914
 31
0.0
  0
LINE
  8
0
  6
CONTINUOUS
 62
     7
  5
823
 10
2.661831
 20
-1.047914
 30
0.0
 11
2.679161
 21
-1.076789
 31
0.0
  0
LINE
  8
0
  6
CONTINUOUS
 62
     7
  5
824
 10
2.679161
 20
-1.076789
 30
0.0
 11
2.691056
 21
-1.108535
 31
0.0
  0
LINE
  8
0
  6
CONTINUOUS
 62
     7
  5
825
 10
2.691056
 20
-1.108535
 30
0.0
 11
2.696942
 21
-1.141394
 31
0.0
  0
LINE
  8
0
  6
CONTINUOUS
 62
     7
  5
826
 10
2.696942
 20
-1.141394
 30
0.0
 11
2.696942
 21
-1.173806
 31
0.0
  0
LINE
  8
0
  6
CONTINUOUS
 62
     7
  5
827
 10
2.696942
 20
-1.173806
 30
0.0
 11
2.691056
 21
-1.206665
 31
0.0
  0
LINE
  8
0
  6
CONTINUOUS
 62
     7
  5
828
 10
2.691056
 20
-1.206665
 30
0.0
 11
2.679161
 21
-1.238411
 31
0.0
  0
LINE
  8
0
  6
CONTINUOUS
 62
     7
  5
829
 10
2.679161
 20
-1.238411
 30
0.0
 11
2.661831
 21
-1.267286
 31
0.0
  0
LINE
  8
0
  6
CONTINUOUS
 62
     7
  5
82A
 10
2.661831
 20
-1.267286
 30
0.0
 11
2.640346
 21
-1.291824
 31
0.0
  0
LINE
  8
0
  6
CONTINUOUS
 62
     7
  5
82B
 10
2.640346
 20
-1.291824
 30
0.0
 11
2.614623
 21
-1.312415
 31
0.0
  0
LINE
  8
0
  6
CONTINUOUS
 62
     7
  5
82C
 10
2.614623
 20
-1.312415
 30
0.0
 11
2.584881
 21
-1.328478
 31
0.0
  0
LINE
  8
0
  6
CONTINUOUS
 62
     7
  5
82D
 10
2.584881
 20
-1.328478
 30
0.0
 11
2.552677
 21
-1.338899
 31
0.0
  0
LINE
  8
0
  6
CONTINUOUS
 62
     7
  5
82E
 10
2.552677
 20
-1.338899
 30
0.0
 11
2.519857
 21
-1.343275
 31
0.0
  0
LINE
  8
0
  6
CONTINUOUS
 62
     7
  5
82F
 10
2.519857
 20
-1.343275
 30
0.0
 11
2.487386
 21
-1.341839
 31
0.0
  0
LINE
  8
0
  6
CONTINUOUS
 62
     7
  5
830
 10
2.487386
 20
-1.341839
 30
0.0
 11
2.454618
 21
-1.334435
 31
0.0
  0
LINE
  8
0
  6
CONTINUOUS
 62
     7
  5
831
 10
2.454618
 20
-1.334435
 30
0.0
 11
2.423438
 21
-1.3211
 31
0.0
  0
LINE
  8
0
  6
CONTINUOUS
 62
     7
  5
832
 10
2.423438
 20
-1.3211
 30
0.0
 11
2.395527
 21
-1.302586
 31
0.0
  0
LINE
  8
0
  6
CONTINUOUS
 62
     7
  5
833
 10
2.395527
 20
-1.302586
 30
0.0
 11
2.372093
 21
-1.280165
 31
0.0
  0
LINE
  8
0
  6
CONTINUOUS
 62
     7
  5
834
 10
2.372093
 20
-1.280165
 30
0.0
 11
2.352488
 21
-1.253308
 31
0.0
  0
LINE
  8
0
  6
CONTINUOUS
 62
     7
  5
835
 10
2.352488
 20
-1.253308
 30
0.0
 11
2.337761
 21
-1.222796
 31
0.0
  0
LINE
  8
0
  6
CONTINUOUS
 62
     7
  5
836
 10
2.337761
 20
-1.222796
 30
0.0
 11
2.32884
 21
-1.190249
 31
0.0
  0
LINE
  8
0
  6
CONTINUOUS
 62
     7
  5
837
 10
2.32884
 20
-1.190249
 30
0.0
 11
2.32595
 21
-1.1576
 31
0.0
  0
LINE
  8
0
  6
CONTINUOUS
 62
     7
  5
838
 10
3.5968
 20
-0.7778
 30
0.0
 11
1.4268
 21
-0.7778
 31
0.0
  0
LINE
  8
0
  6
CONTINUOUS
 62
     7
  5
839
 10
1.4268
 20
-1.4478
 30
0.0
 11
1.4268
 21
-0.7778
 31
0.0
  0
LINE
  8
0
  6
CONTINUOUS
 62
     7
  5
83A
 10
3.5968
 20
-1.4478
 30
0.0
 11
3.5968
 21
-0.7778
 31
0.0
  0
LINE
  8
0
  6
CONTINUOUS
 62
     7
  5
83B
 10
3.5968
 20
-1.4478
 30
0.0
 11
1.4268
 21
-1.4478
 31
0.0
  0
LINE
  8
0
  6
CONTINUOUS
 62
     7
  5
83C
 10
2.00865
 20
-5.008
 30
0.0
 11
2.005743
 21
-5.04074
 31
0.0
  0
LINE
  8
0
  6
CONTINUOUS
 62
     7
  5
83D
 10
2.005743
 20
-5.04074
 30
0.0
 11
1.996776
 21
-5.073365
 31
0.0
  0
LINE
  8
0
  6
CONTINUOUS
 62
     7
  5
83E
 10
1.996776
 20
-5.073365
 30
0.0
 11
1.981981
 21
-5.103924
 31
0.0
  0
LINE
  8
0
  6
CONTINUOUS
 62
     7
  5
83F
 10
1.981981
 20
-5.103924
 30
0.0
 11
1.962311
 21
-5.130788
 31
0.0
  0
LINE
  8
0
  6
CONTINUOUS
 62
     7
  5
840
 10
1.962311
 20
-5.130788
 30
0.0
 11
1.938813
 21
-5.153194
 31
0.0
  0
LINE
  8
0
  6
CONTINUOUS
 62
     7
  5
841
 10
1.938813
 20
-5.153194
 30
0.0
 11
1.91086
 21
-5.171663
 31
0.0
  0
LINE
  8
0
  6
CONTINUOUS
 62
     7
  5
842
 10
1.91086
 20
-5.171663
 30
0.0
 11
1.879683
 21
-5.184931
 31
0.0
  0
LINE
  8
0
  6
CONTINUOUS
 62
     7
  5
843
 10
1.879683
 20
-5.184931
 30
0.0
 11
1.846966
 21
-5.192272
 31
0.0
  0
LINE
  8
0
  6
CONTINUOUS
 62
     7
  5
844
 10
1.846966
 20
-5.192272
 30
0.0
 11
1.81458
 21
-5.193668
 31
0.0
  0
LINE
  8
0
  6
CONTINUOUS
 62
     7
  5
845
 10
1.81458
 20
-5.193668
 30
0.0
 11
1.781856
 21
-5.189284
 31
0.0
  0
LINE
  8
0
  6
CONTINUOUS
 62
     7
  5
846
 10
1.781856
 20
-5.189284
 30
0.0
 11
1.749745
 21
-5.178889
 31
0.0
  0
LINE
  8
0
  6
CONTINUOUS
 62
     7
  5
847
 10
1.749745
 20
-5.178889
 30
0.0
 11
1.720069
 21
-5.162876
 31
0.0
  0
LINE
  8
0
  6
CONTINUOUS
 62
     7
  5
848
 10
1.720069
 20
-5.162876
 30
0.0
 11
1.694366
 21
-5.142332
 31
0.0
  0
LINE
  8
0
  6
CONTINUOUS
 62
     7
  5
849
 10
1.694366
 20
-5.142332
 30
0.0
 11
1.67288
 21
-5.117837
 31
0.0
  0
LINE
  8
0
  6
CONTINUOUS
 62
     7
  5
84A
 10
1.67288
 20
-5.117837
 30
0.0
 11
1.655514
 21
-5.088967
 31
0.0
  0
LINE
  8
0
  6
CONTINUOUS
 62
     7
  5
84B
 10
1.655514
 20
-5.088967
 30
0.0
 11
1.643576
 21
-5.057182
 31
0.0
  0
LINE
  8
0
  6
CONTINUOUS
 62
     7
  5
84C
 10
1.643576
 20
-5.057182
 30
0.0
 11
1.637662
 21
-5.02425
 31
0.0
  0
LINE
  8
0
  6
CONTINUOUS
 62
     7
  5
84D
 10
1.637662
 20
-5.02425
 30
0.0
 11
1.637662
 21
-4.99175
 31
0.0
  0
LINE
  8
0
  6
CONTINUOUS
 62
     7
  5
84E
 10
1.637662
 20
-4.99175
 30
0.0
 11
1.643576
 21
-4.958818
 31
0.0
  0
LINE
  8
0
  6
CONTINUOUS
 62
     7
  5
84F
 10
1.643576
 20
-4.958818
 30
0.0
 11
1.655514
 21
-4.927033
 31
0.0
  0
LINE
  8
0
  6
CONTINUOUS
 62
     7
  5
850
 10
1.655514
 20
-4.927033
 30
0.0
 11
1.67288
 21
-4.898163
 31
0.0
  0
LINE
  8
0
  6
CONTINUOUS
 62
     7
  5
851
 10
1.67288
 20
-4.898163
 30
0.0
 11
1.694366
 21
-4.873668
 31
0.0
  0
LINE
  8
0
  6
CONTINUOUS
 62
     7
  5
852
 10
1.694366
 20
-4.873668
 30
0.0
 11
1.720069
 21
-4.853124
 31
0.0
  0
LINE
  8
0
  6
CONTINUOUS
 62
     7
  5
853
 10
1.720069
 20
-4.853124
 30
0.0
 11
1.749745
 21
-4.837111
 31
0.0
  0
LINE
  8
0
  6
CONTINUOUS
 62
     7
  5
854
 10
1.749745
 20
-4.837111
 30
0.0
 11
1.781856
 21
-4.826716
 31
0.0
  0
LINE
  8
0
  6
CONTINUOUS
 62
     7
  5
855
 10
1.781856
 20
-4.826716
 30
0.0
 11
1.81458
 21
-4.822332
 31
0.0
  0
LINE
  8
0
  6
CONTINUOUS
 62
     7
  5
856
 10
1.81458
 20
-4.822332
 30
0.0
 11
1.846966
 21
-4.823728
 31
0.0
  0
LINE
  8
0
  6
CONTINUOUS
 62
     7
  5
857
 10
1.846966
 20
-4.823728
 30
0.0
 11
1.879683
 21
-4.831069
 31
0.0
  0
LINE
  8
0
  6
CONTINUOUS
 62
     7
  5
858
 10
1.879683
 20
-4.831069
 30
0.0
 11
1.91086
 21
-4.844337
 31
0.0
  0
LINE
  8
0
  6
CONTINUOUS
 62
     7
  5
859
 10
1.91086
 20
-4.844337
 30
0.0
 11
1.938813
 21
-4.862806
 31
0.0
  0
LINE
  8
0
  6
CONTINUOUS
 62
     7
  5
85A
 10
1.938813
 20
-4.862806
 30
0.0
 11
1.962311
 21
-4.885212
 31
0.0
  0
LINE
  8
0
  6
CONTINUOUS
 62
     7
  5
85B
 10
1.962311
 20
-4.885212
 30
0.0
 11
1.981981
 21
-4.912076
 31
0.0
  0
LINE
  8
0
  6
CONTINUOUS
 62
     7
  5
85C
 10
1.981981
 20
-4.912076
 30
0.0
 11
1.996776
 21
-4.942635
 31
0.0
  0
LINE
  8
0
  6
CONTINUOUS
 62
     7
  5
85D
 10
1.996776
 20
-4.942635
 30
0.0
 11
2.005743
 21
-4.97526
 31
0.0
  0
LINE
  8
0
  6
CONTINUOUS
 62
     7
  5
85E
 10
2.005743
 20
-4.97526
 30
0.0
 11
2.00865
 21
-5.008
 31
0.0
  0
LINE
  8
0
  6
CONTINUOUS
 62
     7
  5
85F
 10
3.38665
 20
-5.008
 30
0.0
 11
3.383745
 21
-5.040733
 31
0.0
  0
LINE
  8
0
  6
CONTINUOUS
 62
     7
  5
860
 10
3.383745
 20
-5.040733
 30
0.0
 11
3.374786
 21
-5.073338
 31
0.0
  0
LINE
  8
0
  6
CONTINUOUS
 62
     7
  5
861
 10
3.374786
 20
-5.073338
 30
0.0
 11
3.360016
 21
-5.103866
 31
0.0
  0
LINE
  8
0
  6
CONTINUOUS
 62
     7
  5
862
 10
3.360016
 20
-5.103866
 30
0.0
 11
3.340391
 21
-5.130697
 31
0.0
  0
LINE
  8
0
  6
CONTINUOUS
 62
     7
  5
863
 10
3.340391
 20
-5.130697
 30
0.0
 11
3.316964
 21
-5.153073
 31
0.0
  0
LINE
  8
0
  6
CONTINUOUS
 62
     7
  5
864
 10
3.316964
 20
-5.153073
 30
0.0
 11
3.289098
 21
-5.171535
 31
0.0
  0
LINE
  8
0
  6
CONTINUOUS
 62
     7
  5
865
 10
3.289098
 20
-5.171535
 30
0.0
 11
3.258
 21
-5.184829
 31
0.0
  0
LINE
  8
0
  6
CONTINUOUS
 62
     7
  5
866
 10
3.258
 20
-5.184829
 30
0.0
 11
3.225331
 21
-5.192224
 31
0.0
  0
LINE
  8
0
  6
CONTINUOUS
 62
     7
  5
867
 10
3.225331
 20
-5.192224
 30
0.0
 11
3.19295
 21
-5.193684
 31
0.0
  0
LINE
  8
0
  6
CONTINUOUS
 62
     7
  5
868
 10
3.19295
 20
-5.193684
 30
0.0
 11
3.160203
 21
-5.189362
 31
0.0
  0
LINE
  8
0
  6
CONTINUOUS
 62
     7
  5
869
 10
3.160203
 20
-5.189362
 30
0.0
 11
3.128025
 21
-5.179009
 31
0.0
  0
LINE
  8
0
  6
CONTINUOUS
 62
     7
  5
86A
 10
3.128025
 20
-5.179009
 30
0.0
 11
3.098263
 21
-5.163004
 31
0.0
  0
LINE
  8
0
  6
CONTINUOUS
 62
     7
  5
86B
 10
3.098263
 20
-5.163004
 30
0.0
 11
3.072478
 21
-5.142439
 31
0.0
  0
LINE
  8
0
  6
CONTINUOUS
 62
     7
  5
86C
 10
3.072478
 20
-5.142439
 30
0.0
 11
3.050934
 21
-5.117912
 31
0.0
  0
LINE
  8
0
  6
CONTINUOUS
 62
     7
  5
86D
 10
3.050934
 20
-5.117912
 30
0.0
 11
3.033534
 21
-5.089009
 31
0.0
  0
LINE
  8
0
  6
CONTINUOUS
 62
     7
  5
86E
 10
3.033534
 20
-5.089009
 30
0.0
 11
3.02158
 21
-5.057198
 31
0.0
  0
LINE
  8
0
  6
CONTINUOUS
 62
     7
  5
86F
 10
3.02158
 20
-5.057198
 30
0.0
 11
3.015662
 21
-5.024252
 31
0.0
  0
LINE
  8
0
  6
CONTINUOUS
 62
     7
  5
870
 10
3.015662
 20
-5.024252
 30
0.0
 11
3.015662
 21
-4.991748
 31
0.0
  0
LINE
  8
0
  6
CONTINUOUS
 62
     7
  5
871
 10
3.015662
 20
-4.991748
 30
0.0
 11
3.02158
 21
-4.958802
 31
0.0
  0
LINE
  8
0
  6
CONTINUOUS
 62
     7
  5
872
 10
3.02158
 20
-4.958802
 30
0.0
 11
3.033534
 21
-4.926991
 31
0.0
  0
LINE
  8
0
  6
CONTINUOUS
 62
     7
  5
873
 10
3.033534
 20
-4.926991
 30
0.0
 11
3.050934
 21
-4.898088
 31
0.0
  0
LINE
  8
0
  6
CONTINUOUS
 62
     7
  5
874
 10
3.050934
 20
-4.898088
 30
0.0
 11
3.072478
 21
-4.873561
 31
0.0
  0
LINE
  8
0
  6
CONTINUOUS
 62
     7
  5
875
 10
3.072478
 20
-4.873561
 30
0.0
 11
3.098263
 21
-4.852996
 31
0.0
  0
LINE
  8
0
  6
CONTINUOUS
 62
     7
  5
876
 10
3.098263
 20
-4.852996
 30
0.0
 11
3.128025
 21
-4.836991
 31
0.0
  0
LINE
  8
0
  6
CONTINUOUS
 62
     7
  5
877
 10
3.128025
 20
-4.836991
 30
0.0
 11
3.160203
 21
-4.826638
 31
0.0
  0
LINE
  8
0
  6
CONTINUOUS
 62
     7
  5
878
 10
3.160203
 20
-4.826638
 30
0.0
 11
3.19295
 21
-4.822316
 31
0.0
  0
LINE
  8
0
  6
CONTINUOUS
 62
     7
  5
879
 10
3.19295
 20
-4.822316
 30
0.0
 11
3.225331
 21
-4.823776
 31
0.0
  0
LINE
  8
0
  6
CONTINUOUS
 62
     7
  5
87A
 10
3.225331
 20
-4.823776
 30
0.0
 11
3.258
 21
-4.831171
 31
0.0
  0
LINE
  8
0
  6
CONTINUOUS
 62
     7
  5
87B
 10
3.258
 20
-4.831171
 30
0.0
 11
3.289098
 21
-4.844465
 31
0.0
  0
LINE
  8
0
  6
CONTINUOUS
 62
     7
  5
87C
 10
3.289098
 20
-4.844465
 30
0.0
 11
3.316964
 21
-4.862927
 31
0.0
  0
LINE
  8
0
  6
CONTINUOUS
 62
     7
  5
87D
 10
3.316964
 20
-4.862927
 30
0.0
 11
3.340391
 21
-4.885303
 31
0.0
  0
LINE
  8
0
  6
CONTINUOUS
 62
     7
  5
87E
 10
3.340391
 20
-4.885303
 30
0.0
 11
3.360016
 21
-4.912134
 31
0.0
  0
LINE
  8
0
  6
CONTINUOUS
 62
     7
  5
87F
 10
3.360016
 20
-4.912134
 30
0.0
 11
3.374786
 21
-4.942662
 31
0.0
  0
LINE
  8
0
  6
CONTINUOUS
 62
     7
  5
880
 10
3.374786
 20
-4.942662
 30
0.0
 11
3.383745
 21
-4.975267
 31
0.0
  0
LINE
  8
0
  6
CONTINUOUS
 62
     7
  5
881
 10
3.383745
 20
-4.975267
 30
0.0
 11
3.38665
 21
-5.008
 31
0.0
  0
LINE
  8
0
  6
CONTINUOUS
 62
     7
  5
882
 10
2.69765
 20
-5.008
 30
0.0
 11
2.69476
 21
-5.040649
 31
0.0
  0
LINE
  8
0
  6
CONTINUOUS
 62
     7
  5
883
 10
2.69476
 20
-5.040649
 30
0.0
 11
2.685839
 21
-5.073196
 31
0.0
  0
LINE
  8
0
  6
CONTINUOUS
 62
     7
  5
884
 10
2.685839
 20
-5.073196
 30
0.0
 11
2.671112
 21
-5.103708
 31
0.0
  0
LINE
  8
0
  6
CONTINUOUS
 62
     7
  5
885
 10
2.671112
 20
-5.103708
 30
0.0
 11
2.651507
 21
-5.130565
 31
0.0
  0
LINE
  8
0
  6
CONTINUOUS
 62
     7
  5
886
 10
2.651507
 20
-5.130565
 30
0.0
 11
2.628073
 21
-5.152986
 31
0.0
  0
LINE
  8
0
  6
CONTINUOUS
 62
     7
  5
887
 10
2.628073
 20
-5.152986
 30
0.0
 11
2.600162
 21
-5.1715
 31
0.0
  0
LINE
  8
0
  6
CONTINUOUS
 62
     7
  5
888
 10
2.600162
 20
-5.1715
 30
0.0
 11
2.568982
 21
-5.184835
 31
0.0
  0
LINE
  8
0
  6
CONTINUOUS
 62
     7
  5
889
 10
2.568982
 20
-5.184835
 30
0.0
 11
2.536214
 21
-5.192239
 31
0.0
  0
LINE
  8
0
  6
CONTINUOUS
 62
     7
  5
88A
 10
2.536214
 20
-5.192239
 30
0.0
 11
2.503743
 21
-5.193675
 31
0.0
  0
LINE
  8
0
  6
CONTINUOUS
 62
     7
  5
88B
 10
2.503743
 20
-5.193675
 30
0.0
 11
2.470923
 21
-5.189299
 31
0.0
  0
LINE
  8
0
  6
CONTINUOUS
 62
     7
  5
88C
 10
2.470923
 20
-5.189299
 30
0.0
 11
2.438719
 21
-5.178878
 31
0.0
  0
LINE
  8
0
  6
CONTINUOUS
 62
     7
  5
88D
 10
2.438719
 20
-5.178878
 30
0.0
 11
2.408977
 21
-5.162815
 31
0.0
  0
LINE
  8
0
  6
CONTINUOUS
 62
     7
  5
88E
 10
2.408977
 20
-5.162815
 30
0.0
 11
2.383254
 21
-5.142224
 31
0.0
  0
LINE
  8
0
  6
CONTINUOUS
 62
     7
  5
88F
 10
2.383254
 20
-5.142224
 30
0.0
 11
2.361769
 21
-5.117686
 31
0.0
  0
LINE
  8
0
  6
CONTINUOUS
 62
     7
  5
890
 10
2.361769
 20
-5.117686
 30
0.0
 11
2.344439
 21
-5.088811
 31
0.0
  0
LINE
  8
0
  6
CONTINUOUS
 62
     7
  5
891
 10
2.344439
 20
-5.088811
 30
0.0
 11
2.332544
 21
-5.057065
 31
0.0
  0
LINE
  8
0
  6
CONTINUOUS
 62
     7
  5
892
 10
2.332544
 20
-5.057065
 30
0.0
 11
2.326658
 21
-5.024206
 31
0.0
  0
LINE
  8
0
  6
CONTINUOUS
 62
     7
  5
893
 10
2.326658
 20
-5.024206
 30
0.0
 11
2.326658
 21
-4.991794
 31
0.0
  0
LINE
  8
0
  6
CONTINUOUS
 62
     7
  5
894
 10
2.326658
 20
-4.991794
 30
0.0
 11
2.332544
 21
-4.958935
 31
0.0
  0
LINE
  8
0
  6
CONTINUOUS
 62
     7
  5
895
 10
2.332544
 20
-4.958935
 30
0.0
 11
2.344439
 21
-4.927189
 31
0.0
  0
LINE
  8
0
  6
CONTINUOUS
 62
     7
  5
896
 10
2.344439
 20
-4.927189
 30
0.0
 11
2.361769
 21
-4.898314
 31
0.0
  0
LINE
  8
0
  6
CONTINUOUS
 62
     7
  5
897
 10
2.361769
 20
-4.898314
 30
0.0
 11
2.383254
 21
-4.873776
 31
0.0
  0
LINE
  8
0
  6
CONTINUOUS
 62
     7
  5
898
 10
2.383254
 20
-4.873776
 30
0.0
 11
2.408977
 21
-4.853185
 31
0.0
  0
LINE
  8
0
  6
CONTINUOUS
 62
     7
  5
899
 10
2.408977
 20
-4.853185
 30
0.0
 11
2.438719
 21
-4.837122
 31
0.0
  0
LINE
  8
0
  6
CONTINUOUS
 62
     7
  5
89A
 10
2.438719
 20
-4.837122
 30
0.0
 11
2.470923
 21
-4.826701
 31
0.0
  0
LINE
  8
0
  6
CONTINUOUS
 62
     7
  5
89B
 10
2.470923
 20
-4.826701
 30
0.0
 11
2.503743
 21
-4.822325
 31
0.0
  0
LINE
  8
0
  6
CONTINUOUS
 62
     7
  5
89C
 10
2.503743
 20
-4.822325
 30
0.0
 11
2.536214
 21
-4.823761
 31
0.0
  0
LINE
  8
0
  6
CONTINUOUS
 62
     7
  5
89D
 10
2.536214
 20
-4.823761
 30
0.0
 11
2.568982
 21
-4.831165
 31
0.0
  0
LINE
  8
0
  6
CONTINUOUS
 62
     7
  5
89E
 10
2.568982
 20
-4.831165
 30
0.0
 11
2.600162
 21
-4.8445
 31
0.0
  0
LINE
  8
0
  6
CONTINUOUS
 62
     7
  5
89F
 10
2.600162
 20
-4.8445
 30
0.0
 11
2.628073
 21
-4.863014
 31
0.0
  0
LINE
  8
0
  6
CONTINUOUS
 62
     7
  5
8A0
 10
2.628073
 20
-4.863014
 30
0.0
 11
2.651507
 21
-4.885435
 31
0.0
  0
LINE
  8
0
  6
CONTINUOUS
 62
     7
  5
8A1
 10
2.651507
 20
-4.885435
 30
0.0
 11
2.671112
 21
-4.912292
 31
0.0
  0
LINE
  8
0
  6
CONTINUOUS
 62
     7
  5
8A2
 10
2.671112
 20
-4.912292
 30
0.0
 11
2.685839
 21
-4.942804
 31
0.0
  0
LINE
  8
0
  6
CONTINUOUS
 62
     7
  5
8A3
 10
2.685839
 20
-4.942804
 30
0.0
 11
2.69476
 21
-4.975351
 31
0.0
  0
LINE
  8
0
  6
CONTINUOUS
 62
     7
  5
8A4
 10
2.69476
 20
-4.975351
 30
0.0
 11
2.69765
 21
-5.008
 31
0.0
  0
LINE
  8
0
  6
CONTINUOUS
 62
     7
  5
8A5
 10
1.4268
 20
-5.3878
 30
0.0
 11
3.5968
 21
-5.3878
 31
0.0
  0
LINE
  8
0
  6
CONTINUOUS
 62
     7
  5
8A6
 10
3.5968
 20
-4.7178
 30
0.0
 11
3.5968
 21
-5.3878
 31
0.0
  0
LINE
  8
0
  6
CONTINUOUS
 62
     7
  5
8A7
 10
1.4268
 20
-4.7178
 30
0.0
 11
1.4268
 21
-5.3878
 31
0.0
  0
LINE
  8
0
  6
CONTINUOUS
 62
     7
  5
8A8
 10
1.4268
 20
-4.7178
 30
0.0
 11
3.5968
 21
-4.7178
 31
0.0
  0
LINE
  8
0
  6
CONTINUOUS
 62
     7
  5
8A9
 10
3.3268
 20
-4.09855
 30
0.0
 11
3.3268
 21
-4.21471
 31
0.0
  0
LINE
  8
0
  6
CONTINUOUS
 62
     7
  5
8AA
 10
2.9488
 20
-4.21471
 30
0.0
 11
2.9488
 21
-4.09855
 31
0.0
  0
LINE
  8
0
  6
CONTINUOUS
 62
     7
  5
8AB
 10
3.3661
 20
-4.21471
 30
0.0
 11
3.3268
 21
-4.21471
 31
0.0
  0
LINE
  8
0
  6
CONTINUOUS
 62
     7
  5
8AC
 10
3.3661
 20
-4.09855
 30
0.0
 11
3.3661
 21
-4.21471
 31
0.0
  0
LINE
  8
0
  6
CONTINUOUS
 62
     7
  5
8AD
 10
2.9095
 20
-4.09855
 30
0.0
 11
2.9095
 21
-4.21471
 31
0.0
  0
LINE
  8
0
  6
CONTINUOUS
 62
     7
  5
8AE
 10
2.5315
 20
-4.21471
 30
0.0
 11
2.5315
 21
-4.09855
 31
0.0
  0
LINE
  8
0
  6
CONTINUOUS
 62
     7
  5
8AF
 10
2.4922
 20
-4.09855
 30
0.0
 11
2.4922
 21
-4.21471
 31
0.0
  0
LINE
  8
0
  6
CONTINUOUS
 62
     7
  5
8B0
 10
2.5315
 20
-4.21471
 30
0.0
 11
2.4922
 21
-4.21471
 31
0.0
  0
LINE
  8
0
  6
CONTINUOUS
 62
     7
  5
8B1
 10
2.9488
 20
-4.21471
 30
0.0
 11
2.9095
 21
-4.21471
 31
0.0
  0
LINE
  8
0
  6
CONTINUOUS
 62
     7
  5
8B2
 10
2.1142
 20
-4.21471
 30
0.0
 11
2.1142
 21
-4.09855
 31
0.0
  0
LINE
  8
0
  6
CONTINUOUS
 62
     7
  5
8B3
 10
2.1142
 20
-4.21471
 30
0.0
 11
2.0748
 21
-4.21471
 31
0.0
  0
LINE
  8
0
  6
CONTINUOUS
 62
     7
  5
8B4
 10
3.3268
 20
-1.95089
 30
0.0
 11
3.3268
 21
-2.06705
 31
0.0
  0
LINE
  8
0
  6
CONTINUOUS
 62
     7
  5
8B5
 10
2.9488
 20
-2.06705
 30
0.0
 11
2.9488
 21
-1.95089
 31
0.0
  0
LINE
  8
0
  6
CONTINUOUS
 62
     7
  5
8B6
 10
2.9095
 20
-1.95089
 30
0.0
 11
2.9488
 21
-1.95089
 31
0.0
  0
LINE
  8
0
  6
CONTINUOUS
 62
     7
  5
8B7
 10
2.9095
 20
-1.95089
 30
0.0
 11
2.9095
 21
-2.06705
 31
0.0
  0
LINE
  8
0
  6
CONTINUOUS
 62
     7
  5
8B8
 10
3.3268
 20
-1.95089
 30
0.0
 11
3.3661
 21
-1.95089
 31
0.0
  0
LINE
  8
0
  6
CONTINUOUS
 62
     7
  5
8B9
 10
2.5315
 20
-2.06705
 30
0.0
 11
2.5315
 21
-1.95089
 31
0.0
  0
LINE
  8
0
  6
CONTINUOUS
 62
     7
  5
8BA
 10
2.4922
 20
-1.95089
 30
0.0
 11
2.5315
 21
-1.95089
 31
0.0
  0
LINE
  8
0
  6
CONTINUOUS
 62
     7
  5
8BB
 10
2.4922
 20
-1.95089
 30
0.0
 11
2.4922
 21
-2.06705
 31
0.0
  0
LINE
  8
0
  6
CONTINUOUS
 62
     7
  5
8BC
 10
2.1142
 20
-2.06705
 30
0.0
 11
2.1142
 21
-1.95089
 31
0.0
  0
LINE
  8
0
  6
CONTINUOUS
 62
     7
  5
8BD
 10
2.0748
 20
-1.95089
 30
0.0
 11
2.1142
 21
-1.95089
 31
0.0
  0
LINE
  8
0
  6
CONTINUOUS
 62
     7
  5
8BE
 10
3.3661
 20
-1.95089
 30
0.0
 11
3.3661
 21
-2.06705
 31
0.0
  0
LINE
  8
0
  6
CONTINUOUS
 62
     7
  5
8BF
 10
2.0748
 20
-1.95089
 30
0.0
 11
2.0748
 21
-2.06705
 31
0.0
  0
LINE
  8
0
  6
CONTINUOUS
 62
     7
  5
8C0
 10
2.0748
 20
-4.09855
 30
0.0
 11
2.0748
 21
-4.21471
 31
0.0
  0
LINE
  8
0
  6
CONTINUOUS
 62
     7
  5
8C1
 10
3.018014
 20
-3.8427
 30
0.0
 11
3.019917
 21
-3.821257
 31
0.0
  0
LINE
  8
0
  6
CONTINUOUS
 62
     7
  5
8C2
 10
3.019917
 20
-3.821257
 30
0.0
 11
3.025787
 21
-3.799889
 31
0.0
  0
LINE
  8
0
  6
CONTINUOUS
 62
     7
  5
8C3
 10
3.025787
 20
-3.799889
 30
0.0
 11
3.035472
 21
-3.779871
 31
0.0
  0
LINE
  8
0
  6
CONTINUOUS
 62
     7
  5
8C4
 10
3.035472
 20
-3.779871
 30
0.0
 11
3.048352
 21
-3.76227
 31
0.0
  0
LINE
  8
0
  6
CONTINUOUS
 62
     7
  5
8C5
 10
3.048352
 20
-3.76227
 30
0.0
 11
3.063737
 21
-3.747588
 31
0.0
  0
LINE
  8
0
  6
CONTINUOUS
 62
     7
  5
8C6
 10
3.063737
 20
-3.747588
 30
0.0
 11
3.082044
 21
-3.73548
 31
0.0
  0
LINE
  8
0
  6
CONTINUOUS
 62
     7
  5
8C7
 10
3.082044
 20
-3.73548
 30
0.0
 11
3.102468
 21
-3.726777
 31
0.0
  0
LINE
  8
0
  6
CONTINUOUS
 62
     7
  5
8C8
 10
3.102468
 20
-3.726777
 30
0.0
 11
3.123909
 21
-3.721955
 31
0.0
  0
LINE
  8
0
  6
CONTINUOUS
 62
     7
  5
8C9
 10
3.123909
 20
-3.721955
 30
0.0
 11
3.14514
 21
-3.721031
 31
0.0
  0
LINE
  8
0
  6
CONTINUOUS
 62
     7
  5
8CA
 10
3.14514
 20
-3.721031
 30
0.0
 11
3.166596
 21
-3.723898
 31
0.0
  0
LINE
  8
0
  6
CONTINUOUS
 62
     7
  5
8CB
 10
3.166596
 20
-3.723898
 30
0.0
 11
3.187653
 21
-3.730709
 31
0.0
  0
LINE
  8
0
  6
CONTINUOUS
 62
     7
  5
8CC
 10
3.187653
 20
-3.730709
 30
0.0
 11
3.207114
 21
-3.741208
 31
0.0
  0
LINE
  8
0
  6
CONTINUOUS
 62
     7
  5
8CD
 10
3.207114
 20
-3.741208
 30
0.0
 11
3.223965
 21
-3.754677
 31
0.0
  0
LINE
  8
0
  6
CONTINUOUS
 62
     7
  5
8CE
 10
3.223965
 20
-3.754677
 30
0.0
 11
3.23805
 21
-3.770736
 31
0.0
  0
LINE
  8
0
  6
CONTINUOUS
 62
     7
  5
8CF
 10
3.23805
 20
-3.770736
 30
0.0
 11
3.249428
 21
-3.789658
 31
0.0
  0
LINE
  8
0
  6
CONTINUOUS
 62
     7
  5
8D0
 10
3.249428
 20
-3.789658
 30
0.0
 11
3.257248
 21
-3.810484
 31
0.0
  0
LINE
  8
0
  6
CONTINUOUS
 62
     7
  5
8D1
 10
3.257248
 20
-3.810484
 30
0.0
 11
3.26112
 21
-3.832057
 31
0.0
  0
LINE
  8
0
  6
CONTINUOUS
 62
     7
  5
8D2
 10
3.26112
 20
-3.832057
 30
0.0
 11
3.26112
 21
-3.853343
 31
0.0
  0
LINE
  8
0
  6
CONTINUOUS
 62
     7
  5
8D3
 10
3.26112
 20
-3.853343
 30
0.0
 11
3.257248
 21
-3.874916
 31
0.0
  0
LINE
  8
0
  6
CONTINUOUS
 62
     7
  5
8D4
 10
3.257248
 20
-3.874916
 30
0.0
 11
3.249428
 21
-3.895742
 31
0.0
  0
LINE
  8
0
  6
CONTINUOUS
 62
     7
  5
8D5
 10
3.249428
 20
-3.895742
 30
0.0
 11
3.23805
 21
-3.914664
 31
0.0
  0
LINE
  8
0
  6
CONTINUOUS
 62
     7
  5
8D6
 10
3.23805
 20
-3.914664
 30
0.0
 11
3.223965
 21
-3.930723
 31
0.0
  0
LINE
  8
0
  6
CONTINUOUS
 62
     7
  5
8D7
 10
3.223965
 20
-3.930723
 30
0.0
 11
3.207114
 21
-3.944192
 31
0.0
  0
LINE
  8
0
  6
CONTINUOUS
 62
     7
  5
8D8
 10
3.207114
 20
-3.944192
 30
0.0
 11
3.187653
 21
-3.954691
 31
0.0
  0
LINE
  8
0
  6
CONTINUOUS
 62
     7
  5
8D9
 10
3.187653
 20
-3.954691
 30
0.0
 11
3.166596
 21
-3.961502
 31
0.0
  0
LINE
  8
0
  6
CONTINUOUS
 62
     7
  5
8DA
 10
3.166596
 20
-3.961502
 30
0.0
 11
3.14514
 21
-3.964369
 31
0.0
  0
LINE
  8
0
  6
CONTINUOUS
 62
     7
  5
8DB
 10
3.14514
 20
-3.964369
 30
0.0
 11
3.123909
 21
-3.963445
 31
0.0
  0
LINE
  8
0
  6
CONTINUOUS
 62
     7
  5
8DC
 10
3.123909
 20
-3.963445
 30
0.0
 11
3.102468
 21
-3.958623
 31
0.0
  0
LINE
  8
0
  6
CONTINUOUS
 62
     7
  5
8DD
 10
3.102468
 20
-3.958623
 30
0.0
 11
3.082044
 21
-3.94992
 31
0.0
  0
LINE
  8
0
  6
CONTINUOUS
 62
     7
  5
8DE
 10
3.082044
 20
-3.94992
 30
0.0
 11
3.063737
 21
-3.937812
 31
0.0
  0
LINE
  8
0
  6
CONTINUOUS
 62
     7
  5
8DF
 10
3.063737
 20
-3.937812
 30
0.0
 11
3.048352
 21
-3.92313
 31
0.0
  0
LINE
  8
0
  6
CONTINUOUS
 62
     7
  5
8E0
 10
3.048352
 20
-3.92313
 30
0.0
 11
3.035472
 21
-3.905529
 31
0.0
  0
LINE
  8
0
  6
CONTINUOUS
 62
     7
  5
8E1
 10
3.035472
 20
-3.905529
 30
0.0
 11
3.025787
 21
-3.885511
 31
0.0
  0
LINE
  8
0
  6
CONTINUOUS
 62
     7
  5
8E2
 10
3.025787
 20
-3.885511
 30
0.0
 11
3.019917
 21
-3.864143
 31
0.0
  0
LINE
  8
0
  6
CONTINUOUS
 62
     7
  5
8E3
 10
3.019917
 20
-3.864143
 30
0.0
 11
3.018014
 21
-3.8427
 31
0.0
  0
LINE
  8
0
  6
CONTINUOUS
 62
     7
  5
8E4
 10
2.598714
 20
-3.8427
 30
0.0
 11
2.600609
 21
-3.8213
 31
0.0
  0
LINE
  8
0
  6
CONTINUOUS
 62
     7
  5
8E5
 10
2.600609
 20
-3.8213
 30
0.0
 11
2.606457
 21
-3.799967
 31
0.0
  0
LINE
  8
0
  6
CONTINUOUS
 62
     7
  5
8E6
 10
2.606457
 20
-3.799967
 30
0.0
 11
2.616113
 21
-3.779969
 31
0.0
  0
LINE
  8
0
  6
CONTINUOUS
 62
     7
  5
8E7
 10
2.616113
 20
-3.779969
 30
0.0
 11
2.628966
 21
-3.762368
 31
0.0
  0
LINE
  8
0
  6
CONTINUOUS
 62
     7
  5
8E8
 10
2.628966
 20
-3.762368
 30
0.0
 11
2.644328
 21
-3.747675
 31
0.0
  0
LINE
  8
0
  6
CONTINUOUS
 62
     7
  5
8E9
 10
2.644328
 20
-3.747675
 30
0.0
 11
2.662624
 21
-3.735545
 31
0.0
  0
LINE
  8
0
  6
CONTINUOUS
 62
     7
  5
8EA
 10
2.662624
 20
-3.735545
 30
0.0
 11
2.683059
 21
-3.726812
 31
0.0
  0
LINE
  8
0
  6
CONTINUOUS
 62
     7
  5
8EB
 10
2.683059
 20
-3.726812
 30
0.0
 11
2.704529
 21
-3.721966
 31
0.0
  0
LINE
  8
0
  6
CONTINUOUS
 62
     7
  5
8EC
 10
2.704529
 20
-3.721966
 30
0.0
 11
2.725802
 21
-3.721029
 31
0.0
  0
LINE
  8
0
  6
CONTINUOUS
 62
     7
  5
8ED
 10
2.725802
 20
-3.721029
 30
0.0
 11
2.747302
 21
-3.7239
 31
0.0
  0
LINE
  8
0
  6
CONTINUOUS
 62
     7
  5
8EE
 10
2.747302
 20
-3.7239
 30
0.0
 11
2.768397
 21
-3.730728
 31
0.0
  0
LINE
  8
0
  6
CONTINUOUS
 62
     7
  5
8EF
 10
2.768397
 20
-3.730728
 30
0.0
 11
2.78788
 21
-3.741252
 31
0.0
  0
LINE
  8
0
  6
CONTINUOUS
 62
     7
  5
8F0
 10
2.78788
 20
-3.741252
 30
0.0
 11
2.804732
 21
-3.754741
 31
0.0
  0
LINE
  8
0
  6
CONTINUOUS
 62
     7
  5
8F1
 10
2.804732
 20
-3.754741
 30
0.0
 11
2.818809
 21
-3.770818
 31
0.0
  0
LINE
  8
0
  6
CONTINUOUS
 62
     7
  5
8F2
 10
2.818809
 20
-3.770818
 30
0.0
 11
2.830167
 21
-3.789738
 31
0.0
  0
LINE
  8
0
  6
CONTINUOUS
 62
     7
  5
8F3
 10
2.830167
 20
-3.789738
 30
0.0
 11
2.837964
 21
-3.810542
 31
0.0
  0
LINE
  8
0
  6
CONTINUOUS
 62
     7
  5
8F4
 10
2.837964
 20
-3.810542
 30
0.0
 11
2.841822
 21
-3.832078
 31
0.0
  0
LINE
  8
0
  6
CONTINUOUS
 62
     7
  5
8F5
 10
2.841822
 20
-3.832078
 30
0.0
 11
2.841822
 21
-3.853322
 31
0.0
  0
LINE
  8
0
  6
CONTINUOUS
 62
     7
  5
8F6
 10
2.841822
 20
-3.853322
 30
0.0
 11
2.837964
 21
-3.874858
 31
0.0
  0
LINE
  8
0
  6
CONTINUOUS
 62
     7
  5
8F7
 10
2.837964
 20
-3.874858
 30
0.0
 11
2.830167
 21
-3.895662
 31
0.0
  0
LINE
  8
0
  6
CONTINUOUS
 62
     7
  5
8F8
 10
2.830167
 20
-3.895662
 30
0.0
 11
2.818809
 21
-3.914582
 31
0.0
  0
LINE
  8
0
  6
CONTINUOUS
 62
     7
  5
8F9
 10
2.818809
 20
-3.914582
 30
0.0
 11
2.804732
 21
-3.930659
 31
0.0
  0
LINE
  8
0
  6
CONTINUOUS
 62
     7
  5
8FA
 10
2.804732
 20
-3.930659
 30
0.0
 11
2.78788
 21
-3.944148
 31
0.0
  0
LINE
  8
0
  6
CONTINUOUS
 62
     7
  5
8FB
 10
2.78788
 20
-3.944148
 30
0.0
 11
2.768397
 21
-3.954672
 31
0.0
  0
LINE
  8
0
  6
CONTINUOUS
 62
     7
  5
8FC
 10
2.768397
 20
-3.954672
 30
0.0
 11
2.747302
 21
-3.9615
 31
0.0
  0
LINE
  8
0
  6
CONTINUOUS
 62
     7
  5
8FD
 10
2.747302
 20
-3.9615
 30
0.0
 11
2.725802
 21
-3.964371
 31
0.0
  0
LINE
  8
0
  6
CONTINUOUS
 62
     7
  5
8FE
 10
2.725802
 20
-3.964371
 30
0.0
 11
2.704529
 21
-3.963434
 31
0.0
  0
LINE
  8
0
  6
CONTINUOUS
 62
     7
  5
8FF
 10
2.704529
 20
-3.963434
 30
0.0
 11
2.683059
 21
-3.958588
 31
0.0
  0
LINE
  8
0
  6
CONTINUOUS
 62
     7
  5
900
 10
2.683059
 20
-3.958588
 30
0.0
 11
2.662624
 21
-3.949855
 31
0.0
  0
LINE
  8
0
  6
CONTINUOUS
 62
     7
  5
901
 10
2.662624
 20
-3.949855
 30
0.0
 11
2.644328
 21
-3.937725
 31
0.0
  0
LINE
  8
0
  6
CONTINUOUS
 62
     7
  5
902
 10
2.644328
 20
-3.937725
 30
0.0
 11
2.628966
 21
-3.923032
 31
0.0
  0
LINE
  8
0
  6
CONTINUOUS
 62
     7
  5
903
 10
2.628966
 20
-3.923032
 30
0.0
 11
2.616113
 21
-3.905431
 31
0.0
  0
LINE
  8
0
  6
CONTINUOUS
 62
     7
  5
904
 10
2.616113
 20
-3.905431
 30
0.0
 11
2.606457
 21
-3.885433
 31
0.0
  0
LINE
  8
0
  6
CONTINUOUS
 62
     7
  5
905
 10
2.606457
 20
-3.885433
 30
0.0
 11
2.600609
 21
-3.8641
 31
0.0
  0
LINE
  8
0
  6
CONTINUOUS
 62
     7
  5
906
 10
2.600609
 20
-3.8641
 30
0.0
 11
2.598714
 21
-3.8427
 31
0.0
  0
LINE
  8
0
  6
CONTINUOUS
 62
     7
  5
907
 10
2.181314
 20
-3.8427
 30
0.0
 11
2.183209
 21
-3.821301
 31
0.0
  0
LINE
  8
0
  6
CONTINUOUS
 62
     7
  5
908
 10
2.183209
 20
-3.821301
 30
0.0
 11
2.189056
 21
-3.799971
 31
0.0
  0
LINE
  8
0
  6
CONTINUOUS
 62
     7
  5
909
 10
2.189056
 20
-3.799971
 30
0.0
 11
2.198708
 21
-3.779977
 31
0.0
  0
LINE
  8
0
  6
CONTINUOUS
 62
     7
  5
90A
 10
2.198708
 20
-3.779977
 30
0.0
 11
2.211555
 21
-3.762379
 31
0.0
  0
LINE
  8
0
  6
CONTINUOUS
 62
     7
  5
90B
 10
2.211555
 20
-3.762379
 30
0.0
 11
2.226909
 21
-3.747691
 31
0.0
  0
LINE
  8
0
  6
CONTINUOUS
 62
     7
  5
90C
 10
2.226909
 20
-3.747691
 30
0.0
 11
2.245193
 21
-3.735561
 31
0.0
  0
LINE
  8
0
  6
CONTINUOUS
 62
     7
  5
90D
 10
2.245193
 20
-3.735561
 30
0.0
 11
2.265618
 21
-3.726825
 31
0.0
  0
LINE
  8
0
  6
CONTINUOUS
 62
     7
  5
90E
 10
2.265618
 20
-3.726825
 30
0.0
 11
2.287082
 21
-3.721972
 31
0.0
  0
LINE
  8
0
  6
CONTINUOUS
 62
     7
  5
90F
 10
2.287082
 20
-3.721972
 30
0.0
 11
2.308355
 21
-3.721027
 31
0.0
  0
LINE
  8
0
  6
CONTINUOUS
 62
     7
  5
910
 10
2.308355
 20
-3.721027
 30
0.0
 11
2.329857
 21
-3.72389
 31
0.0
  0
LINE
  8
0
  6
CONTINUOUS
 62
     7
  5
911
 10
2.329857
 20
-3.72389
 30
0.0
 11
2.350961
 21
-3.730713
 31
0.0
  0
LINE
  8
0
  6
CONTINUOUS
 62
     7
  5
912
 10
2.350961
 20
-3.730713
 30
0.0
 11
2.370455
 21
-3.741235
 31
0.0
  0
LINE
  8
0
  6
CONTINUOUS
 62
     7
  5
913
 10
2.370455
 20
-3.741235
 30
0.0
 11
2.387318
 21
-3.754728
 31
0.0
  0
LINE
  8
0
  6
CONTINUOUS
 62
     7
  5
914
 10
2.387318
 20
-3.754728
 30
0.0
 11
2.401403
 21
-3.770808
 31
0.0
  0
LINE
  8
0
  6
CONTINUOUS
 62
     7
  5
915
 10
2.401403
 20
-3.770808
 30
0.0
 11
2.412764
 21
-3.789732
 31
0.0
  0
LINE
  8
0
  6
CONTINUOUS
 62
     7
  5
916
 10
2.412764
 20
-3.789732
 30
0.0
 11
2.420563
 21
-3.81054
 31
0.0
  0
LINE
  8
0
  6
CONTINUOUS
 62
     7
  5
917
 10
2.420563
 20
-3.81054
 30
0.0
 11
2.424422
 21
-3.832078
 31
0.0
  0
LINE
  8
0
  6
CONTINUOUS
 62
     7
  5
918
 10
2.424422
 20
-3.832078
 30
0.0
 11
2.424422
 21
-3.853322
 31
0.0
  0
LINE
  8
0
  6
CONTINUOUS
 62
     7
  5
919
 10
2.424422
 20
-3.853322
 30
0.0
 11
2.420563
 21
-3.87486
 31
0.0
  0
LINE
  8
0
  6
CONTINUOUS
 62
     7
  5
91A
 10
2.420563
 20
-3.87486
 30
0.0
 11
2.412764
 21
-3.895668
 31
0.0
  0
LINE
  8
0
  6
CONTINUOUS
 62
     7
  5
91B
 10
2.412764
 20
-3.895668
 30
0.0
 11
2.401403
 21
-3.914592
 31
0.0
  0
LINE
  8
0
  6
CONTINUOUS
 62
     7
  5
91C
 10
2.401403
 20
-3.914592
 30
0.0
 11
2.387318
 21
-3.930672
 31
0.0
  0
LINE
  8
0
  6
CONTINUOUS
 62
     7
  5
91D
 10
2.387318
 20
-3.930672
 30
0.0
 11
2.370455
 21
-3.944165
 31
0.0
  0
LINE
  8
0
  6
CONTINUOUS
 62
     7
  5
91E
 10
2.370455
 20
-3.944165
 30
0.0
 11
2.350961
 21
-3.954687
 31
0.0
  0
LINE
  8
0
  6
CONTINUOUS
 62
     7
  5
91F
 10
2.350961
 20
-3.954687
 30
0.0
 11
2.329857
 21
-3.96151
 31
0.0
  0
LINE
  8
0
  6
CONTINUOUS
 62
     7
  5
920
 10
2.329857
 20
-3.96151
 30
0.0
 11
2.308355
 21
-3.964373
 31
0.0
  0
LINE
  8
0
  6
CONTINUOUS
 62
     7
  5
921
 10
2.308355
 20
-3.964373
 30
0.0
 11
2.287082
 21
-3.963428
 31
0.0
  0
LINE
  8
0
  6
CONTINUOUS
 62
     7
  5
922
 10
2.287082
 20
-3.963428
 30
0.0
 11
2.265618
 21
-3.958575
 31
0.0
  0
LINE
  8
0
  6
CONTINUOUS
 62
     7
  5
923
 10
2.265618
 20
-3.958575
 30
0.0
 11
2.245193
 21
-3.949839
 31
0.0
  0
LINE
  8
0
  6
CONTINUOUS
 62
     7
  5
924
 10
2.245193
 20
-3.949839
 30
0.0
 11
2.226909
 21
-3.937709
 31
0.0
  0
LINE
  8
0
  6
CONTINUOUS
 62
     7
  5
925
 10
2.226909
 20
-3.937709
 30
0.0
 11
2.211555
 21
-3.923021
 31
0.0
  0
LINE
  8
0
  6
CONTINUOUS
 62
     7
  5
926
 10
2.211555
 20
-3.923021
 30
0.0
 11
2.198708
 21
-3.905423
 31
0.0
  0
LINE
  8
0
  6
CONTINUOUS
 62
     7
  5
927
 10
2.198708
 20
-3.905423
 30
0.0
 11
2.189056
 21
-3.885429
 31
0.0
  0
LINE
  8
0
  6
CONTINUOUS
 62
     7
  5
928
 10
2.189056
 20
-3.885429
 30
0.0
 11
2.183209
 21
-3.864099
 31
0.0
  0
LINE
  8
0
  6
CONTINUOUS
 62
     7
  5
929
 10
2.183209
 20
-3.864099
 30
0.0
 11
2.181314
 21
-3.8427
 31
0.0
  0
LINE
  8
0
  6
CONTINUOUS
 62
     7
  5
92A
 10
3.018014
 20
-2.3229
 30
0.0
 11
3.019917
 21
-2.301457
 31
0.0
  0
LINE
  8
0
  6
CONTINUOUS
 62
     7
  5
92B
 10
3.019917
 20
-2.301457
 30
0.0
 11
3.025787
 21
-2.280089
 31
0.0
  0
LINE
  8
0
  6
CONTINUOUS
 62
     7
  5
92C
 10
3.025787
 20
-2.280089
 30
0.0
 11
3.035472
 21
-2.260071
 31
0.0
  0
LINE
  8
0
  6
CONTINUOUS
 62
     7
  5
92D
 10
3.035472
 20
-2.260071
 30
0.0
 11
3.048352
 21
-2.24247
 31
0.0
  0
LINE
  8
0
  6
CONTINUOUS
 62
     7
  5
92E
 10
3.048352
 20
-2.24247
 30
0.0
 11
3.063737
 21
-2.227788
 31
0.0
  0
LINE
  8
0
  6
CONTINUOUS
 62
     7
  5
92F
 10
3.063737
 20
-2.227788
 30
0.0
 11
3.082044
 21
-2.21568
 31
0.0
  0
LINE
  8
0
  6
CONTINUOUS
 62
     7
  5
930
 10
3.082044
 20
-2.21568
 30
0.0
 11
3.102468
 21
-2.206977
 31
0.0
  0
LINE
  8
0
  6
CONTINUOUS
 62
     7
  5
931
 10
3.102468
 20
-2.206977
 30
0.0
 11
3.123909
 21
-2.202155
 31
0.0
  0
LINE
  8
0
  6
CONTINUOUS
 62
     7
  5
932
 10
3.123909
 20
-2.202155
 30
0.0
 11
3.14514
 21
-2.201231
 31
0.0
  0
LINE
  8
0
  6
CONTINUOUS
 62
     7
  5
933
 10
3.14514
 20
-2.201231
 30
0.0
 11
3.166596
 21
-2.204098
 31
0.0
  0
LINE
  8
0
  6
CONTINUOUS
 62
     7
  5
934
 10
3.166596
 20
-2.204098
 30
0.0
 11
3.187653
 21
-2.210909
 31
0.0
  0
LINE
  8
0
  6
CONTINUOUS
 62
     7
  5
935
 10
3.187653
 20
-2.210909
 30
0.0
 11
3.207114
 21
-2.221408
 31
0.0
  0
LINE
  8
0
  6
CONTINUOUS
 62
     7
  5
936
 10
3.207114
 20
-2.221408
 30
0.0
 11
3.223965
 21
-2.234877
 31
0.0
  0
LINE
  8
0
  6
CONTINUOUS
 62
     7
  5
937
 10
3.223965
 20
-2.234877
 30
0.0
 11
3.23805
 21
-2.250936
 31
0.0
  0
LINE
  8
0
  6
CONTINUOUS
 62
     7
  5
938
 10
3.23805
 20
-2.250936
 30
0.0
 11
3.249428
 21
-2.269858
 31
0.0
  0
LINE
  8
0
  6
CONTINUOUS
 62
     7
  5
939
 10
3.249428
 20
-2.269858
 30
0.0
 11
3.257248
 21
-2.290684
 31
0.0
  0
LINE
  8
0
  6
CONTINUOUS
 62
     7
  5
93A
 10
3.257248
 20
-2.290684
 30
0.0
 11
3.26112
 21
-2.312257
 31
0.0
  0
LINE
  8
0
  6
CONTINUOUS
 62
     7
  5
93B
 10
3.26112
 20
-2.312257
 30
0.0
 11
3.26112
 21
-2.333543
 31
0.0
  0
LINE
  8
0
  6
CONTINUOUS
 62
     7
  5
93C
 10
3.26112
 20
-2.333543
 30
0.0
 11
3.257248
 21
-2.355116
 31
0.0
  0
LINE
  8
0
  6
CONTINUOUS
 62
     7
  5
93D
 10
3.257248
 20
-2.355116
 30
0.0
 11
3.249428
 21
-2.375942
 31
0.0
  0
LINE
  8
0
  6
CONTINUOUS
 62
     7
  5
93E
 10
3.249428
 20
-2.375942
 30
0.0
 11
3.23805
 21
-2.394864
 31
0.0
  0
LINE
  8
0
  6
CONTINUOUS
 62
     7
  5
93F
 10
3.23805
 20
-2.394864
 30
0.0
 11
3.223965
 21
-2.410923
 31
0.0
  0
LINE
  8
0
  6
CONTINUOUS
 62
     7
  5
940
 10
3.223965
 20
-2.410923
 30
0.0
 11
3.207114
 21
-2.424392
 31
0.0
  0
LINE
  8
0
  6
CONTINUOUS
 62
     7
  5
941
 10
3.207114
 20
-2.424392
 30
0.0
 11
3.187653
 21
-2.434891
 31
0.0
  0
LINE
  8
0
  6
CONTINUOUS
 62
     7
  5
942
 10
3.187653
 20
-2.434891
 30
0.0
 11
3.166596
 21
-2.441702
 31
0.0
  0
LINE
  8
0
  6
CONTINUOUS
 62
     7
  5
943
 10
3.166596
 20
-2.441702
 30
0.0
 11
3.14514
 21
-2.444569
 31
0.0
  0
LINE
  8
0
  6
CONTINUOUS
 62
     7
  5
944
 10
3.14514
 20
-2.444569
 30
0.0
 11
3.123909
 21
-2.443645
 31
0.0
  0
LINE
  8
0
  6
CONTINUOUS
 62
     7
  5
945
 10
3.123909
 20
-2.443645
 30
0.0
 11
3.102468
 21
-2.438823
 31
0.0
  0
LINE
  8
0
  6
CONTINUOUS
 62
     7
  5
946
 10
3.102468
 20
-2.438823
 30
0.0
 11
3.082044
 21
-2.43012
 31
0.0
  0
LINE
  8
0
  6
CONTINUOUS
 62
     7
  5
947
 10
3.082044
 20
-2.43012
 30
0.0
 11
3.063737
 21
-2.418012
 31
0.0
  0
LINE
  8
0
  6
CONTINUOUS
 62
     7
  5
948
 10
3.063737
 20
-2.418012
 30
0.0
 11
3.048352
 21
-2.40333
 31
0.0
  0
LINE
  8
0
  6
CONTINUOUS
 62
     7
  5
949
 10
3.048352
 20
-2.40333
 30
0.0
 11
3.035472
 21
-2.385729
 31
0.0
  0
LINE
  8
0
  6
CONTINUOUS
 62
     7
  5
94A
 10
3.035472
 20
-2.385729
 30
0.0
 11
3.025787
 21
-2.365711
 31
0.0
  0
LINE
  8
0
  6
CONTINUOUS
 62
     7
  5
94B
 10
3.025787
 20
-2.365711
 30
0.0
 11
3.019917
 21
-2.344343
 31
0.0
  0
LINE
  8
0
  6
CONTINUOUS
 62
     7
  5
94C
 10
3.019917
 20
-2.344343
 30
0.0
 11
3.018014
 21
-2.3229
 31
0.0
  0
LINE
  8
0
  6
CONTINUOUS
 62
     7
  5
94D
 10
2.598714
 20
-2.3229
 30
0.0
 11
2.600609
 21
-2.3015
 31
0.0
  0
LINE
  8
0
  6
CONTINUOUS
 62
     7
  5
94E
 10
2.600609
 20
-2.3015
 30
0.0
 11
2.606457
 21
-2.280167
 31
0.0
  0
LINE
  8
0
  6
CONTINUOUS
 62
     7
  5
94F
 10
2.606457
 20
-2.280167
 30
0.0
 11
2.616113
 21
-2.260169
 31
0.0
  0
LINE
  8
0
  6
CONTINUOUS
 62
     7
  5
950
 10
2.616113
 20
-2.260169
 30
0.0
 11
2.628966
 21
-2.242568
 31
0.0
  0
LINE
  8
0
  6
CONTINUOUS
 62
     7
  5
951
 10
2.628966
 20
-2.242568
 30
0.0
 11
2.644328
 21
-2.227875
 31
0.0
  0
LINE
  8
0
  6
CONTINUOUS
 62
     7
  5
952
 10
2.644328
 20
-2.227875
 30
0.0
 11
2.662624
 21
-2.215745
 31
0.0
  0
LINE
  8
0
  6
CONTINUOUS
 62
     7
  5
953
 10
2.662624
 20
-2.215745
 30
0.0
 11
2.683059
 21
-2.207012
 31
0.0
  0
LINE
  8
0
  6
CONTINUOUS
 62
     7
  5
954
 10
2.683059
 20
-2.207012
 30
0.0
 11
2.704529
 21
-2.202166
 31
0.0
  0
LINE
  8
0
  6
CONTINUOUS
 62
     7
  5
955
 10
2.704529
 20
-2.202166
 30
0.0
 11
2.725802
 21
-2.201229
 31
0.0
  0
LINE
  8
0
  6
CONTINUOUS
 62
     7
  5
956
 10
2.725802
 20
-2.201229
 30
0.0
 11
2.747302
 21
-2.2041
 31
0.0
  0
LINE
  8
0
  6
CONTINUOUS
 62
     7
  5
957
 10
2.747302
 20
-2.2041
 30
0.0
 11
2.768397
 21
-2.210928
 31
0.0
  0
LINE
  8
0
  6
CONTINUOUS
 62
     7
  5
958
 10
2.768397
 20
-2.210928
 30
0.0
 11
2.78788
 21
-2.221452
 31
0.0
  0
LINE
  8
0
  6
CONTINUOUS
 62
     7
  5
959
 10
2.78788
 20
-2.221452
 30
0.0
 11
2.804732
 21
-2.234941
 31
0.0
  0
LINE
  8
0
  6
CONTINUOUS
 62
     7
  5
95A
 10
2.804732
 20
-2.234941
 30
0.0
 11
2.818809
 21
-2.251018
 31
0.0
  0
LINE
  8
0
  6
CONTINUOUS
 62
     7
  5
95B
 10
2.818809
 20
-2.251018
 30
0.0
 11
2.830167
 21
-2.269938
 31
0.0
  0
LINE
  8
0
  6
CONTINUOUS
 62
     7
  5
95C
 10
2.830167
 20
-2.269938
 30
0.0
 11
2.837964
 21
-2.290742
 31
0.0
  0
LINE
  8
0
  6
CONTINUOUS
 62
     7
  5
95D
 10
2.837964
 20
-2.290742
 30
0.0
 11
2.841822
 21
-2.312278
 31
0.0
  0
LINE
  8
0
  6
CONTINUOUS
 62
     7
  5
95E
 10
2.841822
 20
-2.312278
 30
0.0
 11
2.841822
 21
-2.333522
 31
0.0
  0
LINE
  8
0
  6
CONTINUOUS
 62
     7
  5
95F
 10
2.841822
 20
-2.333522
 30
0.0
 11
2.837964
 21
-2.355058
 31
0.0
  0
LINE
  8
0
  6
CONTINUOUS
 62
     7
  5
960
 10
2.837964
 20
-2.355058
 30
0.0
 11
2.830167
 21
-2.375862
 31
0.0
  0
LINE
  8
0
  6
CONTINUOUS
 62
     7
  5
961
 10
2.830167
 20
-2.375862
 30
0.0
 11
2.818809
 21
-2.394782
 31
0.0
  0
LINE
  8
0
  6
CONTINUOUS
 62
     7
  5
962
 10
2.818809
 20
-2.394782
 30
0.0
 11
2.804732
 21
-2.410859
 31
0.0
  0
LINE
  8
0
  6
CONTINUOUS
 62
     7
  5
963
 10
2.804732
 20
-2.410859
 30
0.0
 11
2.78788
 21
-2.424348
 31
0.0
  0
LINE
  8
0
  6
CONTINUOUS
 62
     7
  5
964
 10
2.78788
 20
-2.424348
 30
0.0
 11
2.768397
 21
-2.434872
 31
0.0
  0
LINE
  8
0
  6
CONTINUOUS
 62
     7
  5
965
 10
2.768397
 20
-2.434872
 30
0.0
 11
2.747302
 21
-2.4417
 31
0.0
  0
LINE
  8
0
  6
CONTINUOUS
 62
     7
  5
966
 10
2.747302
 20
-2.4417
 30
0.0
 11
2.725802
 21
-2.444571
 31
0.0
  0
LINE
  8
0
  6
CONTINUOUS
 62
     7
  5
967
 10
2.725802
 20
-2.444571
 30
0.0
 11
2.704529
 21
-2.443634
 31
0.0
  0
LINE
  8
0
  6
CONTINUOUS
 62
     7
  5
968
 10
2.704529
 20
-2.443634
 30
0.0
 11
2.683059
 21
-2.438788
 31
0.0
  0
LINE
  8
0
  6
CONTINUOUS
 62
     7
  5
969
 10
2.683059
 20
-2.438788
 30
0.0
 11
2.662624
 21
-2.430055
 31
0.0
  0
LINE
  8
0
  6
CONTINUOUS
 62
     7
  5
96A
 10
2.662624
 20
-2.430055
 30
0.0
 11
2.644328
 21
-2.417925
 31
0.0
  0
LINE
  8
0
  6
CONTINUOUS
 62
     7
  5
96B
 10
2.644328
 20
-2.417925
 30
0.0
 11
2.628966
 21
-2.403232
 31
0.0
  0
LINE
  8
0
  6
CONTINUOUS
 62
     7
  5
96C
 10
2.628966
 20
-2.403232
 30
0.0
 11
2.616113
 21
-2.385631
 31
0.0
  0
LINE
  8
0
  6
CONTINUOUS
 62
     7
  5
96D
 10
2.616113
 20
-2.385631
 30
0.0
 11
2.606457
 21
-2.365633
 31
0.0
  0
LINE
  8
0
  6
CONTINUOUS
 62
     7
  5
96E
 10
2.606457
 20
-2.365633
 30
0.0
 11
2.600609
 21
-2.3443
 31
0.0
  0
LINE
  8
0
  6
CONTINUOUS
 62
     7
  5
96F
 10
2.600609
 20
-2.3443
 30
0.0
 11
2.598714
 21
-2.3229
 31
0.0
  0
LINE
  8
0
  6
CONTINUOUS
 62
     7
  5
970
 10
2.181314
 20
-2.3229
 30
0.0
 11
2.183209
 21
-2.301501
 31
0.0
  0
LINE
  8
0
  6
CONTINUOUS
 62
     7
  5
971
 10
2.183209
 20
-2.301501
 30
0.0
 11
2.189056
 21
-2.280171
 31
0.0
  0
LINE
  8
0
  6
CONTINUOUS
 62
     7
  5
972
 10
2.189056
 20
-2.280171
 30
0.0
 11
2.198708
 21
-2.260177
 31
0.0
  0
LINE
  8
0
  6
CONTINUOUS
 62
     7
  5
973
 10
2.198708
 20
-2.260177
 30
0.0
 11
2.211555
 21
-2.242579
 31
0.0
  0
LINE
  8
0
  6
CONTINUOUS
 62
     7
  5
974
 10
2.211555
 20
-2.242579
 30
0.0
 11
2.226909
 21
-2.227891
 31
0.0
  0
LINE
  8
0
  6
CONTINUOUS
 62
     7
  5
975
 10
2.226909
 20
-2.227891
 30
0.0
 11
2.245193
 21
-2.215761
 31
0.0
  0
LINE
  8
0
  6
CONTINUOUS
 62
     7
  5
976
 10
2.245193
 20
-2.215761
 30
0.0
 11
2.265618
 21
-2.207025
 31
0.0
  0
LINE
  8
0
  6
CONTINUOUS
 62
     7
  5
977
 10
2.265618
 20
-2.207025
 30
0.0
 11
2.287082
 21
-2.202172
 31
0.0
  0
LINE
  8
0
  6
CONTINUOUS
 62
     7
  5
978
 10
2.287082
 20
-2.202172
 30
0.0
 11
2.308355
 21
-2.201227
 31
0.0
  0
LINE
  8
0
  6
CONTINUOUS
 62
     7
  5
979
 10
2.308355
 20
-2.201227
 30
0.0
 11
2.329857
 21
-2.20409
 31
0.0
  0
LINE
  8
0
  6
CONTINUOUS
 62
     7
  5
97A
 10
2.329857
 20
-2.20409
 30
0.0
 11
2.350961
 21
-2.210913
 31
0.0
  0
LINE
  8
0
  6
CONTINUOUS
 62
     7
  5
97B
 10
2.350961
 20
-2.210913
 30
0.0
 11
2.370455
 21
-2.221435
 31
0.0
  0
LINE
  8
0
  6
CONTINUOUS
 62
     7
  5
97C
 10
2.370455
 20
-2.221435
 30
0.0
 11
2.387318
 21
-2.234928
 31
0.0
  0
LINE
  8
0
  6
CONTINUOUS
 62
     7
  5
97D
 10
2.387318
 20
-2.234928
 30
0.0
 11
2.401403
 21
-2.251008
 31
0.0
  0
LINE
  8
0
  6
CONTINUOUS
 62
     7
  5
97E
 10
2.401403
 20
-2.251008
 30
0.0
 11
2.412764
 21
-2.269932
 31
0.0
  0
LINE
  8
0
  6
CONTINUOUS
 62
     7
  5
97F
 10
2.412764
 20
-2.269932
 30
0.0
 11
2.420563
 21
-2.29074
 31
0.0
  0
LINE
  8
0
  6
CONTINUOUS
 62
     7
  5
980
 10
2.420563
 20
-2.29074
 30
0.0
 11
2.424422
 21
-2.312278
 31
0.0
  0
LINE
  8
0
  6
CONTINUOUS
 62
     7
  5
981
 10
2.424422
 20
-2.312278
 30
0.0
 11
2.424422
 21
-2.333522
 31
0.0
  0
LINE
  8
0
  6
CONTINUOUS
 62
     7
  5
982
 10
2.424422
 20
-2.333522
 30
0.0
 11
2.420563
 21
-2.35506
 31
0.0
  0
LINE
  8
0
  6
CONTINUOUS
 62
     7
  5
983
 10
2.420563
 20
-2.35506
 30
0.0
 11
2.412764
 21
-2.375868
 31
0.0
  0
LINE
  8
0
  6
CONTINUOUS
 62
     7
  5
984
 10
2.412764
 20
-2.375868
 30
0.0
 11
2.401403
 21
-2.394792
 31
0.0
  0
LINE
  8
0
  6
CONTINUOUS
 62
     7
  5
985
 10
2.401403
 20
-2.394792
 30
0.0
 11
2.387318
 21
-2.410872
 31
0.0
  0
LINE
  8
0
  6
CONTINUOUS
 62
     7
  5
986
 10
2.387318
 20
-2.410872
 30
0.0
 11
2.370455
 21
-2.424365
 31
0.0
  0
LINE
  8
0
  6
CONTINUOUS
 62
     7
  5
987
 10
2.370455
 20
-2.424365
 30
0.0
 11
2.350961
 21
-2.434887
 31
0.0
  0
LINE
  8
0
  6
CONTINUOUS
 62
     7
  5
988
 10
2.350961
 20
-2.434887
 30
0.0
 11
2.329857
 21
-2.44171
 31
0.0
  0
LINE
  8
0
  6
CONTINUOUS
 62
     7
  5
989
 10
2.329857
 20
-2.44171
 30
0.0
 11
2.308355
 21
-2.444573
 31
0.0
  0
LINE
  8
0
  6
CONTINUOUS
 62
     7
  5
98A
 10
2.308355
 20
-2.444573
 30
0.0
 11
2.287082
 21
-2.443628
 31
0.0
  0
LINE
  8
0
  6
CONTINUOUS
 62
     7
  5
98B
 10
2.287082
 20
-2.443628
 30
0.0
 11
2.265618
 21
-2.438775
 31
0.0
  0
LINE
  8
0
  6
CONTINUOUS
 62
     7
  5
98C
 10
2.265618
 20
-2.438775
 30
0.0
 11
2.245193
 21
-2.430039
 31
0.0
  0
LINE
  8
0
  6
CONTINUOUS
 62
     7
  5
98D
 10
2.245193
 20
-2.430039
 30
0.0
 11
2.226909
 21
-2.417909
 31
0.0
  0
LINE
  8
0
  6
CONTINUOUS
 62
     7
  5
98E
 10
2.226909
 20
-2.417909
 30
0.0
 11
2.211555
 21
-2.403221
 31
0.0
  0
LINE
  8
0
  6
CONTINUOUS
 62
     7
  5
98F
 10
2.211555
 20
-2.403221
 30
0.0
 11
2.198708
 21
-2.385623
 31
0.0
  0
LINE
  8
0
  6
CONTINUOUS
 62
     7
  5
990
 10
2.198708
 20
-2.385623
 30
0.0
 11
2.189056
 21
-2.365629
 31
0.0
  0
LINE
  8
0
  6
CONTINUOUS
 62
     7
  5
991
 10
2.189056
 20
-2.365629
 30
0.0
 11
2.183209
 21
-2.344299
 31
0.0
  0
LINE
  8
0
  6
CONTINUOUS
 62
     7
  5
992
 10
2.183209
 20
-2.344299
 30
0.0
 11
2.181314
 21
-2.3229
 31
0.0
  0
LINE
  8
0
  6
CONTINUOUS
 62
     7
  5
993
 10
1.4268
 20
-4.09855
 30
0.0
 11
1.4268
 21
-3.6646
 31
0.0
  0
LINE
  8
0
  6
CONTINUOUS
 62
     7
  5
994
 10
1.4268
 20
-2.501
 30
0.0
 11
1.4268
 21
-3.6646
 31
0.0
  0
LINE
  8
0
  6
CONTINUOUS
 62
     7
  5
995
 10
1.4268
 20
-2.501
 30
0.0
 11
1.4268
 21
-2.06705
 31
0.0
  0
LINE
  8
0
  6
CONTINUOUS
 62
     7
  5
996
 10
3.5968
 20
-4.09855
 30
0.0
 11
1.4268
 21
-4.09855
 31
0.0
  0
LINE
  8
0
  6
CONTINUOUS
 62
     7
  5
997
 10
3.5968
 20
-2.501
 30
0.0
 11
3.5968
 21
-2.06705
 31
0.0
  0
LINE
  8
0
  6
CONTINUOUS
 62
     7
  5
998
 10
3.5968
 20
-2.06705
 30
0.0
 11
1.4268
 21
-2.06705
 31
0.0
  0
LINE
  8
0
  6
CONTINUOUS
 62
     7
  5
999
 10
3.5968
 20
-4.09855
 30
0.0
 11
3.5968
 21
-3.6646
 31
0.0
  0
LINE
  8
0
  6
CONTINUOUS
 62
     7
  5
99A
 10
3.5968
 20
-3.6646
 30
0.0
 11
2.5118
 21
-3.6646
 31
0.0
  0
LINE
  8
0
  6
CONTINUOUS
 62
     7
  5
99B
 10
3.5968
 20
-2.501
 30
0.0
 11
3.5968
 21
-3.6646
 31
0.0
  0
LINE
  8
0
  6
CONTINUOUS
 62
     7
  5
99C
 10
1.4268
 20
-2.501
 30
0.0
 11
2.5118
 21
-2.501
 31
0.0
  0
LINE
  8
0
  6
CONTINUOUS
 62
     7
  5
99D
 10
2.5118
 20
-2.501
 30
0.0
 11
3.5968
 21
-2.501
 31
0.0
  0
LINE
  8
0
  6
CONTINUOUS
 62
     7
  5
99E
 10
2.5118
 20
-3.6646
 30
0.0
 11
1.4268
 21
-3.6646
 31
0.0
  0
LINE
  8
0
  6
CONTINUOUS
 62
     7
  5
99F
 10
1.63095
 20
-3.6636
 30
0.0
 11
3.39265
 21
-3.6636
 31
0.0
  0
LINE
  8
0
  6
CONTINUOUS
 62
     7
  5
9A0
 10
3.39265
 20
-2.502
 30
0.0
 11
3.39265
 21
-2.7009
 31
0.0
  0
LINE
  8
0
  6
CONTINUOUS
 62
     7
  5
9A1
 10
3.39265
 20
-2.7009
 30
0.0
 11
3.39265
 21
-3.0198
 31
0.0
  0
LINE
  8
0
  6
CONTINUOUS
 62
     7
  5
9A2
 10
3.39265
 20
-3.0198
 30
0.0
 11
3.39265
 21
-3.6636
 31
0.0
  0
LINE
  8
0
  6
CONTINUOUS
 62
     7
  5
9A3
 10
1.7874
 20
-3.0198
 30
0.0
 11
1.7874
 21
-2.7009
 31
0.0
  0
LINE
  8
0
  6
CONTINUOUS
 62
     7
  5
9A4
 10
1.7874
 20
-2.7009
 30
0.0
 11
3.39265
 21
-2.7009
 31
0.0
  0
LINE
  8
0
  6
CONTINUOUS
 62
     7
  5
9A5
 10
3.39265
 20
-2.502
 30
0.0
 11
1.63095
 21
-2.502
 31
0.0
  0
LINE
  8
0
  6
CONTINUOUS
 62
     7
  5
9A6
 10
3.39265
 20
-3.0198
 30
0.0
 11
1.7874
 21
-3.0198
 31
0.0
  0
LINE
  8
0
  6
CONTINUOUS
 62
     7
  5
9A7
 10
1.63095
 20
-2.502
 30
0.0
 11
1.63095
 21
-3.6636
 31
0.0
  0
LINE
  8
0
  6
CONTINUOUS
 62
     7
  5
9A8
 10
-0.0575
 20
-6.1388
 30
0.0
 11
1.5625
 21
-6.1388
 31
0.0
  0
ARC
  8
0
  6
CONTINUOUS
 62
     7
  5
9A9
 10
-0.0575
 20
-6.1888
 30
0.0
 40
0.05
 50
90.0
 51
180.0
  0
LINE
  8
0
  6
CONTINUOUS
 62
     7
  5
9AA
 10
-0.1075
 20
-7.4588
 30
0.0
 11
-0.1075
 21
-6.1888
 31
0.0
  0
ARC
  8
0
  6
CONTINUOUS
 62
     7
  5
9AB
 10
-0.0575
 20
-7.4588
 30
0.0
 40
0.05
 50
180.0
 51
270.0
  0
LINE
  8
0
  6
CONTINUOUS
 62
     7
  5
9AC
 10
0.7775
 20
-7.5088
 30
0.0
 11
-0.0575
 21
-7.5088
 31
0.0
  0
LINE
  8
0
  6
CONTINUOUS
 62
     7
  5
9AD
 10
0.7775
 20
-7.9538
 30
0.0
 11
0.7775
 21
-7.5088
 31
0.0
  0
ARC
  8
0
  6
CONTINUOUS
 62
     7
  5
9AE
 10
0.8275
 20
-7.9538
 30
0.0
 40
0.05
 50
180.0
 51
270.0
  0
LINE
  8
0
  6
CONTINUOUS
 62
     7
  5
9AF
 10
1.5625
 20
-8.0038
 30
0.0
 11
0.8275
 21
-8.0038
 31
0.0
  0
ARC
  8
0
  6
CONTINUOUS
 62
     7
  5
9B0
 10
1.5625
 20
-7.9538
 30
0.0
 40
0.05
 50
270.0
 51
360.0
  0
LINE
  8
0
  6
CONTINUOUS
 62
     7
  5
9B1
 10
1.6125
 20
-6.1888
 30
0.0
 11
1.6125
 21
-7.9538
 31
0.0
  0
ARC
  8
0
  6
CONTINUOUS
 62
     7
  5
9B2
 10
1.5625
 20
-6.1888
 30
0.0
 40
0.05
 50
0.0
 51
90.0
  0
LINE
  8
0
  6
CONTINUOUS
 62
     7
  5
9B3
 10
1.233
 20
-7.9205
 30
0.0
 11
1.127
 21
-7.9205
 31
0.0
  0
LINE
  8
0
  6
CONTINUOUS
 62
     7
  5
9B4
 10
1.233
 20
-7.9205
 30
0.0
 11
1.233
 21
-7.6805
 31
0.0
  0
LINE
  8
0
  6
CONTINUOUS
 62
     7
  5
9B5
 10
-0.877602
 20
-7.854
 30
0.0
 11
-0.807832
 21
-7.854
 31
0.0
  0
LINE
  8
0
  6
CONTINUOUS
 62
     7
  5
9B6
 10
-0.877602
 20
-7.542
 30
0.0
 11
-0.807832
 21
-7.542
 31
0.0
  0
LINE
  8
0
  6
CONTINUOUS
 62
     7
  5
9B7
 10
-0.877602
 20
-7.854
 30
0.0
 11
-0.877602
 21
-7.542
 31
0.0
  0
LINE
  8
0
  6
CONTINUOUS
 62
     7
  5
9B8
 10
-0.807832
 20
-7.854
 30
0.0
 11
-0.711199
 21
-7.854
 31
0.0
  0
LINE
  8
0
  6
CONTINUOUS
 62
     7
  5
9B9
 10
-0.807832
 20
-7.542
 30
0.0
 11
-0.711199
 21
-7.542
 31
0.0
  0
LINE
  8
0
  6
CONTINUOUS
 62
     7
  5
9BA
 10
-0.711199
 20
-7.854
 30
0.0
 11
0.56
 21
-7.854
 31
0.0
  0
LINE
  8
0
  6
CONTINUOUS
 62
     7
  5
9BB
 10
-0.711199
 20
-7.542
 30
0.0
 11
0.56
 21
-7.542
 31
0.0
  0
LINE
  8
0
  6
CONTINUOUS
 62
     7
  5
9BC
 10
0.56
 20
-7.854
 30
0.0
 11
0.66
 21
-7.854
 31
0.0
  0
LINE
  8
0
  6
CONTINUOUS
 62
     7
  5
9BD
 10
0.66
 20
-7.542
 30
0.0
 11
0.66
 21
-7.854
 31
0.0
  0
LINE
  8
0
  6
CONTINUOUS
 62
     7
  5
9BE
 10
0.56
 20
-7.542
 30
0.0
 11
0.66
 21
-7.542
 31
0.0
  0
LINE
  8
0
  6
CONTINUOUS
 62
     7
  5
9BF
 10
-1.0157
 20
-6.8028
 30
0.0
 11
-1.0157
 21
-6.9988
 31
0.0
  0
LINE
  8
0
  6
CONTINUOUS
 62
     7
  5
9C0
 10
-1.3157
 20
-6.9988
 30
0.0
 11
-1.3157
 21
-6.8028
 31
0.0
  0
ARC
  8
0
  6
CONTINUOUS
 62
     7
  5
9C1
 10
-1.1657
 20
-6.9988
 30
0.0
 40
0.15
 50
180.0
 51
0.0
  0
LINE
  8
0
  6
CONTINUOUS
 62
     7
  5
9C2
 10
-1.3157
 20
-6.8028
 30
0.0
 11
-1.0157
 21
-6.8028
 31
0.0
  0
LINE
  8
0
  6
CONTINUOUS
 62
     7
  5
9C3
 10
-1.0157
 20
-6.8028
 30
0.0
 11
-0.5557
 21
-6.8028
 31
0.0
  0
LINE
  8
0
  6
CONTINUOUS
 62
     7
  5
9C4
 10
-0.5557
 20
-6.8028
 30
0.0
 11
-0.2557
 21
-6.8028
 31
0.0
  0
LINE
  8
0
  6
CONTINUOUS
 62
     7
  5
9C5
 10
-0.2557
 20
-6.8028
 30
0.0
 11
-0.1409
 21
-6.8028
 31
0.0
  0
LINE
  8
0
  6
CONTINUOUS
 62
     7
  5
9C6
 10
-1.4305
 20
-6.8028
 30
0.0
 11
-1.5235
 21
-6.8028
 31
0.0
  0
LINE
  8
0
  6
CONTINUOUS
 62
     7
  5
9C7
 10
-1.4305
 20
-6.8028
 30
0.0
 11
-1.3157
 21
-6.8028
 31
0.0
  0
LINE
  8
0
  6
CONTINUOUS
 62
     7
  5
9C8
 10
-0.2557
 20
-6.8028
 30
0.0
 11
-0.2557
 21
-6.9988
 31
0.0
  0
LINE
  8
0
  6
CONTINUOUS
 62
     7
  5
9C9
 10
-0.5557
 20
-6.9988
 30
0.0
 11
-0.5557
 21
-6.8028
 31
0.0
  0
ARC
  8
0
  6
CONTINUOUS
 62
     7
  5
9CA
 10
-0.4057
 20
-6.9988
 30
0.0
 40
0.15
 50
180.0
 51
0.0
  0
LINE
  8
0
  6
CONTINUOUS
 62
     7
  5
9CB
 10
1.233
 20
-7.6805
 30
0.0
 11
1.127
 21
-7.6805
 31
0.0
  0
LINE
  8
0
  6
CONTINUOUS
 62
     7
  5
9CC
 10
1.127
 20
-7.6805
 30
0.0
 11
1.127
 21
-7.9205
 31
0.0
  0
LINE
  8
0
  6
CONTINUOUS
 62
     7
  5
9CD
 10
-1.4305
 20
-7.2828
 30
0.0
 11
-0.1409
 21
-7.2828
 31
0.0
  0
LINE
  8
0
  6
CONTINUOUS
 62
     7
  5
9CE
 10
-0.1409
 20
-7.2828
 30
0.0
 11
-0.1409
 21
-7.2228
 31
0.0
  0
LINE
  8
0
  6
CONTINUOUS
 62
     7
  5
9CF
 10
-1.4305
 20
-7.2828
 30
0.0
 11
-1.4305
 21
-7.2228
 31
0.0
  0
LINE
  8
0
  6
CONTINUOUS
 62
     7
  5
9D0
 10
-1.4305
 20
-7.2228
 30
0.0
 11
-1.4305
 21
-6.8028
 31
0.0
  0
LINE
  8
0
  6
CONTINUOUS
 62
     7
  5
9D1
 10
-0.1409
 20
-7.2228
 30
0.0
 11
-0.1409
 21
-6.8028
 31
0.0
  0
LINE
  8
0
  6
CONTINUOUS
 62
     7
  5
9D2
 10
-0.1409
 20
-6.2915
 30
0.0
 11
-0.1409
 21
-6.8028
 31
0.0
  0
LINE
  8
0
  6
CONTINUOUS
 62
     7
  5
9D3
 10
-1.5235
 20
-6.8028
 30
0.0
 11
-1.5235
 21
-6.2915
 31
0.0
  0
LINE
  8
0
  6
CONTINUOUS
 62
     7
  5
9D4
 10
-1.6305
 20
-6.2915
 30
0.0
 11
-1.6305
 21
-8.1205
 31
0.0
  0
LINE
  8
0
  6
CONTINUOUS
 62
     7
  5
9D5
 10
1.6305
 20
-8.1205
 30
0.0
 11
1.6305
 21
-6.2915
 31
0.0
  0
LINE
  8
0
  6
CONTINUOUS
 62
     7
  5
9D6
 10
-1.5235
 20
-6.2915
 30
0.0
 11
-1.5235
 21
-6.1015
 31
0.0
  0
LINE
  8
0
  6
CONTINUOUS
 62
     7
  5
9D7
 10
-1.5235
 20
-6.1015
 30
0.0
 11
-0.1409
 21
-6.1015
 31
0.0
  0
LINE
  8
0
  6
CONTINUOUS
 62
     7
  5
9D8
 10
-0.1409
 20
-6.1015
 30
0.0
 11
-0.1409
 21
-6.2915
 31
0.0
  0
LINE
  8
0
  6
CONTINUOUS
 62
     7
  5
9D9
 10
-1.5235
 20
-6.1015
 30
0.0
 11
-1.6305
 21
-6.1015
 31
0.0
  0
LINE
  8
0
  6
CONTINUOUS
 62
     7
  5
9DA
 10
-1.6305
 20
-6.1015
 30
0.0
 11
-1.6305
 21
-6.2915
 31
0.0
  0
LINE
  8
0
  6
CONTINUOUS
 62
     7
  5
9DB
 10
1.6305
 20
-6.1015
 30
0.0
 11
-0.1409
 21
-6.1015
 31
0.0
  0
LINE
  8
0
  6
CONTINUOUS
 62
     7
  5
9DC
 10
-1.6305
 20
-8.2405
 30
0.0
 11
-1.6305
 21
-8.421
 31
0.0
  0
LINE
  8
0
  6
CONTINUOUS
 62
     7
  5
9DD
 10
-1.6305
 20
-8.1205
 30
0.0
 11
-1.6305
 21
-8.2405
 31
0.0
  0
LINE
  8
0
  6
CONTINUOUS
 62
     7
  5
9DE
 10
-1.6305
 20
-5.921
 30
0.0
 11
-1.6305
 21
-6.1015
 31
0.0
  0
LINE
  8
0
  6
CONTINUOUS
 62
     7
  5
9DF
 10
1.6305
 20
-6.1015
 30
0.0
 11
1.6305
 21
-5.921
 31
0.0
  0
LINE
  8
0
  6
CONTINUOUS
 62
     7
  5
9E0
 10
1.6305
 20
-5.921
 30
0.0
 11
1.4405
 21
-5.921
 31
0.0
  0
LINE
  8
0
  6
CONTINUOUS
 62
     7
  5
9E1
 10
1.4405
 20
-5.921
 30
0.0
 11
1.4405
 21
-6.1015
 31
0.0
  0
LINE
  8
0
  6
CONTINUOUS
 62
     7
  5
9E2
 10
1.4405
 20
-8.2405
 30
0.0
 11
1.4405
 21
-8.421
 31
0.0
  0
LINE
  8
0
  6
CONTINUOUS
 62
     7
  5
9E3
 10
1.4405
 20
-8.421
 30
0.0
 11
1.6305
 21
-8.421
 31
0.0
  0
LINE
  8
0
  6
CONTINUOUS
 62
     7
  5
9E4
 10
1.6305
 20
-8.421
 30
0.0
 11
1.6305
 21
-8.2405
 31
0.0
  0
LINE
  8
0
  6
CONTINUOUS
 62
     7
  5
9E5
 10
1.6305
 20
-6.2915
 30
0.0
 11
1.6305
 21
-6.1015
 31
0.0
  0
LINE
  8
0
  6
CONTINUOUS
 62
     7
  5
9E6
 10
1.6305
 20
-8.2405
 30
0.0
 11
1.6305
 21
-8.1205
 31
0.0
  0
LINE
  8
0
  6
CONTINUOUS
 62
     7
  5
9E7
 10
-1.6305
 20
-8.421
 30
0.0
 11
-1.4405
 21
-8.421
 31
0.0
  0
LINE
  8
0
  6
CONTINUOUS
 62
     7
  5
9E8
 10
-1.4405
 20
-8.421
 30
0.0
 11
-1.4405
 21
-8.2405
 31
0.0
  0
LINE
  8
0
  6
CONTINUOUS
 62
     7
  5
9E9
 10
-1.4405
 20
-6.1015
 30
0.0
 11
-1.4405
 21
-5.921
 31
0.0
  0
LINE
  8
0
  6
CONTINUOUS
 62
     7
  5
9EA
 10
-1.4405
 20
-5.921
 30
0.0
 11
-1.6305
 21
-5.921
 31
0.0
  0
LINE
  8
0
  6
CONTINUOUS
 62
     7
  5
9EB
 10
1.6305
 20
-8.2405
 30
0.0
 11
-1.6305
 21
-8.2405
 31
0.0
  0
LINE
  8
0
  6
CONTINUOUS
 62
     7
  5
9EC
 10
1.108
 20
-5.865
 30
0.0
 11
1.108
 21
-6.1015
 31
0.0
  0
ARC
  8
0
  6
CONTINUOUS
 62
     7
  5
9ED
 10
0.953
 20
-5.865
 30
0.0
 40
0.155
 50
0.0
 51
143.130102
  0
ARC
  8
0
  6
CONTINUOUS
 62
     7
  5
9EE
 10
-0.953
 20
-5.865
 30
0.0
 40
0.155
 50
36.869898
 51
180.0
  0
LINE
  8
0
  6
CONTINUOUS
 62
     7
  5
9EF
 10
-1.108
 20
-6.1015
 30
0.0
 11
-1.108
 21
-5.865
 31
0.0
  0
LINE
  8
0
  6
CONTINUOUS
 62
     7
  5
9F0
 10
-0.406
 20
-8.41
 30
0.0
 11
-0.406
 21
-8.328
 31
0.0
  0
LINE
  8
0
  6
CONTINUOUS
 62
     7
  5
9F1
 10
0.406
 20
-8.328
 30
0.0
 11
0.406
 21
-8.41
 31
0.0
  0
LINE
  8
0
  6
CONTINUOUS
 62
     7
  5
9F2
 10
0.406
 20
-8.41
 30
0.0
 11
0.27965
 21
-8.41
 31
0.0
  0
LINE
  8
0
  6
CONTINUOUS
 62
     7
  5
9F3
 10
-0.27965
 20
-8.41
 30
0.0
 11
-0.406
 21
-8.41
 31
0.0
  0
CIRCLE
  8
0
  6
CONTINUOUS
 62
     7
  5
9F4
 10
0.875
 20
-8.59
 30
0.0
 40
0.115
  0
CIRCLE
  8
0
  6
CONTINUOUS
 62
     7
  5
9F5
 10
0.0
 20
-8.59
 30
0.0
 40
0.115
  0
CIRCLE
  8
0
  6
CONTINUOUS
 62
     7
  5
9F6
 10
-0.875
 20
-8.59
 30
0.0
 40
0.115
  0
LINE
  8
0
  6
CONTINUOUS
 62
     7
  5
9F7
 10
0.59535
 20
-8.8555
 30
0.0
 11
0.27965
 21
-8.8555
 31
0.0
  0
LINE
  8
0
  6
CONTINUOUS
 62
     7
  5
9F8
 10
0.27965
 20
-8.328
 30
0.0
 11
0.59535
 21
-8.328
 31
0.0
  0
LINE
  8
0
  6
CONTINUOUS
 62
     7
  5
9F9
 10
0.59535
 20
-8.9355
 30
0.0
 11
0.27965
 21
-8.9355
 31
0.0
  0
LINE
  8
0
  6
CONTINUOUS
 62
     7
  5
9FA
 10
-0.27965
 20
-8.8555
 30
0.0
 11
-0.59535
 21
-8.8555
 31
0.0
  0
LINE
  8
0
  6
CONTINUOUS
 62
     7
  5
9FB
 10
-0.59535
 20
-8.328
 30
0.0
 11
-0.27965
 21
-8.328
 31
0.0
  0
LINE
  8
0
  6
CONTINUOUS
 62
     7
  5
9FC
 10
-0.27965
 20
-8.9355
 30
0.0
 11
-0.59535
 21
-8.9355
 31
0.0
  0
LINE
  8
0
  6
CONTINUOUS
 62
     7
  5
9FD
 10
0.59535
 20
-8.2405
 30
0.0
 11
0.59535
 21
-8.8555
 31
0.0
  0
LINE
  8
0
  6
CONTINUOUS
 62
     7
  5
9FE
 10
0.59535
 20
-8.8555
 30
0.0
 11
0.59535
 21
-8.9355
 31
0.0
  0
LINE
  8
0
  6
CONTINUOUS
 62
     7
  5
9FF
 10
0.27965
 20
-8.9355
 30
0.0
 11
0.27965
 21
-8.8555
 31
0.0
  0
LINE
  8
0
  6
CONTINUOUS
 62
     7
  5
A00
 10
0.27965
 20
-8.8555
 30
0.0
 11
0.27965
 21
-8.2405
 31
0.0
  0
LINE
  8
0
  6
CONTINUOUS
 62
     7
  5
A01
 10
0.63365
 20
-8.8555
 30
0.0
 11
0.63365
 21
-8.3245
 31
0.0
  0
LINE
  8
0
  6
CONTINUOUS
 62
     7
  5
A02
 10
0.63365
 20
-8.3245
 30
0.0
 11
1.11635
 21
-8.3245
 31
0.0
  0
LINE
  8
0
  6
CONTINUOUS
 62
     7
  5
A03
 10
1.11635
 20
-8.3245
 30
0.0
 11
1.11635
 21
-8.8555
 31
0.0
  0
LINE
  8
0
  6
CONTINUOUS
 62
     7
  5
A04
 10
1.44
 20
-8.8555
 30
0.0
 11
1.44
 21
-8.2405
 31
0.0
  0
LINE
  8
0
  6
CONTINUOUS
 62
     7
  5
A05
 10
1.44
 20
-8.9355
 30
0.0
 11
0.59535
 21
-8.9355
 31
0.0
  0
LINE
  8
0
  6
CONTINUOUS
 62
     7
  5
A06
 10
1.44
 20
-8.9355
 30
0.0
 11
1.44
 21
-8.8555
 31
0.0
  0
LINE
  8
0
  6
CONTINUOUS
 62
     7
  5
A07
 10
1.11635
 20
-8.8555
 30
0.0
 11
0.63365
 21
-8.8555
 31
0.0
  0
LINE
  8
0
  6
CONTINUOUS
 62
     7
  5
A08
 10
-0.27965
 20
-8.2405
 30
0.0
 11
-0.27965
 21
-8.8555
 31
0.0
  0
LINE
  8
0
  6
CONTINUOUS
 62
     7
  5
A09
 10
-0.27965
 20
-8.8555
 30
0.0
 11
-0.27965
 21
-8.9355
 31
0.0
  0
LINE
  8
0
  6
CONTINUOUS
 62
     7
  5
A0A
 10
-0.59535
 20
-8.9355
 30
0.0
 11
-0.59535
 21
-8.8555
 31
0.0
  0
LINE
  8
0
  6
CONTINUOUS
 62
     7
  5
A0B
 10
-0.59535
 20
-8.8555
 30
0.0
 11
-0.59535
 21
-8.2405
 31
0.0
  0
LINE
  8
0
  6
CONTINUOUS
 62
     7
  5
A0C
 10
-0.24135
 20
-8.8555
 30
0.0
 11
-0.24135
 21
-8.3245
 31
0.0
  0
LINE
  8
0
  6
CONTINUOUS
 62
     7
  5
A0D
 10
-0.24135
 20
-8.3245
 30
0.0
 11
0.24135
 21
-8.3245
 31
0.0
  0
LINE
  8
0
  6
CONTINUOUS
 62
     7
  5
A0E
 10
0.24135
 20
-8.3245
 30
0.0
 11
0.24135
 21
-8.8555
 31
0.0
  0
LINE
  8
0
  6
CONTINUOUS
 62
     7
  5
A0F
 10
0.24135
 20
-8.8555
 30
0.0
 11
-0.24135
 21
-8.8555
 31
0.0
  0
LINE
  8
0
  6
CONTINUOUS
 62
     7
  5
A10
 10
0.27965
 20
-8.9355
 30
0.0
 11
-0.27965
 21
-8.9355
 31
0.0
  0
LINE
  8
0
  6
CONTINUOUS
 62
     7
  5
A11
 10
-1.44
 20
-8.2405
 30
0.0
 11
-1.44
 21
-8.8555
 31
0.0
  0
LINE
  8
0
  6
CONTINUOUS
 62
     7
  5
A12
 10
-1.11635
 20
-8.8555
 30
0.0
 11
-1.11635
 21
-8.3245
 31
0.0
  0
LINE
  8
0
  6
CONTINUOUS
 62
     7
  5
A13
 10
-1.11635
 20
-8.3245
 30
0.0
 11
-0.63365
 21
-8.3245
 31
0.0
  0
LINE
  8
0
  6
CONTINUOUS
 62
     7
  5
A14
 10
-0.63365
 20
-8.3245
 30
0.0
 11
-0.63365
 21
-8.8555
 31
0.0
  0
LINE
  8
0
  6
CONTINUOUS
 62
     7
  5
A15
 10
-0.63365
 20
-8.8555
 30
0.0
 11
-1.11635
 21
-8.8555
 31
0.0
  0
LINE
  8
0
  6
CONTINUOUS
 62
     7
  5
A16
 10
-1.44
 20
-8.8555
 30
0.0
 11
-1.44
 21
-8.9355
 31
0.0
  0
LINE
  8
0
  6
CONTINUOUS
 62
     7
  5
A17
 10
-0.59535
 20
-8.9355
 30
0.0
 11
-1.44
 21
-8.9355
 31
0.0
  0
LINE
  8
0
  6
CONTINUOUS
 62
     7
  5
A18
 10
0.14
 20
-5.7855
 30
0.0
 11
0.14
 21
-5.8795
 31
0.0
  0
LINE
  8
0
  6
CONTINUOUS
 62
     7
  5
A19
 10
-0.14
 20
-5.8795
 30
0.0
 11
-0.14
 21
-5.7855
 31
0.0
  0
LINE
  8
0
  6
CONTINUOUS
 62
     7
  5
A1A
 10
0.14
 20
-5.8795
 30
0.0
 11
-0.14
 21
-5.8795
 31
0.0
  0
LINE
  8
0
  6
CONTINUOUS
 62
     7
  5
A1B
 10
-0.14
 20
-5.3878
 30
0.0
 11
-0.14
 21
-5.7855
 31
0.0
  0
LINE
  8
0
  6
CONTINUOUS
 62
     7
  5
A1C
 10
-0.14
 20
-5.8795
 30
0.0
 11
-0.14
 21
-6.1015
 31
0.0
  0
LINE
  8
0
  6
CONTINUOUS
 62
     7
  5
A1D
 10
0.14
 20
-5.7855
 30
0.0
 11
0.14
 21
-5.3878
 31
0.0
  0
LINE
  8
0
  6
CONTINUOUS
 62
     7
  5
A1E
 10
0.14
 20
-6.1015
 30
0.0
 11
0.14
 21
-5.8795
 31
0.0
  0
LINE
  8
0
  6
CONTINUOUS
 62
     7
  5
A1F
 10
-0.549
 20
-5.7855
 30
0.0
 11
-0.549
 21
-5.8795
 31
0.0
  0
LINE
  8
0
  6
CONTINUOUS
 62
     7
  5
A20
 10
-0.829
 20
-5.8795
 30
0.0
 11
-0.829
 21
-5.7855
 31
0.0
  0
LINE
  8
0
  6
CONTINUOUS
 62
     7
  5
A21
 10
-0.549
 20
-5.8795
 30
0.0
 11
-0.829
 21
-5.8795
 31
0.0
  0
LINE
  8
0
  6
CONTINUOUS
 62
     7
  5
A22
 10
-0.829
 20
-5.3878
 30
0.0
 11
-0.829
 21
-5.7855
 31
0.0
  0
LINE
  8
0
  6
CONTINUOUS
 62
     7
  5
A23
 10
-0.549
 20
-5.7855
 30
0.0
 11
-0.549
 21
-5.3878
 31
0.0
  0
LINE
  8
0
  6
CONTINUOUS
 62
     7
  5
A24
 10
-1.015
 20
-5.8795
 30
0.0
 11
-1.015
 21
-6.1015
 31
0.0
  0
LINE
  8
0
  6
CONTINUOUS
 62
     7
  5
A25
 10
-1.015
 20
-5.7855
 30
0.0
 11
-1.015
 21
-5.8795
 31
0.0
  0
LINE
  8
0
  6
CONTINUOUS
 62
     7
  5
A26
 10
-0.735
 20
-6.1015
 30
0.0
 11
-0.735
 21
-5.8795
 31
0.0
  0
LINE
  8
0
  6
CONTINUOUS
 62
     7
  5
A27
 10
-1.015
 20
-5.8795
 30
0.0
 11
-0.829
 21
-5.8795
 31
0.0
  0
LINE
  8
0
  6
CONTINUOUS
 62
     7
  5
A28
 10
-0.829
 20
-5.7855
 30
0.0
 11
-1.015
 21
-5.7855
 31
0.0
  0
LINE
  8
0
  6
CONTINUOUS
 62
     7
  5
A29
 10
0.829
 20
-5.7855
 30
0.0
 11
0.829
 21
-5.8795
 31
0.0
  0
LINE
  8
0
  6
CONTINUOUS
 62
     7
  5
A2A
 10
0.549
 20
-5.8795
 30
0.0
 11
0.549
 21
-5.7855
 31
0.0
  0
LINE
  8
0
  6
CONTINUOUS
 62
     7
  5
A2B
 10
0.829
 20
-5.8795
 30
0.0
 11
0.549
 21
-5.8795
 31
0.0
  0
LINE
  8
0
  6
CONTINUOUS
 62
     7
  5
A2C
 10
0.549
 20
-5.3878
 30
0.0
 11
0.549
 21
-5.7855
 31
0.0
  0
LINE
  8
0
  6
CONTINUOUS
 62
     7
  5
A2D
 10
0.829
 20
-5.7855
 30
0.0
 11
0.829
 21
-5.3878
 31
0.0
  0
LINE
  8
0
  6
CONTINUOUS
 62
     7
  5
A2E
 10
0.735
 20
-5.8795
 30
0.0
 11
0.735
 21
-6.1015
 31
0.0
  0
LINE
  8
0
  6
CONTINUOUS
 62
     7
  5
A2F
 10
1.015
 20
-6.1015
 30
0.0
 11
1.015
 21
-5.8795
 31
0.0
  0
LINE
  8
0
  6
CONTINUOUS
 62
     7
  5
A30
 10
1.015
 20
-5.7855
 30
0.0
 11
1.015
 21
-5.8795
 31
0.0
  0
LINE
  8
0
  6
CONTINUOUS
 62
     7
  5
A31
 10
0.829
 20
-5.8795
 30
0.0
 11
1.015
 21
-5.8795
 31
0.0
  0
LINE
  8
0
  6
CONTINUOUS
 62
     7
  5
A32
 10
1.015
 20
-5.7855
 30
0.0
 11
0.829
 21
-5.7855
 31
0.0
  0
LINE
  8
0
  6
CONTINUOUS
 62
     7
  5
A33
 10
1.085
 20
-4.680459
 30
0.0
 11
1.4268
 21
-4.680459
 31
0.0
  0
LINE
  8
0
  6
CONTINUOUS
 62
     7
  5
A34
 10
1.085
 20
-4.621403
 30
0.0
 11
1.4268
 21
-4.621403
 31
0.0
  0
LINE
  8
0
  6
CONTINUOUS
 62
     7
  5
A35
 10
1.085
 20
-4.385183
 30
0.0
 11
1.4268
 21
-4.385183
 31
0.0
  0
LINE
  8
0
  6
CONTINUOUS
 62
     7
  5
A36
 10
1.085
 20
-4.326128
 30
0.0
 11
1.4268
 21
-4.326128
 31
0.0
  0
LINE
  8
0
  6
CONTINUOUS
 62
     7
  5
A37
 10
1.085
 20
-1.96679
 30
0.0
 11
1.37401
 21
-1.96679
 31
0.0
  0
LINE
  8
0
  6
CONTINUOUS
 62
     7
  5
A38
 10
1.37401
 20
-1.96679
 30
0.0
 11
1.415349
 21
-2.175451
 31
0.0
  0
LINE
  8
0
  6
CONTINUOUS
 62
     7
  5
A39
 10
1.415349
 20
-2.175451
 30
0.0
 11
1.376712
 21
-2.175451
 31
0.0
  0
LINE
  8
0
  6
CONTINUOUS
 62
     7
  5
A3A
 10
1.342173
 20
-2.025845
 30
0.0
 11
1.4268
 21
-2.392406
 31
0.0
  0
LINE
  8
0
  6
CONTINUOUS
 62
     7
  5
A3B
 10
1.4268
 20
-4.17151
 30
0.0
 11
1.13779
 21
-4.17151
 31
0.0
  0
LINE
  8
0
  6
CONTINUOUS
 62
     7
  5
A3C
 10
1.13779
 20
-4.17151
 30
0.0
 11
1.096451
 21
-3.962849
 31
0.0
  0
LINE
  8
0
  6
CONTINUOUS
 62
     7
  5
A3D
 10
1.096451
 20
-3.962849
 30
0.0
 11
1.135088
 21
-3.962849
 31
0.0
  0
LINE
  8
0
  6
CONTINUOUS
 62
     7
  5
A3E
 10
1.169628
 20
-4.112455
 30
0.0
 11
1.085
 21
-3.745894
 31
0.0
  0
LINE
  8
0
  6
CONTINUOUS
 62
     7
  5
A3F
 10
1.085
 20
-2.025845
 30
0.0
 11
1.342173
 21
-2.025845
 31
0.0
  0
LINE
  8
0
  6
CONTINUOUS
 62
     7
  5
A40
 10
1.4268
 20
-4.112455
 30
0.0
 11
1.169628
 21
-4.112455
 31
0.0
  0
LINE
  8
0
  6
CONTINUOUS
 62
     7
  5
A41
 10
1.085
 20
-1.806339
 30
0.0
 11
1.4268
 21
-1.806339
 31
0.0
  0
LINE
  8
0
  6
CONTINUOUS
 62
     7
  5
A42
 10
1.085
 20
-1.747283
 30
0.0
 11
1.4268
 21
-1.747283
 31
0.0
  0
LINE
  8
0
  6
CONTINUOUS
 62
     7
  5
A43
 10
1.085
 20
-1.511063
 30
0.0
 11
1.4268
 21
-1.511063
 31
0.0
  0
LINE
  8
0
  6
CONTINUOUS
 62
     7
  5
A44
 10
1.085
 20
-1.452008
 30
0.0
 11
1.4268
 21
-1.452008
 31
0.0
  0
LINE
  8
0
  6
CONTINUOUS
 62
     3
  5
A45
 10
0.0
 20
-0.109
 30
0.0
 11
0.0
 21
0.109
 31
0.0
  0
LINE
  8
0
  6
CONTINUOUS
 62
     3
  5
A46
 10
0.109
 20
0.0
 30
0.0
 11
-0.109
 21
0.0
 31
0.0
  0
LINE
  8
0
  6
CONTINUOUS
 62
     3
  5
A47
 10
-0.9073
 20
-0.9844
 30
0.0
 11
-0.5727
 21
-0.9844
 31
0.0
  0
LINE
  8
0
  6
CONTINUOUS
 62
     3
  5
A48
 10
-0.74
 20
-1.1517
 30
0.0
 11
-0.74
 21
-0.66635
 31
0.0
  0
LINE
  8
0
  6
CONTINUOUS
 62
     3
  5
A49
 10
-0.83645
 20
-0.7628
 30
0.0
 11
-0.64355
 21
-0.7628
 31
0.0
  0
LINE
  8
0
  6
CONTINUOUS
 62
     3
  5
A4A
 10
0.5727
 20
-0.9844
 30
0.0
 11
0.9073
 21
-0.9844
 31
0.0
  0
LINE
  8
0
  6
CONTINUOUS
 62
     3
  5
A4B
 10
0.74
 20
-1.1517
 30
0.0
 11
0.74
 21
-0.66635
 31
0.0
  0
LINE
  8
0
  6
CONTINUOUS
 62
     3
  5
A4C
 10
0.64355
 20
-0.7628
 30
0.0
 11
0.83645
 21
-0.7628
 31
0.0
  0
LINE
  8
0
  6
CONTINUOUS
 62
     3
  5
A4D
 10
-0.09645
 20
-5.7228
 30
0.0
 11
0.09645
 21
-5.7228
 31
0.0
  0
LINE
  8
0
  6
CONTINUOUS
 62
     3
  5
A4E
 10
0.0
 20
-5.81925
 30
0.0
 11
0.0
 21
-5.62635
 31
0.0
  0
LINE
  8
0
  6
CONTINUOUS
 62
     3
  5
A4F
 10
1.6045
 20
-0.9844
 30
0.0
 11
1.9391
 21
-0.9844
 31
0.0
  0
LINE
  8
0
  6
CONTINUOUS
 62
     3
  5
A50
 10
1.7718
 20
-1.1517
 30
0.0
 11
1.7718
 21
-0.66635
 31
0.0
  0
LINE
  8
0
  6
CONTINUOUS
 62
     3
  5
A51
 10
1.67535
 20
-0.7628
 30
0.0
 11
1.86825
 21
-0.7628
 31
0.0
  0
LINE
  8
0
  6
CONTINUOUS
 62
     3
  5
A52
 10
3.0845
 20
-0.9844
 30
0.0
 11
3.4191
 21
-0.9844
 31
0.0
  0
LINE
  8
0
  6
CONTINUOUS
 62
     3
  5
A53
 10
3.2518
 20
-1.1517
 30
0.0
 11
3.2518
 21
-0.66635
 31
0.0
  0
LINE
  8
0
  6
CONTINUOUS
 62
     3
  5
A54
 10
3.15535
 20
-0.7628
 30
0.0
 11
3.34825
 21
-0.7628
 31
0.0
  0
LINE
  8
0
  6
CONTINUOUS
 62
     3
  5
A55
 10
2.41535
 20
-5.7228
 30
0.0
 11
2.60825
 21
-5.7228
 31
0.0
  0
LINE
  8
0
  6
CONTINUOUS
 62
     3
  5
A56
 10
2.5118
 20
-5.62635
 30
0.0
 11
2.5118
 21
-5.81925
 31
0.0
  0
LINE
  8
0
  6
CONTINUOUS
 62
     3
  5
A57
 10
0.516
 20
-8.02
 30
0.0
 11
0.516
 21
-8.24
 31
0.0
  0
LINE
  8
0
  6
CONTINUOUS
 62
     3
  5
A58
 10
0.406
 20
-8.13
 30
0.0
 11
0.626
 21
-8.13
 31
0.0
  0
LINE
  8
0
  6
CONTINUOUS
 62
     3
  5
A59
 10
-0.516
 20
-8.02
 30
0.0
 11
-0.516
 21
-8.24
 31
0.0
  0
LINE
  8
0
  6
CONTINUOUS
 62
     3
  5
A5A
 10
-0.626
 20
-8.13
 30
0.0
 11
-0.406
 21
-8.13
 31
0.0
  0
ENDSEC
  0
EOF
