  0
SECTION
  2
HEADER
  9
$ACADVER
  1
AC1024
  9
$ACADMAINTVER
 70
     6
  9
$DWGCODEPAGE
  3
ANSI_1252
  9
$INSBASE
 10
0.0
 20
0.0
 30
0.0
  9
$EXTMIN
 10
-0.5
 20
-0.5
 30
-0.5
  9
$EXTMAX
 10
5.0
 20
5.0
 30
5.0
  9
$LIMMIN
 10
-0.5
 20
-0.5
  9
$LIMMAX
 10
5.0
 20
5.0
  9
$ORTHOMODE
 70
     0
  9
$REGENMODE
 70
     1
  9
$FILLMODE
 70
     1
  9
$QTEXTMODE
 70
     0
  9
$MIRRTEXT
 70
     1
  9
$LTSCALE
 40
1.0
  9
$ATTMODE
 70
     1
  9
$TEXTSIZE
 40
0.2
  9
$TRACEWID
 40
0.05
  9
$TEXTSTYLE
  7
Standard
  9
$CLAYER
  8
0
  9
$CELTYPE
  6
ByLayer
  9
$CECOLOR
 62
   256
  9
$CELTSCALE
 40
1.0
  9
$DISPSILH
 70
     0
  9
$DIMSCALE
 40
1.0
  9
$DIMASZ
 40
0.18
  9
$DIMEXO
 40
0.0625
  9
$DIMDLI
 40
0.38
  9
$DIMRND
 40
0.0
  9
$DIMDLE
 40
0.0
  9
$DIMEXE
 40
0.18
  9
$DIMTP
 40
0.0
  9
$DIMTM
 40
0.0
  9
$DIMTXT
 40
0.18
  9
$DIMCEN
 40
0.09
  9
$DIMTSZ
 40
0.0
  9
$DIMTOL
 70
     0
  9
$DIMLIM
 70
     0
  9
$DIMTIH
 70
     1
  9
$DIMTOH
 70
     1
  9
$DIMSE1
 70
     0
  9
$DIMSE2
 70
     0
  9
$DIMTAD
 70
     0
  9
$DIMZIN
 70
     0
  9
$DIMBLK
  1

  9
$DIMASO
 70
     1
  9
$DIMSHO
 70
     1
  9
$DIMPOST
  1

  9
$DIMAPOST
  1

  9
$DIMALT
 70
     0
  9
$DIMALTD
 70
     2
  9
$DIMALTF
 40
25.4
  9
$DIMLFAC
 40
1.0
  9
$DIMTOFL
 70
     0
  9
$DIMTVP
 40
0.0
  9
$DIMTIX
 70
     0
  9
$DIMSOXD
 70
     0
  9
$DIMSAH
 70
     0
  9
$DIMBLK1
  1

  9
$DIMBLK2
  1

  9
$DIMSTYLE
  2
Standard
  9
$DIMCLRD
 70
     0
  9
$DIMCLRE
 70
     0
  9
$DIMCLRT
 70
     0
  9
$DIMTFAC
 40
1.0
  9
$DIMGAP
 40
0.09
  9
$DIMJUST
 70
     0
  9
$DIMSD1
 70
     0
  9
$DIMSD2
 70
     0
  9
$DIMTOLJ
 70
     1
  9
$DIMTZIN
 70
     0
  9
$DIMALTZ
 70
     0
  9
$DIMALTTZ
 70
     0
  9
$DIMUPT
 70
     0
  9
$DIMDEC
 70
     4
  9
$DIMTDEC
 70
     4
  9
$DIMALTU
 70
     2
  9
$DIMALTTD
 70
     2
  9
$DIMTXSTY
  7
Standard
  9
$DIMAUNIT
 70
     0
  9
$DIMADEC
 70
     0
  9
$DIMALTRND
 40
0.0
  9
$DIMAZIN
 70
     0
  9
$DIMDSEP
 70
    46
  9
$DIMATFIT
 70
     3
  9
$DIMFRAC
 70
     0
  9
$DIMLDRBLK
  1

  9
$DIMLUNIT
 70
     2
  9
$DIMLWD
 70
    -2
  9
$DIMLWE
 70
    -2
  9
$DIMTMOVE
 70
     0
  9
$DIMFXL
 40
1.0
  9
$DIMFXLON
 70
     0
  9
$DIMJOGANG
 40
0.785398
  9
$DIMTFILL
 70
     0
  9
$DIMTFILLCLR
 70
     0
  9
$DIMARCSYM
 70
     0
  9
$DIMLTYPE
  6

  9
$DIMLTEX1
  6

  9
$DIMLTEX2
  6

  9
$DIMTXTDIRECTION
 70
     0
  9
$LUNITS
 70
     2
  9
$LUPREC
 70
     4
  9
$SKETCHINC
 40
0.1
  9
$FILLETRAD
 40
0.5
  9
$AUNITS
 70
     0
  9
$AUPREC
 70
     0
  9
$MENU
  1
.
  9
$ELEVATION
 40
0.0
  9
$PELEVATION
 40
0.0
  9
$THICKNESS
 40
0.0
  9
$LIMCHECK
 70
     0
  9
$CHAMFERA
 40
0.5
  9
$CHAMFERB
 40
0.5
  9
$CHAMFERC
 40
1.0
  9
$CHAMFERD
 40
0.0
  9
$SKPOLY
 70
     0
  9
$TDCREATE
 40
2456475.662220162
  9
$TDUCREATE
 40
2456475.870553495
  9
$TDUPDATE
 40
2456475.662220174
  9
$TDUUPDATE
 40
2456475.870553507
  9
$TDINDWG
 40
0.0000000116
  9
$TDUSRTIMER
 40
0.0000000116
  9
$USRTIMER
 70
     1
  9
$ANGBASE
 50
0.0
  9
$ANGDIR
 70
     0
  9
$PDMODE
 70
     0
  9
$PDSIZE
 40
0.0
  9
$PLINEWID
 40
0.0
  9
$SPLFRAME
 70
     0
  9
$SPLINETYPE
 70
     6
  9
$SPLINESEGS
 70
     8
  9
$HANDSEED
  5
401
  9
$SURFTAB1
 70
     6
  9
$SURFTAB2
 70
     6
  9
$SURFTYPE
 70
     6
  9
$SURFU
 70
     6
  9
$SURFV
 70
     6
  9
$UCSBASE
  2

  9
$UCSNAME
  2

  9
$UCSORG
 10
0.0
 20
0.0
 30
0.0
  9
$UCSXDIR
 10
1.0
 20
0.0
 30
0.0
  9
$UCSYDIR
 10
0.0
 20
1.0
 30
0.0
  9
$UCSORTHOREF
  2

  9
$UCSORTHOVIEW
 70
     0
  9
$UCSORGTOP
 10
0.0
 20
0.0
 30
0.0
  9
$UCSORGBOTTOM
 10
0.0
 20
0.0
 30
0.0
  9
$UCSORGLEFT
 10
0.0
 20
0.0
 30
0.0
  9
$UCSORGRIGHT
 10
0.0
 20
0.0
 30
0.0
  9
$UCSORGFRONT
 10
0.0
 20
0.0
 30
0.0
  9
$UCSORGBACK
 10
0.0
 20
0.0
 30
0.0
  9
$PUCSBASE
  2

  9
$PUCSNAME
  2

  9
$PUCSORG
 10
0.0
 20
0.0
 30
0.0
  9
$PUCSXDIR
 10
1.0
 20
0.0
 30
0.0
  9
$PUCSYDIR
 10
0.0
 20
1.0
 30
0.0
  9
$PUCSORTHOREF
  2

  9
$PUCSORTHOVIEW
 70
     0
  9
$PUCSORGTOP
 10
0.0
 20
0.0
 30
0.0
  9
$PUCSORGBOTTOM
 10
0.0
 20
0.0
 30
0.0
  9
$PUCSORGLEFT
 10
0.0
 20
0.0
 30
0.0
  9
$PUCSORGRIGHT
 10
0.0
 20
0.0
 30
0.0
  9
$PUCSORGFRONT
 10
0.0
 20
0.0
 30
0.0
  9
$PUCSORGBACK
 10
0.0
 20
0.0
 30
0.0
  9
$USERI1
 70
     0
  9
$USERI2
 70
     0
  9
$USERI3
 70
     0
  9
$USERI4
 70
     0
  9
$USERI5
 70
     0
  9
$USERR1
 40
0.0
  9
$USERR2
 40
0.0
  9
$USERR3
 40
0.0
  9
$USERR4
 40
0.0
  9
$USERR5
 40
0.0
  9
$WORLDVIEW
 70
     1
  9
$SHADEDGE
 70
     3
  9
$SHADEDIF
 70
    70
  9
$TILEMODE
 70
     1
  9
$MAXACTVP
 70
    64
  9
$PINSBASE
 10
0.0
 20
0.0
 30
0.0
  9
$PLIMCHECK
 70
     0
  9
$PEXTMIN
 10
-0.5
 20
-0.5
 30
-0.5
  9
$PEXTMAX
 10
5.0
 20
5.0
 30
5.0
  9
$PLIMMIN
 10
-0.5
 20
-0.5
  9
$PLIMMAX
 10
5.0
 20
5.0
  9
$UNITMODE
 70
     0
  9
$VISRETAIN
 70
     1
  9
$PLINEGEN
 70
     0
  9
$PSLTSCALE
 70
     1
  9
$TREEDEPTH
 70
  3020
  9
$CMLSTYLE
  2
Standard
  9
$CMLJUST
 70
     0
  9
$CMLSCALE
 40
1.0
  9
$PROXYGRAPHICS
 70
     1
  9
$MEASUREMENT
 70
     0
  9
$CELWEIGHT
370
    -1
  9
$ENDCAPS
280
     0
  9
$JOINSTYLE
280
     0
  9
$LWDISPLAY
290
     0
  9
$INSUNITS
 70
     1
  9
$HYPERLINKBASE
  1

  9
$STYLESHEET
  1

  9
$XEDIT
290
     1
  9
$CEPSNTYPE
380
     0
  9
$PSTYLEMODE
290
     1
  9
$FINGERPRINTGUID
  2
{C6D4503D-BCE8-434A-A6FB-B89CAA378946}
  9
$VERSIONGUID
  2
{FAEB1C32-E019-11D5-929B-00C0DF256EC4}
  9
$EXTNAMES
290
     1
  9
$PSVPSCALE
 40
0.0
  9
$OLESTARTUP
290
     0
  9
$SORTENTS
280
   127
  9
$INDEXCTL
280
     0
  9
$HIDETEXT
280
     1
  9
$XCLIPFRAME
280
     2
  9
$HALOGAP
280
     0
  9
$OBSCOLOR
 70
   257
  9
$OBSLTYPE
280
     0
  9
$INTERSECTIONDISPLAY
280
     0
  9
$INTERSECTIONCOLOR
 70
   257
  9
$DIMASSOC
280
     2
  9
$PROJECTNAME
  1

  9
$CAMERADISPLAY
290
     0
  9
$LENSLENGTH
 40
50.0
  9
$CAMERAHEIGHT
 40
0.0
  9
$STEPSPERSEC
 40
2.0
  9
$STEPSIZE
 40
6.0
  9
$3DDWFPREC
 40
2.0
  9
$PSOLWIDTH
 40
0.25
  9
$PSOLHEIGHT
 40
4.0
  9
$LOFTANG1
 40
1.570796
  9
$LOFTANG2
 40
1.570796
  9
$LOFTMAG1
 40
0.0
  9
$LOFTMAG2
 40
0.0
  9
$LOFTPARAM
 70
     7
  9
$LOFTNORMALS
280
     1
  9
$LATITUDE
 40
37.795
  9
$LONGITUDE
 40
-122.394
  9
$NORTHDIRECTION
 40
0.0
  9
$TIMEZONE
 70
 -8000
  9
$LIGHTGLYPHDISPLAY
280
     1
  9
$TILEMODELIGHTSYNCH
280
     1
  9
$SOLIDHIST
280
     1
  9
$SHOWHIST
280
     1
  9
$DWFFRAME
280
     2
  9
$DGNFRAME
280
     2
  9
$REALWORLDSCALE
290
     1
  9
$INTERFERECOLOR
 62
   256
  9
$CSHADOW
280
     0
  9
$SHADOWPLANELOCATION
 40
0.0
  0
ENDSEC
  0
SECTION
  2
CLASSES
  0
CLASS
  1
ACDBDICTIONARYWDFLT
  2
AcDbDictionaryWithDefault
  3
ObjectDBX Classes
 90
        0
 91
        4
280
     0
281
     0
  0
CLASS
  1
VISUALSTYLE
  2
AcDbVisualStyle
  3
ObjectDBX Classes
 90
     4095
 91
        4
280
     0
281
     0
  0
CLASS
  1
MATERIAL
  2
AcDbMaterial
  3
ObjectDBX Classes
 90
     1153
 91
        4
280
     0
281
     0
  0
ENDSEC
  0
SECTION
  2
TABLES
  0
TABLE
  2
VPORT
  5
8
330
0
100
AcDbSymbolTable
 70
    17
  0
VPORT
  5
29
330
8
100
AcDbSymbolTableRecord
100
AcDbViewportTableRecord
  2
DUMMY
 70
     0
 10
0.0
 20
0.0
 11
1.0
 21
1.0
 12
10.429907
 22
4.5
 13
0.0
 23
0.0
 14
0.5
 24
0.5
 15
0.5
 25
0.5
 16
0.0
 26
0.0
 36
1.0
 17
0.0
 27
0.0
 37
0.0
 40
9.0
 41
1.972973
 42
50.0
 43
0.0
 44
0.0
 50
0.0
 51
0.0
 71
     0
 72
   100
 73
     1
 74
     3
 75
     0
 76
     0
 77
     0
 78
     0
281
     0
 65
     1
110
0.0
120
0.0
130
0.0
111
1.0
121
0.0
131
0.0
112
0.0
122
1.0
132
0.0
 79
     0
146
0.0
 60
     3
 61
     5
292
     1
282
     1
141
0.0
142
0.0
 63
   250
  0
VPORT
  5
3EF
330
8
100
AcDbSymbolTableRecord
100
AcDbViewportTableRecord
  2
*ACTIVE
 70
     0
 10
0.0
 20
0.0
 11
1.0
 21
1.0
 12
5.5
 22
4.25
 13
0.0
 23
0.0
 14
0.5
 24
0.5
 15
0.5
 25
0.5
 16
0.0
 26
0.0
 36
1.0
 17
0.0
 27
0.0
 37
0.0
 40
7.754445
 41
2.289881
 42
50.0
 43
22.748128
 44
-22.748128
 50
0.0
 51
0.0
 71
     0
 72
   100
 73
     1
 74
     3
 75
     0
 76
     0
 77
     0
 78
     0
281
     0
 65
     1
110
0.0
120
0.0
130
0.0
111
1.0
121
0.0
131
0.0
112
0.0
122
1.0
132
0.0
 79
     0
146
0.0
 60
     3
 61
     5
292
     1
282
     1
141
0.0
142
0.0
 63
   256
  0
VPORT
  5
3F0
330
8
100
AcDbSymbolTableRecord
100
AcDbViewportTableRecord
  2
L1
 70
     0
 10
0.0
 20
0.0
 11
1.0
 21
1.0
 12
5.5
 22
4.25
 13
0.0
 23
0.0
 14
0.5
 24
0.5
 15
0.5
 25
0.5
 16
0.0
 26
0.0
 36
1.0
 17
0.0
 27
0.0
 37
0.0
 40
7.754445
 41
2.289881
 42
50.0
 43
22.748128
 44
-22.748128
 50
0.0
 51
0.0
 71
     0
 72
   100
 73
     1
 74
     3
 75
     0
 76
     0
 77
     0
 78
     0
281
     0
 65
     1
110
0.0
120
0.0
130
0.0
111
1.0
121
0.0
131
0.0
112
0.0
122
1.0
132
0.0
 79
     0
146
0.0
 60
     3
 61
     5
292
     1
282
     1
141
0.0
142
0.0
 63
   256
  0
VPORT
  5
3F1
330
8
100
AcDbSymbolTableRecord
100
AcDbViewportTableRecord
  2
L2
 70
     0
 10
0.0
 20
0.0
 11
0.5
 21
1.0
 12
0.0
 22
0.0
 13
0.0
 23
0.0
 14
0.5
 24
0.5
 15
0.5
 25
0.5
 16
0.0
 26
-1.0
 36
0.0
 17
0.0
 27
0.0
 37
0.0
 40
47.414697
 41
0.374499
 42
50.0
 43
24.380758
 44
-24.380758
 50
0.0
 51
0.0
 71
     0
 72
   100
 73
     1
 74
     3
 75
     0
 76
     0
 77
     0
 78
     0
281
     0
 65
     1
110
0.0
120
0.0
130
0.0
111
1.0
121
0.0
131
0.0
112
0.0
122
1.0
132
0.0
 79
     0
146
0.0
 60
     3
 61
     5
292
     1
282
     1
141
0.0
142
0.0
 63
   256
  0
VPORT
  5
3F2
330
8
100
AcDbSymbolTableRecord
100
AcDbViewportTableRecord
  2
L2
 70
     0
 10
0.5
 20
0.0
 11
1.0
 21
1.0
 12
0.0
 22
0.0
 13
0.0
 23
0.0
 14
0.5
 24
0.5
 15
0.5
 25
0.5
 16
1.0
 26
0.0
 36
0.0
 17
0.0
 27
0.0
 37
0.0
 40
47.414697
 41
0.374499
 42
50.0
 43
24.022307
 44
-24.022307
 50
0.0
 51
0.0
 71
     0
 72
   100
 73
     1
 74
     3
 75
     0
 76
     0
 77
     0
 78
     0
281
     0
 65
     1
110
0.0
120
0.0
130
0.0
111
1.0
121
0.0
131
0.0
112
0.0
122
1.0
132
0.0
 79
     0
146
0.0
 60
     3
 61
     5
292
     1
282
     1
141
0.0
142
0.0
 63
   256
  0
VPORT
  5
3F3
330
8
100
AcDbSymbolTableRecord
100
AcDbViewportTableRecord
  2
L3
 70
     0
 10
0.0
 20
0.5
 11
1.0
 21
1.0
 12
5.5
 22
4.25
 13
0.0
 23
0.0
 14
0.5
 24
0.5
 15
0.5
 25
0.5
 16
0.0
 26
0.0
 36
1.0
 17
0.0
 27
0.0
 37
0.0
 40
7.754445
 41
2.289881
 42
50.0
 43
22.748128
 44
-22.748128
 50
0.0
 51
0.0
 71
     0
 72
   100
 73
     1
 74
     3
 75
     0
 76
     0
 77
     0
 78
     0
281
     0
 65
     1
110
0.0
120
0.0
130
0.0
111
1.0
121
0.0
131
0.0
112
0.0
122
1.0
132
0.0
 79
     0
146
0.0
 60
     3
 61
     5
292
     1
282
     1
141
0.0
142
0.0
 63
   256
  0
VPORT
  5
3F4
330
8
100
AcDbSymbolTableRecord
100
AcDbViewportTableRecord
  2
L3
 70
     0
 10
0.0
 20
0.0
 11
1.0
 21
0.5
 12
0.0
 22
0.0
 13
0.0
 23
0.0
 14
0.5
 24
0.5
 15
0.5
 25
0.5
 16
0.0
 26
-1.0
 36
0.0
 17
0.0
 27
0.0
 37
0.0
 40
47.414697
 41
0.374499
 42
50.0
 43
24.380758
 44
-24.380758
 50
0.0
 51
0.0
 71
     0
 72
   100
 73
     1
 74
     3
 75
     0
 76
     0
 77
     0
 78
     0
281
     0
 65
     1
110
0.0
120
0.0
130
0.0
111
1.0
121
0.0
131
0.0
112
0.0
122
1.0
132
0.0
 79
     0
146
0.0
 60
     3
 61
     5
292
     1
282
     1
141
0.0
142
0.0
 63
   256
  0
VPORT
  5
3F5
330
8
100
AcDbSymbolTableRecord
100
AcDbViewportTableRecord
  2
L4
 70
     0
 10
0.0
 20
0.5
 11
0.5
 21
1.0
 12
5.5
 22
4.25
 13
0.0
 23
0.0
 14
0.5
 24
0.5
 15
0.5
 25
0.5
 16
0.0
 26
0.0
 36
1.0
 17
0.0
 27
0.0
 37
0.0
 40
7.754445
 41
2.289881
 42
50.0
 43
22.748128
 44
-22.748128
 50
0.0
 51
0.0
 71
     0
 72
   100
 73
     1
 74
     3
 75
     0
 76
     0
 77
     0
 78
     0
281
     0
 65
     1
110
0.0
120
0.0
130
0.0
111
1.0
121
0.0
131
0.0
112
0.0
122
1.0
132
0.0
 79
     0
146
0.0
 60
     3
 61
     5
292
     1
282
     1
141
0.0
142
0.0
 63
   256
  0
VPORT
  5
3F6
330
8
100
AcDbSymbolTableRecord
100
AcDbViewportTableRecord
  2
L4
 70
     0
 10
0.0
 20
0.0
 11
0.5
 21
0.5
 12
0.0
 22
0.0
 13
0.0
 23
0.0
 14
0.5
 24
0.5
 15
0.5
 25
0.5
 16
0.0
 26
-1.0
 36
0.0
 17
0.0
 27
0.0
 37
0.0
 40
47.414697
 41
0.374499
 42
50.0
 43
24.380758
 44
-24.380758
 50
0.0
 51
0.0
 71
     0
 72
   100
 73
     1
 74
     3
 75
     0
 76
     0
 77
     0
 78
     0
281
     0
 65
     1
110
0.0
120
0.0
130
0.0
111
1.0
121
0.0
131
0.0
112
0.0
122
1.0
132
0.0
 79
     0
146
0.0
 60
     3
 61
     5
292
     1
282
     1
141
0.0
142
0.0
 63
   256
  0
VPORT
  5
3F7
330
8
100
AcDbSymbolTableRecord
100
AcDbViewportTableRecord
  2
L4
 70
     0
 10
0.5
 20
0.0
 11
1.0
 21
0.5
 12
0.0
 22
0.0
 13
0.0
 23
0.0
 14
0.5
 24
0.5
 15
0.5
 25
0.5
 16
1.0
 26
0.0
 36
0.0
 17
0.0
 27
0.0
 37
0.0
 40
47.414697
 41
0.374499
 42
50.0
 43
24.022307
 44
-24.022307
 50
0.0
 51
0.0
 71
     0
 72
   100
 73
     1
 74
     3
 75
     0
 76
     0
 77
     0
 78
     0
281
     0
 65
     1
110
0.0
120
0.0
130
0.0
111
1.0
121
0.0
131
0.0
112
0.0
122
1.0
132
0.0
 79
     0
146
0.0
 60
     3
 61
     5
292
     1
282
     1
141
0.0
142
0.0
 63
   256
  0
VPORT
  5
3F8
330
8
100
AcDbSymbolTableRecord
100
AcDbViewportTableRecord
  2
L4
 70
     0
 10
0.5
 20
0.5
 11
1.0
 21
1.0
 12
0.0
 22
0.0
 13
0.0
 23
0.0
 14
0.5
 24
0.5
 15
0.5
 25
0.5
 16
0.5773502691896258
 26
-0.5773502691896258
 36
0.5773502691896258
 17
0.0
 27
0.0
 37
0.0
 40
46.526037
 41
0.381652
 42
50.0
 43
24.226839
 44
-24.226839
 50
0.0
 51
0.0
 71
     0
 72
   100
 73
     1
 74
     3
 75
     0
 76
     0
 77
     0
 78
     0
281
     0
 65
     1
110
0.0
120
0.0
130
0.0
111
1.0
121
0.0
131
0.0
112
0.0
122
1.0
132
0.0
 79
     0
146
0.0
 60
     3
 61
     5
292
     1
282
     1
141
0.0
142
0.0
 63
   256
  0
VPORT
  5
3F9
330
8
100
AcDbSymbolTableRecord
100
AcDbViewportTableRecord
  2
L6
 70
     0
 10
0.0
 20
0.5
 11
0.333333
 21
1.0
 12
0.0
 22
0.0
 13
0.0
 23
0.0
 14
0.5
 24
0.5
 15
0.5
 25
0.5
 16
0.7188730927569434
 26
-0.5850486126764431
 36
0.3754192287502549
 17
0.0
 27
0.0
 37
0.0
 40
49.098085
 41
0.361659
 42
50.0
 43
25.420564
 44
-25.420564
 50
0.0
 51
0.0
 71
     0
 72
   100
 73
     1
 74
     3
 75
     0
 76
     0
 77
     0
 78
     0
281
     0
 65
     1
110
0.0
120
0.0
130
0.0
111
1.0
121
0.0
131
0.0
112
0.0
122
1.0
132
0.0
 79
     0
146
0.0
 60
     3
 61
     5
292
     1
282
     1
141
0.0
142
0.0
 63
   256
  0
VPORT
  5
3FA
330
8
100
AcDbSymbolTableRecord
100
AcDbViewportTableRecord
  2
L6
 70
     0
 10
0.0
 20
0.0
 11
0.333333
 21
0.5
 12
0.0
 22
0.0
 13
0.0
 23
0.0
 14
0.5
 24
0.5
 15
0.5
 25
0.5
 16
-1.0
 26
0.0
 36
0.0
 17
0.0
 27
0.0
 37
0.0
 40
47.414697
 41
0.374499
 42
50.0
 43
24.022307
 44
-24.022307
 50
0.0
 51
0.0
 71
     0
 72
   100
 73
     1
 74
     3
 75
     0
 76
     0
 77
     0
 78
     0
281
     0
 65
     1
110
0.0
120
0.0
130
0.0
111
1.0
121
0.0
131
0.0
112
0.0
122
1.0
132
0.0
 79
     0
146
0.0
 60
     3
 61
     5
292
     1
282
     1
141
0.0
142
0.0
 63
   256
  0
VPORT
  5
3FB
330
8
100
AcDbSymbolTableRecord
100
AcDbViewportTableRecord
  2
L6
 70
     0
 10
0.333333
 20
0.5
 11
0.666667
 21
1.0
 12
5.5
 22
4.25
 13
0.0
 23
0.0
 14
0.5
 24
0.5
 15
0.5
 25
0.5
 16
0.0
 26
0.0
 36
1.0
 17
0.0
 27
0.0
 37
0.0
 40
7.754445
 41
2.289881
 42
50.0
 43
22.748128
 44
-22.748128
 50
0.0
 51
0.0
 71
     0
 72
   100
 73
     1
 74
     3
 75
     0
 76
     0
 77
     0
 78
     0
281
     0
 65
     1
110
0.0
120
0.0
130
0.0
111
1.0
121
0.0
131
0.0
112
0.0
122
1.0
132
0.0
 79
     0
146
0.0
 60
     3
 61
     5
292
     1
282
     1
141
0.0
142
0.0
 63
   256
  0
VPORT
  5
3FC
330
8
100
AcDbSymbolTableRecord
100
AcDbViewportTableRecord
  2
L6
 70
     0
 10
0.333333
 20
0.0
 11
0.666667
 21
0.5
 12
0.0
 22
0.0
 13
0.0
 23
0.0
 14
0.5
 24
0.5
 15
0.5
 25
0.5
 16
0.0
 26
-1.0
 36
0.0
 17
0.0
 27
0.0
 37
0.0
 40
47.414697
 41
0.374499
 42
50.0
 43
24.380758
 44
-24.380758
 50
0.0
 51
0.0
 71
     0
 72
   100
 73
     1
 74
     3
 75
     0
 76
     0
 77
     0
 78
     0
281
     0
 65
     1
110
0.0
120
0.0
130
0.0
111
1.0
121
0.0
131
0.0
112
0.0
122
1.0
132
0.0
 79
     0
146
0.0
 60
     3
 61
     5
292
     1
282
     1
141
0.0
142
0.0
 63
   256
  0
VPORT
  5
3FD
330
8
100
AcDbSymbolTableRecord
100
AcDbViewportTableRecord
  2
L6
 70
     0
 10
0.666667
 20
0.5
 11
1.0
 21
1.0
 12
0.0
 22
0.0
 13
0.0
 23
0.0
 14
0.5
 24
0.5
 15
0.5
 25
0.5
 16
0.5773502691896258
 26
-0.5773502691896258
 36
0.5773502691896258
 17
0.0
 27
0.0
 37
0.0
 40
46.526037
 41
0.381652
 42
50.0
 43
24.226839
 44
-24.226839
 50
0.0
 51
0.0
 71
     0
 72
   100
 73
     1
 74
     3
 75
     0
 76
     0
 77
     0
 78
     0
281
     0
 65
     1
110
0.0
120
0.0
130
0.0
111
1.0
121
0.0
131
0.0
112
0.0
122
1.0
132
0.0
 79
     0
146
0.0
 60
     3
 61
     5
292
     1
282
     1
141
0.0
142
0.0
 63
   256
  0
VPORT
  5
3FE
330
8
100
AcDbSymbolTableRecord
100
AcDbViewportTableRecord
  2
L6
 70
     0
 10
0.666667
 20
0.0
 11
1.0
 21
0.5
 12
0.0
 22
0.0
 13
0.0
 23
0.0
 14
0.5
 24
0.5
 15
0.5
 25
0.5
 16
1.0
 26
0.0
 36
0.0
 17
0.0
 27
0.0
 37
0.0
 40
47.414697
 41
0.374499
 42
50.0
 43
24.022307
 44
-24.022307
 50
0.0
 51
0.0
 71
     0
 72
   100
 73
     1
 74
     3
 75
     0
 76
     0
 77
     0
 78
     0
281
     0
 65
     1
110
0.0
120
0.0
130
0.0
111
1.0
121
0.0
131
0.0
112
0.0
122
1.0
132
0.0
 79
     0
146
0.0
 60
     3
 61
     5
292
     1
282
     1
141
0.0
142
0.0
 63
   256
  0
ENDTAB
  0
TABLE
  2
LTYPE
  5
5
330
0
100
AcDbSymbolTable
 70
     7
  0
LTYPE
  5
14
330
5
100
AcDbSymbolTableRecord
100
AcDbLinetypeTableRecord
  2
ByBlock
 70
     0
  3

 72
    65
 73
     0
 40
0.0
  0
LTYPE
  5
15
330
5
100
AcDbSymbolTableRecord
100
AcDbLinetypeTableRecord
  2
ByLayer
 70
     0
  3

 72
    65
 73
     0
 40
0.0
  0
LTYPE
  5
16
330
5
100
AcDbSymbolTableRecord
100
AcDbLinetypeTableRecord
  2
Continuous
 70
     0
  3
Solid line
 72
    65
 73
     0
 40
0.0
  0
LTYPE
  5
3F
330
5
100
AcDbSymbolTableRecord
100
AcDbLinetypeTableRecord
  2
DASHED
 70
     0
  3
__ __ __ __ __ __ __ __ __
 72
    65
 73
     2
 40
25.72
 49
12.86
 74
     4
 75
     0
340
0
 46
0.0
 50
0.0
 44
0.0
 45
0.0
 49
-12.86
 74
     4
 75
     0
340
0
 46
0.0
 50
0.0
 44
0.0
 45
0.0
  0
LTYPE
  5
40
330
5
100
AcDbSymbolTableRecord
100
AcDbLinetypeTableRecord
  2
HIDDEN
 70
     0
  3
_ _ _ _ _ _ _ _ _ _ _ _ _ _ _
 72
    65
 73
     2
 40
0.5
 49
0.25
 74
     4
 75
     0
340
0
 46
0.0
 50
0.0
 44
0.0
 45
0.0
 49
-0.25
 74
     4
 75
     0
340
0
 46
0.0
 50
0.0
 44
0.0
 45
0.0
  0
LTYPE
  5
41
330
5
100
AcDbSymbolTableRecord
100
AcDbLinetypeTableRecord
  2
PHANTOM
 70
     0
  3
____ _ _ ____ _ _ _____ _ _ ____
 72
    65
 73
     6
 40
50.5
 49
18.0
 74
     4
 75
     0
340
0
 46
0.0
 50
0.0
 44
0.0
 45
0.0
 49
-6.5
 74
     4
 75
     0
340
0
 46
0.0
 50
0.0
 44
0.0
 45
0.0
 49
6.5
 74
     4
 75
     0
340
0
 46
0.0
 50
0.0
 44
0.0
 45
0.0
 49
-6.5
 74
     4
 75
     0
340
0
 46
0.0
 50
0.0
 44
0.0
 45
0.0
 49
6.5
 74
     4
 75
     0
340
0
 46
0.0
 50
0.0
 44
0.0
 45
0.0
 49
-6.5
 74
     4
 75
     0
340
0
 46
0.0
 50
0.0
 44
0.0
 45
0.0
  0
LTYPE
  5
42
330
5
100
AcDbSymbolTableRecord
100
AcDbLinetypeTableRecord
  2
CENTER
 70
     0
  3
____ _ ____ _ ____ _ ____
 72
    65
 73
     4
 40
47.4
 49
22.0
 74
     4
 75
     0
340
0
 46
0.0
 50
0.0
 44
0.0
 45
0.0
 49
-8.5
 74
     4
 75
     0
340
0
 46
0.0
 50
0.0
 44
0.0
 45
0.0
 49
8.5
 74
     4
 75
     0
340
0
 46
0.0
 50
0.0
 44
0.0
 45
0.0
 49
-8.5
 74
     4
 75
     0
340
0
 46
0.0
 50
0.0
 44
0.0
 45
0.0
  0
LTYPE
  5
43
330
5
100
AcDbSymbolTableRecord
100
AcDbLinetypeTableRecord
  2
DOT
 70
     0
  3
.........................
 72
    65
 73
     2
 40
10.0
 49
0.0
 74
     4
 75
     0
340
0
 46
0.0
 50
0.0
 44
0.0
 45
0.0
 49
-10.0
 74
     4
 75
     0
340
0
 46
0.0
 50
0.0
 44
0.0
 45
0.0
  0
LTYPE
  5
44
330
5
100
AcDbSymbolTableRecord
100
AcDbLinetypeTableRecord
  2
DASHDOT
 70
     0
  3
_._._._._._._._._._._._._._._._.
 72
    65
 73
     4
 40
70.0
 49
31.0
 74
     4
 75
     0
340
0
 46
0.0
 50
0.0
 44
0.0
 45
0.0
 49
-13.0
 74
     4
 75
     0
340
0
 46
0.0
 50
0.0
 44
0.0
 45
0.0
 49
13.0
 74
     4
 75
     0
340
0
 46
0.0
 50
0.0
 44
0.0
 45
0.0
 49
-13.0
 74
     4
 75
     0
340
0
 46
0.0
 50
0.0
 44
0.0
 45
0.0
  0
ENDTAB
  0
TABLE
  2
LAYER
  5
2
330
0
100
AcDbSymbolTable
 70
     2
  0
LAYER
  5
10
330
2
100
AcDbSymbolTableRecord
100
AcDbLayerTableRecord
  2
0
 70
     0
 62
     7
  6
Continuous
370
    -3
390
F
347
3E
  0
LAYER
  5
46
330
2
100
AcDbSymbolTableRecord
100
AcDbLayerTableRecord
  2
1
 70
     0
 62
     7
420
 16777215
  6
Continuous
370
    -3
390
F
347
3E
  0
ENDTAB
  0
TABLE
  2
STYLE
  5
3
330
0
100
AcDbSymbolTable
 70
     5
  0
STYLE
  5
11
330
3
100
AcDbSymbolTableRecord
100
AcDbTextStyleTableRecord
  2
Standard
 70
     0
 40
0.0
 41
1.0
 50
0.0
 71
     0
 42
0.2
  3
txt
  4

  0
STYLE
  5
39F
330
3
100
AcDbSymbolTableRecord
100
AcDbTextStyleTableRecord
  2
blockfont
 70
     0
 40
0.0
 41
1.0
 50
0.0
 71
     0
 42
0.2
  3
simplex.shx
  4

  0
STYLE
  5
3A0
330
3
100
AcDbSymbolTableRecord
100
AcDbTextStyleTableRecord
  2
DWGDirectTextStyle
 70
     0
 40
0.0
 41
1.0
 50
0.0
 71
     0
 42
0.2
  3
SIMPLEX
  4
bigfont
  0
STYLE
  5
3A8
330
3
100
AcDbSymbolTableRecord
100
AcDbTextStyleTableRecord
  2
DEFAULT
 70
     0
 40
0.0
 41
1.0
 50
0.0
 71
     0
 42
0.2
  3
simplex.shx
  4

  0
STYLE
  5
3B1
330
3
100
AcDbSymbolTableRecord
100
AcDbTextStyleTableRecord
  2
helios
 70
     0
 40
0.0
 41
1.0
 50
0.0
 71
     0
 42
0.2
  3
simplex.shx
  4

  0
ENDTAB
  0
TABLE
  2
VIEW
  5
6
330
0
100
AcDbSymbolTable
 70
     8
  0
VIEW
  5
3E7
330
6
100
AcDbSymbolTableRecord
100
AcDbViewTableRecord
  2
TOP
 70
     0
 40
7.754445
 10
5.5
 20
4.25
 41
11.381213
 11
0.0
 21
0.0
 31
1.0
 12
0.0
 22
0.0
 32
0.0
 42
50.0
 43
22.748128
 44
-22.748128
 50
0.0
 71
     0
281
     0
 72
     0
 73
     0
  0
VIEW
  5
3E8
330
6
100
AcDbSymbolTableRecord
100
AcDbViewTableRecord
  2
FRONT
 70
     0
 40
47.414697
 10
0.0
 20
0.0
 41
11.381213
 11
0.0
 21
-1.0
 31
0.0
 12
0.0
 22
0.0
 32
0.0
 42
50.0
 43
24.380758
 44
-24.380758
 50
0.0
 71
     0
281
     0
 72
     0
 73
     0
  0
VIEW
  5
3E9
330
6
100
AcDbSymbolTableRecord
100
AcDbViewTableRecord
  2
RIGHT
 70
     0
 40
47.414697
 10
0.0
 20
0.0
 41
7.754445
 11
1.0
 21
0.0
 31
0.0
 12
0.0
 22
0.0
 32
0.0
 42
50.0
 43
24.022307
 44
-24.022307
 50
0.0
 71
     0
281
     0
 72
     0
 73
     0
  0
VIEW
  5
3EA
330
6
100
AcDbSymbolTableRecord
100
AcDbViewTableRecord
  2
BACK
 70
     0
 40
47.414697
 10
0.0
 20
0.0
 41
11.381213
 11
0.0
 21
1.0
 31
0.0
 12
0.0
 22
0.0
 32
0.0
 42
50.0
 43
24.380758
 44
-24.380758
 50
0.0
 71
     0
281
     0
 72
     0
 73
     0
  0
VIEW
  5
3EB
330
6
100
AcDbSymbolTableRecord
100
AcDbViewTableRecord
  2
BOTTOM
 70
     0
 40
7.754445
 10
0.0
 20
0.0
 41
11.381213
 11
0.0
 21
0.0
 31
-1.0
 12
0.0
 22
0.0
 32
0.0
 42
50.0
 43
23.707348
 44
-23.707348
 50
180.0
 71
     0
281
     0
 72
     0
 73
     0
  0
VIEW
  5
3EC
330
6
100
AcDbSymbolTableRecord
100
AcDbViewTableRecord
  2
LEFT
 70
     0
 40
47.414697
 10
0.0
 20
0.0
 41
7.754445
 11
-1.0
 21
0.0
 31
0.0
 12
0.0
 22
0.0
 32
0.0
 42
50.0
 43
24.022307
 44
-24.022307
 50
0.0
 71
     0
281
     0
 72
     0
 73
     0
  0
VIEW
  5
3ED
330
6
100
AcDbSymbolTableRecord
100
AcDbViewTableRecord
  2
TFR-ISO
 70
     0
 40
46.526037
 10
0.0
 20
0.0
 41
13.530953
 11
0.5773502691896258
 21
-0.5773502691896258
 31
0.5773502691896258
 12
0.0
 22
0.0
 32
0.0
 42
50.0
 43
24.226839
 44
-24.226839
 50
0.0
 71
     0
281
     0
 72
     0
 73
     0
  0
VIEW
  5
3EE
330
6
100
AcDbSymbolTableRecord
100
AcDbViewTableRecord
  2
TFR-TRI
 70
     0
 40
49.098085
 10
0.0
 20
0.0
 41
13.198421
 11
0.7188730927569434
 21
-0.5850486126764431
 31
0.3754192287502549
 12
0.0
 22
0.0
 32
0.0
 42
50.0
 43
25.420564
 44
-25.420564
 50
0.0
 71
     0
281
     0
 72
     0
 73
     0
  0
ENDTAB
  0
TABLE
  2
UCS
  5
7
330
0
100
AcDbSymbolTable
 70
     0
  0
ENDTAB
  0
TABLE
  2
APPID
  5
9
330
0
100
AcDbSymbolTable
 70
     1
  0
APPID
  5
12
330
9
100
AcDbSymbolTableRecord
100
AcDbRegAppTableRecord
  2
ACAD
 70
     0
  0
ENDTAB
  0
TABLE
  2
DIMSTYLE
  5
A
330
0
100
AcDbSymbolTable
 70
     1
100
AcDbDimStyleTable
  0
DIMSTYLE
105
27
330
A
100
AcDbSymbolTableRecord
100
AcDbDimStyleTableRecord
  2
Standard
 70
     0
178
     0
340
11
  0
ENDTAB
  0
TABLE
  2
BLOCK_RECORD
  5
1
330
0
100
AcDbSymbolTable
 70
     1
  0
BLOCK_RECORD
  5
1F
330
1
100
AcDbSymbolTableRecord
100
AcDbBlockTableRecord
  2
*Model_Space
340
22
 70
     0
280
     1
281
     0
  0
BLOCK_RECORD
  5
1B
330
1
100
AcDbSymbolTableRecord
100
AcDbBlockTableRecord
  2
*Paper_Space
340
1E
 70
     0
280
     1
281
     0
  0
BLOCK_RECORD
  5
23
330
1
100
AcDbSymbolTableRecord
100
AcDbBlockTableRecord
  2
*Paper_Space0
340
26
 70
     0
280
     1
281
     0
  0
ENDTAB
  0
ENDSEC
  0
SECTION
  2
BLOCKS
  0
BLOCK
  5
20
330
1F
100
AcDbEntity
  8
0
100
AcDbBlockBegin
  2
*Model_Space
 70
     0
 10
0.0
 20
0.0
 30
0.0
  3
*Model_Space
  1

  0
ENDBLK
  5
21
330
1F
100
AcDbEntity
  8
0
100
AcDbBlockEnd
  0
BLOCK
  5
1C
330
1B
100
AcDbEntity
 67
     1
  8
0
100
AcDbBlockBegin
  2
*Paper_Space
 70
     0
 10
0.0
 20
0.0
 30
0.0
  3
*Paper_Space
  1

  0
ENDBLK
  5
1D
330
1B
100
AcDbEntity
 67
     1
  8
0
100
AcDbBlockEnd
  0
BLOCK
  5
24
330
23
100
AcDbEntity
  8
0
100
AcDbBlockBegin
  2
*Paper_Space0
 70
     0
 10
0.0
 20
0.0
 30
0.0
  3
*Paper_Space0
  1

  0
ENDBLK
  5
25
330
23
100
AcDbEntity
  8
0
100
AcDbBlockEnd
  0
ENDSEC
  0
SECTION
  2
ENTITIES
  0
LINE
  5
45
330
1F
100
AcDbEntity
  8
1
  6
Continuous
 62
    18
100
AcDbLine
 10
4.710921
 20
6.012565
 30
0.0
 11
4.665921
 21
6.012565
 31
0.0
  0
LINE
  5
47
330
1F
100
AcDbEntity
  8
1
  6
Continuous
 62
    18
100
AcDbLine
 10
4.665921
 20
6.012565
 30
0.0
 11
4.665921
 21
5.843815
 31
0.0
  0
LINE
  5
48
330
1F
100
AcDbEntity
  8
1
  6
Continuous
 62
    18
100
AcDbLine
 10
4.665921
 20
5.843815
 30
0.0
 11
4.710921
 21
5.843815
 31
0.0
  0
LINE
  5
49
330
1F
100
AcDbEntity
  8
1
  6
Continuous
 62
    18
100
AcDbLine
 10
5.279047
 20
5.843815
 30
0.0
 11
5.324046
 21
5.843815
 31
0.0
  0
LINE
  5
4A
330
1F
100
AcDbEntity
  8
1
  6
Continuous
 62
    18
100
AcDbLine
 10
5.324046
 20
5.843815
 30
0.0
 11
5.324046
 21
6.012565
 31
0.0
  0
LINE
  5
4B
330
1F
100
AcDbEntity
  8
1
  6
Continuous
 62
    18
100
AcDbLine
 10
5.324046
 20
6.012565
 30
0.0
 11
5.279047
 21
6.012565
 31
0.0
  0
LINE
  5
4C
330
1F
100
AcDbEntity
  8
1
  6
Continuous
 62
    18
100
AcDbLine
 10
3.086921
 20
6.381082
 30
0.0
 11
3.086921
 21
6.022565
 31
0.0
  0
LINE
  5
4D
330
1F
100
AcDbEntity
  8
1
  6
Continuous
 62
    18
100
AcDbLine
 10
7.336921
 20
6.381082
 30
0.0
 11
7.336921
 21
6.022565
 31
0.0
  0
LINE
  5
4E
330
1F
100
AcDbEntity
  8
1
  6
Continuous
 62
    18
100
AcDbLine
 10
3.086921
 20
6.147565
 30
0.0
 11
4.603421
 21
6.147565
 31
0.0
  0
LINE
  5
4F
330
1F
100
AcDbEntity
  8
1
  6
Continuous
 62
    18
100
AcDbLine
 10
7.336921
 20
6.147565
 30
0.0
 11
5.820421
 21
6.147565
 31
0.0
  0
LINE
  5
50
330
1F
100
AcDbEntity
  8
1
  6
Continuous
 62
    18
100
AcDbLine
 10
3.086921
 20
6.147565
 30
0.0
 11
3.211921
 21
6.114071
 31
0.0
  0
LINE
  5
51
330
1F
100
AcDbEntity
  8
1
  6
Continuous
 62
    18
100
AcDbLine
 10
3.211921
 20
6.114071
 30
0.0
 11
3.211921
 21
6.181058
 31
0.0
  0
LINE
  5
52
330
1F
100
AcDbEntity
  8
1
  6
Continuous
 62
    18
100
AcDbLine
 10
3.211921
 20
6.181058
 30
0.0
 11
3.086921
 21
6.147565
 31
0.0
  0
LINE
  5
53
330
1F
100
AcDbEntity
  8
1
  6
Continuous
 62
    18
100
AcDbLine
 10
3.211921
 20
6.114565
 30
0.0
 11
3.210079
 21
6.114565
 31
0.0
  0
LINE
  5
54
330
1F
100
AcDbEntity
  8
1
  6
Continuous
 62
    18
100
AcDbLine
 10
3.211921
 20
6.114565
 30
0.0
 11
3.210079
 21
6.114565
 31
0.0
  0
LINE
  5
55
330
1F
100
AcDbEntity
  8
1
  6
Continuous
 62
    18
100
AcDbLine
 10
3.211921
 20
6.116565
 30
0.0
 11
3.202615
 21
6.116565
 31
0.0
  0
LINE
  5
56
330
1F
100
AcDbEntity
  8
1
  6
Continuous
 62
    18
100
AcDbLine
 10
3.211921
 20
6.118565
 30
0.0
 11
3.195151
 21
6.118565
 31
0.0
  0
LINE
  5
57
330
1F
100
AcDbEntity
  8
1
  6
Continuous
 62
    18
100
AcDbLine
 10
3.211921
 20
6.120565
 30
0.0
 11
3.187687
 21
6.120565
 31
0.0
  0
LINE
  5
58
330
1F
100
AcDbEntity
  8
1
  6
Continuous
 62
    18
100
AcDbLine
 10
3.211921
 20
6.122565
 30
0.0
 11
3.180223
 21
6.122565
 31
0.0
  0
LINE
  5
59
330
1F
100
AcDbEntity
  8
1
  6
Continuous
 62
    18
100
AcDbLine
 10
3.211921
 20
6.124565
 30
0.0
 11
3.172759
 21
6.124565
 31
0.0
  0
LINE
  5
5A
330
1F
100
AcDbEntity
  8
1
  6
Continuous
 62
    18
100
AcDbLine
 10
3.211921
 20
6.126565
 30
0.0
 11
3.165294
 21
6.126565
 31
0.0
  0
LINE
  5
5B
330
1F
100
AcDbEntity
  8
1
  6
Continuous
 62
    18
100
AcDbLine
 10
3.211921
 20
6.128565
 30
0.0
 11
3.15783
 21
6.128565
 31
0.0
  0
LINE
  5
5C
330
1F
100
AcDbEntity
  8
1
  6
Continuous
 62
    18
100
AcDbLine
 10
3.211921
 20
6.130565
 30
0.0
 11
3.150366
 21
6.130565
 31
0.0
  0
LINE
  5
5D
330
1F
100
AcDbEntity
  8
1
  6
Continuous
 62
    18
100
AcDbLine
 10
3.211921
 20
6.132565
 30
0.0
 11
3.142902
 21
6.132565
 31
0.0
  0
LINE
  5
5E
330
1F
100
AcDbEntity
  8
1
  6
Continuous
 62
    18
100
AcDbLine
 10
3.211921
 20
6.134565
 30
0.0
 11
3.135438
 21
6.134565
 31
0.0
  0
LINE
  5
5F
330
1F
100
AcDbEntity
  8
1
  6
Continuous
 62
    18
100
AcDbLine
 10
3.211921
 20
6.136565
 30
0.0
 11
3.127974
 21
6.136565
 31
0.0
  0
LINE
  5
60
330
1F
100
AcDbEntity
  8
1
  6
Continuous
 62
    18
100
AcDbLine
 10
3.211921
 20
6.138565
 30
0.0
 11
3.12051
 21
6.138565
 31
0.0
  0
LINE
  5
61
330
1F
100
AcDbEntity
  8
1
  6
Continuous
 62
    18
100
AcDbLine
 10
3.211921
 20
6.140565
 30
0.0
 11
3.113046
 21
6.140565
 31
0.0
  0
LINE
  5
62
330
1F
100
AcDbEntity
  8
1
  6
Continuous
 62
    18
100
AcDbLine
 10
3.211921
 20
6.142565
 30
0.0
 11
3.105582
 21
6.142565
 31
0.0
  0
LINE
  5
63
330
1F
100
AcDbEntity
  8
1
  6
Continuous
 62
    18
100
AcDbLine
 10
3.211921
 20
6.144565
 30
0.0
 11
3.098118
 21
6.144565
 31
0.0
  0
LINE
  5
64
330
1F
100
AcDbEntity
  8
1
  6
Continuous
 62
    18
100
AcDbLine
 10
3.211921
 20
6.146565
 30
0.0
 11
3.090653
 21
6.146565
 31
0.0
  0
LINE
  5
65
330
1F
100
AcDbEntity
  8
1
  6
Continuous
 62
    18
100
AcDbLine
 10
3.211921
 20
6.180565
 30
0.0
 11
3.210079
 21
6.180565
 31
0.0
  0
LINE
  5
66
330
1F
100
AcDbEntity
  8
1
  6
Continuous
 62
    18
100
AcDbLine
 10
3.211921
 20
6.180565
 30
0.0
 11
3.210079
 21
6.180565
 31
0.0
  0
LINE
  5
67
330
1F
100
AcDbEntity
  8
1
  6
Continuous
 62
    18
100
AcDbLine
 10
3.211921
 20
6.178565
 30
0.0
 11
3.202615
 21
6.178565
 31
0.0
  0
LINE
  5
68
330
1F
100
AcDbEntity
  8
1
  6
Continuous
 62
    18
100
AcDbLine
 10
3.211921
 20
6.176565
 30
0.0
 11
3.195151
 21
6.176565
 31
0.0
  0
LINE
  5
69
330
1F
100
AcDbEntity
  8
1
  6
Continuous
 62
    18
100
AcDbLine
 10
3.211921
 20
6.174565
 30
0.0
 11
3.187687
 21
6.174565
 31
0.0
  0
LINE
  5
6A
330
1F
100
AcDbEntity
  8
1
  6
Continuous
 62
    18
100
AcDbLine
 10
3.211921
 20
6.172565
 30
0.0
 11
3.180223
 21
6.172565
 31
0.0
  0
LINE
  5
6B
330
1F
100
AcDbEntity
  8
1
  6
Continuous
 62
    18
100
AcDbLine
 10
3.211921
 20
6.170565
 30
0.0
 11
3.172759
 21
6.170565
 31
0.0
  0
LINE
  5
6C
330
1F
100
AcDbEntity
  8
1
  6
Continuous
 62
    18
100
AcDbLine
 10
3.211921
 20
6.168565
 30
0.0
 11
3.165294
 21
6.168565
 31
0.0
  0
LINE
  5
6D
330
1F
100
AcDbEntity
  8
1
  6
Continuous
 62
    18
100
AcDbLine
 10
3.211921
 20
6.166565
 30
0.0
 11
3.15783
 21
6.166565
 31
0.0
  0
LINE
  5
6E
330
1F
100
AcDbEntity
  8
1
  6
Continuous
 62
    18
100
AcDbLine
 10
3.211921
 20
6.164565
 30
0.0
 11
3.150366
 21
6.164565
 31
0.0
  0
LINE
  5
6F
330
1F
100
AcDbEntity
  8
1
  6
Continuous
 62
    18
100
AcDbLine
 10
3.211921
 20
6.162565
 30
0.0
 11
3.142902
 21
6.162565
 31
0.0
  0
LINE
  5
70
330
1F
100
AcDbEntity
  8
1
  6
Continuous
 62
    18
100
AcDbLine
 10
3.211921
 20
6.160565
 30
0.0
 11
3.135438
 21
6.160565
 31
0.0
  0
LINE
  5
71
330
1F
100
AcDbEntity
  8
1
  6
Continuous
 62
    18
100
AcDbLine
 10
3.211921
 20
6.158565
 30
0.0
 11
3.127974
 21
6.158565
 31
0.0
  0
LINE
  5
72
330
1F
100
AcDbEntity
  8
1
  6
Continuous
 62
    18
100
AcDbLine
 10
3.211921
 20
6.156565
 30
0.0
 11
3.12051
 21
6.156565
 31
0.0
  0
LINE
  5
73
330
1F
100
AcDbEntity
  8
1
  6
Continuous
 62
    18
100
AcDbLine
 10
3.211921
 20
6.154565
 30
0.0
 11
3.113046
 21
6.154565
 31
0.0
  0
LINE
  5
74
330
1F
100
AcDbEntity
  8
1
  6
Continuous
 62
    18
100
AcDbLine
 10
3.211921
 20
6.152565
 30
0.0
 11
3.105582
 21
6.152565
 31
0.0
  0
LINE
  5
75
330
1F
100
AcDbEntity
  8
1
  6
Continuous
 62
    18
100
AcDbLine
 10
3.211921
 20
6.150565
 30
0.0
 11
3.098118
 21
6.150565
 31
0.0
  0
LINE
  5
76
330
1F
100
AcDbEntity
  8
1
  6
Continuous
 62
    18
100
AcDbLine
 10
3.211921
 20
6.148565
 30
0.0
 11
3.090653
 21
6.148565
 31
0.0
  0
LINE
  5
77
330
1F
100
AcDbEntity
  8
1
  6
Continuous
 62
    18
100
AcDbLine
 10
7.336921
 20
6.147565
 30
0.0
 11
7.211921
 21
6.181058
 31
0.0
  0
LINE
  5
78
330
1F
100
AcDbEntity
  8
1
  6
Continuous
 62
    18
100
AcDbLine
 10
7.211921
 20
6.181058
 30
0.0
 11
7.211921
 21
6.114071
 31
0.0
  0
LINE
  5
79
330
1F
100
AcDbEntity
  8
1
  6
Continuous
 62
    18
100
AcDbLine
 10
7.211921
 20
6.114071
 30
0.0
 11
7.336921
 21
6.147565
 31
0.0
  0
LINE
  5
7A
330
1F
100
AcDbEntity
  8
1
  6
Continuous
 62
    18
100
AcDbLine
 10
7.211921
 20
6.180565
 30
0.0
 11
7.213764
 21
6.180565
 31
0.0
  0
LINE
  5
7B
330
1F
100
AcDbEntity
  8
1
  6
Continuous
 62
    18
100
AcDbLine
 10
7.211921
 20
6.180565
 30
0.0
 11
7.213764
 21
6.180565
 31
0.0
  0
LINE
  5
7C
330
1F
100
AcDbEntity
  8
1
  6
Continuous
 62
    18
100
AcDbLine
 10
7.211921
 20
6.178565
 30
0.0
 11
7.221228
 21
6.178565
 31
0.0
  0
LINE
  5
7D
330
1F
100
AcDbEntity
  8
1
  6
Continuous
 62
    18
100
AcDbLine
 10
7.211921
 20
6.176565
 30
0.0
 11
7.228692
 21
6.176565
 31
0.0
  0
LINE
  5
7E
330
1F
100
AcDbEntity
  8
1
  6
Continuous
 62
    18
100
AcDbLine
 10
7.211921
 20
6.174565
 30
0.0
 11
7.236156
 21
6.174565
 31
0.0
  0
LINE
  5
7F
330
1F
100
AcDbEntity
  8
1
  6
Continuous
 62
    18
100
AcDbLine
 10
7.211921
 20
6.172565
 30
0.0
 11
7.24362
 21
6.172565
 31
0.0
  0
LINE
  5
80
330
1F
100
AcDbEntity
  8
1
  6
Continuous
 62
    18
100
AcDbLine
 10
7.211921
 20
6.170565
 30
0.0
 11
7.251084
 21
6.170565
 31
0.0
  0
LINE
  5
81
330
1F
100
AcDbEntity
  8
1
  6
Continuous
 62
    18
100
AcDbLine
 10
7.211921
 20
6.168565
 30
0.0
 11
7.258548
 21
6.168565
 31
0.0
  0
LINE
  5
82
330
1F
100
AcDbEntity
  8
1
  6
Continuous
 62
    18
100
AcDbLine
 10
7.211921
 20
6.166565
 30
0.0
 11
7.266012
 21
6.166565
 31
0.0
  0
LINE
  5
83
330
1F
100
AcDbEntity
  8
1
  6
Continuous
 62
    18
100
AcDbLine
 10
7.211921
 20
6.164565
 30
0.0
 11
7.273477
 21
6.164565
 31
0.0
  0
LINE
  5
84
330
1F
100
AcDbEntity
  8
1
  6
Continuous
 62
    18
100
AcDbLine
 10
7.211921
 20
6.162565
 30
0.0
 11
7.280941
 21
6.162565
 31
0.0
  0
LINE
  5
85
330
1F
100
AcDbEntity
  8
1
  6
Continuous
 62
    18
100
AcDbLine
 10
7.211921
 20
6.160565
 30
0.0
 11
7.288404
 21
6.160565
 31
0.0
  0
LINE
  5
86
330
1F
100
AcDbEntity
  8
1
  6
Continuous
 62
    18
100
AcDbLine
 10
7.211921
 20
6.158565
 30
0.0
 11
7.295869
 21
6.158565
 31
0.0
  0
LINE
  5
87
330
1F
100
AcDbEntity
  8
1
  6
Continuous
 62
    18
100
AcDbLine
 10
7.211921
 20
6.156565
 30
0.0
 11
7.303333
 21
6.156565
 31
0.0
  0
LINE
  5
88
330
1F
100
AcDbEntity
  8
1
  6
Continuous
 62
    18
100
AcDbLine
 10
7.211921
 20
6.154565
 30
0.0
 11
7.310797
 21
6.154565
 31
0.0
  0
LINE
  5
89
330
1F
100
AcDbEntity
  8
1
  6
Continuous
 62
    18
100
AcDbLine
 10
7.211921
 20
6.152565
 30
0.0
 11
7.318261
 21
6.152565
 31
0.0
  0
LINE
  5
8A
330
1F
100
AcDbEntity
  8
1
  6
Continuous
 62
    18
100
AcDbLine
 10
7.211921
 20
6.150565
 30
0.0
 11
7.325725
 21
6.150565
 31
0.0
  0
LINE
  5
8B
330
1F
100
AcDbEntity
  8
1
  6
Continuous
 62
    18
100
AcDbLine
 10
7.211921
 20
6.148565
 30
0.0
 11
7.333189
 21
6.148565
 31
0.0
  0
LINE
  5
8C
330
1F
100
AcDbEntity
  8
1
  6
Continuous
 62
    18
100
AcDbLine
 10
7.211921
 20
6.114565
 30
0.0
 11
7.213764
 21
6.114565
 31
0.0
  0
LINE
  5
8D
330
1F
100
AcDbEntity
  8
1
  6
Continuous
 62
    18
100
AcDbLine
 10
7.211921
 20
6.114565
 30
0.0
 11
7.213764
 21
6.114565
 31
0.0
  0
LINE
  5
8E
330
1F
100
AcDbEntity
  8
1
  6
Continuous
 62
    18
100
AcDbLine
 10
7.211921
 20
6.116565
 30
0.0
 11
7.221228
 21
6.116565
 31
0.0
  0
LINE
  5
8F
330
1F
100
AcDbEntity
  8
1
  6
Continuous
 62
    18
100
AcDbLine
 10
7.211921
 20
6.118565
 30
0.0
 11
7.228692
 21
6.118565
 31
0.0
  0
LINE
  5
90
330
1F
100
AcDbEntity
  8
1
  6
Continuous
 62
    18
100
AcDbLine
 10
7.211921
 20
6.120565
 30
0.0
 11
7.236156
 21
6.120565
 31
0.0
  0
LINE
  5
91
330
1F
100
AcDbEntity
  8
1
  6
Continuous
 62
    18
100
AcDbLine
 10
7.211921
 20
6.122565
 30
0.0
 11
7.24362
 21
6.122565
 31
0.0
  0
LINE
  5
92
330
1F
100
AcDbEntity
  8
1
  6
Continuous
 62
    18
100
AcDbLine
 10
7.211921
 20
6.124565
 30
0.0
 11
7.251084
 21
6.124565
 31
0.0
  0
LINE
  5
93
330
1F
100
AcDbEntity
  8
1
  6
Continuous
 62
    18
100
AcDbLine
 10
7.211921
 20
6.126565
 30
0.0
 11
7.258548
 21
6.126565
 31
0.0
  0
LINE
  5
94
330
1F
100
AcDbEntity
  8
1
  6
Continuous
 62
    18
100
AcDbLine
 10
7.211921
 20
6.128565
 30
0.0
 11
7.266012
 21
6.128565
 31
0.0
  0
LINE
  5
95
330
1F
100
AcDbEntity
  8
1
  6
Continuous
 62
    18
100
AcDbLine
 10
7.211921
 20
6.130565
 30
0.0
 11
7.273477
 21
6.130565
 31
0.0
  0
LINE
  5
96
330
1F
100
AcDbEntity
  8
1
  6
Continuous
 62
    18
100
AcDbLine
 10
7.211921
 20
6.132565
 30
0.0
 11
7.280941
 21
6.132565
 31
0.0
  0
LINE
  5
97
330
1F
100
AcDbEntity
  8
1
  6
Continuous
 62
    18
100
AcDbLine
 10
7.211921
 20
6.134565
 30
0.0
 11
7.288404
 21
6.134565
 31
0.0
  0
LINE
  5
98
330
1F
100
AcDbEntity
  8
1
  6
Continuous
 62
    18
100
AcDbLine
 10
7.211921
 20
6.136565
 30
0.0
 11
7.295869
 21
6.136565
 31
0.0
  0
LINE
  5
99
330
1F
100
AcDbEntity
  8
1
  6
Continuous
 62
    18
100
AcDbLine
 10
7.211921
 20
6.138565
 30
0.0
 11
7.303333
 21
6.138565
 31
0.0
  0
LINE
  5
9A
330
1F
100
AcDbEntity
  8
1
  6
Continuous
 62
    18
100
AcDbLine
 10
7.211921
 20
6.140565
 30
0.0
 11
7.310797
 21
6.140565
 31
0.0
  0
LINE
  5
9B
330
1F
100
AcDbEntity
  8
1
  6
Continuous
 62
    18
100
AcDbLine
 10
7.211921
 20
6.142565
 30
0.0
 11
7.318261
 21
6.142565
 31
0.0
  0
LINE
  5
9C
330
1F
100
AcDbEntity
  8
1
  6
Continuous
 62
    18
100
AcDbLine
 10
7.211921
 20
6.144565
 30
0.0
 11
7.325725
 21
6.144565
 31
0.0
  0
LINE
  5
9D
330
1F
100
AcDbEntity
  8
1
  6
Continuous
 62
    18
100
AcDbLine
 10
7.211921
 20
6.146565
 30
0.0
 11
7.333189
 21
6.146565
 31
0.0
  0
LINE
  5
9E
330
1F
100
AcDbEntity
  8
1
  6
Continuous
 62
    18
100
AcDbLine
 10
6.588326
 20
7.389832
 30
0.0
 11
6.543326
 21
7.389832
 31
0.0
  0
LINE
  5
9F
330
1F
100
AcDbEntity
  8
1
  6
Continuous
 62
    18
100
AcDbLine
 10
6.543326
 20
7.389832
 30
0.0
 11
6.543326
 21
7.221082
 31
0.0
  0
LINE
  5
A0
330
1F
100
AcDbEntity
  8
1
  6
Continuous
 62
    18
100
AcDbLine
 10
6.543326
 20
7.221082
 30
0.0
 11
6.588326
 21
7.221082
 31
0.0
  0
LINE
  5
A1
330
1F
100
AcDbEntity
  8
1
  6
Continuous
 62
    18
100
AcDbLine
 10
6.960327
 20
7.221082
 30
0.0
 11
7.005326
 21
7.221082
 31
0.0
  0
LINE
  5
A2
330
1F
100
AcDbEntity
  8
1
  6
Continuous
 62
    18
100
AcDbLine
 10
7.005326
 20
7.221082
 30
0.0
 11
7.005326
 21
7.389832
 31
0.0
  0
LINE
  5
A3
330
1F
100
AcDbEntity
  8
1
  6
Continuous
 62
    18
100
AcDbLine
 10
7.005326
 20
7.389832
 30
0.0
 11
6.960327
 21
7.389832
 31
0.0
  0
LINE
  5
A4
330
1F
100
AcDbEntity
  8
1
  6
Continuous
 62
    18
100
AcDbLine
 10
7.394421
 20
6.413582
 30
0.0
 11
7.876701
 21
6.413582
 31
0.0
  0
LINE
  5
A5
330
1F
100
AcDbEntity
  8
1
  6
Continuous
 62
    18
100
AcDbLine
 10
7.384421
 20
6.783582
 30
0.0
 11
7.876701
 21
6.783582
 31
0.0
  0
LINE
  5
A6
330
1F
100
AcDbEntity
  8
1
  6
Continuous
 62
    18
100
AcDbLine
 10
7.751701
 20
7.524832
 30
0.0
 11
7.501701
 21
7.524832
 31
0.0
  0
LINE
  5
A7
330
1F
100
AcDbEntity
  8
1
  6
Continuous
 62
    18
100
AcDbLine
 10
7.751701
 20
6.413582
 30
0.0
 11
7.751701
 21
7.524832
 31
0.0
  0
LINE
  5
A8
330
1F
100
AcDbEntity
  8
1
  6
Continuous
 62
    18
100
AcDbLine
 10
7.751701
 20
6.413582
 30
0.0
 11
7.785195
 21
6.538582
 31
0.0
  0
LINE
  5
A9
330
1F
100
AcDbEntity
  8
1
  6
Continuous
 62
    18
100
AcDbLine
 10
7.785195
 20
6.538582
 30
0.0
 11
7.718208
 21
6.538582
 31
0.0
  0
LINE
  5
AA
330
1F
100
AcDbEntity
  8
1
  6
Continuous
 62
    18
100
AcDbLine
 10
7.718208
 20
6.538582
 30
0.0
 11
7.751701
 21
6.413582
 31
0.0
  0
LINE
  5
AB
330
1F
100
AcDbEntity
  8
1
  6
Continuous
 62
    18
100
AcDbLine
 10
7.784701
 20
6.538582
 30
0.0
 11
7.784701
 21
6.53674
 31
0.0
  0
LINE
  5
AC
330
1F
100
AcDbEntity
  8
1
  6
Continuous
 62
    18
100
AcDbLine
 10
7.784701
 20
6.538582
 30
0.0
 11
7.784701
 21
6.53674
 31
0.0
  0
LINE
  5
AD
330
1F
100
AcDbEntity
  8
1
  6
Continuous
 62
    18
100
AcDbLine
 10
7.782701
 20
6.538582
 30
0.0
 11
7.782701
 21
6.529276
 31
0.0
  0
LINE
  5
AE
330
1F
100
AcDbEntity
  8
1
  6
Continuous
 62
    18
100
AcDbLine
 10
7.780702
 20
6.538582
 30
0.0
 11
7.780702
 21
6.521812
 31
0.0
  0
LINE
  5
AF
330
1F
100
AcDbEntity
  8
1
  6
Continuous
 62
    18
100
AcDbLine
 10
7.778701
 20
6.538582
 30
0.0
 11
7.778701
 21
6.514348
 31
0.0
  0
LINE
  5
B0
330
1F
100
AcDbEntity
  8
1
  6
Continuous
 62
    18
100
AcDbLine
 10
7.776701
 20
6.538582
 30
0.0
 11
7.776701
 21
6.506884
 31
0.0
  0
LINE
  5
B1
330
1F
100
AcDbEntity
  8
1
  6
Continuous
 62
    18
100
AcDbLine
 10
7.774702
 20
6.538582
 30
0.0
 11
7.774702
 21
6.49942
 31
0.0
  0
LINE
  5
B2
330
1F
100
AcDbEntity
  8
1
  6
Continuous
 62
    18
100
AcDbLine
 10
7.772701
 20
6.538582
 30
0.0
 11
7.772701
 21
6.491955
 31
0.0
  0
LINE
  5
B3
330
1F
100
AcDbEntity
  8
1
  6
Continuous
 62
    18
100
AcDbLine
 10
7.770701
 20
6.538582
 30
0.0
 11
7.770701
 21
6.484491
 31
0.0
  0
LINE
  5
B4
330
1F
100
AcDbEntity
  8
1
  6
Continuous
 62
    18
100
AcDbLine
 10
7.768702
 20
6.538582
 30
0.0
 11
7.768702
 21
6.477027
 31
0.0
  0
LINE
  5
B5
330
1F
100
AcDbEntity
  8
1
  6
Continuous
 62
    18
100
AcDbLine
 10
7.766702
 20
6.538582
 30
0.0
 11
7.766702
 21
6.469563
 31
0.0
  0
LINE
  5
B6
330
1F
100
AcDbEntity
  8
1
  6
Continuous
 62
    18
100
AcDbLine
 10
7.764701
 20
6.538582
 30
0.0
 11
7.764701
 21
6.462099
 31
0.0
  0
LINE
  5
B7
330
1F
100
AcDbEntity
  8
1
  6
Continuous
 62
    18
100
AcDbLine
 10
7.762702
 20
6.538582
 30
0.0
 11
7.762702
 21
6.454635
 31
0.0
  0
LINE
  5
B8
330
1F
100
AcDbEntity
  8
1
  6
Continuous
 62
    18
100
AcDbLine
 10
7.760702
 20
6.538582
 30
0.0
 11
7.760702
 21
6.447171
 31
0.0
  0
LINE
  5
B9
330
1F
100
AcDbEntity
  8
1
  6
Continuous
 62
    18
100
AcDbLine
 10
7.758701
 20
6.538582
 30
0.0
 11
7.758701
 21
6.439707
 31
0.0
  0
LINE
  5
BA
330
1F
100
AcDbEntity
  8
1
  6
Continuous
 62
    18
100
AcDbLine
 10
7.756701
 20
6.538582
 30
0.0
 11
7.756701
 21
6.432243
 31
0.0
  0
LINE
  5
BB
330
1F
100
AcDbEntity
  8
1
  6
Continuous
 62
    18
100
AcDbLine
 10
7.754702
 20
6.538582
 30
0.0
 11
7.754702
 21
6.424778
 31
0.0
  0
LINE
  5
BC
330
1F
100
AcDbEntity
  8
1
  6
Continuous
 62
    18
100
AcDbLine
 10
7.752701
 20
6.538582
 30
0.0
 11
7.752701
 21
6.417315
 31
0.0
  0
LINE
  5
BD
330
1F
100
AcDbEntity
  8
1
  6
Continuous
 62
    18
100
AcDbLine
 10
7.718701
 20
6.538582
 30
0.0
 11
7.718701
 21
6.53674
 31
0.0
  0
LINE
  5
BE
330
1F
100
AcDbEntity
  8
1
  6
Continuous
 62
    18
100
AcDbLine
 10
7.718701
 20
6.538582
 30
0.0
 11
7.718701
 21
6.53674
 31
0.0
  0
LINE
  5
BF
330
1F
100
AcDbEntity
  8
1
  6
Continuous
 62
    18
100
AcDbLine
 10
7.720702
 20
6.538582
 30
0.0
 11
7.720702
 21
6.529276
 31
0.0
  0
LINE
  5
C0
330
1F
100
AcDbEntity
  8
1
  6
Continuous
 62
    18
100
AcDbLine
 10
7.722702
 20
6.538582
 30
0.0
 11
7.722702
 21
6.521812
 31
0.0
  0
LINE
  5
C1
330
1F
100
AcDbEntity
  8
1
  6
Continuous
 62
    18
100
AcDbLine
 10
7.724701
 20
6.538582
 30
0.0
 11
7.724701
 21
6.514348
 31
0.0
  0
LINE
  5
C2
330
1F
100
AcDbEntity
  8
1
  6
Continuous
 62
    18
100
AcDbLine
 10
7.726701
 20
6.538582
 30
0.0
 11
7.726701
 21
6.506884
 31
0.0
  0
LINE
  5
C3
330
1F
100
AcDbEntity
  8
1
  6
Continuous
 62
    18
100
AcDbLine
 10
7.728702
 20
6.538582
 30
0.0
 11
7.728702
 21
6.49942
 31
0.0
  0
LINE
  5
C4
330
1F
100
AcDbEntity
  8
1
  6
Continuous
 62
    18
100
AcDbLine
 10
7.730701
 20
6.538582
 30
0.0
 11
7.730701
 21
6.491955
 31
0.0
  0
LINE
  5
C5
330
1F
100
AcDbEntity
  8
1
  6
Continuous
 62
    18
100
AcDbLine
 10
7.732701
 20
6.538582
 30
0.0
 11
7.732701
 21
6.484491
 31
0.0
  0
LINE
  5
C6
330
1F
100
AcDbEntity
  8
1
  6
Continuous
 62
    18
100
AcDbLine
 10
7.734702
 20
6.538582
 30
0.0
 11
7.734702
 21
6.477027
 31
0.0
  0
LINE
  5
C7
330
1F
100
AcDbEntity
  8
1
  6
Continuous
 62
    18
100
AcDbLine
 10
7.736701
 20
6.538582
 30
0.0
 11
7.736701
 21
6.469563
 31
0.0
  0
LINE
  5
C8
330
1F
100
AcDbEntity
  8
1
  6
Continuous
 62
    18
100
AcDbLine
 10
7.738701
 20
6.538582
 30
0.0
 11
7.738701
 21
6.462099
 31
0.0
  0
LINE
  5
C9
330
1F
100
AcDbEntity
  8
1
  6
Continuous
 62
    18
100
AcDbLine
 10
7.740702
 20
6.538582
 30
0.0
 11
7.740702
 21
6.454635
 31
0.0
  0
LINE
  5
CA
330
1F
100
AcDbEntity
  8
1
  6
Continuous
 62
    18
100
AcDbLine
 10
7.742702
 20
6.538582
 30
0.0
 11
7.742702
 21
6.447171
 31
0.0
  0
LINE
  5
CB
330
1F
100
AcDbEntity
  8
1
  6
Continuous
 62
    18
100
AcDbLine
 10
7.744701
 20
6.538582
 30
0.0
 11
7.744701
 21
6.439707
 31
0.0
  0
LINE
  5
CC
330
1F
100
AcDbEntity
  8
1
  6
Continuous
 62
    18
100
AcDbLine
 10
7.746702
 20
6.538582
 30
0.0
 11
7.746702
 21
6.432243
 31
0.0
  0
LINE
  5
CD
330
1F
100
AcDbEntity
  8
1
  6
Continuous
 62
    18
100
AcDbLine
 10
7.748702
 20
6.538582
 30
0.0
 11
7.748702
 21
6.424778
 31
0.0
  0
LINE
  5
CE
330
1F
100
AcDbEntity
  8
1
  6
Continuous
 62
    18
100
AcDbLine
 10
7.750701
 20
6.538582
 30
0.0
 11
7.750701
 21
6.417315
 31
0.0
  0
LINE
  5
CF
330
1F
100
AcDbEntity
  8
1
  6
Continuous
 62
    18
100
AcDbLine
 10
7.751701
 20
6.783582
 30
0.0
 11
7.718208
 21
6.658582
 31
0.0
  0
LINE
  5
D0
330
1F
100
AcDbEntity
  8
1
  6
Continuous
 62
    18
100
AcDbLine
 10
7.718208
 20
6.658582
 30
0.0
 11
7.785195
 21
6.658582
 31
0.0
  0
LINE
  5
D1
330
1F
100
AcDbEntity
  8
1
  6
Continuous
 62
    18
100
AcDbLine
 10
7.785195
 20
6.658582
 30
0.0
 11
7.751701
 21
6.783582
 31
0.0
  0
LINE
  5
D2
330
1F
100
AcDbEntity
  8
1
  6
Continuous
 62
    18
100
AcDbLine
 10
7.718701
 20
6.658582
 30
0.0
 11
7.718701
 21
6.660425
 31
0.0
  0
LINE
  5
D3
330
1F
100
AcDbEntity
  8
1
  6
Continuous
 62
    18
100
AcDbLine
 10
7.718701
 20
6.658582
 30
0.0
 11
7.718701
 21
6.660425
 31
0.0
  0
LINE
  5
D4
330
1F
100
AcDbEntity
  8
1
  6
Continuous
 62
    18
100
AcDbLine
 10
7.720702
 20
6.658582
 30
0.0
 11
7.720702
 21
6.667889
 31
0.0
  0
LINE
  5
D5
330
1F
100
AcDbEntity
  8
1
  6
Continuous
 62
    18
100
AcDbLine
 10
7.722702
 20
6.658582
 30
0.0
 11
7.722702
 21
6.675353
 31
0.0
  0
LINE
  5
D6
330
1F
100
AcDbEntity
  8
1
  6
Continuous
 62
    18
100
AcDbLine
 10
7.724701
 20
6.658582
 30
0.0
 11
7.724701
 21
6.682817
 31
0.0
  0
LINE
  5
D7
330
1F
100
AcDbEntity
  8
1
  6
Continuous
 62
    18
100
AcDbLine
 10
7.726701
 20
6.658582
 30
0.0
 11
7.726701
 21
6.690281
 31
0.0
  0
LINE
  5
D8
330
1F
100
AcDbEntity
  8
1
  6
Continuous
 62
    18
100
AcDbLine
 10
7.728702
 20
6.658582
 30
0.0
 11
7.728702
 21
6.697745
 31
0.0
  0
LINE
  5
D9
330
1F
100
AcDbEntity
  8
1
  6
Continuous
 62
    18
100
AcDbLine
 10
7.730701
 20
6.658582
 30
0.0
 11
7.730701
 21
6.705209
 31
0.0
  0
LINE
  5
DA
330
1F
100
AcDbEntity
  8
1
  6
Continuous
 62
    18
100
AcDbLine
 10
7.732701
 20
6.658582
 30
0.0
 11
7.732701
 21
6.712674
 31
0.0
  0
LINE
  5
DB
330
1F
100
AcDbEntity
  8
1
  6
Continuous
 62
    18
100
AcDbLine
 10
7.734702
 20
6.658582
 30
0.0
 11
7.734702
 21
6.720138
 31
0.0
  0
LINE
  5
DC
330
1F
100
AcDbEntity
  8
1
  6
Continuous
 62
    18
100
AcDbLine
 10
7.736701
 20
6.658582
 30
0.0
 11
7.736701
 21
6.727602
 31
0.0
  0
LINE
  5
DD
330
1F
100
AcDbEntity
  8
1
  6
Continuous
 62
    18
100
AcDbLine
 10
7.738701
 20
6.658582
 30
0.0
 11
7.738701
 21
6.735066
 31
0.0
  0
LINE
  5
DE
330
1F
100
AcDbEntity
  8
1
  6
Continuous
 62
    18
100
AcDbLine
 10
7.740702
 20
6.658582
 30
0.0
 11
7.740702
 21
6.74253
 31
0.0
  0
LINE
  5
DF
330
1F
100
AcDbEntity
  8
1
  6
Continuous
 62
    18
100
AcDbLine
 10
7.742702
 20
6.658582
 30
0.0
 11
7.742702
 21
6.749994
 31
0.0
  0
LINE
  5
E0
330
1F
100
AcDbEntity
  8
1
  6
Continuous
 62
    18
100
AcDbLine
 10
7.744701
 20
6.658582
 30
0.0
 11
7.744701
 21
6.757458
 31
0.0
  0
LINE
  5
E1
330
1F
100
AcDbEntity
  8
1
  6
Continuous
 62
    18
100
AcDbLine
 10
7.746702
 20
6.658582
 30
0.0
 11
7.746702
 21
6.764922
 31
0.0
  0
LINE
  5
E2
330
1F
100
AcDbEntity
  8
1
  6
Continuous
 62
    18
100
AcDbLine
 10
7.748702
 20
6.658582
 30
0.0
 11
7.748702
 21
6.772386
 31
0.0
  0
LINE
  5
E3
330
1F
100
AcDbEntity
  8
1
  6
Continuous
 62
    18
100
AcDbLine
 10
7.750701
 20
6.658582
 30
0.0
 11
7.750701
 21
6.77985
 31
0.0
  0
LINE
  5
E4
330
1F
100
AcDbEntity
  8
1
  6
Continuous
 62
    18
100
AcDbLine
 10
7.784701
 20
6.658582
 30
0.0
 11
7.784701
 21
6.660425
 31
0.0
  0
LINE
  5
E5
330
1F
100
AcDbEntity
  8
1
  6
Continuous
 62
    18
100
AcDbLine
 10
7.784701
 20
6.658582
 30
0.0
 11
7.784701
 21
6.660425
 31
0.0
  0
LINE
  5
E6
330
1F
100
AcDbEntity
  8
1
  6
Continuous
 62
    18
100
AcDbLine
 10
7.782701
 20
6.658582
 30
0.0
 11
7.782701
 21
6.667889
 31
0.0
  0
LINE
  5
E7
330
1F
100
AcDbEntity
  8
1
  6
Continuous
 62
    18
100
AcDbLine
 10
7.780702
 20
6.658582
 30
0.0
 11
7.780702
 21
6.675353
 31
0.0
  0
LINE
  5
E8
330
1F
100
AcDbEntity
  8
1
  6
Continuous
 62
    18
100
AcDbLine
 10
7.778701
 20
6.658582
 30
0.0
 11
7.778701
 21
6.682817
 31
0.0
  0
LINE
  5
E9
330
1F
100
AcDbEntity
  8
1
  6
Continuous
 62
    18
100
AcDbLine
 10
7.776701
 20
6.658582
 30
0.0
 11
7.776701
 21
6.690281
 31
0.0
  0
LINE
  5
EA
330
1F
100
AcDbEntity
  8
1
  6
Continuous
 62
    18
100
AcDbLine
 10
7.774702
 20
6.658582
 30
0.0
 11
7.774702
 21
6.697745
 31
0.0
  0
LINE
  5
EB
330
1F
100
AcDbEntity
  8
1
  6
Continuous
 62
    18
100
AcDbLine
 10
7.772701
 20
6.658582
 30
0.0
 11
7.772701
 21
6.705209
 31
0.0
  0
LINE
  5
EC
330
1F
100
AcDbEntity
  8
1
  6
Continuous
 62
    18
100
AcDbLine
 10
7.770701
 20
6.658582
 30
0.0
 11
7.770701
 21
6.712674
 31
0.0
  0
LINE
  5
ED
330
1F
100
AcDbEntity
  8
1
  6
Continuous
 62
    18
100
AcDbLine
 10
7.768702
 20
6.658582
 30
0.0
 11
7.768702
 21
6.720138
 31
0.0
  0
LINE
  5
EE
330
1F
100
AcDbEntity
  8
1
  6
Continuous
 62
    18
100
AcDbLine
 10
7.766702
 20
6.658582
 30
0.0
 11
7.766702
 21
6.727602
 31
0.0
  0
LINE
  5
EF
330
1F
100
AcDbEntity
  8
1
  6
Continuous
 62
    18
100
AcDbLine
 10
7.764701
 20
6.658582
 30
0.0
 11
7.764701
 21
6.735066
 31
0.0
  0
LINE
  5
F0
330
1F
100
AcDbEntity
  8
1
  6
Continuous
 62
    18
100
AcDbLine
 10
7.762702
 20
6.658582
 30
0.0
 11
7.762702
 21
6.74253
 31
0.0
  0
LINE
  5
F1
330
1F
100
AcDbEntity
  8
1
  6
Continuous
 62
    18
100
AcDbLine
 10
7.760702
 20
6.658582
 30
0.0
 11
7.760702
 21
6.749994
 31
0.0
  0
LINE
  5
F2
330
1F
100
AcDbEntity
  8
1
  6
Continuous
 62
    18
100
AcDbLine
 10
7.758701
 20
6.658582
 30
0.0
 11
7.758701
 21
6.757458
 31
0.0
  0
LINE
  5
F3
330
1F
100
AcDbEntity
  8
1
  6
Continuous
 62
    18
100
AcDbLine
 10
7.756701
 20
6.658582
 30
0.0
 11
7.756701
 21
6.764922
 31
0.0
  0
LINE
  5
F4
330
1F
100
AcDbEntity
  8
1
  6
Continuous
 62
    18
100
AcDbLine
 10
7.754702
 20
6.658582
 30
0.0
 11
7.754702
 21
6.772386
 31
0.0
  0
LINE
  5
F5
330
1F
100
AcDbEntity
  8
1
  6
Continuous
 62
    18
100
AcDbLine
 10
7.752701
 20
6.658582
 30
0.0
 11
7.752701
 21
6.77985
 31
0.0
  0
LINE
  5
F6
330
1F
100
AcDbEntity
  8
1
  6
Continuous
 62
    18
100
AcDbLine
 10
0.0
 20
0.055
 30
0.0
 11
0.0
 21
-0.055
 31
0.0
  0
LINE
  5
F7
330
1F
100
AcDbEntity
  8
1
  6
Continuous
 62
    18
100
AcDbLine
 10
-0.055
 20
0.0
 30
0.0
 11
0.055
 21
0.0
 31
0.0
  0
LINE
  5
F8
330
1F
100
AcDbEntity
  8
1
  6
Continuous
 62
    18
100
AcDbLine
 10
11.0
 20
0.055
 30
0.0
 11
11.0
 21
-0.055
 31
0.0
  0
LINE
  5
F9
330
1F
100
AcDbEntity
  8
1
  6
Continuous
 62
    18
100
AcDbLine
 10
10.945
 20
0.0
 30
0.0
 11
11.055
 21
0.0
 31
0.0
  0
LINE
  5
FA
330
1F
100
AcDbEntity
  8
1
  6
Continuous
 62
    18
100
AcDbLine
 10
0.0
 20
8.555
 30
0.0
 11
0.0
 21
8.445
 31
0.0
  0
LINE
  5
FB
330
1F
100
AcDbEntity
  8
1
  6
Continuous
 62
    18
100
AcDbLine
 10
-0.055
 20
8.5
 30
0.0
 11
0.055
 21
8.5
 31
0.0
  0
LINE
  5
FC
330
1F
100
AcDbEntity
  8
1
  6
Continuous
 62
    18
100
AcDbLine
 10
11.0
 20
8.555
 30
0.0
 11
11.0
 21
8.445
 31
0.0
  0
LINE
  5
FD
330
1F
100
AcDbEntity
  8
1
  6
Continuous
 62
    18
100
AcDbLine
 10
10.945
 20
8.5
 30
0.0
 11
11.055
 21
8.5
 31
0.0
  0
LINE
  5
FE
330
1F
100
AcDbEntity
  8
1
  6
Continuous
 62
    18
100
AcDbLine
 10
0.249736
 20
8.25
 30
0.0
 11
10.749736
 21
8.25
 31
0.0
  0
LINE
  5
FF
330
1F
100
AcDbEntity
  8
1
  6
Continuous
 62
    18
100
AcDbLine
 10
0.249736
 20
0.25
 30
0.0
 11
10.749736
 21
0.25
 31
0.0
  0
LINE
  5
100
330
1F
100
AcDbEntity
  8
1
  6
Continuous
 62
    18
100
AcDbLine
 10
0.249736
 20
8.25
 30
0.0
 11
0.249736
 21
0.25
 31
0.0
  0
LINE
  5
101
330
1F
100
AcDbEntity
  8
1
  6
Continuous
 62
    18
100
AcDbLine
 10
6.94423
 20
0.643244
 30
0.0
 11
6.739539
 21
0.605994
 31
0.0
  0
LINE
  5
102
330
1F
100
AcDbEntity
  8
1
  6
Continuous
 62
    18
100
AcDbLine
 10
6.739539
 20
0.605994
 30
0.0
 11
6.739539
 21
0.832759
 31
0.0
  0
LINE
  5
103
330
1F
100
AcDbEntity
  8
1
  6
Continuous
 62
    18
100
AcDbLine
 10
6.705399
 20
0.719376
 30
0.0
 11
6.827979
 21
0.719376
 31
0.0
  0
LINE
  5
104
330
1F
100
AcDbEntity
  8
1
  6
Continuous
 62
    18
100
AcDbLine
 10
6.868839
 20
0.719376
 30
0.0
 11
6.909699
 21
0.719376
 31
0.0
  0
LINE
  5
105
330
1F
100
AcDbEntity
  8
1
  6
Continuous
 62
    18
100
AcDbLine
 10
6.95056
 20
0.719376
 30
0.0
 11
7.195721
 21
0.719376
 31
0.0
  0
LINE
  5
106
330
1F
100
AcDbEntity
  8
1
  6
Continuous
 62
    18
100
AcDbLine
 10
7.236581
 20
0.719376
 30
0.0
 11
7.277441
 21
0.719376
 31
0.0
  0
LINE
  5
107
330
1F
100
AcDbEntity
  8
1
  6
Continuous
 62
    18
100
AcDbLine
 10
7.318301
 20
0.719376
 30
0.0
 11
7.440882
 21
0.719376
 31
0.0
  0
LINE
  5
108
330
1F
100
AcDbEntity
  8
1
  6
Continuous
 62
    18
100
AcDbLine
 10
6.94423
 20
0.795509
 30
0.0
 11
6.94423
 21
0.643244
 31
0.0
  0
LINE
  5
109
330
1F
100
AcDbEntity
  8
1
  6
Continuous
 62
    18
100
AcDbLine
 10
10.753736
 20
8.25
 30
0.0
 11
10.753736
 21
0.25
 31
0.0
  0
LINE
  5
10A
330
1F
100
AcDbEntity
  8
1
  6
Continuous
 62
    18
100
AcDbLine
 10
6.739539
 20
0.832759
 30
0.0
 11
6.94423
 21
0.795509
 31
0.0
  0
LINE
  5
10B
330
1F
100
AcDbEntity
  8
1
  6
Continuous
 62
    18
100
AcDbLine
 10
7.293359
 20
0.866899
 30
0.0
 11
7.293359
 21
0.768551
 31
0.0
  0
LINE
  5
10C
330
1F
100
AcDbEntity
  8
1
  6
Continuous
 62
    18
100
AcDbLine
 10
7.293359
 20
0.735768
 30
0.0
 11
7.293359
 21
0.702985
 31
0.0
  0
LINE
  5
10D
330
1F
100
AcDbEntity
  8
1
  6
Continuous
 62
    18
100
AcDbLine
 10
7.293359
 20
0.670202
 30
0.0
 11
7.293359
 21
0.571853
 31
0.0
  0
LINE
  5
10E
330
1F
100
AcDbEntity
  8
1
  6
Continuous
 62
    18
100
AcDbLine
 10
5.499736
 20
8.5
 30
0.0
 11
5.499736
 21
8.25
 31
0.0
  0
LINE
  5
10F
330
1F
100
AcDbEntity
  8
1
  6
Continuous
 62
    18
100
AcDbLine
 10
5.499736
 20
0.25
 30
0.0
 11
5.499736
 21
0.0
 31
0.0
  0
LINE
  5
110
330
1F
100
AcDbEntity
  8
1
  6
Continuous
 62
    18
100
AcDbLine
 10
10.753736
 20
4.3
 30
0.0
 11
10.753736
 21
4.2
 31
0.0
  0
LINE
  5
111
330
1F
100
AcDbEntity
  8
1
  6
Continuous
 62
    18
100
AcDbLine
 10
11.0
 20
4.253736
 30
0.0
 11
10.878736
 21
4.375
 31
0.0
  0
LINE
  5
112
330
1F
100
AcDbEntity
  8
1
  6
Continuous
 62
    18
100
AcDbLine
 10
10.878736
 20
4.375
 30
0.0
 11
10.878736
 21
4.3
 31
0.0
  0
LINE
  5
113
330
1F
100
AcDbEntity
  8
1
  6
Continuous
 62
    18
100
AcDbLine
 10
10.878736
 20
4.125
 30
0.0
 11
11.0
 21
4.246264
 31
0.0
  0
LINE
  5
114
330
1F
100
AcDbEntity
  8
1
  6
Continuous
 62
    18
100
AcDbLine
 10
10.753736
 20
4.2
 30
0.0
 11
10.878736
 21
4.2
 31
0.0
  0
LINE
  5
115
330
1F
100
AcDbEntity
  8
1
  6
Continuous
 62
    18
100
AcDbLine
 10
10.753736
 20
4.3
 30
0.0
 11
10.878736
 21
4.3
 31
0.0
  0
LINE
  5
116
330
1F
100
AcDbEntity
  8
1
  6
Continuous
 62
    18
100
AcDbLine
 10
10.878736
 20
4.2
 30
0.0
 11
10.878736
 21
4.125
 31
0.0
  0
LINE
  5
117
330
1F
100
AcDbEntity
  8
1
  6
Continuous
 62
    18
100
AcDbLine
 10
0.0
 20
4.250264
 30
0.0
 11
0.124736
 21
4.375
 31
0.0
  0
LINE
  5
118
330
1F
100
AcDbEntity
  8
1
  6
Continuous
 62
    18
100
AcDbLine
 10
0.124736
 20
4.125
 30
0.0
 11
0.0
 21
4.249736
 31
0.0
  0
LINE
  5
119
330
1F
100
AcDbEntity
  8
1
  6
Continuous
 62
    18
100
AcDbLine
 10
0.249736
 20
4.3
 30
0.0
 11
0.124736
 21
4.3
 31
0.0
  0
LINE
  5
11A
330
1F
100
AcDbEntity
  8
1
  6
Continuous
 62
    18
100
AcDbLine
 10
0.124736
 20
4.375
 30
0.0
 11
0.124736
 21
4.3
 31
0.0
  0
LINE
  5
11B
330
1F
100
AcDbEntity
  8
1
  6
Continuous
 62
    18
100
AcDbLine
 10
0.124736
 20
4.2
 30
0.0
 11
0.124736
 21
4.125
 31
0.0
  0
LINE
  5
11C
330
1F
100
AcDbEntity
  8
1
  6
Continuous
 62
    18
100
AcDbLine
 10
0.249736
 20
4.2
 30
0.0
 11
0.124736
 21
4.2
 31
0.0
  0
LINE
  5
11D
330
1F
100
AcDbEntity
  8
1
  6
Continuous
 62
    18
100
AcDbLine
 10
0.249736
 20
4.3
 30
0.0
 11
0.249736
 21
4.2
 31
0.0
  0
LINE
  5
11E
330
1F
100
AcDbEntity
  8
1
  6
Continuous
 62
    18
100
AcDbLine
 10
10.535903
 20
3.160532
 30
0.0
 11
10.405999
 21
3.385532
 31
0.0
  0
LINE
  5
11F
330
1F
100
AcDbEntity
  8
1
  6
Continuous
 62
    18
100
AcDbLine
 10
10.405999
 20
3.385532
 30
0.0
 11
10.276095
 21
3.160532
 31
0.0
  0
LINE
  5
120
330
1F
100
AcDbEntity
  8
1
  6
Continuous
 62
    18
100
AcDbLine
 10
10.276095
 20
3.160532
 30
0.0
 11
10.535903
 21
3.160532
 31
0.0
  0
LINE
  5
121
330
1F
100
AcDbEntity
  8
1
  6
Continuous
 62
    18
100
AcDbLine
 10
6.37889
 20
2.624262
 30
0.0
 11
6.37889
 21
2.561762
 31
0.0
  0
LINE
  5
122
330
1F
100
AcDbEntity
  8
1
  6
Continuous
 62
    18
100
AcDbLine
 10
6.37889
 20
2.561762
 30
0.0
 11
6.37889
 21
2.311762
 31
0.0
  0
LINE
  5
123
330
1F
100
AcDbEntity
  8
1
  6
Continuous
 62
    18
100
AcDbLine
 10
6.37889
 20
2.311762
 30
0.0
 11
6.37889
 21
2.061762
 31
0.0
  0
LINE
  5
124
330
1F
100
AcDbEntity
  8
1
  6
Continuous
 62
    18
100
AcDbLine
 10
6.37889
 20
2.061762
 30
0.0
 11
6.37889
 21
1.936762
 31
0.0
  0
LINE
  5
125
330
1F
100
AcDbEntity
  8
1
  6
Continuous
 62
    18
100
AcDbLine
 10
6.37889
 20
1.936762
 30
0.0
 11
6.37889
 21
1.874262
 31
0.0
  0
LINE
  5
126
330
1F
100
AcDbEntity
  8
1
  6
Continuous
 62
    18
100
AcDbLine
 10
6.37889
 20
1.874262
 30
0.0
 11
6.37889
 21
1.686762
 31
0.0
  0
LINE
  5
127
330
1F
100
AcDbEntity
  8
1
  6
Continuous
 62
    18
100
AcDbLine
 10
6.37889
 20
1.686762
 30
0.0
 11
6.37889
 21
1.624262
 31
0.0
  0
LINE
  5
128
330
1F
100
AcDbEntity
  8
1
  6
Continuous
 62
    18
100
AcDbLine
 10
6.37889
 20
1.624262
 30
0.0
 11
6.37889
 21
1.436762
 31
0.0
  0
LINE
  5
129
330
1F
100
AcDbEntity
  8
1
  6
Continuous
 62
    18
100
AcDbLine
 10
6.37889
 20
1.436762
 30
0.0
 11
6.37889
 21
1.374262
 31
0.0
  0
LINE
  5
12A
330
1F
100
AcDbEntity
  8
1
  6
Continuous
 62
    18
100
AcDbLine
 10
6.37889
 20
1.374262
 30
0.0
 11
6.37889
 21
1.124262
 31
0.0
  0
LINE
  5
12B
330
1F
100
AcDbEntity
  8
1
  6
Continuous
 62
    18
100
AcDbLine
 10
6.37889
 20
1.124262
 30
0.0
 11
6.37889
 21
0.999262
 31
0.0
  0
LINE
  5
12C
330
1F
100
AcDbEntity
  8
1
  6
Continuous
 62
    18
100
AcDbLine
 10
6.37889
 20
0.999262
 30
0.0
 11
6.37889
 21
0.874262
 31
0.0
  0
LINE
  5
12D
330
1F
100
AcDbEntity
  8
1
  6
Continuous
 62
    18
100
AcDbLine
 10
6.37889
 20
0.874262
 30
0.0
 11
6.37889
 21
0.811762
 31
0.0
  0
LINE
  5
12E
330
1F
100
AcDbEntity
  8
1
  6
Continuous
 62
    18
100
AcDbLine
 10
6.37889
 20
0.811762
 30
0.0
 11
6.37889
 21
0.561762
 31
0.0
  0
LINE
  5
12F
330
1F
100
AcDbEntity
  8
1
  6
Continuous
 62
    18
100
AcDbLine
 10
6.37889
 20
0.561762
 30
0.0
 11
6.37889
 21
0.499262
 31
0.0
  0
LINE
  5
130
330
1F
100
AcDbEntity
  8
1
  6
Continuous
 62
    18
100
AcDbLine
 10
6.37889
 20
0.499262
 30
0.0
 11
6.37889
 21
0.249262
 31
0.0
  0
LINE
  5
131
330
1F
100
AcDbEntity
  8
1
  6
Continuous
 62
    18
100
AcDbLine
 10
6.37889
 20
2.624262
 30
0.0
 11
6.81639
 21
2.624262
 31
0.0
  0
LINE
  5
132
330
1F
100
AcDbEntity
  8
1
  6
Continuous
 62
    18
100
AcDbLine
 10
6.81639
 20
2.624262
 30
0.0
 11
7.62889
 21
2.624262
 31
0.0
  0
LINE
  5
133
330
1F
100
AcDbEntity
  8
1
  6
Continuous
 62
    18
100
AcDbLine
 10
7.62889
 20
2.624262
 30
0.0
 11
8.06639
 21
2.624262
 31
0.0
  0
LINE
  5
134
330
1F
100
AcDbEntity
  8
1
  6
Continuous
 62
    18
100
AcDbLine
 10
8.06639
 20
2.624262
 30
0.0
 11
8.87889
 21
2.624262
 31
0.0
  0
LINE
  5
135
330
1F
100
AcDbEntity
  8
1
  6
Continuous
 62
    18
100
AcDbLine
 10
8.87889
 20
2.624262
 30
0.0
 11
10.37889
 21
2.624262
 31
0.0
  0
LINE
  5
136
330
1F
100
AcDbEntity
  8
1
  6
Continuous
 62
    18
100
AcDbLine
 10
10.37889
 20
2.624262
 30
0.0
 11
10.75389
 21
2.624262
 31
0.0
  0
LINE
  5
137
330
1F
100
AcDbEntity
  8
1
  6
Continuous
 62
    18
100
AcDbLine
 10
10.75389
 20
2.624262
 30
0.0
 11
10.75389
 21
2.561762
 31
0.0
  0
LINE
  5
138
330
1F
100
AcDbEntity
  8
1
  6
Continuous
 62
    18
100
AcDbLine
 10
10.75389
 20
2.561762
 30
0.0
 11
10.75389
 21
2.311762
 31
0.0
  0
LINE
  5
139
330
1F
100
AcDbEntity
  8
1
  6
Continuous
 62
    18
100
AcDbLine
 10
10.75389
 20
2.311762
 30
0.0
 11
10.75389
 21
2.061762
 31
0.0
  0
LINE
  5
13A
330
1F
100
AcDbEntity
  8
1
  6
Continuous
 62
    18
100
AcDbLine
 10
6.37889
 20
1.936762
 30
0.0
 11
6.81639
 21
1.936762
 31
0.0
  0
LINE
  5
13B
330
1F
100
AcDbEntity
  8
1
  6
Continuous
 62
    18
100
AcDbLine
 10
6.81639
 20
1.936762
 30
0.0
 11
7.62889
 21
1.936762
 31
0.0
  0
LINE
  5
13C
330
1F
100
AcDbEntity
  8
1
  6
Continuous
 62
    18
100
AcDbLine
 10
7.62889
 20
1.936762
 30
0.0
 11
8.06639
 21
1.936762
 31
0.0
  0
LINE
  5
13D
330
1F
100
AcDbEntity
  8
1
  6
Continuous
 62
    18
100
AcDbLine
 10
8.06639
 20
1.936762
 30
0.0
 11
8.87889
 21
1.936762
 31
0.0
  0
LINE
  5
13E
330
1F
100
AcDbEntity
  8
1
  6
Continuous
 62
    18
100
AcDbLine
 10
8.87889
 20
1.936762
 30
0.0
 11
10.37889
 21
1.936762
 31
0.0
  0
LINE
  5
13F
330
1F
100
AcDbEntity
  8
1
  6
Continuous
 62
    18
100
AcDbLine
 10
10.37889
 20
1.936762
 30
0.0
 11
10.75389
 21
1.936762
 31
0.0
  0
LINE
  5
140
330
1F
100
AcDbEntity
  8
1
  6
Continuous
 62
    18
100
AcDbLine
 10
10.75389
 20
2.061762
 30
0.0
 11
10.75389
 21
1.936762
 31
0.0
  0
LINE
  5
141
330
1F
100
AcDbEntity
  8
1
  6
Continuous
 62
    18
100
AcDbLine
 10
8.87889
 20
1.936762
 30
0.0
 11
8.87889
 21
1.874262
 31
0.0
  0
LINE
  5
142
330
1F
100
AcDbEntity
  8
1
  6
Continuous
 62
    18
100
AcDbLine
 10
10.75389
 20
1.936762
 30
0.0
 11
10.75389
 21
1.874262
 31
0.0
  0
LINE
  5
143
330
1F
100
AcDbEntity
  8
1
  6
Continuous
 62
    18
100
AcDbLine
 10
6.37889
 20
1.686762
 30
0.0
 11
6.81639
 21
1.686762
 31
0.0
  0
LINE
  5
144
330
1F
100
AcDbEntity
  8
1
  6
Continuous
 62
    18
100
AcDbLine
 10
6.81639
 20
1.686762
 30
0.0
 11
7.62889
 21
1.686762
 31
0.0
  0
LINE
  5
145
330
1F
100
AcDbEntity
  8
1
  6
Continuous
 62
    18
100
AcDbLine
 10
7.62889
 20
1.686762
 30
0.0
 11
8.06639
 21
1.686762
 31
0.0
  0
LINE
  5
146
330
1F
100
AcDbEntity
  8
1
  6
Continuous
 62
    18
100
AcDbLine
 10
8.06639
 20
1.686762
 30
0.0
 11
8.87889
 21
1.686762
 31
0.0
  0
LINE
  5
147
330
1F
100
AcDbEntity
  8
1
  6
Continuous
 62
    18
100
AcDbLine
 10
8.87889
 20
1.874262
 30
0.0
 11
8.87889
 21
1.686762
 31
0.0
  0
LINE
  5
148
330
1F
100
AcDbEntity
  8
1
  6
Continuous
 62
    18
100
AcDbLine
 10
10.75389
 20
1.874262
 30
0.0
 11
10.75389
 21
1.686762
 31
0.0
  0
LINE
  5
149
330
1F
100
AcDbEntity
  8
1
  6
Continuous
 62
    18
100
AcDbLine
 10
8.87889
 20
1.686762
 30
0.0
 11
8.87889
 21
1.624262
 31
0.0
  0
LINE
  5
14A
330
1F
100
AcDbEntity
  8
1
  6
Continuous
 62
    18
100
AcDbLine
 10
10.75389
 20
1.686762
 30
0.0
 11
10.75389
 21
1.624262
 31
0.0
  0
LINE
  5
14B
330
1F
100
AcDbEntity
  8
1
  6
Continuous
 62
    18
100
AcDbLine
 10
6.37889
 20
1.436762
 30
0.0
 11
6.81639
 21
1.436762
 31
0.0
  0
LINE
  5
14C
330
1F
100
AcDbEntity
  8
1
  6
Continuous
 62
    18
100
AcDbLine
 10
6.81639
 20
1.436762
 30
0.0
 11
7.62889
 21
1.436762
 31
0.0
  0
LINE
  5
14D
330
1F
100
AcDbEntity
  8
1
  6
Continuous
 62
    18
100
AcDbLine
 10
7.62889
 20
1.436762
 30
0.0
 11
8.06639
 21
1.436762
 31
0.0
  0
LINE
  5
14E
330
1F
100
AcDbEntity
  8
1
  6
Continuous
 62
    18
100
AcDbLine
 10
8.06639
 20
1.436762
 30
0.0
 11
8.87889
 21
1.436762
 31
0.0
  0
LINE
  5
14F
330
1F
100
AcDbEntity
  8
1
  6
Continuous
 62
    18
100
AcDbLine
 10
8.87889
 20
1.624262
 30
0.0
 11
8.87889
 21
1.436762
 31
0.0
  0
LINE
  5
150
330
1F
100
AcDbEntity
  8
1
  6
Continuous
 62
    18
100
AcDbLine
 10
8.87889
 20
1.436762
 30
0.0
 11
10.37889
 21
1.436762
 31
0.0
  0
LINE
  5
151
330
1F
100
AcDbEntity
  8
1
  6
Continuous
 62
    18
100
AcDbLine
 10
10.37889
 20
1.436762
 30
0.0
 11
10.75389
 21
1.436762
 31
0.0
  0
LINE
  5
152
330
1F
100
AcDbEntity
  8
1
  6
Continuous
 62
    18
100
AcDbLine
 10
10.75389
 20
1.624262
 30
0.0
 11
10.75389
 21
1.436762
 31
0.0
  0
LINE
  5
153
330
1F
100
AcDbEntity
  8
1
  6
Continuous
 62
    18
100
AcDbLine
 10
8.87889
 20
1.436762
 30
0.0
 11
8.87889
 21
1.374262
 31
0.0
  0
LINE
  5
154
330
1F
100
AcDbEntity
  8
1
  6
Continuous
 62
    18
100
AcDbLine
 10
10.75389
 20
1.436762
 30
0.0
 11
10.75389
 21
1.374262
 31
0.0
  0
LINE
  5
155
330
1F
100
AcDbEntity
  8
1
  6
Continuous
 62
    18
100
AcDbLine
 10
8.87889
 20
1.374262
 30
0.0
 11
8.87889
 21
1.124262
 31
0.0
  0
LINE
  5
156
330
1F
100
AcDbEntity
  8
1
  6
Continuous
 62
    18
100
AcDbLine
 10
10.75389
 20
1.374262
 30
0.0
 11
10.75389
 21
1.124262
 31
0.0
  0
LINE
  5
157
330
1F
100
AcDbEntity
  8
1
  6
Continuous
 62
    18
100
AcDbLine
 10
6.786723
 20
1.061345
 30
0.0
 11
6.766723
 21
1.061345
 31
0.0
  0
LINE
  5
158
330
1F
100
AcDbEntity
  8
1
  6
Continuous
 62
    18
100
AcDbLine
 10
6.776723
 20
1.071345
 30
0.0
 11
6.776723
 21
1.051345
 31
0.0
  0
LINE
  5
159
330
1F
100
AcDbEntity
  8
1
  6
Continuous
 62
    18
100
AcDbLine
 10
6.766723
 20
1.041345
 30
0.0
 11
6.786723
 21
1.041345
 31
0.0
  0
LINE
  5
15A
330
1F
100
AcDbEntity
  8
1
  6
Continuous
 62
    18
100
AcDbLine
 10
8.036389
 20
1.061345
 30
0.0
 11
8.01639
 21
1.061345
 31
0.0
  0
LINE
  5
15B
330
1F
100
AcDbEntity
  8
1
  6
Continuous
 62
    18
100
AcDbLine
 10
8.02639
 20
1.071345
 30
0.0
 11
8.02639
 21
1.051345
 31
0.0
  0
LINE
  5
15C
330
1F
100
AcDbEntity
  8
1
  6
Continuous
 62
    18
100
AcDbLine
 10
8.01639
 20
1.041345
 30
0.0
 11
8.036389
 21
1.041345
 31
0.0
  0
LINE
  5
15D
330
1F
100
AcDbEntity
  8
1
  6
Continuous
 62
    18
100
AcDbLine
 10
8.87889
 20
1.124262
 30
0.0
 11
8.87889
 21
0.999262
 31
0.0
  0
LINE
  5
15E
330
1F
100
AcDbEntity
  8
1
  6
Continuous
 62
    18
100
AcDbLine
 10
10.75389
 20
1.124262
 30
0.0
 11
10.75389
 21
0.999262
 31
0.0
  0
LINE
  5
15F
330
1F
100
AcDbEntity
  8
1
  6
Continuous
 62
    18
100
AcDbLine
 10
6.786556
 20
0.936345
 30
0.0
 11
6.766556
 21
0.936345
 31
0.0
  0
LINE
  5
160
330
1F
100
AcDbEntity
  8
1
  6
Continuous
 62
    18
100
AcDbLine
 10
6.776556
 20
0.946345
 30
0.0
 11
6.776556
 21
0.926345
 31
0.0
  0
LINE
  5
161
330
1F
100
AcDbEntity
  8
1
  6
Continuous
 62
    18
100
AcDbLine
 10
6.766556
 20
0.916345
 30
0.0
 11
6.786556
 21
0.916345
 31
0.0
  0
LINE
  5
162
330
1F
100
AcDbEntity
  8
1
  6
Continuous
 62
    18
100
AcDbLine
 10
8.036681
 20
0.936345
 30
0.0
 11
8.016682
 21
0.936345
 31
0.0
  0
LINE
  5
163
330
1F
100
AcDbEntity
  8
1
  6
Continuous
 62
    18
100
AcDbLine
 10
8.026681
 20
0.946345
 30
0.0
 11
8.026681
 21
0.926345
 31
0.0
  0
LINE
  5
164
330
1F
100
AcDbEntity
  8
1
  6
Continuous
 62
    18
100
AcDbLine
 10
8.016682
 20
0.916345
 30
0.0
 11
8.036681
 21
0.916345
 31
0.0
  0
LINE
  5
165
330
1F
100
AcDbEntity
  8
1
  6
Continuous
 62
    18
100
AcDbLine
 10
8.87889
 20
0.999262
 30
0.0
 11
8.87889
 21
0.874262
 31
0.0
  0
LINE
  5
166
330
1F
100
AcDbEntity
  8
1
  6
Continuous
 62
    18
100
AcDbLine
 10
8.87889
 20
0.874262
 30
0.0
 11
10.37889
 21
0.874262
 31
0.0
  0
LINE
  5
167
330
1F
100
AcDbEntity
  8
1
  6
Continuous
 62
    18
100
AcDbLine
 10
10.37889
 20
0.874262
 30
0.0
 11
10.75389
 21
0.874262
 31
0.0
  0
LINE
  5
168
330
1F
100
AcDbEntity
  8
1
  6
Continuous
 62
    18
100
AcDbLine
 10
10.75389
 20
0.999262
 30
0.0
 11
10.75389
 21
0.874262
 31
0.0
  0
LINE
  5
169
330
1F
100
AcDbEntity
  8
1
  6
Continuous
 62
    18
100
AcDbLine
 10
8.87889
 20
0.874262
 30
0.0
 11
8.87889
 21
0.811762
 31
0.0
  0
LINE
  5
16A
330
1F
100
AcDbEntity
  8
1
  6
Continuous
 62
    18
100
AcDbLine
 10
10.75389
 20
0.874262
 30
0.0
 11
10.75389
 21
0.811762
 31
0.0
  0
LINE
  5
16B
330
1F
100
AcDbEntity
  8
1
  6
Continuous
 62
    18
100
AcDbLine
 10
6.37889
 20
0.561762
 30
0.0
 11
6.81639
 21
0.561762
 31
0.0
  0
LINE
  5
16C
330
1F
100
AcDbEntity
  8
1
  6
Continuous
 62
    18
100
AcDbLine
 10
6.81639
 20
0.561762
 30
0.0
 11
7.62889
 21
0.561762
 31
0.0
  0
LINE
  5
16D
330
1F
100
AcDbEntity
  8
1
  6
Continuous
 62
    18
100
AcDbLine
 10
7.62889
 20
0.561762
 30
0.0
 11
8.06639
 21
0.561762
 31
0.0
  0
LINE
  5
16E
330
1F
100
AcDbEntity
  8
1
  6
Continuous
 62
    18
100
AcDbLine
 10
8.06639
 20
0.561762
 30
0.0
 11
8.87889
 21
0.561762
 31
0.0
  0
LINE
  5
16F
330
1F
100
AcDbEntity
  8
1
  6
Continuous
 62
    18
100
AcDbLine
 10
8.87889
 20
0.811762
 30
0.0
 11
8.87889
 21
0.561762
 31
0.0
  0
LINE
  5
170
330
1F
100
AcDbEntity
  8
1
  6
Continuous
 62
    18
100
AcDbLine
 10
8.87889
 20
0.561762
 30
0.0
 11
10.37889
 21
0.561762
 31
0.0
  0
LINE
  5
171
330
1F
100
AcDbEntity
  8
1
  6
Continuous
 62
    18
100
AcDbLine
 10
10.37889
 20
0.561762
 30
0.0
 11
10.75389
 21
0.561762
 31
0.0
  0
LINE
  5
172
330
1F
100
AcDbEntity
  8
1
  6
Continuous
 62
    18
100
AcDbLine
 10
10.75389
 20
0.811762
 30
0.0
 11
10.75389
 21
0.561762
 31
0.0
  0
LINE
  5
173
330
1F
100
AcDbEntity
  8
1
  6
Continuous
 62
    18
100
AcDbLine
 10
6.81639
 20
0.561762
 30
0.0
 11
6.81639
 21
0.499262
 31
0.0
  0
LINE
  5
174
330
1F
100
AcDbEntity
  8
1
  6
Continuous
 62
    18
100
AcDbLine
 10
7.62889
 20
0.561762
 30
0.0
 11
7.62889
 21
0.499262
 31
0.0
  0
LINE
  5
175
330
1F
100
AcDbEntity
  8
1
  6
Continuous
 62
    18
100
AcDbLine
 10
8.06639
 20
0.561762
 30
0.0
 11
8.06639
 21
0.499262
 31
0.0
  0
LINE
  5
176
330
1F
100
AcDbEntity
  8
1
  6
Continuous
 62
    18
100
AcDbLine
 10
8.87889
 20
0.561762
 30
0.0
 11
8.87889
 21
0.499262
 31
0.0
  0
LINE
  5
177
330
1F
100
AcDbEntity
  8
1
  6
Continuous
 62
    18
100
AcDbLine
 10
10.37889
 20
0.561762
 30
0.0
 11
10.37889
 21
0.499262
 31
0.0
  0
LINE
  5
178
330
1F
100
AcDbEntity
  8
1
  6
Continuous
 62
    18
100
AcDbLine
 10
10.75389
 20
0.561762
 30
0.0
 11
10.75389
 21
0.499262
 31
0.0
  0
LINE
  5
179
330
1F
100
AcDbEntity
  8
1
  6
Continuous
 62
    18
100
AcDbLine
 10
6.37889
 20
0.249262
 30
0.0
 11
6.81639
 21
0.249262
 31
0.0
  0
LINE
  5
17A
330
1F
100
AcDbEntity
  8
1
  6
Continuous
 62
    18
100
AcDbLine
 10
6.81639
 20
0.499262
 30
0.0
 11
6.81639
 21
0.249262
 31
0.0
  0
LINE
  5
17B
330
1F
100
AcDbEntity
  8
1
  6
Continuous
 62
    18
100
AcDbLine
 10
6.81639
 20
0.249262
 30
0.0
 11
7.62889
 21
0.249262
 31
0.0
  0
LINE
  5
17C
330
1F
100
AcDbEntity
  8
1
  6
Continuous
 62
    18
100
AcDbLine
 10
7.62889
 20
0.499262
 30
0.0
 11
7.62889
 21
0.249262
 31
0.0
  0
LINE
  5
17D
330
1F
100
AcDbEntity
  8
1
  6
Continuous
 62
    18
100
AcDbLine
 10
7.62889
 20
0.249262
 30
0.0
 11
8.06639
 21
0.249262
 31
0.0
  0
LINE
  5
17E
330
1F
100
AcDbEntity
  8
1
  6
Continuous
 62
    18
100
AcDbLine
 10
8.06639
 20
0.499262
 30
0.0
 11
8.06639
 21
0.249262
 31
0.0
  0
LINE
  5
17F
330
1F
100
AcDbEntity
  8
1
  6
Continuous
 62
    18
100
AcDbLine
 10
8.06639
 20
0.249262
 30
0.0
 11
8.87889
 21
0.249262
 31
0.0
  0
LINE
  5
180
330
1F
100
AcDbEntity
  8
1
  6
Continuous
 62
    18
100
AcDbLine
 10
8.87889
 20
0.499262
 30
0.0
 11
8.87889
 21
0.249262
 31
0.0
  0
LINE
  5
181
330
1F
100
AcDbEntity
  8
1
  6
Continuous
 62
    18
100
AcDbLine
 10
8.87889
 20
0.249262
 30
0.0
 11
10.37889
 21
0.249262
 31
0.0
  0
LINE
  5
182
330
1F
100
AcDbEntity
  8
1
  6
Continuous
 62
    18
100
AcDbLine
 10
10.37889
 20
0.499262
 30
0.0
 11
10.37889
 21
0.249262
 31
0.0
  0
LINE
  5
183
330
1F
100
AcDbEntity
  8
1
  6
Continuous
 62
    18
100
AcDbLine
 10
10.37889
 20
0.249262
 30
0.0
 11
10.75389
 21
0.249262
 31
0.0
  0
LINE
  5
184
330
1F
100
AcDbEntity
  8
1
  6
Continuous
 62
    18
100
AcDbLine
 10
10.75389
 20
0.499262
 30
0.0
 11
10.75389
 21
0.249262
 31
0.0
  0
LINE
  5
185
330
1F
100
AcDbEntity
  8
1
  6
Continuous
 62
    18
100
AcDbLine
 10
0.253916
 20
2.624262
 30
0.0
 11
0.253916
 21
2.374262
 31
0.0
  0
LINE
  5
186
330
1F
100
AcDbEntity
  8
1
  6
Continuous
 62
    18
100
AcDbLine
 10
0.253916
 20
2.374262
 30
0.0
 11
0.253916
 21
2.124262
 31
0.0
  0
LINE
  5
187
330
1F
100
AcDbEntity
  8
1
  6
Continuous
 62
    18
100
AcDbLine
 10
0.253916
 20
2.124262
 30
0.0
 11
0.253916
 21
1.874262
 31
0.0
  0
LINE
  5
188
330
1F
100
AcDbEntity
  8
1
  6
Continuous
 62
    18
100
AcDbLine
 10
0.253916
 20
1.874262
 30
0.0
 11
0.253916
 21
1.624262
 31
0.0
  0
LINE
  5
189
330
1F
100
AcDbEntity
  8
1
  6
Continuous
 62
    18
100
AcDbLine
 10
0.253916
 20
1.624262
 30
0.0
 11
0.253916
 21
1.374262
 31
0.0
  0
LINE
  5
18A
330
1F
100
AcDbEntity
  8
1
  6
Continuous
 62
    18
100
AcDbLine
 10
0.253916
 20
1.374262
 30
0.0
 11
0.253916
 21
1.124262
 31
0.0
  0
LINE
  5
18B
330
1F
100
AcDbEntity
  8
1
  6
Continuous
 62
    18
100
AcDbLine
 10
0.253916
 20
1.124262
 30
0.0
 11
0.253916
 21
0.874262
 31
0.0
  0
LINE
  5
18C
330
1F
100
AcDbEntity
  8
1
  6
Continuous
 62
    18
100
AcDbLine
 10
0.253916
 20
0.874262
 30
0.0
 11
0.253916
 21
0.624262
 31
0.0
  0
LINE
  5
18D
330
1F
100
AcDbEntity
  8
1
  6
Continuous
 62
    18
100
AcDbLine
 10
0.253916
 20
0.624262
 30
0.0
 11
0.253916
 21
0.561762
 31
0.0
  0
LINE
  5
18E
330
1F
100
AcDbEntity
  8
1
  6
Continuous
 62
    18
100
AcDbLine
 10
0.253916
 20
0.561762
 30
0.0
 11
0.253916
 21
0.249262
 31
0.0
  0
LINE
  5
18F
330
1F
100
AcDbEntity
  8
1
  6
Continuous
 62
    18
100
AcDbLine
 10
0.253916
 20
2.624262
 30
0.0
 11
0.566416
 21
2.624262
 31
0.0
  0
LINE
  5
190
330
1F
100
AcDbEntity
  8
1
  6
Continuous
 62
    18
100
AcDbLine
 10
0.566416
 20
2.624262
 30
0.0
 11
1.128916
 21
2.624262
 31
0.0
  0
LINE
  5
191
330
1F
100
AcDbEntity
  8
1
  6
Continuous
 62
    18
100
AcDbLine
 10
1.128916
 20
2.624262
 30
0.0
 11
1.503916
 21
2.624262
 31
0.0
  0
LINE
  5
192
330
1F
100
AcDbEntity
  8
1
  6
Continuous
 62
    18
100
AcDbLine
 10
1.503916
 20
2.624262
 30
0.0
 11
1.878916
 21
2.624262
 31
0.0
  0
LINE
  5
193
330
1F
100
AcDbEntity
  8
1
  6
Continuous
 62
    18
100
AcDbLine
 10
1.878916
 20
2.624262
 30
0.0
 11
2.253916
 21
2.624262
 31
0.0
  0
LINE
  5
194
330
1F
100
AcDbEntity
  8
1
  6
Continuous
 62
    18
100
AcDbLine
 10
2.253916
 20
2.624262
 30
0.0
 11
5.503916
 21
2.624262
 31
0.0
  0
LINE
  5
195
330
1F
100
AcDbEntity
  8
1
  6
Continuous
 62
    18
100
AcDbLine
 10
5.503916
 20
2.624262
 30
0.0
 11
6.378916
 21
2.624262
 31
0.0
  0
LINE
  5
196
330
1F
100
AcDbEntity
  8
1
  6
Continuous
 62
    18
100
AcDbLine
 10
0.253916
 20
2.374262
 30
0.0
 11
0.566416
 21
2.374262
 31
0.0
  0
LINE
  5
197
330
1F
100
AcDbEntity
  8
1
  6
Continuous
 62
    18
100
AcDbLine
 10
0.566416
 20
2.624262
 30
0.0
 11
0.566416
 21
2.374262
 31
0.0
  0
LINE
  5
198
330
1F
100
AcDbEntity
  8
1
  6
Continuous
 62
    18
100
AcDbLine
 10
0.566416
 20
2.374262
 30
0.0
 11
1.128916
 21
2.374262
 31
0.0
  0
LINE
  5
199
330
1F
100
AcDbEntity
  8
1
  6
Continuous
 62
    18
100
AcDbLine
 10
1.128916
 20
2.624262
 30
0.0
 11
1.128916
 21
2.374262
 31
0.0
  0
LINE
  5
19A
330
1F
100
AcDbEntity
  8
1
  6
Continuous
 62
    18
100
AcDbLine
 10
1.128916
 20
2.374262
 30
0.0
 11
1.503916
 21
2.374262
 31
0.0
  0
LINE
  5
19B
330
1F
100
AcDbEntity
  8
1
  6
Continuous
 62
    18
100
AcDbLine
 10
1.503916
 20
2.624262
 30
0.0
 11
1.503916
 21
2.374262
 31
0.0
  0
LINE
  5
19C
330
1F
100
AcDbEntity
  8
1
  6
Continuous
 62
    18
100
AcDbLine
 10
1.503916
 20
2.374262
 30
0.0
 11
1.878916
 21
2.374262
 31
0.0
  0
LINE
  5
19D
330
1F
100
AcDbEntity
  8
1
  6
Continuous
 62
    18
100
AcDbLine
 10
1.878916
 20
2.624262
 30
0.0
 11
1.878916
 21
2.374262
 31
0.0
  0
LINE
  5
19E
330
1F
100
AcDbEntity
  8
1
  6
Continuous
 62
    18
100
AcDbLine
 10
1.878916
 20
2.374262
 30
0.0
 11
2.253916
 21
2.374262
 31
0.0
  0
LINE
  5
19F
330
1F
100
AcDbEntity
  8
1
  6
Continuous
 62
    18
100
AcDbLine
 10
2.253916
 20
2.624262
 30
0.0
 11
2.253916
 21
2.374262
 31
0.0
  0
LINE
  5
1A0
330
1F
100
AcDbEntity
  8
1
  6
Continuous
 62
    18
100
AcDbLine
 10
2.253916
 20
2.374262
 30
0.0
 11
5.503916
 21
2.374262
 31
0.0
  0
LINE
  5
1A1
330
1F
100
AcDbEntity
  8
1
  6
Continuous
 62
    18
100
AcDbLine
 10
5.503916
 20
2.624262
 30
0.0
 11
5.503916
 21
2.374262
 31
0.0
  0
LINE
  5
1A2
330
1F
100
AcDbEntity
  8
1
  6
Continuous
 62
    18
100
AcDbLine
 10
5.503916
 20
2.374262
 30
0.0
 11
6.378916
 21
2.374262
 31
0.0
  0
LINE
  5
1A3
330
1F
100
AcDbEntity
  8
1
  6
Continuous
 62
    18
100
AcDbLine
 10
6.378916
 20
2.624262
 30
0.0
 11
6.378916
 21
2.374262
 31
0.0
  0
LINE
  5
1A4
330
1F
100
AcDbEntity
  8
1
  6
Continuous
 62
    18
100
AcDbLine
 10
0.253916
 20
2.124262
 30
0.0
 11
0.566416
 21
2.124262
 31
0.0
  0
LINE
  5
1A5
330
1F
100
AcDbEntity
  8
1
  6
Continuous
 62
    18
100
AcDbLine
 10
0.566416
 20
2.374262
 30
0.0
 11
0.566416
 21
2.124262
 31
0.0
  0
LINE
  5
1A6
330
1F
100
AcDbEntity
  8
1
  6
Continuous
 62
    18
100
AcDbLine
 10
0.566416
 20
2.124262
 30
0.0
 11
1.128916
 21
2.124262
 31
0.0
  0
LINE
  5
1A7
330
1F
100
AcDbEntity
  8
1
  6
Continuous
 62
    18
100
AcDbLine
 10
1.128916
 20
2.374262
 30
0.0
 11
1.128916
 21
2.124262
 31
0.0
  0
LINE
  5
1A8
330
1F
100
AcDbEntity
  8
1
  6
Continuous
 62
    18
100
AcDbLine
 10
1.128916
 20
2.124262
 30
0.0
 11
1.503916
 21
2.124262
 31
0.0
  0
LINE
  5
1A9
330
1F
100
AcDbEntity
  8
1
  6
Continuous
 62
    18
100
AcDbLine
 10
1.503916
 20
2.374262
 30
0.0
 11
1.503916
 21
2.124262
 31
0.0
  0
LINE
  5
1AA
330
1F
100
AcDbEntity
  8
1
  6
Continuous
 62
    18
100
AcDbLine
 10
1.503916
 20
2.124262
 30
0.0
 11
1.878916
 21
2.124262
 31
0.0
  0
LINE
  5
1AB
330
1F
100
AcDbEntity
  8
1
  6
Continuous
 62
    18
100
AcDbLine
 10
1.878916
 20
2.374262
 30
0.0
 11
1.878916
 21
2.124262
 31
0.0
  0
LINE
  5
1AC
330
1F
100
AcDbEntity
  8
1
  6
Continuous
 62
    18
100
AcDbLine
 10
1.878916
 20
2.124262
 30
0.0
 11
2.253916
 21
2.124262
 31
0.0
  0
LINE
  5
1AD
330
1F
100
AcDbEntity
  8
1
  6
Continuous
 62
    18
100
AcDbLine
 10
2.253916
 20
2.374262
 30
0.0
 11
2.253916
 21
2.124262
 31
0.0
  0
LINE
  5
1AE
330
1F
100
AcDbEntity
  8
1
  6
Continuous
 62
    18
100
AcDbLine
 10
2.253916
 20
2.124262
 30
0.0
 11
5.503916
 21
2.124262
 31
0.0
  0
LINE
  5
1AF
330
1F
100
AcDbEntity
  8
1
  6
Continuous
 62
    18
100
AcDbLine
 10
5.503916
 20
2.374262
 30
0.0
 11
5.503916
 21
2.124262
 31
0.0
  0
LINE
  5
1B0
330
1F
100
AcDbEntity
  8
1
  6
Continuous
 62
    18
100
AcDbLine
 10
5.503916
 20
2.124262
 30
0.0
 11
6.378916
 21
2.124262
 31
0.0
  0
LINE
  5
1B1
330
1F
100
AcDbEntity
  8
1
  6
Continuous
 62
    18
100
AcDbLine
 10
6.378916
 20
2.374262
 30
0.0
 11
6.378916
 21
2.124262
 31
0.0
  0
LINE
  5
1B2
330
1F
100
AcDbEntity
  8
1
  6
Continuous
 62
    18
100
AcDbLine
 10
0.253916
 20
1.874262
 30
0.0
 11
0.566416
 21
1.874262
 31
0.0
  0
LINE
  5
1B3
330
1F
100
AcDbEntity
  8
1
  6
Continuous
 62
    18
100
AcDbLine
 10
0.566416
 20
2.124262
 30
0.0
 11
0.566416
 21
1.874262
 31
0.0
  0
LINE
  5
1B4
330
1F
100
AcDbEntity
  8
1
  6
Continuous
 62
    18
100
AcDbLine
 10
0.566416
 20
1.874262
 30
0.0
 11
1.128916
 21
1.874262
 31
0.0
  0
LINE
  5
1B5
330
1F
100
AcDbEntity
  8
1
  6
Continuous
 62
    18
100
AcDbLine
 10
1.128916
 20
2.124262
 30
0.0
 11
1.128916
 21
1.874262
 31
0.0
  0
LINE
  5
1B6
330
1F
100
AcDbEntity
  8
1
  6
Continuous
 62
    18
100
AcDbLine
 10
1.128916
 20
1.874262
 30
0.0
 11
1.503916
 21
1.874262
 31
0.0
  0
LINE
  5
1B7
330
1F
100
AcDbEntity
  8
1
  6
Continuous
 62
    18
100
AcDbLine
 10
1.503916
 20
2.124262
 30
0.0
 11
1.503916
 21
1.874262
 31
0.0
  0
LINE
  5
1B8
330
1F
100
AcDbEntity
  8
1
  6
Continuous
 62
    18
100
AcDbLine
 10
1.503916
 20
1.874262
 30
0.0
 11
1.878916
 21
1.874262
 31
0.0
  0
LINE
  5
1B9
330
1F
100
AcDbEntity
  8
1
  6
Continuous
 62
    18
100
AcDbLine
 10
1.878916
 20
2.124262
 30
0.0
 11
1.878916
 21
1.874262
 31
0.0
  0
LINE
  5
1BA
330
1F
100
AcDbEntity
  8
1
  6
Continuous
 62
    18
100
AcDbLine
 10
1.878916
 20
1.874262
 30
0.0
 11
2.253916
 21
1.874262
 31
0.0
  0
LINE
  5
1BB
330
1F
100
AcDbEntity
  8
1
  6
Continuous
 62
    18
100
AcDbLine
 10
2.253916
 20
2.124262
 30
0.0
 11
2.253916
 21
1.874262
 31
0.0
  0
LINE
  5
1BC
330
1F
100
AcDbEntity
  8
1
  6
Continuous
 62
    18
100
AcDbLine
 10
2.253916
 20
1.874262
 30
0.0
 11
5.503916
 21
1.874262
 31
0.0
  0
LINE
  5
1BD
330
1F
100
AcDbEntity
  8
1
  6
Continuous
 62
    18
100
AcDbLine
 10
5.503916
 20
2.124262
 30
0.0
 11
5.503916
 21
1.874262
 31
0.0
  0
LINE
  5
1BE
330
1F
100
AcDbEntity
  8
1
  6
Continuous
 62
    18
100
AcDbLine
 10
5.503916
 20
1.874262
 30
0.0
 11
6.378916
 21
1.874262
 31
0.0
  0
LINE
  5
1BF
330
1F
100
AcDbEntity
  8
1
  6
Continuous
 62
    18
100
AcDbLine
 10
6.378916
 20
2.124262
 30
0.0
 11
6.378916
 21
1.874262
 31
0.0
  0
LINE
  5
1C0
330
1F
100
AcDbEntity
  8
1
  6
Continuous
 62
    18
100
AcDbLine
 10
0.253916
 20
1.624262
 30
0.0
 11
0.566416
 21
1.624262
 31
0.0
  0
LINE
  5
1C1
330
1F
100
AcDbEntity
  8
1
  6
Continuous
 62
    18
100
AcDbLine
 10
0.566416
 20
1.874262
 30
0.0
 11
0.566416
 21
1.624262
 31
0.0
  0
LINE
  5
1C2
330
1F
100
AcDbEntity
  8
1
  6
Continuous
 62
    18
100
AcDbLine
 10
0.566416
 20
1.624262
 30
0.0
 11
1.128916
 21
1.624262
 31
0.0
  0
LINE
  5
1C3
330
1F
100
AcDbEntity
  8
1
  6
Continuous
 62
    18
100
AcDbLine
 10
1.128916
 20
1.874262
 30
0.0
 11
1.128916
 21
1.624262
 31
0.0
  0
LINE
  5
1C4
330
1F
100
AcDbEntity
  8
1
  6
Continuous
 62
    18
100
AcDbLine
 10
1.128916
 20
1.624262
 30
0.0
 11
1.503916
 21
1.624262
 31
0.0
  0
LINE
  5
1C5
330
1F
100
AcDbEntity
  8
1
  6
Continuous
 62
    18
100
AcDbLine
 10
1.503916
 20
1.874262
 30
0.0
 11
1.503916
 21
1.624262
 31
0.0
  0
LINE
  5
1C6
330
1F
100
AcDbEntity
  8
1
  6
Continuous
 62
    18
100
AcDbLine
 10
1.503916
 20
1.624262
 30
0.0
 11
1.878916
 21
1.624262
 31
0.0
  0
LINE
  5
1C7
330
1F
100
AcDbEntity
  8
1
  6
Continuous
 62
    18
100
AcDbLine
 10
1.878916
 20
1.874262
 30
0.0
 11
1.878916
 21
1.624262
 31
0.0
  0
LINE
  5
1C8
330
1F
100
AcDbEntity
  8
1
  6
Continuous
 62
    18
100
AcDbLine
 10
1.878916
 20
1.624262
 30
0.0
 11
2.253916
 21
1.624262
 31
0.0
  0
LINE
  5
1C9
330
1F
100
AcDbEntity
  8
1
  6
Continuous
 62
    18
100
AcDbLine
 10
2.253916
 20
1.874262
 30
0.0
 11
2.253916
 21
1.624262
 31
0.0
  0
LINE
  5
1CA
330
1F
100
AcDbEntity
  8
1
  6
Continuous
 62
    18
100
AcDbLine
 10
2.253916
 20
1.624262
 30
0.0
 11
5.503916
 21
1.624262
 31
0.0
  0
LINE
  5
1CB
330
1F
100
AcDbEntity
  8
1
  6
Continuous
 62
    18
100
AcDbLine
 10
5.503916
 20
1.874262
 30
0.0
 11
5.503916
 21
1.624262
 31
0.0
  0
LINE
  5
1CC
330
1F
100
AcDbEntity
  8
1
  6
Continuous
 62
    18
100
AcDbLine
 10
5.503916
 20
1.624262
 30
0.0
 11
6.378916
 21
1.624262
 31
0.0
  0
LINE
  5
1CD
330
1F
100
AcDbEntity
  8
1
  6
Continuous
 62
    18
100
AcDbLine
 10
6.378916
 20
1.874262
 30
0.0
 11
6.378916
 21
1.624262
 31
0.0
  0
LINE
  5
1CE
330
1F
100
AcDbEntity
  8
1
  6
Continuous
 62
    18
100
AcDbLine
 10
0.253916
 20
1.374262
 30
0.0
 11
0.566416
 21
1.374262
 31
0.0
  0
LINE
  5
1CF
330
1F
100
AcDbEntity
  8
1
  6
Continuous
 62
    18
100
AcDbLine
 10
0.566416
 20
1.624262
 30
0.0
 11
0.566416
 21
1.374262
 31
0.0
  0
LINE
  5
1D0
330
1F
100
AcDbEntity
  8
1
  6
Continuous
 62
    18
100
AcDbLine
 10
0.566416
 20
1.374262
 30
0.0
 11
1.128916
 21
1.374262
 31
0.0
  0
LINE
  5
1D1
330
1F
100
AcDbEntity
  8
1
  6
Continuous
 62
    18
100
AcDbLine
 10
1.128916
 20
1.624262
 30
0.0
 11
1.128916
 21
1.374262
 31
0.0
  0
LINE
  5
1D2
330
1F
100
AcDbEntity
  8
1
  6
Continuous
 62
    18
100
AcDbLine
 10
1.128916
 20
1.374262
 30
0.0
 11
1.503916
 21
1.374262
 31
0.0
  0
LINE
  5
1D3
330
1F
100
AcDbEntity
  8
1
  6
Continuous
 62
    18
100
AcDbLine
 10
1.503916
 20
1.624262
 30
0.0
 11
1.503916
 21
1.374262
 31
0.0
  0
LINE
  5
1D4
330
1F
100
AcDbEntity
  8
1
  6
Continuous
 62
    18
100
AcDbLine
 10
1.503916
 20
1.374262
 30
0.0
 11
1.878916
 21
1.374262
 31
0.0
  0
LINE
  5
1D5
330
1F
100
AcDbEntity
  8
1
  6
Continuous
 62
    18
100
AcDbLine
 10
1.878916
 20
1.624262
 30
0.0
 11
1.878916
 21
1.374262
 31
0.0
  0
LINE
  5
1D6
330
1F
100
AcDbEntity
  8
1
  6
Continuous
 62
    18
100
AcDbLine
 10
1.878916
 20
1.374262
 30
0.0
 11
2.253916
 21
1.374262
 31
0.0
  0
LINE
  5
1D7
330
1F
100
AcDbEntity
  8
1
  6
Continuous
 62
    18
100
AcDbLine
 10
2.253916
 20
1.624262
 30
0.0
 11
2.253916
 21
1.374262
 31
0.0
  0
LINE
  5
1D8
330
1F
100
AcDbEntity
  8
1
  6
Continuous
 62
    18
100
AcDbLine
 10
2.253916
 20
1.374262
 30
0.0
 11
5.503916
 21
1.374262
 31
0.0
  0
LINE
  5
1D9
330
1F
100
AcDbEntity
  8
1
  6
Continuous
 62
    18
100
AcDbLine
 10
5.503916
 20
1.624262
 30
0.0
 11
5.503916
 21
1.374262
 31
0.0
  0
LINE
  5
1DA
330
1F
100
AcDbEntity
  8
1
  6
Continuous
 62
    18
100
AcDbLine
 10
5.503916
 20
1.374262
 30
0.0
 11
6.378916
 21
1.374262
 31
0.0
  0
LINE
  5
1DB
330
1F
100
AcDbEntity
  8
1
  6
Continuous
 62
    18
100
AcDbLine
 10
6.378916
 20
1.624262
 30
0.0
 11
6.378916
 21
1.374262
 31
0.0
  0
LINE
  5
1DC
330
1F
100
AcDbEntity
  8
1
  6
Continuous
 62
    18
100
AcDbLine
 10
0.253916
 20
1.124262
 30
0.0
 11
0.566416
 21
1.124262
 31
0.0
  0
LINE
  5
1DD
330
1F
100
AcDbEntity
  8
1
  6
Continuous
 62
    18
100
AcDbLine
 10
0.566416
 20
1.374262
 30
0.0
 11
0.566416
 21
1.124262
 31
0.0
  0
LINE
  5
1DE
330
1F
100
AcDbEntity
  8
1
  6
Continuous
 62
    18
100
AcDbLine
 10
0.566416
 20
1.124262
 30
0.0
 11
1.128916
 21
1.124262
 31
0.0
  0
LINE
  5
1DF
330
1F
100
AcDbEntity
  8
1
  6
Continuous
 62
    18
100
AcDbLine
 10
1.128916
 20
1.374262
 30
0.0
 11
1.128916
 21
1.124262
 31
0.0
  0
LINE
  5
1E0
330
1F
100
AcDbEntity
  8
1
  6
Continuous
 62
    18
100
AcDbLine
 10
1.128916
 20
1.124262
 30
0.0
 11
1.503916
 21
1.124262
 31
0.0
  0
LINE
  5
1E1
330
1F
100
AcDbEntity
  8
1
  6
Continuous
 62
    18
100
AcDbLine
 10
1.503916
 20
1.374262
 30
0.0
 11
1.503916
 21
1.124262
 31
0.0
  0
LINE
  5
1E2
330
1F
100
AcDbEntity
  8
1
  6
Continuous
 62
    18
100
AcDbLine
 10
1.503916
 20
1.124262
 30
0.0
 11
1.878916
 21
1.124262
 31
0.0
  0
LINE
  5
1E3
330
1F
100
AcDbEntity
  8
1
  6
Continuous
 62
    18
100
AcDbLine
 10
1.878916
 20
1.374262
 30
0.0
 11
1.878916
 21
1.124262
 31
0.0
  0
LINE
  5
1E4
330
1F
100
AcDbEntity
  8
1
  6
Continuous
 62
    18
100
AcDbLine
 10
1.878916
 20
1.124262
 30
0.0
 11
2.253916
 21
1.124262
 31
0.0
  0
LINE
  5
1E5
330
1F
100
AcDbEntity
  8
1
  6
Continuous
 62
    18
100
AcDbLine
 10
2.253916
 20
1.374262
 30
0.0
 11
2.253916
 21
1.124262
 31
0.0
  0
LINE
  5
1E6
330
1F
100
AcDbEntity
  8
1
  6
Continuous
 62
    18
100
AcDbLine
 10
2.253916
 20
1.124262
 30
0.0
 11
5.503916
 21
1.124262
 31
0.0
  0
LINE
  5
1E7
330
1F
100
AcDbEntity
  8
1
  6
Continuous
 62
    18
100
AcDbLine
 10
5.503916
 20
1.374262
 30
0.0
 11
5.503916
 21
1.124262
 31
0.0
  0
LINE
  5
1E8
330
1F
100
AcDbEntity
  8
1
  6
Continuous
 62
    18
100
AcDbLine
 10
5.503916
 20
1.124262
 30
0.0
 11
6.378916
 21
1.124262
 31
0.0
  0
LINE
  5
1E9
330
1F
100
AcDbEntity
  8
1
  6
Continuous
 62
    18
100
AcDbLine
 10
6.378916
 20
1.374262
 30
0.0
 11
6.378916
 21
1.124262
 31
0.0
  0
LINE
  5
1EA
330
1F
100
AcDbEntity
  8
1
  6
Continuous
 62
    18
100
AcDbLine
 10
0.253916
 20
0.874262
 30
0.0
 11
0.566416
 21
0.874262
 31
0.0
  0
LINE
  5
1EB
330
1F
100
AcDbEntity
  8
1
  6
Continuous
 62
    18
100
AcDbLine
 10
0.566416
 20
1.124262
 30
0.0
 11
0.566416
 21
0.874262
 31
0.0
  0
LINE
  5
1EC
330
1F
100
AcDbEntity
  8
1
  6
Continuous
 62
    18
100
AcDbLine
 10
0.566416
 20
0.874262
 30
0.0
 11
1.128916
 21
0.874262
 31
0.0
  0
LINE
  5
1ED
330
1F
100
AcDbEntity
  8
1
  6
Continuous
 62
    18
100
AcDbLine
 10
1.128916
 20
1.124262
 30
0.0
 11
1.128916
 21
0.874262
 31
0.0
  0
LINE
  5
1EE
330
1F
100
AcDbEntity
  8
1
  6
Continuous
 62
    18
100
AcDbLine
 10
1.128916
 20
0.874262
 30
0.0
 11
1.503916
 21
0.874262
 31
0.0
  0
LINE
  5
1EF
330
1F
100
AcDbEntity
  8
1
  6
Continuous
 62
    18
100
AcDbLine
 10
1.503916
 20
1.124262
 30
0.0
 11
1.503916
 21
0.874262
 31
0.0
  0
LINE
  5
1F0
330
1F
100
AcDbEntity
  8
1
  6
Continuous
 62
    18
100
AcDbLine
 10
1.503916
 20
0.874262
 30
0.0
 11
1.878916
 21
0.874262
 31
0.0
  0
LINE
  5
1F1
330
1F
100
AcDbEntity
  8
1
  6
Continuous
 62
    18
100
AcDbLine
 10
1.878916
 20
1.124262
 30
0.0
 11
1.878916
 21
0.874262
 31
0.0
  0
LINE
  5
1F2
330
1F
100
AcDbEntity
  8
1
  6
Continuous
 62
    18
100
AcDbLine
 10
1.878916
 20
0.874262
 30
0.0
 11
2.253916
 21
0.874262
 31
0.0
  0
LINE
  5
1F3
330
1F
100
AcDbEntity
  8
1
  6
Continuous
 62
    18
100
AcDbLine
 10
2.253916
 20
1.124262
 30
0.0
 11
2.253916
 21
0.874262
 31
0.0
  0
LINE
  5
1F4
330
1F
100
AcDbEntity
  8
1
  6
Continuous
 62
    18
100
AcDbLine
 10
2.253916
 20
0.874262
 30
0.0
 11
5.503916
 21
0.874262
 31
0.0
  0
LINE
  5
1F5
330
1F
100
AcDbEntity
  8
1
  6
Continuous
 62
    18
100
AcDbLine
 10
5.503916
 20
1.124262
 30
0.0
 11
5.503916
 21
0.874262
 31
0.0
  0
LINE
  5
1F6
330
1F
100
AcDbEntity
  8
1
  6
Continuous
 62
    18
100
AcDbLine
 10
5.503916
 20
0.874262
 30
0.0
 11
6.378916
 21
0.874262
 31
0.0
  0
LINE
  5
1F7
330
1F
100
AcDbEntity
  8
1
  6
Continuous
 62
    18
100
AcDbLine
 10
6.378916
 20
1.124262
 30
0.0
 11
6.378916
 21
0.874262
 31
0.0
  0
LINE
  5
1F8
330
1F
100
AcDbEntity
  8
1
  6
Continuous
 62
    18
100
AcDbLine
 10
0.253916
 20
0.624262
 30
0.0
 11
0.566416
 21
0.624262
 31
0.0
  0
LINE
  5
1F9
330
1F
100
AcDbEntity
  8
1
  6
Continuous
 62
    18
100
AcDbLine
 10
0.566416
 20
0.874262
 30
0.0
 11
0.566416
 21
0.624262
 31
0.0
  0
LINE
  5
1FA
330
1F
100
AcDbEntity
  8
1
  6
Continuous
 62
    18
100
AcDbLine
 10
0.566416
 20
0.624262
 30
0.0
 11
1.128916
 21
0.624262
 31
0.0
  0
LINE
  5
1FB
330
1F
100
AcDbEntity
  8
1
  6
Continuous
 62
    18
100
AcDbLine
 10
1.128916
 20
0.874262
 30
0.0
 11
1.128916
 21
0.624262
 31
0.0
  0
LINE
  5
1FC
330
1F
100
AcDbEntity
  8
1
  6
Continuous
 62
    18
100
AcDbLine
 10
1.128916
 20
0.624262
 30
0.0
 11
1.503916
 21
0.624262
 31
0.0
  0
LINE
  5
1FD
330
1F
100
AcDbEntity
  8
1
  6
Continuous
 62
    18
100
AcDbLine
 10
1.503916
 20
0.874262
 30
0.0
 11
1.503916
 21
0.624262
 31
0.0
  0
LINE
  5
1FE
330
1F
100
AcDbEntity
  8
1
  6
Continuous
 62
    18
100
AcDbLine
 10
1.503916
 20
0.624262
 30
0.0
 11
1.878916
 21
0.624262
 31
0.0
  0
LINE
  5
1FF
330
1F
100
AcDbEntity
  8
1
  6
Continuous
 62
    18
100
AcDbLine
 10
1.878916
 20
0.874262
 30
0.0
 11
1.878916
 21
0.624262
 31
0.0
  0
LINE
  5
200
330
1F
100
AcDbEntity
  8
1
  6
Continuous
 62
    18
100
AcDbLine
 10
1.878916
 20
0.624262
 30
0.0
 11
2.253916
 21
0.624262
 31
0.0
  0
LINE
  5
201
330
1F
100
AcDbEntity
  8
1
  6
Continuous
 62
    18
100
AcDbLine
 10
2.253916
 20
0.874262
 30
0.0
 11
2.253916
 21
0.624262
 31
0.0
  0
LINE
  5
202
330
1F
100
AcDbEntity
  8
1
  6
Continuous
 62
    18
100
AcDbLine
 10
2.253916
 20
0.624262
 30
0.0
 11
5.503916
 21
0.624262
 31
0.0
  0
LINE
  5
203
330
1F
100
AcDbEntity
  8
1
  6
Continuous
 62
    18
100
AcDbLine
 10
5.503916
 20
0.874262
 30
0.0
 11
5.503916
 21
0.624262
 31
0.0
  0
LINE
  5
204
330
1F
100
AcDbEntity
  8
1
  6
Continuous
 62
    18
100
AcDbLine
 10
5.503916
 20
0.624262
 30
0.0
 11
6.378916
 21
0.624262
 31
0.0
  0
LINE
  5
205
330
1F
100
AcDbEntity
  8
1
  6
Continuous
 62
    18
100
AcDbLine
 10
6.378916
 20
0.874262
 30
0.0
 11
6.378916
 21
0.624262
 31
0.0
  0
LINE
  5
206
330
1F
100
AcDbEntity
  8
1
  6
Continuous
 62
    18
100
AcDbLine
 10
0.253916
 20
0.561762
 30
0.0
 11
0.566416
 21
0.561762
 31
0.0
  0
LINE
  5
207
330
1F
100
AcDbEntity
  8
1
  6
Continuous
 62
    18
100
AcDbLine
 10
0.566416
 20
0.561762
 30
0.0
 11
1.128916
 21
0.561762
 31
0.0
  0
LINE
  5
208
330
1F
100
AcDbEntity
  8
1
  6
Continuous
 62
    18
100
AcDbLine
 10
1.128916
 20
0.561762
 30
0.0
 11
1.503916
 21
0.561762
 31
0.0
  0
LINE
  5
209
330
1F
100
AcDbEntity
  8
1
  6
Continuous
 62
    18
100
AcDbLine
 10
1.503916
 20
0.561762
 30
0.0
 11
1.878916
 21
0.561762
 31
0.0
  0
LINE
  5
20A
330
1F
100
AcDbEntity
  8
1
  6
Continuous
 62
    18
100
AcDbLine
 10
1.878916
 20
0.561762
 30
0.0
 11
2.253916
 21
0.561762
 31
0.0
  0
LINE
  5
20B
330
1F
100
AcDbEntity
  8
1
  6
Continuous
 62
    18
100
AcDbLine
 10
2.253916
 20
0.561762
 30
0.0
 11
5.503916
 21
0.561762
 31
0.0
  0
LINE
  5
20C
330
1F
100
AcDbEntity
  8
1
  6
Continuous
 62
    18
100
AcDbLine
 10
5.503916
 20
0.561762
 30
0.0
 11
6.378916
 21
0.561762
 31
0.0
  0
LINE
  5
20D
330
1F
100
AcDbEntity
  8
1
  6
Continuous
 62
    18
100
AcDbLine
 10
6.378916
 20
0.624262
 30
0.0
 11
6.378916
 21
0.561762
 31
0.0
  0
LINE
  5
20E
330
1F
100
AcDbEntity
  8
1
  6
Continuous
 62
    18
100
AcDbLine
 10
0.253916
 20
0.249262
 30
0.0
 11
0.566416
 21
0.249262
 31
0.0
  0
LINE
  5
20F
330
1F
100
AcDbEntity
  8
1
  6
Continuous
 62
    18
100
AcDbLine
 10
0.566416
 20
0.561762
 30
0.0
 11
0.566416
 21
0.249262
 31
0.0
  0
LINE
  5
210
330
1F
100
AcDbEntity
  8
1
  6
Continuous
 62
    18
100
AcDbLine
 10
0.566416
 20
0.249262
 30
0.0
 11
1.128916
 21
0.249262
 31
0.0
  0
LINE
  5
211
330
1F
100
AcDbEntity
  8
1
  6
Continuous
 62
    18
100
AcDbLine
 10
1.128916
 20
0.561762
 30
0.0
 11
1.128916
 21
0.249262
 31
0.0
  0
LINE
  5
212
330
1F
100
AcDbEntity
  8
1
  6
Continuous
 62
    18
100
AcDbLine
 10
1.128916
 20
0.249262
 30
0.0
 11
1.503916
 21
0.249262
 31
0.0
  0
LINE
  5
213
330
1F
100
AcDbEntity
  8
1
  6
Continuous
 62
    18
100
AcDbLine
 10
1.503916
 20
0.561762
 30
0.0
 11
1.503916
 21
0.249262
 31
0.0
  0
LINE
  5
214
330
1F
100
AcDbEntity
  8
1
  6
Continuous
 62
    18
100
AcDbLine
 10
1.503916
 20
0.249262
 30
0.0
 11
1.878916
 21
0.249262
 31
0.0
  0
LINE
  5
215
330
1F
100
AcDbEntity
  8
1
  6
Continuous
 62
    18
100
AcDbLine
 10
1.878916
 20
0.561762
 30
0.0
 11
1.878916
 21
0.249262
 31
0.0
  0
LINE
  5
216
330
1F
100
AcDbEntity
  8
1
  6
Continuous
 62
    18
100
AcDbLine
 10
1.878916
 20
0.249262
 30
0.0
 11
2.253916
 21
0.249262
 31
0.0
  0
LINE
  5
217
330
1F
100
AcDbEntity
  8
1
  6
Continuous
 62
    18
100
AcDbLine
 10
2.253916
 20
0.561762
 30
0.0
 11
2.253916
 21
0.249262
 31
0.0
  0
LINE
  5
218
330
1F
100
AcDbEntity
  8
1
  6
Continuous
 62
    18
100
AcDbLine
 10
2.253916
 20
0.249262
 30
0.0
 11
5.503916
 21
0.249262
 31
0.0
  0
LINE
  5
219
330
1F
100
AcDbEntity
  8
1
  6
Continuous
 62
    18
100
AcDbLine
 10
5.503916
 20
0.561762
 30
0.0
 11
5.503916
 21
0.249262
 31
0.0
  0
LINE
  5
21A
330
1F
100
AcDbEntity
  8
1
  6
Continuous
 62
    18
100
AcDbLine
 10
5.503916
 20
0.249262
 30
0.0
 11
6.378916
 21
0.249262
 31
0.0
  0
LINE
  5
21B
330
1F
100
AcDbEntity
  8
1
  6
Continuous
 62
    18
100
AcDbLine
 10
6.378916
 20
0.561762
 30
0.0
 11
6.378916
 21
0.249262
 31
0.0
  0
LINE
  5
21C
330
1F
100
AcDbEntity
  8
1
  6
Continuous
 62
    18
100
AcDbLine
 10
9.107851
 20
1.861523
 30
0.0
 11
9.357445
 21
1.861523
 31
0.0
  0
LINE
  5
21D
330
1F
100
AcDbEntity
  8
1
  6
Continuous
 62
    18
100
AcDbLine
 10
9.447022
 20
1.780366
 30
0.0
 11
9.525882
 21
1.780366
 31
0.0
  0
LINE
  5
21E
330
1F
100
AcDbEntity
  8
1
  6
Continuous
 62
    18
100
AcDbLine
 10
9.525882
 20
1.780366
 30
0.0
 11
9.587897
 21
1.619585
 31
0.0
  0
LINE
  5
21F
330
1F
100
AcDbEntity
  8
1
  6
Continuous
 62
    18
100
AcDbLine
 10
9.587897
 20
1.619585
 30
0.0
 11
9.587897
 21
1.780366
 31
0.0
  0
LINE
  5
220
330
1F
100
AcDbEntity
  8
1
  6
Continuous
 62
    18
100
AcDbLine
 10
9.587897
 20
1.780366
 30
0.0
 11
9.692022
 21
1.780366
 31
0.0
  0
LINE
  5
221
330
1F
100
AcDbEntity
  8
1
  6
Continuous
 62
    18
100
AcDbLine
 10
9.692022
 20
1.780366
 30
0.0
 11
9.71882
 21
1.700741
 31
0.0
  0
LINE
  5
222
330
1F
100
AcDbEntity
  8
1
  6
Continuous
 62
    18
100
AcDbLine
 10
9.71882
 20
1.700741
 30
0.0
 11
9.71882
 21
1.779601
 31
0.0
  0
LINE
  5
223
330
1F
100
AcDbEntity
  8
1
  6
Continuous
 62
    18
100
AcDbLine
 10
9.71882
 20
1.779601
 30
0.0
 11
9.793549
 21
1.779601
 31
0.0
  0
LINE
  5
224
330
1F
100
AcDbEntity
  8
1
  6
Continuous
 62
    18
100
AcDbLine
 10
9.793549
 20
1.779601
 30
0.0
 11
9.793549
 21
1.521279
 31
0.0
  0
LINE
  5
225
330
1F
100
AcDbEntity
  8
1
  6
Continuous
 62
    18
100
AcDbLine
 10
9.793549
 20
1.521279
 30
0.0
 11
9.697606
 21
1.521279
 31
0.0
  0
LINE
  5
226
330
1F
100
AcDbEntity
  8
1
  6
Continuous
 62
    18
100
AcDbLine
 10
9.697606
 20
1.521279
 30
0.0
 11
9.663918
 21
1.602741
 31
0.0
  0
LINE
  5
227
330
1F
100
AcDbEntity
  8
1
  6
Continuous
 62
    18
100
AcDbLine
 10
9.663918
 20
1.602741
 30
0.0
 11
9.663918
 21
1.521891
 31
0.0
  0
LINE
  5
228
330
1F
100
AcDbEntity
  8
1
  6
Continuous
 62
    18
100
AcDbLine
 10
9.663918
 20
1.521891
 30
0.0
 11
9.536518
 21
1.521891
 31
0.0
  0
LINE
  5
229
330
1F
100
AcDbEntity
  8
1
  6
Continuous
 62
    18
100
AcDbLine
 10
9.536518
 20
1.521891
 30
0.0
 11
9.516918
 21
1.568442
 31
0.0
  0
LINE
  5
22A
330
1F
100
AcDbEntity
  8
1
  6
Continuous
 62
    18
100
AcDbLine
 10
9.516918
 20
1.568442
 30
0.0
 11
9.441581
 21
1.568442
 31
0.0
  0
LINE
  5
22B
330
1F
100
AcDbEntity
  8
1
  6
Continuous
 62
    18
100
AcDbLine
 10
9.441581
 20
1.568442
 30
0.0
 11
9.424431
 21
1.521891
 31
0.0
  0
LINE
  5
22C
330
1F
100
AcDbEntity
  8
1
  6
Continuous
 62
    18
100
AcDbLine
 10
9.424431
 20
1.521891
 30
0.0
 11
9.336843
 21
1.521891
 31
0.0
  0
LINE
  5
22D
330
1F
100
AcDbEntity
  8
1
  6
Continuous
 62
    18
100
AcDbLine
 10
9.336843
 20
1.521891
 30
0.0
 11
9.385843
 21
1.640716
 31
0.0
  0
LINE
  5
22E
330
1F
100
AcDbEntity
  8
1
  6
Continuous
 62
    18
100
AcDbLine
 10
9.346643
 20
1.629691
 30
0.0
 11
9.257512
 21
1.629691
 31
0.0
  0
LINE
  5
22F
330
1F
100
AcDbEntity
  8
1
  6
Continuous
 62
    18
100
AcDbLine
 10
9.257512
 20
1.629691
 30
0.0
 11
9.257512
 21
1.522256
 31
0.0
  0
LINE
  5
230
330
1F
100
AcDbEntity
  8
1
  6
Continuous
 62
    18
100
AcDbLine
 10
9.257512
 20
1.522256
 30
0.0
 11
9.107851
 21
1.522256
 31
0.0
  0
LINE
  5
231
330
1F
100
AcDbEntity
  8
1
  6
Continuous
 62
    18
100
AcDbLine
 10
9.292284
 20
1.689019
 30
0.0
 11
9.268534
 21
1.689019
 31
0.0
  0
LINE
  5
232
330
1F
100
AcDbEntity
  8
1
  6
Continuous
 62
    18
100
AcDbLine
 10
9.268534
 20
1.689019
 30
0.0
 11
9.268534
 21
1.807231
 31
0.0
  0
LINE
  5
233
330
1F
100
AcDbEntity
  8
1
  6
Continuous
 62
    18
100
AcDbLine
 10
9.268534
 20
1.807231
 30
0.0
 11
9.292284
 21
1.807231
 31
0.0
  0
LINE
  5
234
330
1F
100
AcDbEntity
  8
1
  6
Continuous
 62
    18
100
AcDbLine
 10
9.305284
 20
1.794231
 30
0.0
 11
9.305284
 21
1.702019
 31
0.0
  0
LINE
  5
235
330
1F
100
AcDbEntity
  8
1
  6
Continuous
 62
    18
100
AcDbLine
 10
9.464346
 20
1.625932
 30
0.0
 11
9.484746
 21
1.684731
 31
0.0
  0
LINE
  5
236
330
1F
100
AcDbEntity
  8
1
  6
Continuous
 62
    18
100
AcDbLine
 10
9.484746
 20
1.684731
 30
0.0
 11
9.508634
 21
1.625932
 31
0.0
  0
LINE
  5
237
330
1F
100
AcDbEntity
  8
1
  6
Continuous
 62
    18
100
AcDbLine
 10
9.508634
 20
1.625932
 30
0.0
 11
9.464346
 21
1.625932
 31
0.0
  0
LINE
  5
238
330
1F
100
AcDbEntity
  8
1
  6
Continuous
 62
    18
100
AcDbLine
 10
9.826732
 20
1.521279
 30
0.0
 11
9.826732
 21
1.779601
 31
0.0
  0
LINE
  5
239
330
1F
100
AcDbEntity
  8
1
  6
Continuous
 62
    18
100
AcDbLine
 10
9.919563
 20
1.587558
 30
0.0
 11
9.919563
 21
1.722657
 31
0.0
  0
LINE
  5
23A
330
1F
100
AcDbEntity
  8
1
  6
Continuous
 62
    18
100
AcDbLine
 10
10.053548
 20
1.561279
 30
0.0
 11
10.053548
 21
1.779601
 31
0.0
  0
LINE
  5
23B
330
1F
100
AcDbEntity
  8
1
  6
Continuous
 62
    18
100
AcDbLine
 10
10.137767
 20
1.587558
 30
0.0
 11
10.137767
 21
1.779601
 31
0.0
  0
LINE
  5
23C
330
1F
100
AcDbEntity
  8
1
  6
Continuous
 62
    18
100
AcDbLine
 10
10.171263
 20
1.587558
 30
0.0
 11
10.171263
 21
1.779601
 31
0.0
  0
LINE
  5
23D
330
1F
100
AcDbEntity
  8
1
  6
Continuous
 62
    18
100
AcDbLine
 10
10.265052
 20
1.521279
 30
0.0
 11
10.265052
 21
1.779601
 31
0.0
  0
LINE
  5
23E
330
1F
100
AcDbEntity
  8
1
  6
Continuous
 62
    18
100
AcDbLine
 10
10.346399
 20
1.521279
 30
0.0
 11
10.346399
 21
1.779601
 31
0.0
  0
LINE
  5
23F
330
1F
100
AcDbEntity
  8
1
  6
Continuous
 62
    18
100
AcDbLine
 10
10.360755
 20
1.723456
 30
0.0
 11
10.360755
 21
1.779601
 31
0.0
  0
LINE
  5
240
330
1F
100
AcDbEntity
  8
1
  6
Continuous
 62
    18
100
AcDbLine
 10
10.555032
 20
1.723456
 30
0.0
 11
10.555032
 21
1.779601
 31
0.0
  0
LINE
  5
241
330
1F
100
AcDbEntity
  8
1
  6
Continuous
 62
    18
100
AcDbLine
 10
10.414349
 20
1.521279
 30
0.0
 11
10.414349
 21
1.723456
 31
0.0
  0
LINE
  5
242
330
1F
100
AcDbEntity
  8
1
  6
Continuous
 62
    18
100
AcDbLine
 10
10.496654
 20
1.521279
 30
0.0
 11
10.496654
 21
1.723456
 31
0.0
  0
LINE
  5
243
330
1F
100
AcDbEntity
  8
1
  6
Continuous
 62
    18
100
AcDbLine
 10
10.360755
 20
1.723456
 30
0.0
 11
10.414349
 21
1.723456
 31
0.0
  0
LINE
  5
244
330
1F
100
AcDbEntity
  8
1
  6
Continuous
 62
    18
100
AcDbLine
 10
9.948275
 20
1.600558
 30
0.0
 11
9.948275
 21
1.709657
 31
0.0
  0
LINE
  5
245
330
1F
100
AcDbEntity
  8
1
  6
Continuous
 62
    18
100
AcDbLine
 10
9.919563
 20
1.722657
 30
0.0
 11
9.935275
 21
1.722657
 31
0.0
  0
LINE
  5
246
330
1F
100
AcDbEntity
  8
1
  6
Continuous
 62
    18
100
AcDbLine
 10
10.171263
 20
1.779601
 30
0.0
 11
10.239208
 21
1.779601
 31
0.0
  0
LINE
  5
247
330
1F
100
AcDbEntity
  8
1
  6
Continuous
 62
    18
100
AcDbLine
 10
10.265052
 20
1.779601
 30
0.0
 11
10.346399
 21
1.779601
 31
0.0
  0
LINE
  5
248
330
1F
100
AcDbEntity
  8
1
  6
Continuous
 62
    18
100
AcDbLine
 10
10.028629
 20
1.551279
 30
0.0
 11
10.028629
 21
1.749601
 31
0.0
  0
LINE
  5
249
330
1F
100
AcDbEntity
  8
1
  6
Continuous
 62
    18
100
AcDbLine
 10
10.239208
 20
1.561279
 30
0.0
 11
10.239208
 21
1.779601
 31
0.0
  0
LINE
  5
24A
330
1F
100
AcDbEntity
  8
1
  6
Continuous
 62
    18
100
AcDbLine
 10
9.107851
 20
1.861523
 30
0.0
 11
9.107851
 21
1.522256
 31
0.0
  0
LINE
  5
24B
330
1F
100
AcDbEntity
  8
1
  6
Continuous
 62
    18
100
AcDbLine
 10
10.555032
 20
1.723456
 30
0.0
 11
10.496654
 21
1.723456
 31
0.0
  0
LINE
  5
24C
330
1F
100
AcDbEntity
  8
1
  6
Continuous
 62
    18
100
AcDbLine
 10
9.826732
 20
1.779601
 30
0.0
 11
9.99863
 21
1.779601
 31
0.0
  0
LINE
  5
24D
330
1F
100
AcDbEntity
  8
1
  6
Continuous
 62
    18
100
AcDbLine
 10
9.826732
 20
1.521279
 30
0.0
 11
9.99863
 21
1.521279
 31
0.0
  0
LINE
  5
24E
330
1F
100
AcDbEntity
  8
1
  6
Continuous
 62
    18
100
AcDbLine
 10
10.093548
 20
1.521279
 30
0.0
 11
10.199208
 21
1.521279
 31
0.0
  0
LINE
  5
24F
330
1F
100
AcDbEntity
  8
1
  6
Continuous
 62
    18
100
AcDbLine
 10
10.265052
 20
1.521279
 30
0.0
 11
10.346399
 21
1.521279
 31
0.0
  0
LINE
  5
250
330
1F
100
AcDbEntity
  8
1
  6
Continuous
 62
    18
100
AcDbLine
 10
10.414349
 20
1.521279
 30
0.0
 11
10.496654
 21
1.521279
 31
0.0
  0
LINE
  5
251
330
1F
100
AcDbEntity
  8
1
  6
Continuous
 62
    18
100
AcDbLine
 10
9.919563
 20
1.587558
 30
0.0
 11
9.935275
 21
1.587558
 31
0.0
  0
LINE
  5
252
330
1F
100
AcDbEntity
  8
1
  6
Continuous
 62
    18
100
AcDbLine
 10
10.270052
 20
1.521279
 30
0.0
 11
10.270052
 21
1.779601
 31
0.0
  0
LINE
  5
253
330
1F
100
AcDbEntity
  8
1
  6
Continuous
 62
    18
100
AcDbLine
 10
10.275052
 20
1.521279
 30
0.0
 11
10.275052
 21
1.779601
 31
0.0
  0
LINE
  5
254
330
1F
100
AcDbEntity
  8
1
  6
Continuous
 62
    18
100
AcDbLine
 10
10.280052
 20
1.521279
 30
0.0
 11
10.280052
 21
1.779601
 31
0.0
  0
LINE
  5
255
330
1F
100
AcDbEntity
  8
1
  6
Continuous
 62
    18
100
AcDbLine
 10
10.285051
 20
1.521279
 30
0.0
 11
10.285051
 21
1.779601
 31
0.0
  0
LINE
  5
256
330
1F
100
AcDbEntity
  8
1
  6
Continuous
 62
    18
100
AcDbLine
 10
10.290051
 20
1.521279
 30
0.0
 11
10.290051
 21
1.779601
 31
0.0
  0
LINE
  5
257
330
1F
100
AcDbEntity
  8
1
  6
Continuous
 62
    18
100
AcDbLine
 10
10.295052
 20
1.521279
 30
0.0
 11
10.295052
 21
1.779601
 31
0.0
  0
LINE
  5
258
330
1F
100
AcDbEntity
  8
1
  6
Continuous
 62
    18
100
AcDbLine
 10
10.300052
 20
1.521279
 30
0.0
 11
10.300052
 21
1.779601
 31
0.0
  0
LINE
  5
259
330
1F
100
AcDbEntity
  8
1
  6
Continuous
 62
    18
100
AcDbLine
 10
10.305052
 20
1.521279
 30
0.0
 11
10.305052
 21
1.779601
 31
0.0
  0
LINE
  5
25A
330
1F
100
AcDbEntity
  8
1
  6
Continuous
 62
    18
100
AcDbLine
 10
10.310052
 20
1.521279
 30
0.0
 11
10.310052
 21
1.779601
 31
0.0
  0
LINE
  5
25B
330
1F
100
AcDbEntity
  8
1
  6
Continuous
 62
    18
100
AcDbLine
 10
10.315052
 20
1.521279
 30
0.0
 11
10.315052
 21
1.779601
 31
0.0
  0
LINE
  5
25C
330
1F
100
AcDbEntity
  8
1
  6
Continuous
 62
    18
100
AcDbLine
 10
10.320052
 20
1.521279
 30
0.0
 11
10.320052
 21
1.779601
 31
0.0
  0
LINE
  5
25D
330
1F
100
AcDbEntity
  8
1
  6
Continuous
 62
    18
100
AcDbLine
 10
10.325052
 20
1.521279
 30
0.0
 11
10.325052
 21
1.779601
 31
0.0
  0
LINE
  5
25E
330
1F
100
AcDbEntity
  8
1
  6
Continuous
 62
    18
100
AcDbLine
 10
10.330051
 20
1.521279
 30
0.0
 11
10.330051
 21
1.779601
 31
0.0
  0
LINE
  5
25F
330
1F
100
AcDbEntity
  8
1
  6
Continuous
 62
    18
100
AcDbLine
 10
10.335052
 20
1.521279
 30
0.0
 11
10.335052
 21
1.779601
 31
0.0
  0
LINE
  5
260
330
1F
100
AcDbEntity
  8
1
  6
Continuous
 62
    18
100
AcDbLine
 10
10.340052
 20
1.521279
 30
0.0
 11
10.340052
 21
1.779601
 31
0.0
  0
LINE
  5
261
330
1F
100
AcDbEntity
  8
1
  6
Continuous
 62
    18
100
AcDbLine
 10
10.365755
 20
1.723456
 30
0.0
 11
10.365755
 21
1.779601
 31
0.0
  0
LINE
  5
262
330
1F
100
AcDbEntity
  8
1
  6
Continuous
 62
    18
100
AcDbLine
 10
10.370755
 20
1.723456
 30
0.0
 11
10.370755
 21
1.779601
 31
0.0
  0
LINE
  5
263
330
1F
100
AcDbEntity
  8
1
  6
Continuous
 62
    18
100
AcDbLine
 10
10.375755
 20
1.723456
 30
0.0
 11
10.375755
 21
1.779601
 31
0.0
  0
LINE
  5
264
330
1F
100
AcDbEntity
  8
1
  6
Continuous
 62
    18
100
AcDbLine
 10
10.380754
 20
1.723456
 30
0.0
 11
10.380754
 21
1.779601
 31
0.0
  0
LINE
  5
265
330
1F
100
AcDbEntity
  8
1
  6
Continuous
 62
    18
100
AcDbLine
 10
10.385755
 20
1.723456
 30
0.0
 11
10.385755
 21
1.779601
 31
0.0
  0
LINE
  5
266
330
1F
100
AcDbEntity
  8
1
  6
Continuous
 62
    18
100
AcDbLine
 10
10.390755
 20
1.723456
 30
0.0
 11
10.390755
 21
1.779601
 31
0.0
  0
LINE
  5
267
330
1F
100
AcDbEntity
  8
1
  6
Continuous
 62
    18
100
AcDbLine
 10
10.395755
 20
1.723456
 30
0.0
 11
10.395755
 21
1.779601
 31
0.0
  0
LINE
  5
268
330
1F
100
AcDbEntity
  8
1
  6
Continuous
 62
    18
100
AcDbLine
 10
10.400755
 20
1.723456
 30
0.0
 11
10.400755
 21
1.779601
 31
0.0
  0
LINE
  5
269
330
1F
100
AcDbEntity
  8
1
  6
Continuous
 62
    18
100
AcDbLine
 10
10.405755
 20
1.723456
 30
0.0
 11
10.405755
 21
1.779601
 31
0.0
  0
LINE
  5
26A
330
1F
100
AcDbEntity
  8
1
  6
Continuous
 62
    18
100
AcDbLine
 10
10.410755
 20
1.723456
 30
0.0
 11
10.410755
 21
1.779601
 31
0.0
  0
LINE
  5
26B
330
1F
100
AcDbEntity
  8
1
  6
Continuous
 62
    18
100
AcDbLine
 10
10.500755
 20
1.723456
 30
0.0
 11
10.500755
 21
1.779601
 31
0.0
  0
LINE
  5
26C
330
1F
100
AcDbEntity
  8
1
  6
Continuous
 62
    18
100
AcDbLine
 10
10.505754
 20
1.723456
 30
0.0
 11
10.505754
 21
1.779601
 31
0.0
  0
LINE
  5
26D
330
1F
100
AcDbEntity
  8
1
  6
Continuous
 62
    18
100
AcDbLine
 10
10.510755
 20
1.723456
 30
0.0
 11
10.510755
 21
1.779601
 31
0.0
  0
LINE
  5
26E
330
1F
100
AcDbEntity
  8
1
  6
Continuous
 62
    18
100
AcDbLine
 10
10.515755
 20
1.723456
 30
0.0
 11
10.515755
 21
1.779601
 31
0.0
  0
LINE
  5
26F
330
1F
100
AcDbEntity
  8
1
  6
Continuous
 62
    18
100
AcDbLine
 10
10.520755
 20
1.723456
 30
0.0
 11
10.520755
 21
1.779601
 31
0.0
  0
LINE
  5
270
330
1F
100
AcDbEntity
  8
1
  6
Continuous
 62
    18
100
AcDbLine
 10
10.525755
 20
1.723456
 30
0.0
 11
10.525755
 21
1.779601
 31
0.0
  0
LINE
  5
271
330
1F
100
AcDbEntity
  8
1
  6
Continuous
 62
    18
100
AcDbLine
 10
10.530755
 20
1.723456
 30
0.0
 11
10.530755
 21
1.779601
 31
0.0
  0
LINE
  5
272
330
1F
100
AcDbEntity
  8
1
  6
Continuous
 62
    18
100
AcDbLine
 10
10.535755
 20
1.723456
 30
0.0
 11
10.535755
 21
1.779601
 31
0.0
  0
LINE
  5
273
330
1F
100
AcDbEntity
  8
1
  6
Continuous
 62
    18
100
AcDbLine
 10
10.540755
 20
1.723456
 30
0.0
 11
10.540755
 21
1.779601
 31
0.0
  0
LINE
  5
274
330
1F
100
AcDbEntity
  8
1
  6
Continuous
 62
    18
100
AcDbLine
 10
10.545754
 20
1.723456
 30
0.0
 11
10.545754
 21
1.779601
 31
0.0
  0
LINE
  5
275
330
1F
100
AcDbEntity
  8
1
  6
Continuous
 62
    18
100
AcDbLine
 10
10.550755
 20
1.723456
 30
0.0
 11
10.550755
 21
1.779601
 31
0.0
  0
LINE
  5
276
330
1F
100
AcDbEntity
  8
1
  6
Continuous
 62
    18
100
AcDbLine
 10
10.415755
 20
1.521279
 30
0.0
 11
10.415755
 21
1.779601
 31
0.0
  0
LINE
  5
277
330
1F
100
AcDbEntity
  8
1
  6
Continuous
 62
    18
100
AcDbLine
 10
10.420754
 20
1.521279
 30
0.0
 11
10.420754
 21
1.779601
 31
0.0
  0
LINE
  5
278
330
1F
100
AcDbEntity
  8
1
  6
Continuous
 62
    18
100
AcDbLine
 10
10.425755
 20
1.521279
 30
0.0
 11
10.425755
 21
1.779601
 31
0.0
  0
LINE
  5
279
330
1F
100
AcDbEntity
  8
1
  6
Continuous
 62
    18
100
AcDbLine
 10
10.430755
 20
1.521279
 30
0.0
 11
10.430755
 21
1.779601
 31
0.0
  0
LINE
  5
27A
330
1F
100
AcDbEntity
  8
1
  6
Continuous
 62
    18
100
AcDbLine
 10
10.435755
 20
1.521279
 30
0.0
 11
10.435755
 21
1.779601
 31
0.0
  0
LINE
  5
27B
330
1F
100
AcDbEntity
  8
1
  6
Continuous
 62
    18
100
AcDbLine
 10
10.440755
 20
1.521279
 30
0.0
 11
10.440755
 21
1.779601
 31
0.0
  0
LINE
  5
27C
330
1F
100
AcDbEntity
  8
1
  6
Continuous
 62
    18
100
AcDbLine
 10
10.445755
 20
1.521279
 30
0.0
 11
10.445755
 21
1.779601
 31
0.0
  0
LINE
  5
27D
330
1F
100
AcDbEntity
  8
1
  6
Continuous
 62
    18
100
AcDbLine
 10
10.450755
 20
1.521279
 30
0.0
 11
10.450755
 21
1.779601
 31
0.0
  0
LINE
  5
27E
330
1F
100
AcDbEntity
  8
1
  6
Continuous
 62
    18
100
AcDbLine
 10
10.455755
 20
1.521279
 30
0.0
 11
10.455755
 21
1.779601
 31
0.0
  0
LINE
  5
27F
330
1F
100
AcDbEntity
  8
1
  6
Continuous
 62
    18
100
AcDbLine
 10
10.460755
 20
1.521279
 30
0.0
 11
10.460755
 21
1.779601
 31
0.0
  0
LINE
  5
280
330
1F
100
AcDbEntity
  8
1
  6
Continuous
 62
    18
100
AcDbLine
 10
10.465755
 20
1.521279
 30
0.0
 11
10.465755
 21
1.779601
 31
0.0
  0
LINE
  5
281
330
1F
100
AcDbEntity
  8
1
  6
Continuous
 62
    18
100
AcDbLine
 10
10.470755
 20
1.521279
 30
0.0
 11
10.470755
 21
1.779601
 31
0.0
  0
LINE
  5
282
330
1F
100
AcDbEntity
  8
1
  6
Continuous
 62
    18
100
AcDbLine
 10
10.475755
 20
1.521279
 30
0.0
 11
10.475755
 21
1.779601
 31
0.0
  0
LINE
  5
283
330
1F
100
AcDbEntity
  8
1
  6
Continuous
 62
    18
100
AcDbLine
 10
10.480755
 20
1.521279
 30
0.0
 11
10.480755
 21
1.779601
 31
0.0
  0
LINE
  5
284
330
1F
100
AcDbEntity
  8
1
  6
Continuous
 62
    18
100
AcDbLine
 10
10.485755
 20
1.521279
 30
0.0
 11
10.485755
 21
1.779601
 31
0.0
  0
LINE
  5
285
330
1F
100
AcDbEntity
  8
1
  6
Continuous
 62
    18
100
AcDbLine
 10
10.490755
 20
1.521279
 30
0.0
 11
10.490755
 21
1.779601
 31
0.0
  0
LINE
  5
286
330
1F
100
AcDbEntity
  8
1
  6
Continuous
 62
    18
100
AcDbLine
 10
10.495755
 20
1.521279
 30
0.0
 11
10.495755
 21
1.779601
 31
0.0
  0
LINE
  5
287
330
1F
100
AcDbEntity
  8
1
  6
Continuous
 62
    18
100
AcDbLine
 10
10.360755
 20
1.779601
 30
0.0
 11
10.555032
 21
1.779601
 31
0.0
  0
LINE
  5
288
330
1F
100
AcDbEntity
  8
1
  6
Continuous
 62
    18
100
AcDbLine
 10
10.158548
 20
1.521279
 30
0.0
 11
10.158548
 21
1.587558
 31
0.0
  0
LINE
  5
289
330
1F
100
AcDbEntity
  8
1
  6
Continuous
 62
    18
100
AcDbLine
 10
10.163548
 20
1.521279
 30
0.0
 11
10.163548
 21
1.587558
 31
0.0
  0
LINE
  5
28A
330
1F
100
AcDbEntity
  8
1
  6
Continuous
 62
    18
100
AcDbLine
 10
10.168548
 20
1.521279
 30
0.0
 11
10.168548
 21
1.587558
 31
0.0
  0
LINE
  5
28B
330
1F
100
AcDbEntity
  8
1
  6
Continuous
 62
    18
100
AcDbLine
 10
10.137767
 20
1.587558
 30
0.0
 11
10.171263
 21
1.587558
 31
0.0
  0
LINE
  5
28C
330
1F
100
AcDbEntity
  8
1
  6
Continuous
 62
    18
100
AcDbLine
 10
10.138548
 20
1.521279
 30
0.0
 11
10.138548
 21
1.587558
 31
0.0
  0
LINE
  5
28D
330
1F
100
AcDbEntity
  8
1
  6
Continuous
 62
    18
100
AcDbLine
 10
10.143548
 20
1.521279
 30
0.0
 11
10.143548
 21
1.587558
 31
0.0
  0
LINE
  5
28E
330
1F
100
AcDbEntity
  8
1
  6
Continuous
 62
    18
100
AcDbLine
 10
10.148548
 20
1.521279
 30
0.0
 11
10.148548
 21
1.587558
 31
0.0
  0
LINE
  5
28F
330
1F
100
AcDbEntity
  8
1
  6
Continuous
 62
    18
100
AcDbLine
 10
10.153548
 20
1.521279
 30
0.0
 11
10.153548
 21
1.587558
 31
0.0
  0
LINE
  5
290
330
1F
100
AcDbEntity
  8
1
  6
Continuous
 62
    18
100
AcDbLine
 10
10.053548
 20
1.779601
 30
0.0
 11
10.137767
 21
1.779601
 31
0.0
  0
LINE
  5
291
330
1F
100
AcDbEntity
  8
1
  6
Continuous
 62
    18
100
AcDbLine
 10
10.093548
 20
1.521279
 30
0.0
 11
10.093548
 21
1.779601
 31
0.0
  0
LINE
  5
292
330
1F
100
AcDbEntity
  8
1
  6
Continuous
 62
    18
100
AcDbLine
 10
10.098548
 20
1.521279
 30
0.0
 11
10.098548
 21
1.779601
 31
0.0
  0
LINE
  5
293
330
1F
100
AcDbEntity
  8
1
  6
Continuous
 62
    18
100
AcDbLine
 10
10.103548
 20
1.521279
 30
0.0
 11
10.103548
 21
1.779601
 31
0.0
  0
LINE
  5
294
330
1F
100
AcDbEntity
  8
1
  6
Continuous
 62
    18
100
AcDbLine
 10
10.108548
 20
1.521279
 30
0.0
 11
10.108548
 21
1.779601
 31
0.0
  0
LINE
  5
295
330
1F
100
AcDbEntity
  8
1
  6
Continuous
 62
    18
100
AcDbLine
 10
10.113548
 20
1.521279
 30
0.0
 11
10.113548
 21
1.779601
 31
0.0
  0
LINE
  5
296
330
1F
100
AcDbEntity
  8
1
  6
Continuous
 62
    18
100
AcDbLine
 10
10.118548
 20
1.521279
 30
0.0
 11
10.118548
 21
1.779601
 31
0.0
  0
LINE
  5
297
330
1F
100
AcDbEntity
  8
1
  6
Continuous
 62
    18
100
AcDbLine
 10
10.123548
 20
1.521279
 30
0.0
 11
10.123548
 21
1.779601
 31
0.0
  0
LINE
  5
298
330
1F
100
AcDbEntity
  8
1
  6
Continuous
 62
    18
100
AcDbLine
 10
10.128548
 20
1.521279
 30
0.0
 11
10.128548
 21
1.779601
 31
0.0
  0
LINE
  5
299
330
1F
100
AcDbEntity
  8
1
  6
Continuous
 62
    18
100
AcDbLine
 10
10.133548
 20
1.521279
 30
0.0
 11
10.133548
 21
1.779601
 31
0.0
  0
LINE
  5
29A
330
1F
100
AcDbEntity
  8
1
  6
Continuous
 62
    18
100
AcDbLine
 10
10.173548
 20
1.521279
 30
0.0
 11
10.173548
 21
1.779601
 31
0.0
  0
LINE
  5
29B
330
1F
100
AcDbEntity
  8
1
  6
Continuous
 62
    18
100
AcDbLine
 10
10.178548
 20
1.521279
 30
0.0
 11
10.178548
 21
1.779601
 31
0.0
  0
LINE
  5
29C
330
1F
100
AcDbEntity
  8
1
  6
Continuous
 62
    18
100
AcDbLine
 10
10.183548
 20
1.521279
 30
0.0
 11
10.183548
 21
1.779601
 31
0.0
  0
LINE
  5
29D
330
1F
100
AcDbEntity
  8
1
  6
Continuous
 62
    18
100
AcDbLine
 10
10.188548
 20
1.521279
 30
0.0
 11
10.188548
 21
1.779601
 31
0.0
  0
LINE
  5
29E
330
1F
100
AcDbEntity
  8
1
  6
Continuous
 62
    18
100
AcDbLine
 10
10.198548
 20
1.521279
 30
0.0
 11
10.198548
 21
1.779601
 31
0.0
  0
LINE
  5
29F
330
1F
100
AcDbEntity
  8
1
  6
Continuous
 62
    18
100
AcDbLine
 10
10.193548
 20
1.521279
 30
0.0
 11
10.193548
 21
1.779601
 31
0.0
  0
LINE
  5
2A0
330
1F
100
AcDbEntity
  8
1
  6
Continuous
 62
    18
100
AcDbLine
 10
10.058548
 20
1.541914
 30
0.0
 11
10.058548
 21
1.779601
 31
0.0
  0
LINE
  5
2A1
330
1F
100
AcDbEntity
  8
1
  6
Continuous
 62
    18
100
AcDbLine
 10
10.063548
 20
1.534822
 30
0.0
 11
10.063548
 21
1.779601
 31
0.0
  0
LINE
  5
2A2
330
1F
100
AcDbEntity
  8
1
  6
Continuous
 62
    18
100
AcDbLine
 10
10.068548
 20
1.530054
 30
0.0
 11
10.068548
 21
1.779601
 31
0.0
  0
LINE
  5
2A3
330
1F
100
AcDbEntity
  8
1
  6
Continuous
 62
    18
100
AcDbLine
 10
10.073548
 20
1.526638
 30
0.0
 11
10.073548
 21
1.779601
 31
0.0
  0
LINE
  5
2A4
330
1F
100
AcDbEntity
  8
1
  6
Continuous
 62
    18
100
AcDbLine
 10
10.078548
 20
1.524198
 30
0.0
 11
10.078548
 21
1.779601
 31
0.0
  0
LINE
  5
2A5
330
1F
100
AcDbEntity
  8
1
  6
Continuous
 62
    18
100
AcDbLine
 10
10.083548
 20
1.522549
 30
0.0
 11
10.083548
 21
1.779601
 31
0.0
  0
LINE
  5
2A6
330
1F
100
AcDbEntity
  8
1
  6
Continuous
 62
    18
100
AcDbLine
 10
10.088548
 20
1.521593
 30
0.0
 11
10.088548
 21
1.779601
 31
0.0
  0
LINE
  5
2A7
330
1F
100
AcDbEntity
  8
1
  6
Continuous
 62
    18
100
AcDbLine
 10
10.203548
 20
1.521515
 30
0.0
 11
10.203548
 21
1.779601
 31
0.0
  0
LINE
  5
2A8
330
1F
100
AcDbEntity
  8
1
  6
Continuous
 62
    18
100
AcDbLine
 10
10.208548
 20
1.522385
 30
0.0
 11
10.208548
 21
1.779601
 31
0.0
  0
LINE
  5
2A9
330
1F
100
AcDbEntity
  8
1
  6
Continuous
 62
    18
100
AcDbLine
 10
10.213548
 20
1.523938
 30
0.0
 11
10.213548
 21
1.779601
 31
0.0
  0
LINE
  5
2AA
330
1F
100
AcDbEntity
  8
1
  6
Continuous
 62
    18
100
AcDbLine
 10
10.218548
 20
1.526265
 30
0.0
 11
10.218548
 21
1.779601
 31
0.0
  0
LINE
  5
2AB
330
1F
100
AcDbEntity
  8
1
  6
Continuous
 62
    18
100
AcDbLine
 10
10.223548
 20
1.529536
 30
0.0
 11
10.223548
 21
1.779601
 31
0.0
  0
LINE
  5
2AC
330
1F
100
AcDbEntity
  8
1
  6
Continuous
 62
    18
100
AcDbLine
 10
10.228548
 20
1.534091
 30
0.0
 11
10.228548
 21
1.779601
 31
0.0
  0
LINE
  5
2AD
330
1F
100
AcDbEntity
  8
1
  6
Continuous
 62
    18
100
AcDbLine
 10
10.233548
 20
1.540766
 30
0.0
 11
10.233548
 21
1.779601
 31
0.0
  0
LINE
  5
2AE
330
1F
100
AcDbEntity
  8
1
  6
Continuous
 62
    18
100
AcDbLine
 10
10.238548
 20
1.55404
 30
0.0
 11
10.238548
 21
1.779601
 31
0.0
  0
LINE
  5
2AF
330
1F
100
AcDbEntity
  8
1
  6
Continuous
 62
    18
100
AcDbLine
 10
9.831732
 20
1.521279
 30
0.0
 11
9.831732
 21
1.779601
 31
0.0
  0
LINE
  5
2B0
330
1F
100
AcDbEntity
  8
1
  6
Continuous
 62
    18
100
AcDbLine
 10
9.836732
 20
1.521279
 30
0.0
 11
9.836732
 21
1.779601
 31
0.0
  0
LINE
  5
2B1
330
1F
100
AcDbEntity
  8
1
  6
Continuous
 62
    18
100
AcDbLine
 10
9.841732
 20
1.521279
 30
0.0
 11
9.841732
 21
1.779601
 31
0.0
  0
LINE
  5
2B2
330
1F
100
AcDbEntity
  8
1
  6
Continuous
 62
    18
100
AcDbLine
 10
9.846732
 20
1.521279
 30
0.0
 11
9.846732
 21
1.779601
 31
0.0
  0
LINE
  5
2B3
330
1F
100
AcDbEntity
  8
1
  6
Continuous
 62
    18
100
AcDbLine
 10
9.851731
 20
1.521279
 30
0.0
 11
9.851731
 21
1.779601
 31
0.0
  0
LINE
  5
2B4
330
1F
100
AcDbEntity
  8
1
  6
Continuous
 62
    18
100
AcDbLine
 10
9.856731
 20
1.521279
 30
0.0
 11
9.856731
 21
1.779601
 31
0.0
  0
LINE
  5
2B5
330
1F
100
AcDbEntity
  8
1
  6
Continuous
 62
    18
100
AcDbLine
 10
9.861732
 20
1.521279
 30
0.0
 11
9.861732
 21
1.779601
 31
0.0
  0
LINE
  5
2B6
330
1F
100
AcDbEntity
  8
1
  6
Continuous
 62
    18
100
AcDbLine
 10
9.866732
 20
1.521279
 30
0.0
 11
9.866732
 21
1.779601
 31
0.0
  0
LINE
  5
2B7
330
1F
100
AcDbEntity
  8
1
  6
Continuous
 62
    18
100
AcDbLine
 10
9.871732
 20
1.521279
 30
0.0
 11
9.871732
 21
1.779601
 31
0.0
  0
LINE
  5
2B8
330
1F
100
AcDbEntity
  8
1
  6
Continuous
 62
    18
100
AcDbLine
 10
9.876732
 20
1.521279
 30
0.0
 11
9.876732
 21
1.779601
 31
0.0
  0
LINE
  5
2B9
330
1F
100
AcDbEntity
  8
1
  6
Continuous
 62
    18
100
AcDbLine
 10
9.881732
 20
1.521279
 30
0.0
 11
9.881732
 21
1.779601
 31
0.0
  0
LINE
  5
2BA
330
1F
100
AcDbEntity
  8
1
  6
Continuous
 62
    18
100
AcDbLine
 10
9.886732
 20
1.521279
 30
0.0
 11
9.886732
 21
1.779601
 31
0.0
  0
LINE
  5
2BB
330
1F
100
AcDbEntity
  8
1
  6
Continuous
 62
    18
100
AcDbLine
 10
9.891731
 20
1.521279
 30
0.0
 11
9.891731
 21
1.779601
 31
0.0
  0
LINE
  5
2BC
330
1F
100
AcDbEntity
  8
1
  6
Continuous
 62
    18
100
AcDbLine
 10
9.896731
 20
1.521279
 30
0.0
 11
9.896731
 21
1.779601
 31
0.0
  0
LINE
  5
2BD
330
1F
100
AcDbEntity
  8
1
  6
Continuous
 62
    18
100
AcDbLine
 10
9.901731
 20
1.521279
 30
0.0
 11
9.901731
 21
1.779601
 31
0.0
  0
LINE
  5
2BE
330
1F
100
AcDbEntity
  8
1
  6
Continuous
 62
    18
100
AcDbLine
 10
9.906732
 20
1.521279
 30
0.0
 11
9.906732
 21
1.779601
 31
0.0
  0
LINE
  5
2BF
330
1F
100
AcDbEntity
  8
1
  6
Continuous
 62
    18
100
AcDbLine
 10
9.911732
 20
1.521279
 30
0.0
 11
9.911732
 21
1.779601
 31
0.0
  0
LINE
  5
2C0
330
1F
100
AcDbEntity
  8
1
  6
Continuous
 62
    18
100
AcDbLine
 10
9.916732
 20
1.521279
 30
0.0
 11
9.916732
 21
1.779601
 31
0.0
  0
LINE
  5
2C1
330
1F
100
AcDbEntity
  8
1
  6
Continuous
 62
    18
100
AcDbLine
 10
9.921732
 20
1.521279
 30
0.0
 11
9.921732
 21
1.587558
 31
0.0
  0
LINE
  5
2C2
330
1F
100
AcDbEntity
  8
1
  6
Continuous
 62
    18
100
AcDbLine
 10
9.926732
 20
1.521279
 30
0.0
 11
9.926732
 21
1.587558
 31
0.0
  0
LINE
  5
2C3
330
1F
100
AcDbEntity
  8
1
  6
Continuous
 62
    18
100
AcDbLine
 10
9.931732
 20
1.521279
 30
0.0
 11
9.931732
 21
1.587558
 31
0.0
  0
LINE
  5
2C4
330
1F
100
AcDbEntity
  8
1
  6
Continuous
 62
    18
100
AcDbLine
 10
9.936731
 20
1.521279
 30
0.0
 11
9.936731
 21
1.587639
 31
0.0
  0
LINE
  5
2C5
330
1F
100
AcDbEntity
  8
1
  6
Continuous
 62
    18
100
AcDbLine
 10
9.941731
 20
1.521279
 30
0.0
 11
9.941731
 21
1.589275
 31
0.0
  0
LINE
  5
2C6
330
1F
100
AcDbEntity
  8
1
  6
Continuous
 62
    18
100
AcDbLine
 10
9.946732
 20
1.521279
 30
0.0
 11
9.946732
 21
1.594415
 31
0.0
  0
LINE
  5
2C7
330
1F
100
AcDbEntity
  8
1
  6
Continuous
 62
    18
100
AcDbLine
 10
9.951732
 20
1.521279
 30
0.0
 11
9.951732
 21
1.779601
 31
0.0
  0
LINE
  5
2C8
330
1F
100
AcDbEntity
  8
1
  6
Continuous
 62
    18
100
AcDbLine
 10
9.956732
 20
1.521279
 30
0.0
 11
9.956732
 21
1.779601
 31
0.0
  0
LINE
  5
2C9
330
1F
100
AcDbEntity
  8
1
  6
Continuous
 62
    18
100
AcDbLine
 10
9.961732
 20
1.521279
 30
0.0
 11
9.961732
 21
1.779601
 31
0.0
  0
LINE
  5
2CA
330
1F
100
AcDbEntity
  8
1
  6
Continuous
 62
    18
100
AcDbLine
 10
9.966732
 20
1.521279
 30
0.0
 11
9.966732
 21
1.779601
 31
0.0
  0
LINE
  5
2CB
330
1F
100
AcDbEntity
  8
1
  6
Continuous
 62
    18
100
AcDbLine
 10
9.971732
 20
1.521279
 30
0.0
 11
9.971732
 21
1.779601
 31
0.0
  0
LINE
  5
2CC
330
1F
100
AcDbEntity
  8
1
  6
Continuous
 62
    18
100
AcDbLine
 10
9.976731
 20
1.521279
 30
0.0
 11
9.976731
 21
1.779601
 31
0.0
  0
LINE
  5
2CD
330
1F
100
AcDbEntity
  8
1
  6
Continuous
 62
    18
100
AcDbLine
 10
9.981731
 20
1.521279
 30
0.0
 11
9.981731
 21
1.779601
 31
0.0
  0
LINE
  5
2CE
330
1F
100
AcDbEntity
  8
1
  6
Continuous
 62
    18
100
AcDbLine
 10
9.986732
 20
1.521279
 30
0.0
 11
9.986732
 21
1.779601
 31
0.0
  0
LINE
  5
2CF
330
1F
100
AcDbEntity
  8
1
  6
Continuous
 62
    18
100
AcDbLine
 10
9.991732
 20
1.521279
 30
0.0
 11
9.991732
 21
1.779601
 31
0.0
  0
LINE
  5
2D0
330
1F
100
AcDbEntity
  8
1
  6
Continuous
 62
    18
100
AcDbLine
 10
9.996732
 20
1.521279
 30
0.0
 11
9.996732
 21
1.779601
 31
0.0
  0
LINE
  5
2D1
330
1F
100
AcDbEntity
  8
1
  6
Continuous
 62
    18
100
AcDbLine
 10
10.001732
 20
1.52144
 30
0.0
 11
10.001732
 21
1.77944
 31
0.0
  0
LINE
  5
2D2
330
1F
100
AcDbEntity
  8
1
  6
Continuous
 62
    18
100
AcDbLine
 10
10.006732
 20
1.522394
 30
0.0
 11
10.006732
 21
1.778486
 31
0.0
  0
LINE
  5
2D3
330
1F
100
AcDbEntity
  8
1
  6
Continuous
 62
    18
100
AcDbLine
 10
10.011732
 20
1.524291
 30
0.0
 11
10.011732
 21
1.776588
 31
0.0
  0
LINE
  5
2D4
330
1F
100
AcDbEntity
  8
1
  6
Continuous
 62
    18
100
AcDbLine
 10
10.016731
 20
1.527356
 30
0.0
 11
10.016731
 21
1.773524
 31
0.0
  0
LINE
  5
2D5
330
1F
100
AcDbEntity
  8
1
  6
Continuous
 62
    18
100
AcDbLine
 10
10.021731
 20
1.53214
 30
0.0
 11
10.021731
 21
1.768739
 31
0.0
  0
LINE
  5
2D6
330
1F
100
AcDbEntity
  8
1
  6
Continuous
 62
    18
100
AcDbLine
 10
10.026731
 20
1.540778
 30
0.0
 11
10.026731
 21
1.760102
 31
0.0
  0
LINE
  5
2D7
330
1F
100
AcDbEntity
  8
1
  6
Continuous
 62
    18
100
AcDbLine
 10
9.921732
 20
1.722657
 30
0.0
 11
9.921732
 21
1.779601
 31
0.0
  0
LINE
  5
2D8
330
1F
100
AcDbEntity
  8
1
  6
Continuous
 62
    18
100
AcDbLine
 10
9.926732
 20
1.722657
 30
0.0
 11
9.926732
 21
1.779601
 31
0.0
  0
LINE
  5
2D9
330
1F
100
AcDbEntity
  8
1
  6
Continuous
 62
    18
100
AcDbLine
 10
9.931732
 20
1.722657
 30
0.0
 11
9.931732
 21
1.779601
 31
0.0
  0
LINE
  5
2DA
330
1F
100
AcDbEntity
  8
1
  6
Continuous
 62
    18
100
AcDbLine
 10
9.936731
 20
1.722575
 30
0.0
 11
9.936731
 21
1.779601
 31
0.0
  0
LINE
  5
2DB
330
1F
100
AcDbEntity
  8
1
  6
Continuous
 62
    18
100
AcDbLine
 10
9.941731
 20
1.72094
 30
0.0
 11
9.941731
 21
1.779601
 31
0.0
  0
LINE
  5
2DC
330
1F
100
AcDbEntity
  8
1
  6
Continuous
 62
    18
100
AcDbLine
 10
9.946732
 20
1.715799
 30
0.0
 11
9.946732
 21
1.779601
 31
0.0
  0
LINE
  5
2DD
330
1F
100
AcDbEntity
  8
1
  6
Continuous
 62
    18
100
AcDbLine
 10
9.788548
 20
1.779601
 30
0.0
 11
9.788548
 21
1.521279
 31
0.0
  0
LINE
  5
2DE
330
1F
100
AcDbEntity
  8
1
  6
Continuous
 62
    18
100
AcDbLine
 10
9.783548
 20
1.779601
 30
0.0
 11
9.783548
 21
1.521279
 31
0.0
  0
LINE
  5
2DF
330
1F
100
AcDbEntity
  8
1
  6
Continuous
 62
    18
100
AcDbLine
 10
9.778548
 20
1.779601
 30
0.0
 11
9.778548
 21
1.521279
 31
0.0
  0
LINE
  5
2E0
330
1F
100
AcDbEntity
  8
1
  6
Continuous
 62
    18
100
AcDbLine
 10
9.773548
 20
1.779601
 30
0.0
 11
9.773548
 21
1.521279
 31
0.0
  0
LINE
  5
2E1
330
1F
100
AcDbEntity
  8
1
  6
Continuous
 62
    18
100
AcDbLine
 10
9.768548
 20
1.779601
 30
0.0
 11
9.768548
 21
1.521279
 31
0.0
  0
LINE
  5
2E2
330
1F
100
AcDbEntity
  8
1
  6
Continuous
 62
    18
100
AcDbLine
 10
9.763548
 20
1.779601
 30
0.0
 11
9.763548
 21
1.521279
 31
0.0
  0
LINE
  5
2E3
330
1F
100
AcDbEntity
  8
1
  6
Continuous
 62
    18
100
AcDbLine
 10
9.758548
 20
1.779601
 30
0.0
 11
9.758548
 21
1.521279
 31
0.0
  0
LINE
  5
2E4
330
1F
100
AcDbEntity
  8
1
  6
Continuous
 62
    18
100
AcDbLine
 10
9.753548
 20
1.779601
 30
0.0
 11
9.753548
 21
1.521279
 31
0.0
  0
LINE
  5
2E5
330
1F
100
AcDbEntity
  8
1
  6
Continuous
 62
    18
100
AcDbLine
 10
9.748549
 20
1.779601
 30
0.0
 11
9.748549
 21
1.521279
 31
0.0
  0
LINE
  5
2E6
330
1F
100
AcDbEntity
  8
1
  6
Continuous
 62
    18
100
AcDbLine
 10
9.743548
 20
1.779601
 30
0.0
 11
9.743548
 21
1.521279
 31
0.0
  0
LINE
  5
2E7
330
1F
100
AcDbEntity
  8
1
  6
Continuous
 62
    18
100
AcDbLine
 10
9.738548
 20
1.779601
 30
0.0
 11
9.738548
 21
1.521279
 31
0.0
  0
LINE
  5
2E8
330
1F
100
AcDbEntity
  8
1
  6
Continuous
 62
    18
100
AcDbLine
 10
9.733548
 20
1.779601
 30
0.0
 11
9.733548
 21
1.521279
 31
0.0
  0
LINE
  5
2E9
330
1F
100
AcDbEntity
  8
1
  6
Continuous
 62
    18
100
AcDbLine
 10
9.728548
 20
1.779601
 30
0.0
 11
9.728548
 21
1.521279
 31
0.0
  0
LINE
  5
2EA
330
1F
100
AcDbEntity
  8
1
  6
Continuous
 62
    18
100
AcDbLine
 10
9.723548
 20
1.779601
 30
0.0
 11
9.723548
 21
1.521279
 31
0.0
  0
LINE
  5
2EB
330
1F
100
AcDbEntity
  8
1
  6
Continuous
 62
    18
100
AcDbLine
 10
9.688548
 20
1.779601
 30
0.0
 11
9.688548
 21
1.543182
 31
0.0
  0
LINE
  5
2EC
330
1F
100
AcDbEntity
  8
1
  6
Continuous
 62
    18
100
AcDbLine
 10
9.683548
 20
1.779601
 30
0.0
 11
9.683548
 21
1.555273
 31
0.0
  0
LINE
  5
2ED
330
1F
100
AcDbEntity
  8
1
  6
Continuous
 62
    18
100
AcDbLine
 10
9.678548
 20
1.779601
 30
0.0
 11
9.678548
 21
1.567364
 31
0.0
  0
LINE
  5
2EE
330
1F
100
AcDbEntity
  8
1
  6
Continuous
 62
    18
100
AcDbLine
 10
9.673548
 20
1.779601
 30
0.0
 11
9.673548
 21
1.579455
 31
0.0
  0
LINE
  5
2EF
330
1F
100
AcDbEntity
  8
1
  6
Continuous
 62
    18
100
AcDbLine
 10
9.668549
 20
1.779601
 30
0.0
 11
9.668549
 21
1.591546
 31
0.0
  0
LINE
  5
2F0
330
1F
100
AcDbEntity
  8
1
  6
Continuous
 62
    18
100
AcDbLine
 10
9.663548
 20
1.779601
 30
0.0
 11
9.663548
 21
1.521279
 31
0.0
  0
LINE
  5
2F1
330
1F
100
AcDbEntity
  8
1
  6
Continuous
 62
    18
100
AcDbLine
 10
9.658548
 20
1.779601
 30
0.0
 11
9.658548
 21
1.521279
 31
0.0
  0
LINE
  5
2F2
330
1F
100
AcDbEntity
  8
1
  6
Continuous
 62
    18
100
AcDbLine
 10
9.653548
 20
1.779601
 30
0.0
 11
9.653548
 21
1.521279
 31
0.0
  0
LINE
  5
2F3
330
1F
100
AcDbEntity
  8
1
  6
Continuous
 62
    18
100
AcDbLine
 10
9.648548
 20
1.779601
 30
0.0
 11
9.648548
 21
1.521279
 31
0.0
  0
LINE
  5
2F4
330
1F
100
AcDbEntity
  8
1
  6
Continuous
 62
    18
100
AcDbLine
 10
9.643548
 20
1.779601
 30
0.0
 11
9.643548
 21
1.521279
 31
0.0
  0
LINE
  5
2F5
330
1F
100
AcDbEntity
  8
1
  6
Continuous
 62
    18
100
AcDbLine
 10
9.638548
 20
1.779601
 30
0.0
 11
9.638548
 21
1.521279
 31
0.0
  0
LINE
  5
2F6
330
1F
100
AcDbEntity
  8
1
  6
Continuous
 62
    18
100
AcDbLine
 10
9.633548
 20
1.779601
 30
0.0
 11
9.633548
 21
1.521279
 31
0.0
  0
LINE
  5
2F7
330
1F
100
AcDbEntity
  8
1
  6
Continuous
 62
    18
100
AcDbLine
 10
9.628548
 20
1.779601
 30
0.0
 11
9.628548
 21
1.521279
 31
0.0
  0
LINE
  5
2F8
330
1F
100
AcDbEntity
  8
1
  6
Continuous
 62
    18
100
AcDbLine
 10
9.623549
 20
1.779601
 30
0.0
 11
9.623549
 21
1.521279
 31
0.0
  0
LINE
  5
2F9
330
1F
100
AcDbEntity
  8
1
  6
Continuous
 62
    18
100
AcDbLine
 10
9.618548
 20
1.779601
 30
0.0
 11
9.618548
 21
1.521279
 31
0.0
  0
LINE
  5
2FA
330
1F
100
AcDbEntity
  8
1
  6
Continuous
 62
    18
100
AcDbLine
 10
9.613548
 20
1.779601
 30
0.0
 11
9.613548
 21
1.521279
 31
0.0
  0
LINE
  5
2FB
330
1F
100
AcDbEntity
  8
1
  6
Continuous
 62
    18
100
AcDbLine
 10
9.608548
 20
1.779601
 30
0.0
 11
9.608548
 21
1.521279
 31
0.0
  0
LINE
  5
2FC
330
1F
100
AcDbEntity
  8
1
  6
Continuous
 62
    18
100
AcDbLine
 10
9.603548
 20
1.779601
 30
0.0
 11
9.603548
 21
1.521279
 31
0.0
  0
LINE
  5
2FD
330
1F
100
AcDbEntity
  8
1
  6
Continuous
 62
    18
100
AcDbLine
 10
9.598548
 20
1.779601
 30
0.0
 11
9.598548
 21
1.521279
 31
0.0
  0
LINE
  5
2FE
330
1F
100
AcDbEntity
  8
1
  6
Continuous
 62
    18
100
AcDbLine
 10
9.593548
 20
1.779601
 30
0.0
 11
9.593548
 21
1.521279
 31
0.0
  0
LINE
  5
2FF
330
1F
100
AcDbEntity
  8
1
  6
Continuous
 62
    18
100
AcDbLine
 10
9.588548
 20
1.779601
 30
0.0
 11
9.588548
 21
1.521279
 31
0.0
  0
LINE
  5
300
330
1F
100
AcDbEntity
  8
1
  6
Continuous
 62
    18
100
AcDbLine
 10
9.523548
 20
1.779601
 30
0.0
 11
9.523548
 21
1.552696
 31
0.0
  0
LINE
  5
301
330
1F
100
AcDbEntity
  8
1
  6
Continuous
 62
    18
100
AcDbLine
 10
9.518548
 20
1.779601
 30
0.0
 11
9.518548
 21
1.564571
 31
0.0
  0
LINE
  5
302
330
1F
100
AcDbEntity
  8
1
  6
Continuous
 62
    18
100
AcDbLine
 10
9.513548
 20
1.779601
 30
0.0
 11
9.513548
 21
1.568442
 31
0.0
  0
LINE
  5
303
330
1F
100
AcDbEntity
  8
1
  6
Continuous
 62
    18
100
AcDbLine
 10
9.508548
 20
1.779601
 30
0.0
 11
9.508548
 21
1.568442
 31
0.0
  0
LINE
  5
304
330
1F
100
AcDbEntity
  8
1
  6
Continuous
 62
    18
100
AcDbLine
 10
9.503548
 20
1.779601
 30
0.0
 11
9.503548
 21
1.63845
 31
0.0
  0
LINE
  5
305
330
1F
100
AcDbEntity
  8
1
  6
Continuous
 62
    18
100
AcDbLine
 10
9.498549
 20
1.779601
 30
0.0
 11
9.498549
 21
1.650758
 31
0.0
  0
LINE
  5
306
330
1F
100
AcDbEntity
  8
1
  6
Continuous
 62
    18
100
AcDbLine
 10
9.493548
 20
1.779601
 30
0.0
 11
9.493548
 21
1.663066
 31
0.0
  0
LINE
  5
307
330
1F
100
AcDbEntity
  8
1
  6
Continuous
 62
    18
100
AcDbLine
 10
9.488548
 20
1.779601
 30
0.0
 11
9.488548
 21
1.675373
 31
0.0
  0
LINE
  5
308
330
1F
100
AcDbEntity
  8
1
  6
Continuous
 62
    18
100
AcDbLine
 10
9.483548
 20
1.779601
 30
0.0
 11
9.483548
 21
1.681278
 31
0.0
  0
LINE
  5
309
330
1F
100
AcDbEntity
  8
1
  6
Continuous
 62
    18
100
AcDbLine
 10
9.478548
 20
1.779601
 30
0.0
 11
9.478548
 21
1.666866
 31
0.0
  0
LINE
  5
30A
330
1F
100
AcDbEntity
  8
1
  6
Continuous
 62
    18
100
AcDbLine
 10
9.473548
 20
1.779601
 30
0.0
 11
9.473548
 21
1.652454
 31
0.0
  0
LINE
  5
30B
330
1F
100
AcDbEntity
  8
1
  6
Continuous
 62
    18
100
AcDbLine
 10
9.468548
 20
1.779601
 30
0.0
 11
9.468548
 21
1.638042
 31
0.0
  0
LINE
  5
30C
330
1F
100
AcDbEntity
  8
1
  6
Continuous
 62
    18
100
AcDbLine
 10
9.463548
 20
1.779601
 30
0.0
 11
9.463548
 21
1.568442
 31
0.0
  0
LINE
  5
30D
330
1F
100
AcDbEntity
  8
1
  6
Continuous
 62
    18
100
AcDbLine
 10
9.458549
 20
1.779601
 30
0.0
 11
9.458549
 21
1.568442
 31
0.0
  0
LINE
  5
30E
330
1F
100
AcDbEntity
  8
1
  6
Continuous
 62
    18
100
AcDbLine
 10
9.453548
 20
1.779601
 30
0.0
 11
9.453548
 21
1.568442
 31
0.0
  0
LINE
  5
30F
330
1F
100
AcDbEntity
  8
1
  6
Continuous
 62
    18
100
AcDbLine
 10
9.448548
 20
1.779601
 30
0.0
 11
9.448548
 21
1.568442
 31
0.0
  0
LINE
  5
310
330
1F
100
AcDbEntity
  8
1
  6
Continuous
 62
    18
100
AcDbLine
 10
9.112851
 20
1.861523
 30
0.0
 11
9.112851
 21
1.522256
 31
0.0
  0
LINE
  5
311
330
1F
100
AcDbEntity
  8
1
  6
Continuous
 62
    18
100
AcDbLine
 10
9.117851
 20
1.861523
 30
0.0
 11
9.117851
 21
1.522256
 31
0.0
  0
LINE
  5
312
330
1F
100
AcDbEntity
  8
1
  6
Continuous
 62
    18
100
AcDbLine
 10
9.122851
 20
1.861523
 30
0.0
 11
9.122851
 21
1.522256
 31
0.0
  0
LINE
  5
313
330
1F
100
AcDbEntity
  8
1
  6
Continuous
 62
    18
100
AcDbLine
 10
9.127851
 20
1.861523
 30
0.0
 11
9.127851
 21
1.522256
 31
0.0
  0
LINE
  5
314
330
1F
100
AcDbEntity
  8
1
  6
Continuous
 62
    18
100
AcDbLine
 10
9.132851
 20
1.861523
 30
0.0
 11
9.132851
 21
1.522256
 31
0.0
  0
LINE
  5
315
330
1F
100
AcDbEntity
  8
1
  6
Continuous
 62
    18
100
AcDbLine
 10
9.137851
 20
1.861523
 30
0.0
 11
9.137851
 21
1.522256
 31
0.0
  0
LINE
  5
316
330
1F
100
AcDbEntity
  8
1
  6
Continuous
 62
    18
100
AcDbLine
 10
9.142851
 20
1.861523
 30
0.0
 11
9.142851
 21
1.522256
 31
0.0
  0
LINE
  5
317
330
1F
100
AcDbEntity
  8
1
  6
Continuous
 62
    18
100
AcDbLine
 10
9.147851
 20
1.861523
 30
0.0
 11
9.147851
 21
1.522256
 31
0.0
  0
LINE
  5
318
330
1F
100
AcDbEntity
  8
1
  6
Continuous
 62
    18
100
AcDbLine
 10
9.152851
 20
1.861523
 30
0.0
 11
9.152851
 21
1.522256
 31
0.0
  0
LINE
  5
319
330
1F
100
AcDbEntity
  8
1
  6
Continuous
 62
    18
100
AcDbLine
 10
9.157851
 20
1.861523
 30
0.0
 11
9.157851
 21
1.522256
 31
0.0
  0
LINE
  5
31A
330
1F
100
AcDbEntity
  8
1
  6
Continuous
 62
    18
100
AcDbLine
 10
9.162851
 20
1.861523
 30
0.0
 11
9.162851
 21
1.522256
 31
0.0
  0
LINE
  5
31B
330
1F
100
AcDbEntity
  8
1
  6
Continuous
 62
    18
100
AcDbLine
 10
9.16785
 20
1.861523
 30
0.0
 11
9.16785
 21
1.522256
 31
0.0
  0
LINE
  5
31C
330
1F
100
AcDbEntity
  8
1
  6
Continuous
 62
    18
100
AcDbLine
 10
9.172851
 20
1.861523
 30
0.0
 11
9.172851
 21
1.522256
 31
0.0
  0
LINE
  5
31D
330
1F
100
AcDbEntity
  8
1
  6
Continuous
 62
    18
100
AcDbLine
 10
9.177851
 20
1.861523
 30
0.0
 11
9.177851
 21
1.522256
 31
0.0
  0
LINE
  5
31E
330
1F
100
AcDbEntity
  8
1
  6
Continuous
 62
    18
100
AcDbLine
 10
9.182851
 20
1.861523
 30
0.0
 11
9.182851
 21
1.522256
 31
0.0
  0
LINE
  5
31F
330
1F
100
AcDbEntity
  8
1
  6
Continuous
 62
    18
100
AcDbLine
 10
9.187851
 20
1.861523
 30
0.0
 11
9.187851
 21
1.522256
 31
0.0
  0
LINE
  5
320
330
1F
100
AcDbEntity
  8
1
  6
Continuous
 62
    18
100
AcDbLine
 10
9.192851
 20
1.861523
 30
0.0
 11
9.192851
 21
1.522256
 31
0.0
  0
LINE
  5
321
330
1F
100
AcDbEntity
  8
1
  6
Continuous
 62
    18
100
AcDbLine
 10
9.197851
 20
1.861523
 30
0.0
 11
9.197851
 21
1.522256
 31
0.0
  0
LINE
  5
322
330
1F
100
AcDbEntity
  8
1
  6
Continuous
 62
    18
100
AcDbLine
 10
9.202851
 20
1.861523
 30
0.0
 11
9.202851
 21
1.522256
 31
0.0
  0
LINE
  5
323
330
1F
100
AcDbEntity
  8
1
  6
Continuous
 62
    18
100
AcDbLine
 10
9.20785
 20
1.861523
 30
0.0
 11
9.20785
 21
1.522256
 31
0.0
  0
LINE
  5
324
330
1F
100
AcDbEntity
  8
1
  6
Continuous
 62
    18
100
AcDbLine
 10
9.212851
 20
1.861523
 30
0.0
 11
9.212851
 21
1.522256
 31
0.0
  0
LINE
  5
325
330
1F
100
AcDbEntity
  8
1
  6
Continuous
 62
    18
100
AcDbLine
 10
9.217851
 20
1.861523
 30
0.0
 11
9.217851
 21
1.522256
 31
0.0
  0
LINE
  5
326
330
1F
100
AcDbEntity
  8
1
  6
Continuous
 62
    18
100
AcDbLine
 10
9.222851
 20
1.861523
 30
0.0
 11
9.222851
 21
1.522256
 31
0.0
  0
LINE
  5
327
330
1F
100
AcDbEntity
  8
1
  6
Continuous
 62
    18
100
AcDbLine
 10
9.227851
 20
1.861523
 30
0.0
 11
9.227851
 21
1.522256
 31
0.0
  0
LINE
  5
328
330
1F
100
AcDbEntity
  8
1
  6
Continuous
 62
    18
100
AcDbLine
 10
9.232851
 20
1.861523
 30
0.0
 11
9.232851
 21
1.522256
 31
0.0
  0
LINE
  5
329
330
1F
100
AcDbEntity
  8
1
  6
Continuous
 62
    18
100
AcDbLine
 10
9.237851
 20
1.861523
 30
0.0
 11
9.237851
 21
1.522256
 31
0.0
  0
LINE
  5
32A
330
1F
100
AcDbEntity
  8
1
  6
Continuous
 62
    18
100
AcDbLine
 10
9.242851
 20
1.861523
 30
0.0
 11
9.242851
 21
1.522256
 31
0.0
  0
LINE
  5
32B
330
1F
100
AcDbEntity
  8
1
  6
Continuous
 62
    18
100
AcDbLine
 10
9.247851
 20
1.861523
 30
0.0
 11
9.247851
 21
1.522256
 31
0.0
  0
LINE
  5
32C
330
1F
100
AcDbEntity
  8
1
  6
Continuous
 62
    18
100
AcDbLine
 10
9.252851
 20
1.861523
 30
0.0
 11
9.252851
 21
1.522256
 31
0.0
  0
LINE
  5
32D
330
1F
100
AcDbEntity
  8
1
  6
Continuous
 62
    18
100
AcDbLine
 10
9.257851
 20
1.861523
 30
0.0
 11
9.257851
 21
1.629691
 31
0.0
  0
LINE
  5
32E
330
1F
100
AcDbEntity
  8
1
  6
Continuous
 62
    18
100
AcDbLine
 10
9.262851
 20
1.861523
 30
0.0
 11
9.262851
 21
1.629691
 31
0.0
  0
LINE
  5
32F
330
1F
100
AcDbEntity
  8
1
  6
Continuous
 62
    18
100
AcDbLine
 10
9.267851
 20
1.861523
 30
0.0
 11
9.267851
 21
1.629691
 31
0.0
  0
LINE
  5
330
330
1F
100
AcDbEntity
  8
1
  6
Continuous
 62
    18
100
AcDbLine
 10
9.29285
 20
1.861523
 30
0.0
 11
9.29285
 21
1.807219
 31
0.0
  0
LINE
  5
331
330
1F
100
AcDbEntity
  8
1
  6
Continuous
 62
    18
100
AcDbLine
 10
9.297851
 20
1.861523
 30
0.0
 11
9.297851
 21
1.805979
 31
0.0
  0
LINE
  5
332
330
1F
100
AcDbEntity
  8
1
  6
Continuous
 62
    18
100
AcDbLine
 10
9.302851
 20
1.861523
 30
0.0
 11
9.302851
 21
1.801804
 31
0.0
  0
LINE
  5
333
330
1F
100
AcDbEntity
  8
1
  6
Continuous
 62
    18
100
AcDbLine
 10
9.307851
 20
1.861523
 30
0.0
 11
9.307851
 21
1.629691
 31
0.0
  0
LINE
  5
334
330
1F
100
AcDbEntity
  8
1
  6
Continuous
 62
    18
100
AcDbLine
 10
9.312851
 20
1.861523
 30
0.0
 11
9.312851
 21
1.629691
 31
0.0
  0
LINE
  5
335
330
1F
100
AcDbEntity
  8
1
  6
Continuous
 62
    18
100
AcDbLine
 10
9.317851
 20
1.861523
 30
0.0
 11
9.317851
 21
1.629691
 31
0.0
  0
LINE
  5
336
330
1F
100
AcDbEntity
  8
1
  6
Continuous
 62
    18
100
AcDbLine
 10
9.322851
 20
1.861523
 30
0.0
 11
9.322851
 21
1.629691
 31
0.0
  0
LINE
  5
337
330
1F
100
AcDbEntity
  8
1
  6
Continuous
 62
    18
100
AcDbLine
 10
9.327851
 20
1.861523
 30
0.0
 11
9.327851
 21
1.629691
 31
0.0
  0
LINE
  5
338
330
1F
100
AcDbEntity
  8
1
  6
Continuous
 62
    18
100
AcDbLine
 10
9.33285
 20
1.861523
 30
0.0
 11
9.33285
 21
1.629691
 31
0.0
  0
LINE
  5
339
330
1F
100
AcDbEntity
  8
1
  6
Continuous
 62
    18
100
AcDbLine
 10
9.337851
 20
1.861523
 30
0.0
 11
9.337851
 21
1.629691
 31
0.0
  0
LINE
  5
33A
330
1F
100
AcDbEntity
  8
1
  6
Continuous
 62
    18
100
AcDbLine
 10
9.342851
 20
1.861523
 30
0.0
 11
9.342851
 21
1.629691
 31
0.0
  0
LINE
  5
33B
330
1F
100
AcDbEntity
  8
1
  6
Continuous
 62
    18
100
AcDbLine
 10
9.347851
 20
1.861523
 30
0.0
 11
9.347851
 21
1.62972
 31
0.0
  0
LINE
  5
33C
330
1F
100
AcDbEntity
  8
1
  6
Continuous
 62
    18
100
AcDbLine
 10
9.352851
 20
1.861523
 30
0.0
 11
9.352851
 21
1.630034
 31
0.0
  0
LINE
  5
33D
330
1F
100
AcDbEntity
  8
1
  6
Continuous
 62
    18
100
AcDbLine
 10
9.357851
 20
1.861523
 30
0.0
 11
9.357851
 21
1.630665
 31
0.0
  0
LINE
  5
33E
330
1F
100
AcDbEntity
  8
1
  6
Continuous
 62
    18
100
AcDbLine
 10
9.362851
 20
1.861523
 30
0.0
 11
9.362851
 21
1.631622
 31
0.0
  0
LINE
  5
33F
330
1F
100
AcDbEntity
  8
1
  6
Continuous
 62
    18
100
AcDbLine
 10
9.708549
 20
1.731262
 30
0.0
 11
9.708549
 21
1.521279
 31
0.0
  0
LINE
  5
340
330
1F
100
AcDbEntity
  8
1
  6
Continuous
 62
    18
100
AcDbLine
 10
9.713548
 20
1.716404
 30
0.0
 11
9.713548
 21
1.521279
 31
0.0
  0
LINE
  5
341
330
1F
100
AcDbEntity
  8
1
  6
Continuous
 62
    18
100
AcDbLine
 10
9.703548
 20
1.746119
 30
0.0
 11
9.703548
 21
1.521279
 31
0.0
  0
LINE
  5
342
330
1F
100
AcDbEntity
  8
1
  6
Continuous
 62
    18
100
AcDbLine
 10
9.718548
 20
1.701547
 30
0.0
 11
9.718548
 21
1.521279
 31
0.0
  0
LINE
  5
343
330
1F
100
AcDbEntity
  8
1
  6
Continuous
 62
    18
100
AcDbLine
 10
9.698548
 20
1.760976
 30
0.0
 11
9.698548
 21
1.521279
 31
0.0
  0
LINE
  5
344
330
1F
100
AcDbEntity
  8
1
  6
Continuous
 62
    18
100
AcDbLine
 10
9.693548
 20
1.775833
 30
0.0
 11
9.693548
 21
1.531091
 31
0.0
  0
LINE
  5
345
330
1F
100
AcDbEntity
  8
1
  6
Continuous
 62
    18
100
AcDbLine
 10
9.503548
 20
1.625932
 30
0.0
 11
9.503548
 21
1.568442
 31
0.0
  0
LINE
  5
346
330
1F
100
AcDbEntity
  8
1
  6
Continuous
 62
    18
100
AcDbLine
 10
9.498549
 20
1.625932
 30
0.0
 11
9.498549
 21
1.568442
 31
0.0
  0
LINE
  5
347
330
1F
100
AcDbEntity
  8
1
  6
Continuous
 62
    18
100
AcDbLine
 10
9.493548
 20
1.625932
 30
0.0
 11
9.493548
 21
1.568442
 31
0.0
  0
LINE
  5
348
330
1F
100
AcDbEntity
  8
1
  6
Continuous
 62
    18
100
AcDbLine
 10
9.488548
 20
1.625932
 30
0.0
 11
9.488548
 21
1.568442
 31
0.0
  0
LINE
  5
349
330
1F
100
AcDbEntity
  8
1
  6
Continuous
 62
    18
100
AcDbLine
 10
9.483548
 20
1.625932
 30
0.0
 11
9.483548
 21
1.568442
 31
0.0
  0
LINE
  5
34A
330
1F
100
AcDbEntity
  8
1
  6
Continuous
 62
    18
100
AcDbLine
 10
9.478548
 20
1.625932
 30
0.0
 11
9.478548
 21
1.568442
 31
0.0
  0
LINE
  5
34B
330
1F
100
AcDbEntity
  8
1
  6
Continuous
 62
    18
100
AcDbLine
 10
9.473548
 20
1.625932
 30
0.0
 11
9.473548
 21
1.568442
 31
0.0
  0
LINE
  5
34C
330
1F
100
AcDbEntity
  8
1
  6
Continuous
 62
    18
100
AcDbLine
 10
9.468548
 20
1.625932
 30
0.0
 11
9.468548
 21
1.568442
 31
0.0
  0
LINE
  5
34D
330
1F
100
AcDbEntity
  8
1
  6
Continuous
 62
    18
100
AcDbLine
 10
9.583549
 20
1.630861
 30
0.0
 11
9.583549
 21
1.521279
 31
0.0
  0
LINE
  5
34E
330
1F
100
AcDbEntity
  8
1
  6
Continuous
 62
    18
100
AcDbLine
 10
9.578548
 20
1.643824
 30
0.0
 11
9.578548
 21
1.521279
 31
0.0
  0
LINE
  5
34F
330
1F
100
AcDbEntity
  8
1
  6
Continuous
 62
    18
100
AcDbLine
 10
9.573548
 20
1.656787
 30
0.0
 11
9.573548
 21
1.521279
 31
0.0
  0
LINE
  5
350
330
1F
100
AcDbEntity
  8
1
  6
Continuous
 62
    18
100
AcDbLine
 10
9.568548
 20
1.66975
 30
0.0
 11
9.568548
 21
1.521279
 31
0.0
  0
LINE
  5
351
330
1F
100
AcDbEntity
  8
1
  6
Continuous
 62
    18
100
AcDbLine
 10
9.563548
 20
1.682713
 30
0.0
 11
9.563548
 21
1.521279
 31
0.0
  0
LINE
  5
352
330
1F
100
AcDbEntity
  8
1
  6
Continuous
 62
    18
100
AcDbLine
 10
9.558548
 20
1.695676
 30
0.0
 11
9.558548
 21
1.521279
 31
0.0
  0
LINE
  5
353
330
1F
100
AcDbEntity
  8
1
  6
Continuous
 62
    18
100
AcDbLine
 10
9.553548
 20
1.708639
 30
0.0
 11
9.553548
 21
1.521279
 31
0.0
  0
LINE
  5
354
330
1F
100
AcDbEntity
  8
1
  6
Continuous
 62
    18
100
AcDbLine
 10
9.548548
 20
1.721602
 30
0.0
 11
9.548548
 21
1.521279
 31
0.0
  0
LINE
  5
355
330
1F
100
AcDbEntity
  8
1
  6
Continuous
 62
    18
100
AcDbLine
 10
9.543549
 20
1.734565
 30
0.0
 11
9.543549
 21
1.521279
 31
0.0
  0
LINE
  5
356
330
1F
100
AcDbEntity
  8
1
  6
Continuous
 62
    18
100
AcDbLine
 10
9.538548
 20
1.747528
 30
0.0
 11
9.538548
 21
1.521279
 31
0.0
  0
LINE
  5
357
330
1F
100
AcDbEntity
  8
1
  6
Continuous
 62
    18
100
AcDbLine
 10
9.533548
 20
1.760491
 30
0.0
 11
9.533548
 21
1.528946
 31
0.0
  0
LINE
  5
358
330
1F
100
AcDbEntity
  8
1
  6
Continuous
 62
    18
100
AcDbLine
 10
9.528548
 20
1.773454
 30
0.0
 11
9.528548
 21
1.540821
 31
0.0
  0
LINE
  5
359
330
1F
100
AcDbEntity
  8
1
  6
Continuous
 62
    18
100
AcDbLine
 10
9.367851
 20
1.861206
 30
0.0
 11
9.367851
 21
1.632917
 31
0.0
  0
LINE
  5
35A
330
1F
100
AcDbEntity
  8
1
  6
Continuous
 62
    18
100
AcDbLine
 10
9.372851
 20
1.860608
 30
0.0
 11
9.372851
 21
1.634568
 31
0.0
  0
LINE
  5
35B
330
1F
100
AcDbEntity
  8
1
  6
Continuous
 62
    18
100
AcDbLine
 10
9.377851
 20
1.859714
 30
0.0
 11
9.377851
 21
1.636598
 31
0.0
  0
LINE
  5
35C
330
1F
100
AcDbEntity
  8
1
  6
Continuous
 62
    18
100
AcDbLine
 10
9.382851
 20
1.858514
 30
0.0
 11
9.382851
 21
1.63904
 31
0.0
  0
LINE
  5
35D
330
1F
100
AcDbEntity
  8
1
  6
Continuous
 62
    18
100
AcDbLine
 10
9.387851
 20
1.856994
 30
0.0
 11
9.387851
 21
1.522256
 31
0.0
  0
LINE
  5
35E
330
1F
100
AcDbEntity
  8
1
  6
Continuous
 62
    18
100
AcDbLine
 10
9.392851
 20
1.855138
 30
0.0
 11
9.392851
 21
1.522256
 31
0.0
  0
LINE
  5
35F
330
1F
100
AcDbEntity
  8
1
  6
Continuous
 62
    18
100
AcDbLine
 10
9.397851
 20
1.85292
 30
0.0
 11
9.397851
 21
1.522256
 31
0.0
  0
LINE
  5
360
330
1F
100
AcDbEntity
  8
1
  6
Continuous
 62
    18
100
AcDbLine
 10
9.402851
 20
1.850309
 30
0.0
 11
9.402851
 21
1.522256
 31
0.0
  0
LINE
  5
361
330
1F
100
AcDbEntity
  8
1
  6
Continuous
 62
    18
100
AcDbLine
 10
9.407851
 20
1.847264
 30
0.0
 11
9.407851
 21
1.522256
 31
0.0
  0
LINE
  5
362
330
1F
100
AcDbEntity
  8
1
  6
Continuous
 62
    18
100
AcDbLine
 10
9.412851
 20
1.843727
 30
0.0
 11
9.412851
 21
1.522256
 31
0.0
  0
LINE
  5
363
330
1F
100
AcDbEntity
  8
1
  6
Continuous
 62
    18
100
AcDbLine
 10
9.41785
 20
1.839617
 30
0.0
 11
9.41785
 21
1.522256
 31
0.0
  0
LINE
  5
364
330
1F
100
AcDbEntity
  8
1
  6
Continuous
 62
    18
100
AcDbLine
 10
9.422851
 20
1.834819
 30
0.0
 11
9.422851
 21
1.522256
 31
0.0
  0
LINE
  5
365
330
1F
100
AcDbEntity
  8
1
  6
Continuous
 62
    18
100
AcDbLine
 10
9.427851
 20
1.829152
 30
0.0
 11
9.427851
 21
1.531174
 31
0.0
  0
LINE
  5
366
330
1F
100
AcDbEntity
  8
1
  6
Continuous
 62
    18
100
AcDbLine
 10
9.432851
 20
1.822308
 30
0.0
 11
9.432851
 21
1.544746
 31
0.0
  0
LINE
  5
367
330
1F
100
AcDbEntity
  8
1
  6
Continuous
 62
    18
100
AcDbLine
 10
9.437851
 20
1.81368
 30
0.0
 11
9.437851
 21
1.558317
 31
0.0
  0
LINE
  5
368
330
1F
100
AcDbEntity
  8
1
  6
Continuous
 62
    18
100
AcDbLine
 10
9.442851
 20
1.801625
 30
0.0
 11
9.442851
 21
1.568442
 31
0.0
  0
LINE
  5
369
330
1F
100
AcDbEntity
  8
1
  6
Continuous
 62
    18
100
AcDbLine
 10
9.337851
 20
1.524335
 30
0.0
 11
9.337851
 21
1.522256
 31
0.0
  0
LINE
  5
36A
330
1F
100
AcDbEntity
  8
1
  6
Continuous
 62
    18
100
AcDbLine
 10
9.342851
 20
1.53646
 30
0.0
 11
9.342851
 21
1.522256
 31
0.0
  0
LINE
  5
36B
330
1F
100
AcDbEntity
  8
1
  6
Continuous
 62
    18
100
AcDbLine
 10
9.347851
 20
1.548585
 30
0.0
 11
9.347851
 21
1.522256
 31
0.0
  0
LINE
  5
36C
330
1F
100
AcDbEntity
  8
1
  6
Continuous
 62
    18
100
AcDbLine
 10
9.352851
 20
1.560709
 30
0.0
 11
9.352851
 21
1.522256
 31
0.0
  0
LINE
  5
36D
330
1F
100
AcDbEntity
  8
1
  6
Continuous
 62
    18
100
AcDbLine
 10
9.357851
 20
1.572834
 30
0.0
 11
9.357851
 21
1.522256
 31
0.0
  0
LINE
  5
36E
330
1F
100
AcDbEntity
  8
1
  6
Continuous
 62
    18
100
AcDbLine
 10
9.362851
 20
1.58496
 30
0.0
 11
9.362851
 21
1.522256
 31
0.0
  0
LINE
  5
36F
330
1F
100
AcDbEntity
  8
1
  6
Continuous
 62
    18
100
AcDbLine
 10
9.367851
 20
1.597085
 30
0.0
 11
9.367851
 21
1.522256
 31
0.0
  0
LINE
  5
370
330
1F
100
AcDbEntity
  8
1
  6
Continuous
 62
    18
100
AcDbLine
 10
9.372851
 20
1.60921
 30
0.0
 11
9.372851
 21
1.522256
 31
0.0
  0
LINE
  5
371
330
1F
100
AcDbEntity
  8
1
  6
Continuous
 62
    18
100
AcDbLine
 10
9.377851
 20
1.621335
 30
0.0
 11
9.377851
 21
1.522256
 31
0.0
  0
LINE
  5
372
330
1F
100
AcDbEntity
  8
1
  6
Continuous
 62
    18
100
AcDbLine
 10
9.382851
 20
1.63346
 30
0.0
 11
9.382851
 21
1.522256
 31
0.0
  0
LINE
  5
373
330
1F
100
AcDbEntity
  8
1
  6
Continuous
 62
    18
100
AcDbLine
 10
9.272851
 20
1.861523
 30
0.0
 11
9.272851
 21
1.807231
 31
0.0
  0
LINE
  5
374
330
1F
100
AcDbEntity
  8
1
  6
Continuous
 62
    18
100
AcDbLine
 10
9.272851
 20
1.689019
 30
0.0
 11
9.272851
 21
1.629691
 31
0.0
  0
LINE
  5
375
330
1F
100
AcDbEntity
  8
1
  6
Continuous
 62
    18
100
AcDbLine
 10
9.277851
 20
1.861523
 30
0.0
 11
9.277851
 21
1.807231
 31
0.0
  0
LINE
  5
376
330
1F
100
AcDbEntity
  8
1
  6
Continuous
 62
    18
100
AcDbLine
 10
9.277851
 20
1.689019
 30
0.0
 11
9.277851
 21
1.629691
 31
0.0
  0
LINE
  5
377
330
1F
100
AcDbEntity
  8
1
  6
Continuous
 62
    18
100
AcDbLine
 10
9.282851
 20
1.861523
 30
0.0
 11
9.282851
 21
1.807231
 31
0.0
  0
LINE
  5
378
330
1F
100
AcDbEntity
  8
1
  6
Continuous
 62
    18
100
AcDbLine
 10
9.282851
 20
1.689019
 30
0.0
 11
9.282851
 21
1.629691
 31
0.0
  0
LINE
  5
379
330
1F
100
AcDbEntity
  8
1
  6
Continuous
 62
    18
100
AcDbLine
 10
9.287851
 20
1.861523
 30
0.0
 11
9.287851
 21
1.807231
 31
0.0
  0
LINE
  5
37A
330
1F
100
AcDbEntity
  8
1
  6
Continuous
 62
    18
100
AcDbLine
 10
9.287851
 20
1.689019
 30
0.0
 11
9.287851
 21
1.629691
 31
0.0
  0
LINE
  5
37B
330
1F
100
AcDbEntity
  8
1
  6
Continuous
 62
    18
100
AcDbLine
 10
9.29285
 20
1.689031
 30
0.0
 11
9.29285
 21
1.629691
 31
0.0
  0
LINE
  5
37C
330
1F
100
AcDbEntity
  8
1
  6
Continuous
 62
    18
100
AcDbLine
 10
9.297851
 20
1.690271
 30
0.0
 11
9.297851
 21
1.629691
 31
0.0
  0
LINE
  5
37D
330
1F
100
AcDbEntity
  8
1
  6
Continuous
 62
    18
100
AcDbLine
 10
9.302851
 20
1.694447
 30
0.0
 11
9.302851
 21
1.629691
 31
0.0
  0
LINE
  5
37E
330
1F
100
AcDbEntity
  8
1
  6
Continuous
 62
    18
100
AcDbLine
 10
7.271921
 20
6.698582
 30
0.0
 11
7.271921
 21
6.556122
 31
0.0
  0
LINE
  5
37F
330
1F
100
AcDbEntity
  8
1
  6
Continuous
 62
    18
100
AcDbLine
 10
7.199931
 20
6.529105
 30
0.0
 11
7.254532
 21
6.536293
 31
0.0
  0
LINE
  5
380
330
1F
100
AcDbEntity
  8
1
  6
Continuous
 62
    18
100
AcDbLine
 10
7.194619
 20
6.513458
 30
0.0
 11
7.285708
 21
6.422369
 31
0.0
  0
LINE
  5
381
330
1F
100
AcDbEntity
  8
1
  6
Continuous
 62
    18
100
AcDbLine
 10
7.336921
 20
6.768582
 30
0.0
 11
7.336921
 21
6.443582
 31
0.0
  0
LINE
  5
382
330
1F
100
AcDbEntity
  8
1
  6
Continuous
 62
    18
100
AcDbLine
 10
3.101921
 20
6.783582
 30
0.0
 11
7.321921
 21
6.783582
 31
0.0
  0
LINE
  5
383
330
1F
100
AcDbEntity
  8
1
  6
Continuous
 62
    18
100
AcDbLine
 10
3.086921
 20
6.768582
 30
0.0
 11
3.086921
 21
6.443582
 31
0.0
  0
LINE
  5
384
330
1F
100
AcDbEntity
  8
1
  6
Continuous
 62
    18
100
AcDbLine
 10
3.229223
 20
6.513458
 30
0.0
 11
3.138134
 21
6.422369
 31
0.0
  0
LINE
  5
385
330
1F
100
AcDbEntity
  8
1
  6
Continuous
 62
    18
100
AcDbLine
 10
3.223912
 20
6.529105
 30
0.0
 11
3.169311
 21
6.536293
 31
0.0
  0
LINE
  5
386
330
1F
100
AcDbEntity
  8
1
  6
Continuous
 62
    18
100
AcDbLine
 10
3.151921
 20
6.698582
 30
0.0
 11
3.151921
 21
6.556122
 31
0.0
  0
LINE
  5
387
330
1F
100
AcDbEntity
  8
1
  6
Continuous
 62
    18
100
AcDbLine
 10
3.171921
 20
6.718583
 30
0.0
 11
7.251921
 21
6.718583
 31
0.0
  0
CIRCLE
  5
388
330
1F
100
AcDbEntity
  8
1
  6
Continuous
 62
    18
100
AcDbCircle
 10
7.293359
 20
0.719376
 30
0.0
 40
0.0761323720216751
  0
CIRCLE
  5
389
330
1F
100
AcDbEntity
  8
1
  6
Continuous
 62
    18
100
AcDbCircle
 10
7.293359
 20
0.719376
 30
0.0
 40
0.1133828461170197
  0
ARC
  5
38A
330
1F
100
AcDbEntity
  8
1
  6
Continuous
 62
    18
100
AcDbCircle
 10
9.36
 20
1.774327
 30
0.0
 40
0.0872326865792274
100
AcDbArc
 50
3.969723
 51
91.678197
  0
ARC
  5
38B
330
1F
100
AcDbEntity
  8
1
  6
Continuous
 62
    18
100
AcDbCircle
 10
9.345358
 20
1.709463
 30
0.0
 40
0.0797819718718529
100
AcDbArc
 50
270.923146
 51
300.49413
  0
ARC
  5
38C
330
1F
100
AcDbEntity
  8
1
  6
Continuous
 62
    18
100
AcDbCircle
 10
9.99863
 20
1.749601
 30
0.0
 40
0.0299999993294477
100
AcDbArc
 50
0.0
 51
90.0
  0
ARC
  5
38D
330
1F
100
AcDbEntity
  8
1
  6
Continuous
 62
    18
100
AcDbCircle
 10
9.292284
 20
1.794231
 30
0.0
 40
0.0130000002682209
100
AcDbArc
 50
0.0
 51
90.0
  0
ARC
  5
38E
330
1F
100
AcDbEntity
  8
1
  6
Continuous
 62
    18
100
AcDbCircle
 10
9.292284
 20
1.702019
 30
0.0
 40
0.0130000002682209
100
AcDbArc
 50
270.0
 51
0.0
  0
ARC
  5
38F
330
1F
100
AcDbEntity
  8
1
  6
Continuous
 62
    18
100
AcDbCircle
 10
9.935275
 20
1.709657
 30
0.0
 40
0.0130000002682209
100
AcDbArc
 50
0.0
 51
90.0
  0
ARC
  5
390
330
1F
100
AcDbEntity
  8
1
  6
Continuous
 62
    18
100
AcDbCircle
 10
9.935275
 20
1.600558
 30
0.0
 40
0.0130000002682209
100
AcDbArc
 50
270.0
 51
0.0
  0
ARC
  5
391
330
1F
100
AcDbEntity
  8
1
  6
Continuous
 62
    18
100
AcDbCircle
 10
10.199208
 20
1.561279
 30
0.0
 40
0.0399999991059303
100
AcDbArc
 50
270.0
 51
0.0
  0
ARC
  5
392
330
1F
100
AcDbEntity
  8
1
  6
Continuous
 62
    18
100
AcDbCircle
 10
10.093548
 20
1.561279
 30
0.0
 40
0.0399999991059303
100
AcDbArc
 50
180.0
 51
270.0
  0
ARC
  5
393
330
1F
100
AcDbEntity
  8
1
  6
Continuous
 62
    18
100
AcDbCircle
 10
9.99863
 20
1.551279
 30
0.0
 40
0.0299999993294477
100
AcDbArc
 50
270.0
 51
0.0
  0
ARC
  5
394
330
1F
100
AcDbEntity
  8
1
  6
Continuous
 62
    18
100
AcDbCircle
 10
7.251921
 20
6.698582
 30
0.0
 40
0.0199999995529652
100
AcDbArc
 50
0.0
 51
90.0
  0
ARC
  5
395
330
1F
100
AcDbEntity
  8
1
  6
Continuous
 62
    18
100
AcDbCircle
 10
7.251921
 20
6.556122
 30
0.0
 40
0.0199999995529652
100
AcDbArc
 50
277.5
 51
0.0
  0
ARC
  5
396
330
1F
100
AcDbEntity
  8
1
  6
Continuous
 62
    18
100
AcDbCircle
 10
7.201133
 20
6.519972
 30
0.0
 40
0.0092118177562952
100
AcDbArc
 50
97.5
 51
224.999248
  0
ARC
  5
397
330
1F
100
AcDbEntity
  8
1
  6
Continuous
 62
    18
100
AcDbCircle
 10
7.306921
 20
6.443583
 30
0.0
 40
0.0299999993294477
100
AcDbArc
 50
225.000438
 51
359.99963
  0
ARC
  5
398
330
1F
100
AcDbEntity
  8
1
  6
Continuous
 62
    18
100
AcDbCircle
 10
7.321921
 20
6.768582
 30
0.0
 40
0.0149999996647239
100
AcDbArc
 50
0.0
 51
90.0
  0
ARC
  5
399
330
1F
100
AcDbEntity
  8
1
  6
Continuous
 62
    18
100
AcDbCircle
 10
3.101921
 20
6.768582
 30
0.0
 40
0.0149999996647239
100
AcDbArc
 50
90.0
 51
180.000644
  0
ARC
  5
39A
330
1F
100
AcDbEntity
  8
1
  6
Continuous
 62
    18
100
AcDbCircle
 10
3.116921
 20
6.443583
 30
0.0
 40
0.0299999993294477
100
AcDbArc
 50
180.00037
 51
314.999562
  0
ARC
  5
39B
330
1F
100
AcDbEntity
  8
1
  6
Continuous
 62
    18
100
AcDbCircle
 10
3.222709
 20
6.519972
 30
0.0
 40
0.0092118177562952
100
AcDbArc
 50
315.000752
 51
82.5
  0
ARC
  5
39C
330
1F
100
AcDbEntity
  8
1
  6
Continuous
 62
    18
100
AcDbCircle
 10
3.171921
 20
6.556122
 30
0.0
 40
0.0199999995529652
100
AcDbArc
 50
180.0
 51
262.5
  0
ARC
  5
39D
330
1F
100
AcDbEntity
  8
1
  6
Continuous
 62
    18
100
AcDbCircle
 10
3.171921
 20
6.698582
 30
0.0
 40
0.0199999995529652
100
AcDbArc
 50
90.0
 51
180.0
  0
MTEXT
  5
39E
330
1F
100
AcDbEntity
  8
1
  6
Continuous
 62
    18
100
AcDbMText
 10
5.397171
 20
6.073503
 30
0.0
 40
0.09
 41
0.0
 46
0.2
 71
     7
 72
     5
  1
\W01.335;REF. 
  7
blockfont
 73
     2
 44
0.903614
1001
ACAD
1000
ACAD_MTEXT_DEFINED_HEIGHT_BEGIN
1070
    46
1040
0.2
1000
ACAD_MTEXT_DEFINED_HEIGHT_END
  0
MTEXT
  5
3A1
330
1F
100
AcDbEntity
  8
1
  6
Continuous
 62
    18
100
AcDbMText
 10
4.688421
 20
6.073503
 30
0.0
 40
0.09
 41
0.0
 46
0.2
 71
     7
 72
     5
  1
\W01.268;4.250 
  7
blockfont
 73
     2
 44
0.903614
1001
ACAD
1000
ACAD_MTEXT_DEFINED_HEIGHT_BEGIN
1070
    46
1040
0.2
1000
ACAD_MTEXT_DEFINED_HEIGHT_END
  0
MTEXT
  5
3A2
330
1F
100
AcDbEntity
  8
1
  6
Continuous
 62
    18
100
AcDbMText
 10
4.727797
 20
5.854127
 30
0.0
 40
0.09
 41
0.0
 46
0.2
 71
     7
 72
     5
  1
\W01.297;107.95 
  7
blockfont
 73
     2
 44
0.903614
1001
ACAD
1000
ACAD_MTEXT_DEFINED_HEIGHT_BEGIN
1070
    46
1040
0.2
1000
ACAD_MTEXT_DEFINED_HEIGHT_END
  0
MTEXT
  5
3A3
330
1F
100
AcDbEntity
  8
1
  6
Continuous
 62
    18
100
AcDbMText
 10
7.078452
 20
7.45077
 30
0.0
 40
0.09
 41
0.0
 46
0.2
 71
     7
 72
     5
  1
\W01.335;REF. 
  7
blockfont
 73
     2
 44
0.903614
1001
ACAD
1000
ACAD_MTEXT_DEFINED_HEIGHT_BEGIN
1070
    46
1040
0.2
1000
ACAD_MTEXT_DEFINED_HEIGHT_END
  0
MTEXT
  5
3A4
330
1F
100
AcDbEntity
  8
1
  6
Continuous
 62
    18
100
AcDbMText
 10
6.565826
 20
7.45077
 30
0.0
 40
0.09
 41
0.0
 46
0.2
 71
     7
 72
     5
  1
\W01.297;.370 
  7
blockfont
 73
     2
 44
0.903614
1001
ACAD
1000
ACAD_MTEXT_DEFINED_HEIGHT_BEGIN
1070
    46
1040
0.2
1000
ACAD_MTEXT_DEFINED_HEIGHT_END
  0
MTEXT
  5
3A5
330
1F
100
AcDbEntity
  8
1
  6
Continuous
 62
    18
100
AcDbMText
 10
6.605202
 20
7.231395
 30
0.0
 40
0.09
 41
0.0
 46
0.2
 71
     7
 72
     5
  1
\W01.297;9.40 
  7
blockfont
 73
     2
 44
0.903614
1001
ACAD
1000
ACAD_MTEXT_DEFINED_HEIGHT_BEGIN
1070
    46
1040
0.2
1000
ACAD_MTEXT_DEFINED_HEIGHT_END
  0
MTEXT
  5
3A6
330
1F
100
AcDbEntity
  8
1
  6
Continuous
 62
    18
100
AcDbMText
 10
0.625447
 20
8.060119
 30
0.0
 40
0.071316
 41
0.0
 46
0.2
 71
     7
 72
     5
  1
\W01.205;THIS COPY IS PROVIDED ON A RESTRICTED BASIS AND IS NOT TO BE USED IN ANY WAY DETRIMENTAL TO THE INTERESTS OF PANDUIT CORP. 
  7
blockfont
 73
     2
 44
0.903614
1001
ACAD
1000
ACAD_MTEXT_DEFINED_HEIGHT_BEGIN
1070
    46
1040
0.2
1000
ACAD_MTEXT_DEFINED_HEIGHT_END
  0
MTEXT
  5
3A7
330
1F
100
AcDbEntity
  8
1
  6
Continuous
 62
    18
100
AcDbMText
 10
10.842544
 20
2.12493
 30
0.0
 40
0.15
 41
0.0
 46
0.2
 71
     7
 72
     5
  1
\W00.894;A 
  7
DEFAULT
 73
     2
 44
1.204819
1001
ACAD
1000
ACAD_MTEXT_DEFINED_HEIGHT_BEGIN
1070
    46
1040
0.2
1000
ACAD_MTEXT_DEFINED_HEIGHT_END
  0
MTEXT
  5
3A9
330
1F
100
AcDbEntity
  8
1
  6
Continuous
 62
    18
100
AcDbMText
 10
10.843325
 20
6.12493
 30
0.0
 40
0.15
 41
0.0
 46
0.2
 71
     7
 72
     5
  1
\W00.773;B 
  7
DEFAULT
 73
     2
 44
1.204819
1001
ACAD
1000
ACAD_MTEXT_DEFINED_HEIGHT_BEGIN
1070
    46
1040
0.2
1000
ACAD_MTEXT_DEFINED_HEIGHT_END
  0
MTEXT
  5
3AA
330
1F
100
AcDbEntity
  8
1
  6
Continuous
 62
    18
100
AcDbMText
 10
0.088544
 20
2.12493
 30
0.0
 40
0.15
 41
0.0
 46
0.2
 71
     7
 72
     5
  1
\W00.894;A 
  7
DEFAULT
 73
     2
 44
1.204819
1001
ACAD
1000
ACAD_MTEXT_DEFINED_HEIGHT_BEGIN
1070
    46
1040
0.2
1000
ACAD_MTEXT_DEFINED_HEIGHT_END
  0
MTEXT
  5
3AB
330
1F
100
AcDbEntity
  8
1
  6
Continuous
 62
    18
100
AcDbMText
 10
0.089325
 20
6.12493
 30
0.0
 40
0.15
 41
0.0
 46
0.2
 71
     7
 72
     5
  1
\W00.773;B 
  7
DEFAULT
 73
     2
 44
1.204819
1001
ACAD
1000
ACAD_MTEXT_DEFINED_HEIGHT_BEGIN
1070
    46
1040
0.2
1000
ACAD_MTEXT_DEFINED_HEIGHT_END
  0
MTEXT
  5
3AC
330
1F
100
AcDbEntity
  8
1
  6
Continuous
 62
    18
100
AcDbMText
 10
8.131754
 20
8.250278
 30
0.0
 40
0.15
 41
0.0
 46
0.2
 71
     7
 72
     5
  1
\W00.480;1 
  7
DEFAULT
 73
     2
 44
1.204819
1001
ACAD
1000
ACAD_MTEXT_DEFINED_HEIGHT_BEGIN
1070
    46
1040
0.2
1000
ACAD_MTEXT_DEFINED_HEIGHT_END
  0
MTEXT
  5
3AD
330
1F
100
AcDbEntity
  8
1
  6
Continuous
 62
    18
100
AcDbMText
 10
2.840348
 20
8.250278
 30
0.0
 40
0.15
 41
0.0
 46
0.2
 71
     7
 72
     5
  1
\W00.967;2 
  7
DEFAULT
 73
     2
 44
1.204819
1001
ACAD
1000
ACAD_MTEXT_DEFINED_HEIGHT_BEGIN
1070
    46
1040
0.2
1000
ACAD_MTEXT_DEFINED_HEIGHT_END
  0
MTEXT
  5
3AE
330
1F
100
AcDbEntity
  8
1
  6
Continuous
 62
    18
100
AcDbMText
 10
2.840348
 20
0.000278
 30
0.0
 40
0.15
 41
0.0
 46
0.2
 71
     7
 72
     5
  1
\W00.967;2 
  7
DEFAULT
 73
     2
 44
1.204819
1001
ACAD
1000
ACAD_MTEXT_DEFINED_HEIGHT_BEGIN
1070
    46
1040
0.2
1000
ACAD_MTEXT_DEFINED_HEIGHT_END
  0
MTEXT
  5
3AF
330
1F
100
AcDbEntity
  8
1
  6
Continuous
 62
    18
100
AcDbMText
 10
8.131754
 20
0.000278
 30
0.0
 40
0.15
 41
0.0
 46
0.2
 71
     7
 72
     5
  1
\W00.480;1 
  7
DEFAULT
 73
     2
 44
1.204819
1001
ACAD
1000
ACAD_MTEXT_DEFINED_HEIGHT_BEGIN
1070
    46
1040
0.2
1000
ACAD_MTEXT_DEFINED_HEIGHT_END
  0
MTEXT
  5
3B0
330
1F
100
AcDbEntity
  8
1
  6
Continuous
 62
    18
100
AcDbMText
 10
7.357953
 20
1.715704
 30
0.0
 40
0.08
 41
0.0
 46
0.2
 71
     7
 72
     5
  1
\W00.715;D11000GC/01 
  7
helios
 73
     2
 44
0.903614
1001
ACAD
1000
ACAD_MTEXT_DEFINED_HEIGHT_BEGIN
1070
    46
1040
0.2
1000
ACAD_MTEXT_DEFINED_HEIGHT_END
  0
MTEXT
  5
3B2
330
1F
100
AcDbEntity
  8
1
  6
Continuous
 62
    18
100
AcDbMText
 10
7.145408
 20
1.46804
 30
0.0
 40
0.08
 41
0.0
 46
0.2
 71
     7
 72
     5
  1
\W00.703;D11000GC_DC_C4/01B 
  7
helios
 73
     2
 44
0.903614
1001
ACAD
1000
ACAD_MTEXT_DEFINED_HEIGHT_BEGIN
1070
    46
1040
0.2
1000
ACAD_MTEXT_DEFINED_HEIGHT_END
  0
MTEXT
  5
3B3
330
1F
100
AcDbEntity
  8
1
  6
Continuous
 62
    18
100
AcDbMText
 10
0.210757
 20
0.262677
 30
0.0
 40
0.05
 41
0.0
 46
0.2
 71
     7
 72
     5
  1
\W01.185;D10100DA/15 
  7
blockfont
 11
1.171455364582524E-15
 21
1.0
 31
0.0
 73
     2
 44
0.903614
1001
ACAD
1000
ACAD_MTEXT_DEFINED_HEIGHT_BEGIN
1070
    46
1040
0.2
1000
ACAD_MTEXT_DEFINED_HEIGHT_END
  0
MTEXT
  5
3B4
330
1F
100
AcDbEntity
  8
1
  6
Continuous
 62
    18
100
AcDbMText
 10
10.383968
 20
3.161469
 30
0.0
 40
0.09
 41
0.0
 46
0.2
 71
     7
 72
     5
  1
\W00.955;A 
  7
blockfont
 73
     2
 44
0.903614
1001
ACAD
1000
ACAD_MTEXT_DEFINED_HEIGHT_BEGIN
1070
    46
1040
0.2
1000
ACAD_MTEXT_DEFINED_HEIGHT_END
  0
MTEXT
  5
3B5
330
1F
100
AcDbEntity
  8
1
  6
Continuous
 62
    18
100
AcDbMText
 10
6.40889
 20
2.551345
 30
0.0
 40
0.04
 41
0.0
 46
0.2
 71
     7
 72
     5
  1
\W01.445;TITLE 
  7
blockfont
 73
     2
 44
0.903614
1001
ACAD
1000
ACAD_MTEXT_DEFINED_HEIGHT_BEGIN
1070
    46
1040
0.2
1000
ACAD_MTEXT_DEFINED_HEIGHT_END
  0
MTEXT
  5
3B6
330
1F
100
AcDbEntity
  8
1
  6
Continuous
 62
    18
100
AcDbMText
 10
7.44139
 20
2.307658
 30
0.0
 40
0.125
 41
0.0
 46
0.2
 71
     7
 72
     5
  1
\W00.758;WIRING DUCT - TYPE C COVER 
  7
helios
 73
     2
 44
0.903614
1001
ACAD
1000
ACAD_MTEXT_DEFINED_HEIGHT_BEGIN
1070
    46
1040
0.2
1000
ACAD_MTEXT_DEFINED_HEIGHT_END
  0
MTEXT
  5
3B7
330
1F
100
AcDbEntity
  8
1
  6
Continuous
 62
    18
100
AcDbMText
 10
8.529281
 20
2.120158
 30
0.0
 40
0.125
 41
0.0
 46
0.2
 71
     7
 72
     5
  1
\W00.668;4" 
  7
helios
 73
     2
 44
0.903614
1001
ACAD
1000
ACAD_MTEXT_DEFINED_HEIGHT_BEGIN
1070
    46
1040
0.2
1000
ACAD_MTEXT_DEFINED_HEIGHT_END
  0
MTEXT
  5
3B8
330
1F
100
AcDbEntity
  8
1
  6
Continuous
 62
    18
100
AcDbMText
 10
7.939124
 20
1.941657
 30
0.0
 40
0.07
 41
0.0
 46
0.2
 71
     7
 72
     5
  1
\W01.174;MARKETING DRAWING 
  7
blockfont
 73
     2
 44
0.903614
1001
ACAD
1000
ACAD_MTEXT_DEFINED_HEIGHT_BEGIN
1070
    46
1040
0.2
1000
ACAD_MTEXT_DEFINED_HEIGHT_END
  0
MTEXT
  5
3B9
330
1F
100
AcDbEntity
  8
1
  6
Continuous
 62
    18
100
AcDbMText
 10
6.40889
 20
1.863845
 30
0.0
 40
0.04
 41
0.0
 46
0.2
 71
     7
 72
     5
  1
\W01.247;ITEM REVISION NAME 
  7
blockfont
 73
     2
 44
0.903614
1001
ACAD
1000
ACAD_MTEXT_DEFINED_HEIGHT_BEGIN
1070
    46
1040
0.2
1000
ACAD_MTEXT_DEFINED_HEIGHT_END
  0
MTEXT
  5
3BA
330
1F
100
AcDbEntity
  8
1
  6
Continuous
 62
    18
100
AcDbMText
 10
6.40889
 20
1.613845
 30
0.0
 40
0.04
 41
0.0
 46
0.2
 71
     7
 72
     5
  1
\W01.206;DATASET FILE NAME 
  7
blockfont
 73
     2
 44
0.903614
1001
ACAD
1000
ACAD_MTEXT_DEFINED_HEIGHT_BEGIN
1070
    46
1040
0.2
1000
ACAD_MTEXT_DEFINED_HEIGHT_END
  0
MTEXT
  5
3BB
330
1F
100
AcDbEntity
  8
1
  6
Continuous
 62
    18
100
AcDbMText
 10
8.90889
 20
1.363845
 30
0.0
 40
0.04
 41
0.0
 46
0.2
 71
     7
 72
     5
  1
\W01.256;MATERIAL: 
  7
blockfont
 73
     2
 44
0.903614
1001
ACAD
1000
ACAD_MTEXT_DEFINED_HEIGHT_BEGIN
1070
    46
1040
0.2
1000
ACAD_MTEXT_DEFINED_HEIGHT_END
  0
MTEXT
  5
3BC
330
1F
100
AcDbEntity
  8
1
  6
Continuous
 62
    18
100
AcDbMText
 10
6.764515
 20
1.276137
 30
0.0
 40
0.06
 41
0.0
 46
0.2
 71
     7
 72
     5
  1
\W01.252;UNLESS OTHERWISE SPECIFIED, 
  7
blockfont
 73
     2
 44
0.903614
1001
ACAD
1000
ACAD_MTEXT_DEFINED_HEIGHT_BEGIN
1070
    46
1040
0.2
1000
ACAD_MTEXT_DEFINED_HEIGHT_END
  0
MTEXT
  5
3BD
330
1F
100
AcDbEntity
  8
1
  6
Continuous
 62
    18
100
AcDbMText
 10
6.502952
 20
1.186137
 30
0.0
 40
0.06
 41
0.0
 46
0.2
 71
     7
 72
     5
  1
\W01.203;DIMENSIONAL TOLERANCES ARE: IN [mm] 
  7
blockfont
 73
     2
 44
0.903614
1001
ACAD
1000
ACAD_MTEXT_DEFINED_HEIGHT_BEGIN
1070
    46
1040
0.2
1000
ACAD_MTEXT_DEFINED_HEIGHT_END
  0
MTEXT
  5
3BE
330
1F
100
AcDbEntity
  8
1
  6
Continuous
 62
    18
100
AcDbMText
 10
9.749515
 20
1.061635
 30
0.0
 40
0.08
 41
0.0
 46
0.2
 71
     7
 72
     5
  1
\W00.702;PVC 
  7
helios
 73
     2
 44
0.903614
1001
ACAD
1000
ACAD_MTEXT_DEFINED_HEIGHT_BEGIN
1070
    46
1040
0.2
1000
ACAD_MTEXT_DEFINED_HEIGHT_END
  0
MTEXT
  5
3BF
330
1F
100
AcDbEntity
  8
1
  6
Continuous
 62
    18
100
AcDbMText
 10
6.63639
 20
1.028845
 30
0.0
 40
0.04
 41
0.0
 46
0.2
 71
     7
 72
     5
  1
\W01.376;.X  
  7
blockfont
 73
     2
 44
0.903614
1001
ACAD
1000
ACAD_MTEXT_DEFINED_HEIGHT_BEGIN
1070
    46
1040
0.2
1000
ACAD_MTEXT_DEFINED_HEIGHT_END
  0
MTEXT
  5
3C0
330
1F
100
AcDbEntity
  8
1
  6
Continuous
 62
    18
100
AcDbMText
 10
7.79889
 20
1.028845
 30
0.0
 40
0.04
 41
0.0
 46
0.2
 71
     7
 72
     5
  1
\W01.282;.XXX  
  7
blockfont
 73
     2
 44
0.903614
1001
ACAD
1000
ACAD_MTEXT_DEFINED_HEIGHT_BEGIN
1070
    46
1040
0.2
1000
ACAD_MTEXT_DEFINED_HEIGHT_END
  0
MTEXT
  5
3C1
330
1F
100
AcDbEntity
  8
1
  6
Continuous
 62
    18
100
AcDbMText
 10
6.59264
 20
0.903845
 30
0.0
 40
0.04
 41
0.0
 46
0.2
 71
     7
 72
     5
  1
\W01.316;.XX  
  7
blockfont
 73
     2
 44
0.903614
1001
ACAD
1000
ACAD_MTEXT_DEFINED_HEIGHT_BEGIN
1070
    46
1040
0.2
1000
ACAD_MTEXT_DEFINED_HEIGHT_END
  0
MTEXT
  5
3C2
330
1F
100
AcDbEntity
  8
1
  6
Continuous
 62
    18
100
AcDbMText
 10
7.712014
 20
0.903845
 30
0.0
 40
0.04
 41
0.0
 46
0.2
 71
     7
 72
     5
  1
\W01.154;ANGLES  
  7
blockfont
 73
     2
 44
0.903614
1001
ACAD
1000
ACAD_MTEXT_DEFINED_HEIGHT_BEGIN
1070
    46
1040
0.2
1000
ACAD_MTEXT_DEFINED_HEIGHT_END
  0
MTEXT
  5
3C3
330
1F
100
AcDbEntity
  8
1
  6
Continuous
 62
    18
100
AcDbMText
 10
8.90889
 20
0.801345
 30
0.0
 40
0.04
 41
0.0
 46
0.2
 71
     7
 72
     5
  1
\W01.132;DRAWING NUMBER: 
  7
blockfont
 73
     2
 44
0.903614
1001
ACAD
1000
ACAD_MTEXT_DEFINED_HEIGHT_BEGIN
1070
    46
1040
0.2
1000
ACAD_MTEXT_DEFINED_HEIGHT_END
  0
MTEXT
  5
3C4
330
1F
100
AcDbEntity
  8
1
  6
Continuous
 62
    18
100
AcDbMText
 10
7.91264
 20
0.713637
 30
0.0
 40
0.06
 41
0.0
 46
0.2
 71
     7
 72
     5
  1
\W01.207;THIRD ANGLE 
  7
blockfont
 73
     2
 44
0.903614
1001
ACAD
1000
ACAD_MTEXT_DEFINED_HEIGHT_BEGIN
1070
    46
1040
0.2
1000
ACAD_MTEXT_DEFINED_HEIGHT_END
  0
MTEXT
  5
3C5
330
1F
100
AcDbEntity
  8
1
  6
Continuous
 62
    18
100
AcDbMText
 10
7.945452
 20
0.623637
 30
0.0
 40
0.06
 41
0.0
 46
0.2
 71
     7
 72
     5
  1
\W01.186;PROJECTION 
  7
blockfont
 73
     2
 44
0.903614
1001
ACAD
1000
ACAD_MTEXT_DEFINED_HEIGHT_BEGIN
1070
    46
1040
0.2
1000
ACAD_MTEXT_DEFINED_HEIGHT_END
  0
MTEXT
  5
3C6
330
1F
100
AcDbEntity
  8
1
  6
Continuous
 62
    18
100
AcDbMText
 10
9.241195
 20
0.583897
 30
0.0
 40
0.125
 41
0.0
 46
0.2
 71
     7
 72
     5
  1
\W01.113;36897-879 
  7
blockfont
 73
     2
 44
0.903614
1001
ACAD
1000
ACAD_MTEXT_DEFINED_HEIGHT_BEGIN
1070
    46
1040
0.2
1000
ACAD_MTEXT_DEFINED_HEIGHT_END
  0
MTEXT
  5
3C7
330
1F
100
AcDbEntity
  8
1
  6
Continuous
 62
    18
100
AcDbMText
 10
6.40889
 20
0.488845
 30
0.0
 40
0.04
 41
0.0
 46
0.2
 71
     7
 72
     5
  1
\W01.056;DRAWN BY 
  7
blockfont
 73
     2
 44
0.903614
1001
ACAD
1000
ACAD_MTEXT_DEFINED_HEIGHT_BEGIN
1070
    46
1040
0.2
1000
ACAD_MTEXT_DEFINED_HEIGHT_END
  0
MTEXT
  5
3C8
330
1F
100
AcDbEntity
  8
1
  6
Continuous
 62
    18
100
AcDbMText
 10
6.84639
 20
0.488845
 30
0.0
 40
0.04
 41
0.0
 46
0.2
 71
     7
 72
     5
  1
\W01.134;DATE 
  7
blockfont
 73
     2
 44
0.903614
1001
ACAD
1000
ACAD_MTEXT_DEFINED_HEIGHT_BEGIN
1070
    46
1040
0.2
1000
ACAD_MTEXT_DEFINED_HEIGHT_END
  0
MTEXT
  5
3C9
330
1F
100
AcDbEntity
  8
1
  6
Continuous
 62
    18
100
AcDbMText
 10
7.65889
 20
0.488845
 30
0.0
 40
0.04
 41
0.0
 46
0.2
 71
     7
 72
     5
  1
\W00.962;CHK 
  7
blockfont
 73
     2
 44
0.903614
1001
ACAD
1000
ACAD_MTEXT_DEFINED_HEIGHT_BEGIN
1070
    46
1040
0.2
1000
ACAD_MTEXT_DEFINED_HEIGHT_END
  0
MTEXT
  5
3CA
330
1F
100
AcDbEntity
  8
1
  6
Continuous
 62
    18
100
AcDbMText
 10
8.09639
 20
0.488845
 30
0.0
 40
0.04
 41
0.0
 46
0.2
 71
     7
 72
     5
  1
\W01.118;SCALE 
  7
blockfont
 73
     2
 44
0.903614
1001
ACAD
1000
ACAD_MTEXT_DEFINED_HEIGHT_BEGIN
1070
    46
1040
0.2
1000
ACAD_MTEXT_DEFINED_HEIGHT_END
  0
MTEXT
  5
3CB
330
1F
100
AcDbEntity
  8
1
  6
Continuous
 62
    18
100
AcDbMText
 10
10.49139
 20
0.497595
 30
0.0
 40
0.04
 41
0.0
 46
0.2
 71
     7
 72
     5
  1
\W01.355;SIZE 
  7
blockfont
 73
     2
 44
0.903614
1001
ACAD
1000
ACAD_MTEXT_DEFINED_HEIGHT_BEGIN
1070
    46
1040
0.2
1000
ACAD_MTEXT_DEFINED_HEIGHT_END
  0
MTEXT
  5
3CC
330
1F
100
AcDbEntity
  8
1
  6
Continuous
 62
    18
100
AcDbMText
 10
6.507639
 20
0.311635
 30
0.0
 40
0.08
 41
0.0
 46
0.2
 71
     7
 72
     5
  1
\W00.707;JHNU 
  7
helios
 73
     2
 44
0.903614
1001
ACAD
1000
ACAD_MTEXT_DEFINED_HEIGHT_BEGIN
1070
    46
1040
0.2
1000
ACAD_MTEXT_DEFINED_HEIGHT_END
  0
MTEXT
  5
3CD
330
1F
100
AcDbEntity
  8
1
  6
Continuous
 62
    18
100
AcDbMText
 10
7.013265
 20
0.311635
 30
0.0
 40
0.08
 41
0.0
 46
0.2
 71
     7
 72
     5
  1
\W00.711;09-23-03 
  7
helios
 73
     2
 44
0.903614
1001
ACAD
1000
ACAD_MTEXT_DEFINED_HEIGHT_BEGIN
1070
    46
1040
0.2
1000
ACAD_MTEXT_DEFINED_HEIGHT_END
  0
MTEXT
  5
3CE
330
1F
100
AcDbEntity
  8
1
  6
Continuous
 62
    18
100
AcDbMText
 10
7.78639
 20
0.311635
 30
0.0
 40
0.08
 41
0.0
 46
0.2
 71
     7
 72
     5
  1
\W00.748;JGG 
  7
helios
 73
     2
 44
0.903614
1001
ACAD
1000
ACAD_MTEXT_DEFINED_HEIGHT_BEGIN
1070
    46
1040
0.2
1000
ACAD_MTEXT_DEFINED_HEIGHT_END
  0
MTEXT
  5
3CF
330
1F
100
AcDbEntity
  8
1
  6
Continuous
 62
    18
100
AcDbMText
 10
8.38764
 20
0.311635
 30
0.0
 40
0.08
 41
0.0
 46
0.2
 71
     7
 72
     5
  1
\W00.778;FULL 
  7
helios
 73
     2
 44
0.903614
1001
ACAD
1000
ACAD_MTEXT_DEFINED_HEIGHT_BEGIN
1070
    46
1040
0.2
1000
ACAD_MTEXT_DEFINED_HEIGHT_END
  0
MTEXT
  5
3D0
330
1F
100
AcDbEntity
  8
1
  6
Continuous
 62
    18
100
AcDbMText
 10
9.397015
 20
0.311635
 30
0.0
 40
0.08
 41
0.0
 46
0.2
 71
     7
 72
     5
  1
\W00.708;SHT 1 OF 1 
  7
helios
 73
     2
 44
0.903614
1001
ACAD
1000
ACAD_MTEXT_DEFINED_HEIGHT_BEGIN
1070
    46
1040
0.2
1000
ACAD_MTEXT_DEFINED_HEIGHT_END
  0
MTEXT
  5
3D1
330
1F
100
AcDbEntity
  8
1
  6
Continuous
 62
    18
100
AcDbMText
 10
10.530061
 20
0.250824
 30
0.0
 40
0.15
 41
0.0
 46
0.2
 71
     7
 72
     5
  1
\W00.955;A 
  7
blockfont
 73
     2
 44
0.903614
1001
ACAD
1000
ACAD_MTEXT_DEFINED_HEIGHT_BEGIN
1070
    46
1040
0.2
1000
ACAD_MTEXT_DEFINED_HEIGHT_END
  0
MTEXT
  5
3D2
330
1F
100
AcDbEntity
  8
1
  6
Continuous
 62
    18
100
AcDbMText
 10
0.419541
 20
0.936635
 30
0.0
 40
0.08
 41
0.0
 46
0.2
 71
     7
 72
     5
  1
\W00.355;1 
  7
helios
 73
     2
 44
0.903614
1001
ACAD
1000
ACAD_MTEXT_DEFINED_HEIGHT_BEGIN
1070
    46
1040
0.2
1000
ACAD_MTEXT_DEFINED_HEIGHT_END
  0
MTEXT
  5
3D3
330
1F
100
AcDbEntity
  8
1
  6
Continuous
 62
    18
100
AcDbMText
 10
0.663291
 20
0.936635
 30
0.0
 40
0.08
 41
0.0
 46
0.2
 71
     7
 72
     5
  1
\W00.682;03-11-13 
  7
helios
 73
     2
 44
0.903614
1001
ACAD
1000
ACAD_MTEXT_DEFINED_HEIGHT_BEGIN
1070
    46
1040
0.2
1000
ACAD_MTEXT_DEFINED_HEIGHT_END
  0
MTEXT
  5
3D4
330
1F
100
AcDbEntity
  8
1
  6
Continuous
 62
    18
100
AcDbMText
 10
1.258291
 20
0.936635
 30
0.0
 40
0.08
 41
0.0
 46
0.2
 71
     7
 72
     5
  1
\W00.662;JBN 
  7
helios
 73
     2
 44
0.903614
1001
ACAD
1000
ACAD_MTEXT_DEFINED_HEIGHT_BEGIN
1070
    46
1040
0.2
1000
ACAD_MTEXT_DEFINED_HEIGHT_END
  0
MTEXT
  5
3D5
330
1F
100
AcDbEntity
  8
1
  6
Continuous
 62
    18
100
AcDbMText
 10
1.617041
 20
0.936635
 30
0.0
 40
0.08
 41
0.0
 46
0.2
 71
     7
 72
     5
  1
\W00.776;RTFI 
  7
helios
 73
     2
 44
0.903614
1001
ACAD
1000
ACAD_MTEXT_DEFINED_HEIGHT_BEGIN
1070
    46
1040
0.2
1000
ACAD_MTEXT_DEFINED_HEIGHT_END
  0
MTEXT
  5
3D6
330
1F
100
AcDbEntity
  8
1
  6
Continuous
 62
    18
100
AcDbMText
 10
1.992041
 20
0.936635
 30
0.0
 40
0.08
 41
0.0
 46
0.2
 71
     7
 72
     5
  1
\W00.776;RTFI 
  7
helios
 73
     2
 44
0.903614
1001
ACAD
1000
ACAD_MTEXT_DEFINED_HEIGHT_BEGIN
1070
    46
1040
0.2
1000
ACAD_MTEXT_DEFINED_HEIGHT_END
  0
MTEXT
  5
3D7
330
1F
100
AcDbEntity
  8
1
  6
Continuous
 62
    18
100
AcDbMText
 10
2.313916
 20
0.936635
 30
0.0
 40
0.08
 41
0.0
 46
0.2
 71
     7
 72
     5
  1
\W00.778;A. UPDATED DRAWING BORDER & TITLE BLOCK 
  7
helios
 73
     2
 44
0.903614
1001
ACAD
1000
ACAD_MTEXT_DEFINED_HEIGHT_BEGIN
1070
    46
1040
0.2
1000
ACAD_MTEXT_DEFINED_HEIGHT_END
  0
MTEXT
  5
3D8
330
1F
100
AcDbEntity
  8
1
  6
Continuous
 62
    18
100
AcDbMText
 10
5.703916
 20
0.936635
 30
0.0
 40
0.08
 41
0.0
 46
0.2
 71
     7
 72
     5
  1
\W00.739;36897-879 
  7
helios
 73
     2
 44
0.903614
1001
ACAD
1000
ACAD_MTEXT_DEFINED_HEIGHT_BEGIN
1070
    46
1040
0.2
1000
ACAD_MTEXT_DEFINED_HEIGHT_END
  0
MTEXT
  5
3D9
330
1F
100
AcDbEntity
  8
1
  6
Continuous
 62
    18
100
AcDbMText
 10
0.408916
 20
0.686635
 30
0.0
 40
0.08
 41
0.0
 46
0.2
 71
     7
 72
     5
  1
\W00.540;R 
  7
helios
 73
     2
 44
0.903614
1001
ACAD
1000
ACAD_MTEXT_DEFINED_HEIGHT_BEGIN
1070
    46
1040
0.2
1000
ACAD_MTEXT_DEFINED_HEIGHT_END
  0
MTEXT
  5
3DA
330
1F
100
AcDbEntity
  8
1
  6
Continuous
 62
    18
100
AcDbMText
 10
0.638291
 20
0.686635
 30
0.0
 40
0.08
 41
0.0
 46
0.2
 71
     7
 72
     5
  1
\W00.711;09-23-03 
  7
helios
 73
     2
 44
0.903614
1001
ACAD
1000
ACAD_MTEXT_DEFINED_HEIGHT_BEGIN
1070
    46
1040
0.2
1000
ACAD_MTEXT_DEFINED_HEIGHT_END
  0
MTEXT
  5
3DB
330
1F
100
AcDbEntity
  8
1
  6
Continuous
 62
    18
100
AcDbMText
 10
1.226416
 20
0.686635
 30
0.0
 40
0.08
 41
0.0
 46
0.2
 71
     7
 72
     5
  1
\W00.707;JHNU 
  7
helios
 73
     2
 44
0.903614
1001
ACAD
1000
ACAD_MTEXT_DEFINED_HEIGHT_BEGIN
1070
    46
1040
0.2
1000
ACAD_MTEXT_DEFINED_HEIGHT_END
  0
MTEXT
  5
3DC
330
1F
100
AcDbEntity
  8
1
  6
Continuous
 62
    18
100
AcDbMText
 10
1.630166
 20
0.686635
 30
0.0
 40
0.08
 41
0.0
 46
0.2
 71
     7
 72
     5
  1
\W00.748;JGG 
  7
helios
 73
     2
 44
0.903614
1001
ACAD
1000
ACAD_MTEXT_DEFINED_HEIGHT_BEGIN
1070
    46
1040
0.2
1000
ACAD_MTEXT_DEFINED_HEIGHT_END
  0
MTEXT
  5
3DD
330
1F
100
AcDbEntity
  8
1
  6
Continuous
 62
    18
100
AcDbMText
 10
2.005166
 20
0.686635
 30
0.0
 40
0.08
 41
0.0
 46
0.2
 71
     7
 72
     5
  1
\W00.789;HIW 
  7
helios
 73
     2
 44
0.903614
1001
ACAD
1000
ACAD_MTEXT_DEFINED_HEIGHT_BEGIN
1070
    46
1040
0.2
1000
ACAD_MTEXT_DEFINED_HEIGHT_END
  0
MTEXT
  5
3DE
330
1F
100
AcDbEntity
  8
1
  6
Continuous
 62
    18
100
AcDbMText
 10
2.313916
 20
0.686635
 30
0.0
 40
0.08
 41
0.0
 46
0.2
 71
     7
 72
     5
  1
\W00.815;DRAWING RELEASED 
  7
helios
 73
     2
 44
0.903614
1001
ACAD
1000
ACAD_MTEXT_DEFINED_HEIGHT_BEGIN
1070
    46
1040
0.2
1000
ACAD_MTEXT_DEFINED_HEIGHT_END
  0
MTEXT
  5
3DF
330
1F
100
AcDbEntity
  8
1
  6
Continuous
 62
    18
100
AcDbMText
 10
0.310557
 20
0.343793
 30
0.0
 40
0.075
 41
0.0
 46
0.2
 71
     7
 72
     5
  1
\W01.123;REV 
  7
blockfont
 73
     2
 44
0.903614
1001
ACAD
1000
ACAD_MTEXT_DEFINED_HEIGHT_BEGIN
1070
    46
1040
0.2
1000
ACAD_MTEXT_DEFINED_HEIGHT_END
  0
MTEXT
  5
3E0
330
1F
100
AcDbEntity
  8
1
  6
Continuous
 62
    18
100
AcDbMText
 10
0.707041
 20
0.343793
 30
0.0
 40
0.075
 41
0.0
 46
0.2
 71
     7
 72
     5
  1
\W01.134;DATE 
  7
blockfont
 73
     2
 44
0.903614
1001
ACAD
1000
ACAD_MTEXT_DEFINED_HEIGHT_BEGIN
1070
    46
1040
0.2
1000
ACAD_MTEXT_DEFINED_HEIGHT_END
  0
MTEXT
  5
3E1
330
1F
100
AcDbEntity
  8
1
  6
Continuous
 62
    18
100
AcDbMText
 10
1.257237
 20
0.343793
 30
0.0
 40
0.075
 41
0.0
 46
0.2
 71
     7
 72
     5
  1
\W00.985;BY 
  7
blockfont
 73
     2
 44
0.903614
1001
ACAD
1000
ACAD_MTEXT_DEFINED_HEIGHT_BEGIN
1070
    46
1040
0.2
1000
ACAD_MTEXT_DEFINED_HEIGHT_END
  0
MTEXT
  5
3E2
330
1F
100
AcDbEntity
  8
1
  6
Continuous
 62
    18
100
AcDbMText
 10
1.591807
 20
0.343793
 30
0.0
 40
0.075
 41
0.0
 46
0.2
 71
     7
 72
     5
  1
\W00.962;CHK 
  7
blockfont
 73
     2
 44
0.903614
1001
ACAD
1000
ACAD_MTEXT_DEFINED_HEIGHT_BEGIN
1070
    46
1040
0.2
1000
ACAD_MTEXT_DEFINED_HEIGHT_END
  0
MTEXT
  5
3E3
330
1F
100
AcDbEntity
  8
1
  6
Continuous
 62
    18
100
AcDbMText
 10
1.966807
 20
0.343793
 30
0.0
 40
0.075
 41
0.0
 46
0.2
 71
     7
 72
     5
  1
\W01.052;APR 
  7
blockfont
 73
     2
 44
0.903614
1001
ACAD
1000
ACAD_MTEXT_DEFINED_HEIGHT_BEGIN
1070
    46
1040
0.2
1000
ACAD_MTEXT_DEFINED_HEIGHT_END
  0
MTEXT
  5
3E4
330
1F
100
AcDbEntity
  8
1
  6
Continuous
 62
    18
100
AcDbMText
 10
3.452354
 20
0.343793
 30
0.0
 40
0.075
 41
0.0
 46
0.2
 71
     7
 72
     5
  1
\W01.237;DESCRIPTION 
  7
blockfont
 73
     2
 44
0.903614
1001
ACAD
1000
ACAD_MTEXT_DEFINED_HEIGHT_BEGIN
1070
    46
1040
0.2
1000
ACAD_MTEXT_DEFINED_HEIGHT_END
  0
MTEXT
  5
3E5
330
1F
100
AcDbEntity
  8
1
  6
Continuous
 62
    18
100
AcDbMText
 10
5.841807
 20
0.343793
 30
0.0
 40
0.075
 41
0.0
 46
0.2
 71
     7
 72
     5
  1
\W01.020;ECN 
  7
blockfont
 73
     2
 44
0.903614
1001
ACAD
1000
ACAD_MTEXT_DEFINED_HEIGHT_BEGIN
1070
    46
1040
0.2
1000
ACAD_MTEXT_DEFINED_HEIGHT_END
  0
MTEXT
  5
3E6
330
1F
100
AcDbEntity
  8
1
  6
Continuous
 62
    18
100
AcDbMText
 10
6.995389
 20
2.84366
 30
0.0
 40
0.09
 41
0.0
 46
0.2
 71
     7
 72
     5
  1
\W01.241;DIMENSIONS IN PARENTHESIS ARE METRIC. 
  7
blockfont
 73
     2
 44
0.903614
1001
ACAD
1000
ACAD_MTEXT_DEFINED_HEIGHT_BEGIN
1070
    46
1040
0.2
1000
ACAD_MTEXT_DEFINED_HEIGHT_END
  0
ENDSEC
  0
SECTION
  2
OBJECTS
  0
DICTIONARY
  5
C
330
0
100
AcDbDictionary
281
     1
  3
ACAD_GROUP
350
D
  3
ACAD_LAYOUT
350
1A
  3
ACAD_MATERIAL
350
3B
  3
ACAD_MLEADERSTYLE
350
400
  3
ACAD_MLINESTYLE
350
17
  3
ACAD_PLOTSETTINGS
350
19
  3
ACAD_PLOTSTYLENAME
350
E
  3
ACAD_TABLESTYLE
350
3FF
  3
ACAD_VISUALSTYLE
350
2A
  0
DICTIONARY
  5
D
102
{ACAD_REACTORS
330
C
102
}
330
C
100
AcDbDictionary
281
     1
  0
DICTIONARY
  5
1A
102
{ACAD_REACTORS
330
C
102
}
330
C
100
AcDbDictionary
281
     1
  3
Layout1
350
1E
  3
Layout2
350
26
  3
Model
350
22
  0
DICTIONARY
  5
3B
102
{ACAD_REACTORS
330
C
102
}
330
C
100
AcDbDictionary
281
     1
  3
ByBlock
350
3D
  3
ByLayer
350
3C
  3
Global
350
3E
  0
DICTIONARY
  5
400
102
{ACAD_REACTORS
330
C
102
}
330
C
100
AcDbDictionary
281
     1
  0
DICTIONARY
  5
17
102
{ACAD_REACTORS
330
C
102
}
330
C
100
AcDbDictionary
281
     1
  3
Standard
350
18
  0
DICTIONARY
  5
19
102
{ACAD_REACTORS
330
C
102
}
330
C
100
AcDbDictionary
281
     1
  0
ACDBDICTIONARYWDFLT
  5
E
102
{ACAD_REACTORS
330
C
102
}
330
C
100
AcDbDictionary
281
     1
  3
Normal
350
F
100
AcDbDictionaryWithDefault
340
F
  0
DICTIONARY
  5
3FF
102
{ACAD_REACTORS
330
C
102
}
330
C
100
AcDbDictionary
281
     1
  0
DICTIONARY
  5
2A
102
{ACAD_REACTORS
330
C
102
}
330
C
100
AcDbDictionary
281
     1
  3
2dWireframe
350
2F
  3
3D Hidden
350
31
  3
3dWireframe
350
30
  3
Basic
350
32
  3
Brighten
350
36
  3
ColorChange
350
3A
  3
Conceptual
350
34
  3
Dim
350
35
  3
Facepattern
350
39
  3
Flat
350
2B
  3
FlatWithEdges
350
2C
  3
Gouraud
350
2D
  3
GouraudWithEdges
350
2E
  3
Linepattern
350
38
  3
Realistic
350
33
  3
Thicken
350
37
  0
LAYOUT
  5
1E
102
{ACAD_REACTORS
330
1A
102
}
330
1A
100
AcDbPlotSettings
  1

  2
none_device
  4

  6

 40
0.0
 41
0.0
 42
0.0
 43
0.0
 44
0.0
 45
0.0
 46
0.0
 47
0.0
 48
0.0
 49
0.0
140
0.0
141
0.0
142
1.0
143
1.0
 70
   688
 72
     0
 73
     0
 74
     5
  7

 75
    16
 76
     0
 77
     2
 78
   300
147
1.0
148
0.0
149
0.0
100
AcDbLayout
  1
Layout1
 70
     1
 71
     1
 10
-0.5
 20
-0.5
 11
5.0
 21
5.0
 12
0.0
 22
0.0
 32
0.0
 14
-0.5
 24
-0.5
 34
-0.5
 15
5.0
 25
5.0
 35
5.0
146
0.0
 13
0.0
 23
0.0
 33
0.0
 16
1.0
 26
0.0
 36
0.0
 17
0.0
 27
1.0
 37
0.0
 76
     0
330
1B
  0
LAYOUT
  5
26
102
{ACAD_REACTORS
330
1A
102
}
330
1A
100
AcDbPlotSettings
  1

  2
none_device
  4

  6

 40
0.0
 41
0.0
 42
0.0
 43
0.0
 44
0.0
 45
0.0
 46
0.0
 47
0.0
 48
0.0
 49
0.0
140
0.0
141
0.0
142
1.0
143
1.0
 70
   688
 72
     0
 73
     0
 74
     5
  7

 75
    16
 76
     0
 77
     2
 78
   300
147
1.0
148
0.0
149
0.0
100
AcDbLayout
  1
Layout2
 70
     1
 71
     2
 10
0.0
 20
0.0
 11
0.0
 21
0.0
 12
0.0
 22
0.0
 32
0.0
 14
0.0
 24
0.0
 34
0.0
 15
0.0
 25
0.0
 35
0.0
146
0.0
 13
0.0
 23
0.0
 33
0.0
 16
1.0
 26
0.0
 36
0.0
 17
0.0
 27
1.0
 37
0.0
 76
     0
330
23
  0
LAYOUT
  5
22
102
{ACAD_REACTORS
330
1A
102
}
330
1A
100
AcDbPlotSettings
  1

  2
none_device
  4

  6

 40
0.0
 41
0.0
 42
0.0
 43
0.0
 44
0.0
 45
0.0
 46
0.0
 47
0.0
 48
0.0
 49
0.0
140
0.0
141
0.0
142
1.0
143
1.0
 70
  1712
 72
     0
 73
     0
 74
     0
  7

 75
     0
 76
     0
 77
     2
 78
   300
147
1.0
148
0.0
149
0.0
100
AcDbLayout
  1
Model
 70
     1
 71
     0
 10
-0.5
 20
-0.5
 11
5.0
 21
5.0
 12
0.0
 22
0.0
 32
0.0
 14
-0.5
 24
-0.5
 34
-0.5
 15
5.0
 25
5.0
 35
5.0
146
0.0
 13
0.0
 23
0.0
 33
0.0
 16
1.0
 26
0.0
 36
0.0
 17
0.0
 27
1.0
 37
0.0
 76
     0
330
1F
331
29
  0
MATERIAL
  5
3D
102
{ACAD_REACTORS
330
3B
102
}
330
3B
100
AcDbMaterial
  1
ByBlock
 72
     1
 94
      127
  0
MATERIAL
  5
3C
102
{ACAD_REACTORS
330
3B
102
}
330
3B
100
AcDbMaterial
  1
ByLayer
 72
     1
 94
      127
  0
MATERIAL
  5
3E
102
{ACAD_REACTORS
330
3B
102
}
330
3B
100
AcDbMaterial
  1
Global
 72
     1
 94
      127
  0
MLINESTYLE
  5
18
102
{ACAD_REACTORS
330
17
102
}
330
17
100
AcDbMlineStyle
  2
Standard
 70
     0
  3

 62
   256
 51
90.0
 52
90.0
 71
     2
 49
0.5
 62
   256
  6
BYLAYER
 49
-0.5
 62
   256
  6
BYLAYER
  0
ACDBPLACEHOLDER
  5
F
102
{ACAD_REACTORS
330
E
102
}
330
E
  0
VISUALSTYLE
  5
2F
102
{ACAD_REACTORS
330
2A
102
}
330
2A
100
AcDbVisualStyle
  2
2dWireframe
 70
     4
177
     2
291
     0
 71
     0
176
     1
 72
     2
176
     1
 73
     0
176
     1
 90
        0
176
     1
 40
-0.6
176
     1
 41
-30.0
176
     1
 62
     5
 63
     7
421
 16777215
176
     1
 74
     1
176
     1
 91
        4
176
     1
 64
     7
176
     1
 65
   257
176
     1
 75
     1
176
     1
175
     1
176
     1
 42
1.0
176
     1
 92
        0
176
     1
 66
   257
176
     1
 43
1.0
176
     1
 76
     1
176
     1
 77
     6
176
     1
 78
     2
176
     1
 67
     7
176
     1
 79
     5
176
     1
170
     0
176
     1
171
     0
176
     1
290
     0
176
     1
 93
        1
176
     1
 44
0.0
176
     1
173
     0
176
     1
  0
VISUALSTYLE
  5
31
102
{ACAD_REACTORS
330
2A
102
}
330
2A
100
AcDbVisualStyle
  2
3D Hidden
 70
     6
177
     2
291
     0
 71
     1
176
     1
 72
     2
176
     1
 73
     2
176
     1
 90
        0
176
     1
 40
-0.6
176
     1
 41
-30.0
176
     1
 62
     5
 63
     7
421
 16777215
176
     1
 74
     2
176
     1
 91
        2
176
     1
 64
     7
176
     1
 65
   257
176
     1
 75
     2
176
     1
175
     1
176
     1
 42
40.0
176
     1
 92
        0
176
     1
 66
   257
176
     1
 43
1.0
176
     1
 76
     1
176
     1
 77
     6
176
     1
 78
     2
176
     1
 67
     7
176
     1
 79
     3
176
     1
170
     0
176
     1
171
     0
176
     1
290
     0
176
     1
 93
        1
176
     1
 44
0.0
176
     1
173
     0
176
     1
  0
VISUALSTYLE
  5
30
102
{ACAD_REACTORS
330
2A
102
}
330
2A
100
AcDbVisualStyle
  2
3dWireframe
 70
     5
177
     2
291
     0
 71
     0
176
     1
 72
     2
176
     1
 73
     0
176
     1
 90
        0
176
     1
 40
-0.6
176
     1
 41
-30.0
176
     1
 62
     5
 63
     7
421
 16777215
176
     1
 74
     1
176
     1
 91
        4
176
     1
 64
     7
176
     1
 65
   257
176
     1
 75
     1
176
     1
175
     1
176
     1
 42
1.0
176
     1
 92
        0
176
     1
 66
   257
176
     1
 43
1.0
176
     1
 76
     1
176
     1
 77
     6
176
     1
 78
     2
176
     1
 67
     7
176
     1
 79
     5
176
     1
170
     0
176
     1
171
     0
176
     1
290
     0
176
     1
 93
        1
176
     1
 44
0.0
176
     1
173
     0
176
     1
  0
VISUALSTYLE
  5
32
102
{ACAD_REACTORS
330
2A
102
}
330
2A
100
AcDbVisualStyle
  2
Basic
 70
     7
177
     2
291
     1
 71
     1
176
     1
 72
     0
176
     1
 73
     1
176
     1
 90
        0
176
     1
 40
-0.6
176
     1
 41
-30.0
176
     1
 62
     5
 63
     7
421
 16777215
176
     1
 74
     0
176
     1
 91
        4
176
     1
 64
     7
176
     1
 65
   257
176
     1
 75
     1
176
     1
175
     1
176
     1
 42
1.0
176
     1
 92
        8
176
     1
 66
     7
176
     1
 43
1.0
176
     1
 76
     1
176
     1
 77
     6
176
     1
 78
     2
176
     1
 67
     7
176
     1
 79
     5
176
     1
170
     0
176
     1
171
     0
176
     1
290
     0
176
     1
 93
        1
176
     1
 44
0.0
176
     1
173
     0
176
     1
  0
VISUALSTYLE
  5
36
102
{ACAD_REACTORS
330
2A
102
}
330
2A
100
AcDbVisualStyle
  2
Brighten
 70
    12
177
     2
291
     1
 71
     2
176
     1
 72
     2
176
     1
 73
     0
176
     1
 90
        0
176
     1
 40
-0.6
176
     1
 41
-30.0
176
     1
 62
     5
 63
     7
421
 16777215
176
     1
 74
     1
176
     1
 91
        4
176
     1
 64
     7
176
     1
 65
   257
176
     1
 75
     1
176
     1
175
     1
176
     1
 42
1.0
176
     1
 92
        8
176
     1
 66
     7
176
     1
 43
1.0
176
     1
 76
     1
176
     1
 77
     6
176
     1
 78
     2
176
     1
 67
     7
176
     1
 79
     5
176
     1
170
     0
176
     1
171
     0
176
     1
290
     0
176
     1
 93
        1
176
     1
 44
50.0
176
     1
173
     0
176
     1
  0
VISUALSTYLE
  5
3A
102
{ACAD_REACTORS
330
2A
102
}
330
2A
100
AcDbVisualStyle
  2
ColorChange
 70
    16
177
     2
291
     1
 71
     2
176
     1
 72
     2
176
     1
 73
     3
176
     1
 90
        0
176
     1
 40
-0.6
176
     1
 41
-30.0
176
     1
 62
     5
 63
     8
421
  8421504
176
     1
 74
     1
176
     1
 91
        4
176
     1
 64
     7
176
     1
 65
   257
176
     1
 75
     1
176
     1
175
     1
176
     1
 42
1.0
176
     1
 92
        8
176
     1
 66
     8
424
  8421504
176
     1
 43
1.0
176
     1
 76
     1
176
     1
 77
     6
176
     1
 78
     2
176
     1
 67
     7
176
     1
 79
     5
176
     1
170
     0
176
     1
171
     0
176
     1
290
     0
176
     1
 93
        1
176
     1
 44
0.0
176
     1
173
     0
176
     1
  0
VISUALSTYLE
  5
34
102
{ACAD_REACTORS
330
2A
102
}
330
2A
100
AcDbVisualStyle
  2
Conceptual
 70
     9
177
     2
291
     0
 71
     3
176
     1
 72
     2
176
     1
 73
     0
176
     1
 90
        0
176
     1
 40
-0.6
176
     1
 41
-30.0
176
     1
 62
     5
 63
     7
421
 16777215
176
     1
 74
     2
176
     1
 91
        2
176
     1
 64
     7
176
     1
 65
   257
176
     1
 75
     1
176
     1
175
     1
176
     1
 42
40.0
176
     1
 92
        8
176
     1
 66
     7
176
     1
 43
1.0
176
     1
 76
     1
176
     1
 77
     6
176
     1
 78
     2
176
     1
 67
     7
176
     1
 79
     3
176
     1
170
     0
176
     1
171
     0
176
     1
290
     0
176
     1
 93
        1
176
     1
 44
0.0
176
     1
173
     0
176
     1
  0
VISUALSTYLE
  5
35
102
{ACAD_REACTORS
330
2A
102
}
330
2A
100
AcDbVisualStyle
  2
Dim
 70
    11
177
     2
291
     1
 71
     2
176
     1
 72
     2
176
     1
 73
     0
176
     1
 90
        0
176
     1
 40
-0.6
176
     1
 41
-30.0
176
     1
 62
     5
 63
     7
421
 16777215
176
     1
 74
     1
176
     1
 91
        4
176
     1
 64
     7
176
     1
 65
   257
176
     1
 75
     1
176
     1
175
     1
176
     1
 42
1.0
176
     1
 92
        8
176
     1
 66
     7
176
     1
 43
1.0
176
     1
 76
     1
176
     1
 77
     6
176
     1
 78
     2
176
     1
 67
     7
176
     1
 79
     5
176
     1
170
     0
176
     1
171
     0
176
     1
290
     0
176
     1
 93
        1
176
     1
 44
-50.0
176
     1
173
     0
176
     1
  0
VISUALSTYLE
  5
39
102
{ACAD_REACTORS
330
2A
102
}
330
2A
100
AcDbVisualStyle
  2
Facepattern
 70
    15
177
     2
291
     1
 71
     2
176
     1
 72
     2
176
     1
 73
     0
176
     1
 90
        0
176
     1
 40
-0.6
176
     1
 41
-30.0
176
     1
 62
     5
 63
     7
421
 16777215
176
     1
 74
     1
176
     1
 91
        4
176
     1
 64
     7
176
     1
 65
   257
176
     1
 75
     1
176
     1
175
     1
176
     1
 42
1.0
176
     1
 92
        8
176
     1
 66
     7
176
     1
 43
1.0
176
     1
 76
     1
176
     1
 77
     6
176
     1
 78
     2
176
     1
 67
     7
176
     1
 79
     5
176
     1
170
     0
176
     1
171
     0
176
     1
290
     0
176
     1
 93
        1
176
     1
 44
0.0
176
     1
173
     0
176
     1
  0
VISUALSTYLE
  5
2B
102
{ACAD_REACTORS
330
2A
102
}
330
2A
100
AcDbVisualStyle
  2
Flat
 70
     0
177
     2
291
     1
 71
     2
176
     1
 72
     1
176
     1
 73
     1
176
     1
 90
        2
176
     1
 40
-0.6
176
     1
 41
30.0
176
     1
 62
     5
 63
     7
421
 16777215
176
     1
 74
     0
176
     1
 91
        4
176
     1
 64
     7
176
     1
 65
   257
176
     1
 75
     1
176
     1
175
     1
176
     1
 42
1.0
176
     1
 92
        8
176
     1
 66
     7
176
     1
 43
1.0
176
     1
 76
     1
176
     1
 77
     6
176
     1
 78
     2
176
     1
 67
     7
176
     1
 79
     5
176
     1
170
     0
176
     1
171
     0
176
     1
290
     0
176
     1
 93
       13
176
     1
 44
0.0
176
     1
173
     0
176
     1
  0
VISUALSTYLE
  5
2C
102
{ACAD_REACTORS
330
2A
102
}
330
2A
100
AcDbVisualStyle
  2
FlatWithEdges
 70
     1
177
     2
291
     1
 71
     2
176
     1
 72
     1
176
     1
 73
     1
176
     1
 90
        2
176
     1
 40
-0.6
176
     1
 41
30.0
176
     1
 62
     5
 63
     7
421
 16777215
176
     1
 74
     1
176
     1
 91
        4
176
     1
 64
     7
176
     1
 65
   257
176
     1
 75
     1
176
     1
175
     1
176
     1
 42
1.0
176
     1
 92
        0
176
     1
 66
   257
176
     1
 43
1.0
176
     1
 76
     1
176
     1
 77
     6
176
     1
 78
     2
176
     1
 67
     7
176
     1
 79
     5
176
     1
170
     0
176
     1
171
     0
176
     1
290
     0
176
     1
 93
       13
176
     1
 44
0.0
176
     1
173
     0
176
     1
  0
VISUALSTYLE
  5
2D
102
{ACAD_REACTORS
330
2A
102
}
330
2A
100
AcDbVisualStyle
  2
Gouraud
 70
     2
177
     2
291
     1
 71
     2
176
     1
 72
     2
176
     1
 73
     1
176
     1
 90
        2
176
     1
 40
-0.6
176
     1
 41
30.0
176
     1
 62
     5
 63
     7
421
 16777215
176
     1
 74
     0
176
     1
 91
        4
176
     1
 64
     7
176
     1
 65
   257
176
     1
 75
     1
176
     1
175
     1
176
     1
 42
1.0
176
     1
 92
        0
176
     1
 66
     7
176
     1
 43
1.0
176
     1
 76
     1
176
     1
 77
     6
176
     1
 78
     2
176
     1
 67
     7
176
     1
 79
     5
176
     1
170
     0
176
     1
171
     0
176
     1
290
     0
176
     1
 93
       13
176
     1
 44
0.0
176
     1
173
     0
176
     1
  0
VISUALSTYLE
  5
2E
102
{ACAD_REACTORS
330
2A
102
}
330
2A
100
AcDbVisualStyle
  2
GouraudWithEdges
 70
     3
177
     2
291
     1
 71
     2
176
     1
 72
     2
176
     1
 73
     1
176
     1
 90
        2
176
     1
 40
-0.6
176
     1
 41
30.0
176
     1
 62
     5
 63
     7
421
 16777215
176
     1
 74
     1
176
     1
 91
        4
176
     1
 64
     7
176
     1
 65
   257
176
     1
 75
     1
176
     1
175
     1
176
     1
 42
1.0
176
     1
 92
        0
176
     1
 66
   257
176
     1
 43
1.0
176
     1
 76
     1
176
     1
 77
     6
176
     1
 78
     2
176
     1
 67
     7
176
     1
 79
     5
176
     1
170
     0
176
     1
171
     0
176
     1
290
     0
176
     1
 93
       13
176
     1
 44
0.0
176
     1
173
     0
176
     1
  0
VISUALSTYLE
  5
38
102
{ACAD_REACTORS
330
2A
102
}
330
2A
100
AcDbVisualStyle
  2
Linepattern
 70
    14
177
     2
291
     1
 71
     2
176
     1
 72
     2
176
     1
 73
     0
176
     1
 90
        0
176
     1
 40
-0.6
176
     1
 41
-30.0
176
     1
 62
     5
 63
     7
421
 16777215
176
     1
 74
     1
176
     1
 91
        4
176
     1
 64
     7
176
     1
 65
   257
176
     1
 75
     7
176
     1
175
     7
176
     1
 42
1.0
176
     1
 92
        8
176
     1
 66
     7
176
     1
 43
1.0
176
     1
 76
     1
176
     1
 77
     6
176
     1
 78
     2
176
     1
 67
     7
176
     1
 79
     5
176
     1
170
     0
176
     1
171
     0
176
     1
290
     0
176
     1
 93
        1
176
     1
 44
0.0
176
     1
173
     0
176
     1
  0
VISUALSTYLE
  5
33
102
{ACAD_REACTORS
330
2A
102
}
330
2A
100
AcDbVisualStyle
  2
Realistic
 70
     8
177
     2
291
     0
 71
     2
176
     1
 72
     2
176
     1
 73
     0
176
     1
 90
        0
176
     1
 40
-0.6
176
     1
 41
-30.0
176
     1
 62
     5
 63
     7
421
 16777215
176
     1
 74
     1
176
     1
 91
        0
176
     1
 64
     7
176
     1
 65
   257
176
     1
 75
     1
176
     1
175
     1
176
     1
 42
1.0
176
     1
 92
        8
176
     1
 66
     8
424
  7895160
176
     1
 43
1.0
176
     1
 76
     1
176
     1
 77
     6
176
     1
 78
     2
176
     1
 67
     7
176
     1
 79
     5
176
     1
170
     0
176
     1
171
     0
176
     1
290
     0
176
     1
 93
       13
176
     1
 44
0.0
176
     1
173
     0
176
     1
  0
VISUALSTYLE
  5
37
102
{ACAD_REACTORS
330
2A
102
}
330
2A
100
AcDbVisualStyle
  2
Thicken
 70
    13
177
     2
291
     1
 71
     2
176
     1
 72
     2
176
     1
 73
     0
176
     1
 90
        0
176
     1
 40
-0.6
176
     1
 41
-30.0
176
     1
 62
     5
 63
     7
421
 16777215
176
     1
 74
     1
176
     1
 91
        4
176
     1
 64
     7
176
     1
 65
   257
176
     1
 75
     1
176
     1
175
     1
176
     1
 42
1.0
176
     1
 92
       12
176
     1
 66
     7
176
     1
 43
1.0
176
     1
 76
     1
176
     1
 77
     6
176
     1
 78
     2
176
     1
 67
     7
176
     1
 79
     5
176
     1
170
     0
176
     1
171
     0
176
     1
290
     0
176
     1
 93
        1
176
     1
 44
0.0
176
     1
173
     0
176
     1
  0
ENDSEC
  0
EOF
