  0
SECTION
  2
HEADER
  9
$ACADVER
  1
AC1012
  9
$DWGCODEPAGE
  3
ANSI_1252
  9
$INSBASE
 10
0.0
 20
0.0
 30
0.0
  9
$EXTMIN
 10
-0.6296707999080447
 20
3.293563867562408
 30
-0.0000000000000058
  9
$EXTMAX
 10
6.369039708339265
 20
7.793838520527163
 30
0.0000000000000104
  9
$LIMMIN
 10
0.0
 20
0.0
  9
$LIMMAX
 10
12.0
 20
9.0
  9
$ORTHOMODE
 70
     0
  9
$REGENMODE
 70
     1
  9
$FILLMODE
 70
     1
  9
$QTEXTMODE
 70
     0
  9
$MIRRTEXT
 70
     1
  9
$DRAGMODE
 70
     2
  9
$LTSCALE
 40
1.0
  9
$OSMODE
 70
   547
  9
$ATTMODE
 70
     1
  9
$TEXTSIZE
 40
0.2
  9
$TRACEWID
 40
0.05
  9
$TEXTSTYLE
  7
STANDARD
  9
$CLAYER
  8
0
  9
$CELTYPE
  6
BYLAYER
  9
$CECOLOR
 62
   256
  9
$CELTSCALE
 40
1.0
  9
$DELOBJ
 70
     1
  9
$DISPSILH
 70
     0
  9
$DIMSCALE
 40
1.0
  9
$DIMASZ
 40
0.18
  9
$DIMEXO
 40
0.0625
  9
$DIMDLI
 40
0.38
  9
$DIMRND
 40
0.0
  9
$DIMDLE
 40
0.0
  9
$DIMEXE
 40
0.18
  9
$DIMTP
 40
0.0
  9
$DIMTM
 40
0.0
  9
$DIMTXT
 40
0.18
  9
$DIMCEN
 40
0.09
  9
$DIMTSZ
 40
0.0
  9
$DIMTOL
 70
     0
  9
$DIMLIM
 70
     0
  9
$DIMTIH
 70
     1
  9
$DIMTOH
 70
     1
  9
$DIMSE1
 70
     0
  9
$DIMSE2
 70
     0
  9
$DIMTAD
 70
     0
  9
$DIMZIN
 70
     0
  9
$DIMBLK
  1

  9
$DIMASO
 70
     1
  9
$DIMSHO
 70
     1
  9
$DIMPOST
  1

  9
$DIMAPOST
  1

  9
$DIMALT
 70
     0
  9
$DIMALTD
 70
     2
  9
$DIMALTF
 40
25.4
  9
$DIMLFAC
 40
1.0
  9
$DIMTOFL
 70
     0
  9
$DIMTVP
 40
0.0
  9
$DIMTIX
 70
     0
  9
$DIMSOXD
 70
     0
  9
$DIMSAH
 70
     0
  9
$DIMBLK1
  1

  9
$DIMBLK2
  1

  9
$DIMSTYLE
  2
STANDARD
  9
$DIMCLRD
 70
     0
  9
$DIMCLRE
 70
     0
  9
$DIMCLRT
 70
     0
  9
$DIMTFAC
 40
1.0
  9
$DIMGAP
 40
0.09
  9
$DIMJUST
 70
     0
  9
$DIMSD1
 70
     0
  9
$DIMSD2
 70
     0
  9
$DIMTOLJ
 70
     1
  9
$DIMTZIN
 70
     0
  9
$DIMALTZ
 70
     0
  9
$DIMALTTZ
 70
     0
  9
$DIMFIT
 70
     5
  9
$DIMUPT
 70
     0
  9
$DIMUNIT
 70
     2
  9
$DIMDEC
 70
     4
  9
$DIMTDEC
 70
     4
  9
$DIMALTU
 70
     2
  9
$DIMALTTD
 70
     2
  9
$DIMTXSTY
  7
STANDARD
  9
$DIMAUNIT
 70
     0
  9
$LUNITS
 70
     2
  9
$LUPREC
 70
     4
  9
$SKETCHINC
 40
0.1
  9
$FILLETRAD
 40
0.0
  9
$AUNITS
 70
     0
  9
$AUPREC
 70
     0
  9
$MENU
  1
acad
  9
$ELEVATION
 40
0.0
  9
$PELEVATION
 40
0.0
  9
$THICKNESS
 40
0.0
  9
$LIMCHECK
 70
     0
  9
$BLIPMODE
 70
     0
  9
$CHAMFERA
 40
0.0
  9
$CHAMFERB
 40
0.0
  9
$CHAMFERC
 40
0.0
  9
$CHAMFERD
 40
0.0
  9
$SKPOLY
 70
     0
  9
$TDCREATE
 40
2452031.318402777
  9
$TDUPDATE
 40
2453944.468693715
  9
$TDINDWG
 40
0.0016175000
  9
$TDUSRTIMER
 40
0.0016175000
  9
$USRTIMER
 70
     1
  9
$ANGBASE
 50
0.0
  9
$ANGDIR
 70
     0
  9
$PDMODE
 70
     0
  9
$PDSIZE
 40
0.0
  9
$PLINEWID
 40
0.0
  9
$COORDS
 70
     1
  9
$SPLFRAME
 70
     0
  9
$SPLINETYPE
 70
     6
  9
$SPLINESEGS
 70
     8
  9
$ATTDIA
 70
     0
  9
$ATTREQ
 70
     1
  9
$HANDLING
 70
  4097
  9
$HANDSEED
  5
2ADF
  9
$SURFTAB1
 70
     6
  9
$SURFTAB2
 70
     6
  9
$SURFTYPE
 70
     6
  9
$SURFU
 70
     6
  9
$SURFV
 70
     6
  9
$UCSNAME
  2

  9
$UCSORG
 10
0.0
 20
0.0
 30
0.0
  9
$UCSXDIR
 10
1.0
 20
0.0
 30
0.0
  9
$UCSYDIR
 10
0.0
 20
1.0
 30
0.0
  9
$PUCSNAME
  2

  9
$PUCSORG
 10
0.0
 20
0.0
 30
0.0
  9
$PUCSXDIR
 10
1.0
 20
0.0
 30
0.0
  9
$PUCSYDIR
 10
0.0
 20
1.0
 30
0.0
  9
$USERI1
 70
     0
  9
$USERI2
 70
     0
  9
$USERI3
 70
     0
  9
$USERI4
 70
     0
  9
$USERI5
 70
     0
  9
$USERR1
 40
0.0
  9
$USERR2
 40
0.0
  9
$USERR3
 40
0.0
  9
$USERR4
 40
0.0
  9
$USERR5
 40
0.0
  9
$WORLDVIEW
 70
     1
  9
$SHADEDGE
 70
     3
  9
$SHADEDIF
 70
    70
  9
$TILEMODE
 70
     1
  9
$MAXACTVP
 70
    16
  9
$PINSBASE
 10
0.0
 20
0.0
 30
0.0
  9
$PLIMCHECK
 70
     0
  9
$PEXTMIN
 10
1.000000000000000E+20
 20
1.000000000000000E+20
 30
1.000000000000000E+20
  9
$PEXTMAX
 10
-1.000000000000000E+20
 20
-1.000000000000000E+20
 30
-1.000000000000000E+20
  9
$PLIMMIN
 10
0.0
 20
0.0
  9
$PLIMMAX
 10
12.0
 20
9.0
  9
$UNITMODE
 70
     0
  9
$VISRETAIN
 70
     0
  9
$PLINEGEN
 70
     0
  9
$PSLTSCALE
 70
     1
  9
$TREEDEPTH
 70
  3020
  9
$PICKSTYLE
 70
     1
  9
$CMLSTYLE
  2
STANDARD
  9
$CMLJUST
 70
     0
  9
$CMLSCALE
 40
1.0
  9
$SAVEIMAGES
 70
     1
  0
ENDSEC
  0
SECTION
  2
CLASSES
  0
CLASS
  1
ACDBDICTIONARYWDFLT
  2
AcDbDictionaryWithDefault
  3
AutoCAD 2000
 90
    32768
280
     0
281
     0
  0
CLASS
  1
ACDBPLACEHOLDER
  2
AcDbPlaceHolder
  3
AutoCAD 2000
 90
    32768
280
     0
281
     0
  0
CLASS
  1
LAYOUT
  2
AcDbLayout
  3
AutoCAD 2000
 90
    32768
280
     0
281
     0
  0
CLASS
  1
LONG_TRANSACTION
  2
AcDbLongTransaction
  3
AutoCAD 2000
 90
    32768
280
     0
281
     0
  0
CLASS
  1
LWPOLYLINE
  2
AcDbPolyline
  3
AutoCAD 2000
 90
    32768
280
     0
281
     1
  0
CLASS
  1
HATCH
  2
AcDbHatch
  3
AutoCAD 2000
 90
    32768
280
     0
281
     1
  0
CLASS
  1
XRECORD
  2
AcDbXrecord
  3
AutoCAD 2000
 90
    32768
280
     0
281
     0
  0
CLASS
  1
LONG_TRANSACTION
  2
AcDbLongTransaction
  3
AutoCAD 2000
 90
    32768
280
     0
281
     0
  0
CLASS
  1
LWPOLYLINE
  2
AcDbPolyline
  3
AutoCAD 2000
 90
    32768
280
     0
281
     1
  0
CLASS
  1
HATCH
  2
AcDbHatch
  3
AutoCAD 2000
 90
    32768
280
     0
281
     1
  0
CLASS
  1
XRECORD
  2
AcDbXrecord
  3
AutoCAD 2000
 90
    32768
280
     0
281
     0
  0
CLASS
  1
LONG_TRANSACTION
  2
AcDbLongTransaction
  3
AutoCAD 2000
 90
    32768
280
     0
281
     0
  0
CLASS
  1
LWPOLYLINE
  2
AcDbPolyline
  3
AutoCAD 2000
 90
    32768
280
     0
281
     1
  0
CLASS
  1
HATCH
  2
AcDbHatch
  3
AutoCAD 2000
 90
    32768
280
     0
281
     1
  0
CLASS
  1
XRECORD
  2
AcDbXrecord
  3
AutoCAD 2000
 90
    32768
280
     0
281
     0
  0
ENDSEC
  0
SECTION
  2
TABLES
  0
TABLE
  2
VPORT
  5
8
330
0
100
AcDbSymbolTable
 70
     3
  0
VPORT
  5
2ADC
330
8
100
AcDbSymbolTableRecord
100
AcDbViewportTableRecord
  2
*ACTIVE
 70
     0
 10
0.0
 20
0.0
 11
1.0
 21
1.0
 12
2.86968445421561
 22
5.543701194044786
 13
0.0
 23
0.0
 14
1.0
 24
1.0
 15
0.0
 25
0.0
 16
0.0
 26
0.0
 36
1.0
 17
0.0
 27
0.0
 37
0.0
 40
4.547071269806677
 41
1.647569444444444
 42
50.0
 43
0.0
 44
0.0
 50
0.0
 51
0.0
 71
     0
 72
   100
 73
     1
 74
     1
 75
     0
 76
     0
 77
     0
 78
     0
  0
ENDTAB
  0
TABLE
  2
LTYPE
  5
5
330
0
100
AcDbSymbolTable
 70
    25
  0
LTYPE
  5
13
330
5
100
AcDbSymbolTableRecord
100
AcDbLinetypeTableRecord
  2
BYBLOCK
 70
     0
  3

 72
    65
 73
     0
 40
0.0
  0
LTYPE
  5
14
330
5
100
AcDbSymbolTableRecord
100
AcDbLinetypeTableRecord
  2
BYLAYER
 70
     0
  3

 72
    65
 73
     0
 40
0.0
  0
LTYPE
  5
15
330
5
100
AcDbSymbolTableRecord
100
AcDbLinetypeTableRecord
  2
CONTINUOUS
 70
     0
  3
Solid line
 72
    65
 73
     0
 40
0.0
  0
LTYPE
  5
22
330
5
100
AcDbSymbolTableRecord
100
AcDbLinetypeTableRecord
  2
BORDER
 70
     0
  3
__ __ . __ __ . __ __ . __ __ . __ __ . __ __ .
 72
    65
 73
     6
 40
1.75
 49
0.5
 74
     0
 49
-0.25
 74
     0
 49
0.5
 74
     0
 49
-0.25
 74
     0
 49
0.5
 74
     0
 49
-0.25
 74
     0
  0
LTYPE
  5
23
330
5
100
AcDbSymbolTableRecord
100
AcDbLinetypeTableRecord
  2
BORDER2
 70
     0
  3
__.__.__.__.__.__.__.__.__.__.__.__.__.__.__.__
 72
    65
 73
     6
 40
0.875
 49
0.25
 74
     0
 49
-0.125
 74
     0
 49
0.25
 74
     0
 49
-0.125
 74
     0
 49
0.25
 74
     0
 49
-0.125
 74
     0
  0
LTYPE
  5
24
330
5
100
AcDbSymbolTableRecord
100
AcDbLinetypeTableRecord
  2
BORDERX2
 70
     0
  3
____  ____  .  ____  ____  .  
 72
    65
 73
     6
 40
3.5
 49
1.0
 74
     0
 49
-0.5
 74
     0
 49
1.0
 74
     0
 49
-0.5
 74
     0
 49
1.0
 74
     0
 49
-0.5
 74
     0
  0
LTYPE
  5
25
330
5
100
AcDbSymbolTableRecord
100
AcDbLinetypeTableRecord
  2
CENTER
 70
     0
  3
____ _ ____ _ ____ _ ____ _ ____ _ ____ _ ____
 72
    65
 73
     4
 40
2.0
 49
1.25
 74
     0
 49
-0.25
 74
     0
 49
0.25
 74
     0
 49
-0.25
 74
     0
  0
LTYPE
  5
26
330
5
100
AcDbSymbolTableRecord
100
AcDbLinetypeTableRecord
  2
CENTER2
 70
     0
  3
____ _ ____ _ ____ _ ____ _ ____ _ ____ _ ____
 72
    65
 73
     4
 40
1.125
 49
0.75
 74
     0
 49
-0.125
 74
     0
 49
0.125
 74
     0
 49
-0.125
 74
     0
  0
LTYPE
  5
27
330
5
100
AcDbSymbolTableRecord
100
AcDbLinetypeTableRecord
  2
CENTERX2
 70
     0
  3
________  __  ________  __  ________  __  
 72
    65
 73
     4
 40
4.0
 49
2.5
 74
     0
 49
-0.5
 74
     0
 49
0.5
 74
     0
 49
-0.5
 74
     0
  0
LTYPE
  5
28
330
5
100
AcDbSymbolTableRecord
100
AcDbLinetypeTableRecord
  2
DASHDOT
 70
     0
  3
__ . __ . __ . __ . __ . __ . __ . 
 72
    65
 73
     4
 40
1.0
 49
0.5
 74
     0
 49
-0.25
 74
     0
 49
0.0
 74
     0
 49
-0.25
 74
     0
  0
LTYPE
  5
29
330
5
100
AcDbSymbolTableRecord
100
AcDbLinetypeTableRecord
  2
DASHDOT2
 70
     0
  3
_._._._._._._._._._._._._._._._.
 72
    65
 73
     4
 40
0.5
 49
0.25
 74
     0
 49
-0.125
 74
     0
 49
0.0
 74
     0
 49
-0.125
 74
     0
  0
LTYPE
  5
2A
330
5
100
AcDbSymbolTableRecord
100
AcDbLinetypeTableRecord
  2
DASHDOTX2
 70
     0
  3
____  .  ____  .  ____  .  ____  .  
 72
    65
 73
     4
 40
2.0
 49
1.0
 74
     0
 49
-0.5
 74
     0
 49
0.0
 74
     0
 49
-0.5
 74
     0
  0
LTYPE
  5
2B
330
5
100
AcDbSymbolTableRecord
100
AcDbLinetypeTableRecord
  2
DASHED
 70
     0
  3
__ __ __ __ __ __ __ __ __ __ __ __ 
 72
    65
 73
     2
 40
0.75
 49
0.5
 74
     0
 49
-0.25
 74
     0
  0
LTYPE
  5
2C
330
5
100
AcDbSymbolTableRecord
100
AcDbLinetypeTableRecord
  2
DASHED2
 70
     0
  3
_ _ _ _ _ _ _ _ _ _ _ _ _ _ _ _ _ _ 
 72
    65
 73
     2
 40
0.375
 49
0.25
 74
     0
 49
-0.125
 74
     0
  0
LTYPE
  5
2D
330
5
100
AcDbSymbolTableRecord
100
AcDbLinetypeTableRecord
  2
DASHEDX2
 70
     0
  3
____  ____  ____  ____  ____  ____  
 72
    65
 73
     2
 40
1.5
 49
1.0
 74
     0
 49
-0.5
 74
     0
  0
LTYPE
  5
2E
330
5
100
AcDbSymbolTableRecord
100
AcDbLinetypeTableRecord
  2
DIVIDE
 70
     0
  3
____ . . ____ . . ____ . . ____ . . 
 72
    65
 73
     6
 40
1.25
 49
0.5
 74
     0
 49
-0.25
 74
     0
 49
0.0
 74
     0
 49
-0.25
 74
     0
 49
0.0
 74
     0
 49
-0.25
 74
     0
  0
LTYPE
  5
2F
330
5
100
AcDbSymbolTableRecord
100
AcDbLinetypeTableRecord
  2
DIVIDE2
 70
     0
  3
__..__..__..__..__..__..__..__..__..
 72
    65
 73
     6
 40
0.625
 49
0.25
 74
     0
 49
-0.125
 74
     0
 49
0.0
 74
     0
 49
-0.125
 74
     0
 49
0.0
 74
     0
 49
-0.125
 74
     0
  0
LTYPE
  5
30
330
5
100
AcDbSymbolTableRecord
100
AcDbLinetypeTableRecord
  2
DIVIDEX2
 70
     0
  3
________  .  .  ________  .  .  ________  .  . 
 72
    65
 73
     6
 40
2.5
 49
1.0
 74
     0
 49
-0.5
 74
     0
 49
0.0
 74
     0
 49
-0.5
 74
     0
 49
0.0
 74
     0
 49
-0.5
 74
     0
  0
LTYPE
  5
31
330
5
100
AcDbSymbolTableRecord
100
AcDbLinetypeTableRecord
  2
DOT
 70
     0
  3
. . . . . . . . . . . . . . . . . . 
 72
    65
 73
     2
 40
0.25
 49
0.0
 74
     0
 49
-0.25
 74
     0
  0
LTYPE
  5
32
330
5
100
AcDbSymbolTableRecord
100
AcDbLinetypeTableRecord
  2
DOT2
 70
     0
  3
....................................
 72
    65
 73
     2
 40
0.125
 49
0.0
 74
     0
 49
-0.125
 74
     0
  0
LTYPE
  5
33
330
5
100
AcDbSymbolTableRecord
100
AcDbLinetypeTableRecord
  2
DOTX2
 70
     0
  3
.  .  .  .  .  .  .  .  .  .  .  .  .  
 72
    65
 73
     2
 40
0.5
 49
0.0
 74
     0
 49
-0.5
 74
     0
  0
LTYPE
  5
34
330
5
100
AcDbSymbolTableRecord
100
AcDbLinetypeTableRecord
  2
HIDDEN
 70
     0
  3
__ __ __ __ __ __ __ __ __ __ __ __ 
 72
    65
 73
     2
 40
0.375
 49
0.25
 74
     0
 49
-0.125
 74
     0
  0
LTYPE
  5
35
330
5
100
AcDbSymbolTableRecord
100
AcDbLinetypeTableRecord
  2
HIDDEN2
 70
     0
  3
_ _ _ _ _ _ _ _ _ _ _ _ _ _ _ _ _ _ 
 72
    65
 73
     2
 40
0.1875
 49
0.125
 74
     0
 49
-0.0625
 74
     0
  0
LTYPE
  5
36
330
5
100
AcDbSymbolTableRecord
100
AcDbLinetypeTableRecord
  2
HIDDENX2
 70
     0
  3
____ ____ ____ ____ ____ ____ ____ 
 72
    65
 73
     2
 40
0.75
 49
0.5
 74
     0
 49
-0.25
 74
     0
  0
LTYPE
  5
37
330
5
100
AcDbSymbolTableRecord
100
AcDbLinetypeTableRecord
  2
PHANTOM
 70
     0
  3
______  __  __  ______  __  __  
 72
    65
 73
     6
 40
2.5
 49
1.25
 74
     0
 49
-0.25
 74
     0
 49
0.25
 74
     0
 49
-0.25
 74
     0
 49
0.25
 74
     0
 49
-0.25
 74
     0
  0
LTYPE
  5
38
330
5
100
AcDbSymbolTableRecord
100
AcDbLinetypeTableRecord
  2
PHANTOM2
 70
     0
  3
___ _ _ ___ _ _ ___ _ _ ___ _ _ 
 72
    65
 73
     6
 40
1.25
 49
0.625
 74
     0
 49
-0.125
 74
     0
 49
0.125
 74
     0
 49
-0.125
 74
     0
 49
0.125
 74
     0
 49
-0.125
 74
     0
  0
LTYPE
  5
39
330
5
100
AcDbSymbolTableRecord
100
AcDbLinetypeTableRecord
  2
PHANTOMX2
 70
     0
  3
___ _ _ ___ _ _ ___ _ _ ___ _ _ 
 72
    65
 73
     6
 40
5.0
 49
2.5
 74
     0
 49
-0.5
 74
     0
 49
0.5
 74
     0
 49
-0.5
 74
     0
 49
0.5
 74
     0
 49
-0.5
 74
     0
  0
ENDTAB
  0
TABLE
  2
LAYER
  5
2
330
0
100
AcDbSymbolTable
 70
   257
  0
LAYER
  5
10
330
2
100
AcDbSymbolTableRecord
100
AcDbLayerTableRecord
  2
0
 70
     0
 62
     7
  6
CONTINUOUS
  0
LAYER
  5
3A
330
2
100
AcDbSymbolTableRecord
100
AcDbLayerTableRecord
  2
1
 70
     0
 62
     1
  6
CONTINUOUS
  0
LAYER
  5
3B
330
2
100
AcDbSymbolTableRecord
100
AcDbLayerTableRecord
  2
2
 70
     0
 62
     2
  6
CONTINUOUS
  0
LAYER
  5
3C
330
2
100
AcDbSymbolTableRecord
100
AcDbLayerTableRecord
  2
3
 70
     0
 62
     3
  6
CONTINUOUS
  0
LAYER
  5
3D
330
2
100
AcDbSymbolTableRecord
100
AcDbLayerTableRecord
  2
4
 70
     0
 62
     4
  6
CONTINUOUS
  0
LAYER
  5
3E
330
2
100
AcDbSymbolTableRecord
100
AcDbLayerTableRecord
  2
5
 70
     0
 62
     5
  6
CONTINUOUS
  0
LAYER
  5
3F
330
2
100
AcDbSymbolTableRecord
100
AcDbLayerTableRecord
  2
6
 70
     0
 62
     6
  6
CONTINUOUS
  0
LAYER
  5
40
330
2
100
AcDbSymbolTableRecord
100
AcDbLayerTableRecord
  2
7
 70
     0
 62
     7
  6
CONTINUOUS
  0
LAYER
  5
41
330
2
100
AcDbSymbolTableRecord
100
AcDbLayerTableRecord
  2
8
 70
     0
 62
     8
  6
CONTINUOUS
  0
LAYER
  5
42
330
2
100
AcDbSymbolTableRecord
100
AcDbLayerTableRecord
  2
9
 70
     0
 62
     9
  6
CONTINUOUS
  0
LAYER
  5
43
330
2
100
AcDbSymbolTableRecord
100
AcDbLayerTableRecord
  2
10
 70
     0
 62
    10
  6
CONTINUOUS
  0
LAYER
  5
44
330
2
100
AcDbSymbolTableRecord
100
AcDbLayerTableRecord
  2
11
 70
     0
 62
    11
  6
CONTINUOUS
  0
LAYER
  5
45
330
2
100
AcDbSymbolTableRecord
100
AcDbLayerTableRecord
  2
12
 70
     0
 62
    12
  6
CONTINUOUS
  0
LAYER
  5
46
330
2
100
AcDbSymbolTableRecord
100
AcDbLayerTableRecord
  2
13
 70
     0
 62
    13
  6
CONTINUOUS
  0
LAYER
  5
47
330
2
100
AcDbSymbolTableRecord
100
AcDbLayerTableRecord
  2
14
 70
     0
 62
    14
  6
CONTINUOUS
  0
LAYER
  5
48
330
2
100
AcDbSymbolTableRecord
100
AcDbLayerTableRecord
  2
15
 70
     0
 62
    15
  6
CONTINUOUS
  0
LAYER
  5
49
330
2
100
AcDbSymbolTableRecord
100
AcDbLayerTableRecord
  2
16
 70
     0
 62
    16
  6
CONTINUOUS
  0
LAYER
  5
4A
330
2
100
AcDbSymbolTableRecord
100
AcDbLayerTableRecord
  2
17
 70
     0
 62
    17
  6
CONTINUOUS
  0
LAYER
  5
4B
330
2
100
AcDbSymbolTableRecord
100
AcDbLayerTableRecord
  2
18
 70
     0
 62
    18
  6
CONTINUOUS
  0
LAYER
  5
4C
330
2
100
AcDbSymbolTableRecord
100
AcDbLayerTableRecord
  2
19
 70
     0
 62
    19
  6
CONTINUOUS
  0
LAYER
  5
4D
330
2
100
AcDbSymbolTableRecord
100
AcDbLayerTableRecord
  2
20
 70
     0
 62
    20
  6
CONTINUOUS
  0
LAYER
  5
4E
330
2
100
AcDbSymbolTableRecord
100
AcDbLayerTableRecord
  2
21
 70
     0
 62
    21
  6
CONTINUOUS
  0
LAYER
  5
4F
330
2
100
AcDbSymbolTableRecord
100
AcDbLayerTableRecord
  2
22
 70
     0
 62
    22
  6
CONTINUOUS
  0
LAYER
  5
50
330
2
100
AcDbSymbolTableRecord
100
AcDbLayerTableRecord
  2
23
 70
     0
 62
    23
  6
CONTINUOUS
  0
LAYER
  5
51
330
2
100
AcDbSymbolTableRecord
100
AcDbLayerTableRecord
  2
24
 70
     0
 62
    24
  6
CONTINUOUS
  0
LAYER
  5
52
330
2
100
AcDbSymbolTableRecord
100
AcDbLayerTableRecord
  2
25
 70
     0
 62
    25
  6
CONTINUOUS
  0
LAYER
  5
53
330
2
100
AcDbSymbolTableRecord
100
AcDbLayerTableRecord
  2
26
 70
     0
 62
    26
  6
CONTINUOUS
  0
LAYER
  5
54
330
2
100
AcDbSymbolTableRecord
100
AcDbLayerTableRecord
  2
27
 70
     0
 62
    27
  6
CONTINUOUS
  0
LAYER
  5
55
330
2
100
AcDbSymbolTableRecord
100
AcDbLayerTableRecord
  2
28
 70
     0
 62
    28
  6
CONTINUOUS
  0
LAYER
  5
56
330
2
100
AcDbSymbolTableRecord
100
AcDbLayerTableRecord
  2
29
 70
     0
 62
    29
  6
CONTINUOUS
  0
LAYER
  5
57
330
2
100
AcDbSymbolTableRecord
100
AcDbLayerTableRecord
  2
30
 70
     0
 62
    30
  6
CONTINUOUS
  0
LAYER
  5
58
330
2
100
AcDbSymbolTableRecord
100
AcDbLayerTableRecord
  2
31
 70
     0
 62
    31
  6
CONTINUOUS
  0
LAYER
  5
59
330
2
100
AcDbSymbolTableRecord
100
AcDbLayerTableRecord
  2
32
 70
     0
 62
    32
  6
CONTINUOUS
  0
LAYER
  5
5A
330
2
100
AcDbSymbolTableRecord
100
AcDbLayerTableRecord
  2
33
 70
     0
 62
    33
  6
CONTINUOUS
  0
LAYER
  5
5B
330
2
100
AcDbSymbolTableRecord
100
AcDbLayerTableRecord
  2
34
 70
     0
 62
    34
  6
CONTINUOUS
  0
LAYER
  5
5C
330
2
100
AcDbSymbolTableRecord
100
AcDbLayerTableRecord
  2
35
 70
     0
 62
    35
  6
CONTINUOUS
  0
LAYER
  5
5D
330
2
100
AcDbSymbolTableRecord
100
AcDbLayerTableRecord
  2
36
 70
     0
 62
    36
  6
CONTINUOUS
  0
LAYER
  5
5E
330
2
100
AcDbSymbolTableRecord
100
AcDbLayerTableRecord
  2
37
 70
     0
 62
    37
  6
CONTINUOUS
  0
LAYER
  5
5F
330
2
100
AcDbSymbolTableRecord
100
AcDbLayerTableRecord
  2
38
 70
     0
 62
    38
  6
CONTINUOUS
  0
LAYER
  5
60
330
2
100
AcDbSymbolTableRecord
100
AcDbLayerTableRecord
  2
39
 70
     0
 62
    39
  6
CONTINUOUS
  0
LAYER
  5
61
330
2
100
AcDbSymbolTableRecord
100
AcDbLayerTableRecord
  2
40
 70
     0
 62
    40
  6
CONTINUOUS
  0
LAYER
  5
62
330
2
100
AcDbSymbolTableRecord
100
AcDbLayerTableRecord
  2
41
 70
     0
 62
    41
  6
CONTINUOUS
  0
LAYER
  5
63
330
2
100
AcDbSymbolTableRecord
100
AcDbLayerTableRecord
  2
42
 70
     0
 62
    42
  6
CONTINUOUS
  0
LAYER
  5
64
330
2
100
AcDbSymbolTableRecord
100
AcDbLayerTableRecord
  2
43
 70
     0
 62
    43
  6
CONTINUOUS
  0
LAYER
  5
65
330
2
100
AcDbSymbolTableRecord
100
AcDbLayerTableRecord
  2
44
 70
     0
 62
    44
  6
CONTINUOUS
  0
LAYER
  5
66
330
2
100
AcDbSymbolTableRecord
100
AcDbLayerTableRecord
  2
45
 70
     0
 62
    45
  6
CONTINUOUS
  0
LAYER
  5
67
330
2
100
AcDbSymbolTableRecord
100
AcDbLayerTableRecord
  2
46
 70
     0
 62
    46
  6
CONTINUOUS
  0
LAYER
  5
68
330
2
100
AcDbSymbolTableRecord
100
AcDbLayerTableRecord
  2
47
 70
     0
 62
    47
  6
CONTINUOUS
  0
LAYER
  5
69
330
2
100
AcDbSymbolTableRecord
100
AcDbLayerTableRecord
  2
48
 70
     0
 62
    48
  6
CONTINUOUS
  0
LAYER
  5
6A
330
2
100
AcDbSymbolTableRecord
100
AcDbLayerTableRecord
  2
49
 70
     0
 62
    49
  6
CONTINUOUS
  0
LAYER
  5
6B
330
2
100
AcDbSymbolTableRecord
100
AcDbLayerTableRecord
  2
50
 70
     0
 62
    50
  6
CONTINUOUS
  0
LAYER
  5
6C
330
2
100
AcDbSymbolTableRecord
100
AcDbLayerTableRecord
  2
51
 70
     0
 62
    51
  6
CONTINUOUS
  0
LAYER
  5
6D
330
2
100
AcDbSymbolTableRecord
100
AcDbLayerTableRecord
  2
52
 70
     0
 62
    52
  6
CONTINUOUS
  0
LAYER
  5
6E
330
2
100
AcDbSymbolTableRecord
100
AcDbLayerTableRecord
  2
53
 70
     0
 62
    53
  6
CONTINUOUS
  0
LAYER
  5
6F
330
2
100
AcDbSymbolTableRecord
100
AcDbLayerTableRecord
  2
54
 70
     0
 62
    54
  6
CONTINUOUS
  0
LAYER
  5
70
330
2
100
AcDbSymbolTableRecord
100
AcDbLayerTableRecord
  2
55
 70
     0
 62
    55
  6
CONTINUOUS
  0
LAYER
  5
71
330
2
100
AcDbSymbolTableRecord
100
AcDbLayerTableRecord
  2
56
 70
     0
 62
    56
  6
CONTINUOUS
  0
LAYER
  5
72
330
2
100
AcDbSymbolTableRecord
100
AcDbLayerTableRecord
  2
57
 70
     0
 62
    57
  6
CONTINUOUS
  0
LAYER
  5
73
330
2
100
AcDbSymbolTableRecord
100
AcDbLayerTableRecord
  2
58
 70
     0
 62
    58
  6
CONTINUOUS
  0
LAYER
  5
74
330
2
100
AcDbSymbolTableRecord
100
AcDbLayerTableRecord
  2
59
 70
     0
 62
    59
  6
CONTINUOUS
  0
LAYER
  5
75
330
2
100
AcDbSymbolTableRecord
100
AcDbLayerTableRecord
  2
60
 70
     0
 62
    60
  6
CONTINUOUS
  0
LAYER
  5
76
330
2
100
AcDbSymbolTableRecord
100
AcDbLayerTableRecord
  2
61
 70
     0
 62
    61
  6
CONTINUOUS
  0
LAYER
  5
77
330
2
100
AcDbSymbolTableRecord
100
AcDbLayerTableRecord
  2
62
 70
     0
 62
    62
  6
CONTINUOUS
  0
LAYER
  5
78
330
2
100
AcDbSymbolTableRecord
100
AcDbLayerTableRecord
  2
63
 70
     0
 62
    63
  6
CONTINUOUS
  0
LAYER
  5
79
330
2
100
AcDbSymbolTableRecord
100
AcDbLayerTableRecord
  2
64
 70
     0
 62
    64
  6
CONTINUOUS
  0
LAYER
  5
7A
330
2
100
AcDbSymbolTableRecord
100
AcDbLayerTableRecord
  2
65
 70
     0
 62
    65
  6
CONTINUOUS
  0
LAYER
  5
7B
330
2
100
AcDbSymbolTableRecord
100
AcDbLayerTableRecord
  2
66
 70
     0
 62
    66
  6
CONTINUOUS
  0
LAYER
  5
7C
330
2
100
AcDbSymbolTableRecord
100
AcDbLayerTableRecord
  2
67
 70
     0
 62
    67
  6
CONTINUOUS
  0
LAYER
  5
7D
330
2
100
AcDbSymbolTableRecord
100
AcDbLayerTableRecord
  2
68
 70
     0
 62
    68
  6
CONTINUOUS
  0
LAYER
  5
7E
330
2
100
AcDbSymbolTableRecord
100
AcDbLayerTableRecord
  2
69
 70
     0
 62
    69
  6
CONTINUOUS
  0
LAYER
  5
7F
330
2
100
AcDbSymbolTableRecord
100
AcDbLayerTableRecord
  2
70
 70
     0
 62
    70
  6
CONTINUOUS
  0
LAYER
  5
80
330
2
100
AcDbSymbolTableRecord
100
AcDbLayerTableRecord
  2
71
 70
     0
 62
    71
  6
CONTINUOUS
  0
LAYER
  5
81
330
2
100
AcDbSymbolTableRecord
100
AcDbLayerTableRecord
  2
72
 70
     0
 62
    72
  6
CONTINUOUS
  0
LAYER
  5
82
330
2
100
AcDbSymbolTableRecord
100
AcDbLayerTableRecord
  2
73
 70
     0
 62
    73
  6
CONTINUOUS
  0
LAYER
  5
83
330
2
100
AcDbSymbolTableRecord
100
AcDbLayerTableRecord
  2
74
 70
     0
 62
    74
  6
CONTINUOUS
  0
LAYER
  5
84
330
2
100
AcDbSymbolTableRecord
100
AcDbLayerTableRecord
  2
75
 70
     0
 62
    75
  6
CONTINUOUS
  0
LAYER
  5
85
330
2
100
AcDbSymbolTableRecord
100
AcDbLayerTableRecord
  2
76
 70
     0
 62
    76
  6
CONTINUOUS
  0
LAYER
  5
86
330
2
100
AcDbSymbolTableRecord
100
AcDbLayerTableRecord
  2
77
 70
     0
 62
    77
  6
CONTINUOUS
  0
LAYER
  5
87
330
2
100
AcDbSymbolTableRecord
100
AcDbLayerTableRecord
  2
78
 70
     0
 62
    78
  6
CONTINUOUS
  0
LAYER
  5
88
330
2
100
AcDbSymbolTableRecord
100
AcDbLayerTableRecord
  2
79
 70
     0
 62
    79
  6
CONTINUOUS
  0
LAYER
  5
89
330
2
100
AcDbSymbolTableRecord
100
AcDbLayerTableRecord
  2
80
 70
     0
 62
    80
  6
CONTINUOUS
  0
LAYER
  5
8A
330
2
100
AcDbSymbolTableRecord
100
AcDbLayerTableRecord
  2
81
 70
     0
 62
    81
  6
CONTINUOUS
  0
LAYER
  5
8B
330
2
100
AcDbSymbolTableRecord
100
AcDbLayerTableRecord
  2
82
 70
     0
 62
    82
  6
CONTINUOUS
  0
LAYER
  5
8C
330
2
100
AcDbSymbolTableRecord
100
AcDbLayerTableRecord
  2
83
 70
     0
 62
    83
  6
CONTINUOUS
  0
LAYER
  5
8D
330
2
100
AcDbSymbolTableRecord
100
AcDbLayerTableRecord
  2
84
 70
     0
 62
    84
  6
CONTINUOUS
  0
LAYER
  5
8E
330
2
100
AcDbSymbolTableRecord
100
AcDbLayerTableRecord
  2
85
 70
     0
 62
    85
  6
CONTINUOUS
  0
LAYER
  5
8F
330
2
100
AcDbSymbolTableRecord
100
AcDbLayerTableRecord
  2
86
 70
     0
 62
    86
  6
CONTINUOUS
  0
LAYER
  5
90
330
2
100
AcDbSymbolTableRecord
100
AcDbLayerTableRecord
  2
87
 70
     0
 62
    87
  6
CONTINUOUS
  0
LAYER
  5
91
330
2
100
AcDbSymbolTableRecord
100
AcDbLayerTableRecord
  2
88
 70
     0
 62
    88
  6
CONTINUOUS
  0
LAYER
  5
92
330
2
100
AcDbSymbolTableRecord
100
AcDbLayerTableRecord
  2
89
 70
     0
 62
    89
  6
CONTINUOUS
  0
LAYER
  5
93
330
2
100
AcDbSymbolTableRecord
100
AcDbLayerTableRecord
  2
90
 70
     0
 62
    90
  6
CONTINUOUS
  0
LAYER
  5
94
330
2
100
AcDbSymbolTableRecord
100
AcDbLayerTableRecord
  2
91
 70
     0
 62
    91
  6
CONTINUOUS
  0
LAYER
  5
95
330
2
100
AcDbSymbolTableRecord
100
AcDbLayerTableRecord
  2
92
 70
     0
 62
    92
  6
CONTINUOUS
  0
LAYER
  5
96
330
2
100
AcDbSymbolTableRecord
100
AcDbLayerTableRecord
  2
93
 70
     0
 62
    93
  6
CONTINUOUS
  0
LAYER
  5
97
330
2
100
AcDbSymbolTableRecord
100
AcDbLayerTableRecord
  2
94
 70
     0
 62
    94
  6
CONTINUOUS
  0
LAYER
  5
98
330
2
100
AcDbSymbolTableRecord
100
AcDbLayerTableRecord
  2
95
 70
     0
 62
    95
  6
CONTINUOUS
  0
LAYER
  5
99
330
2
100
AcDbSymbolTableRecord
100
AcDbLayerTableRecord
  2
96
 70
     0
 62
    96
  6
CONTINUOUS
  0
LAYER
  5
9A
330
2
100
AcDbSymbolTableRecord
100
AcDbLayerTableRecord
  2
97
 70
     0
 62
    97
  6
CONTINUOUS
  0
LAYER
  5
9B
330
2
100
AcDbSymbolTableRecord
100
AcDbLayerTableRecord
  2
98
 70
     0
 62
    98
  6
CONTINUOUS
  0
LAYER
  5
9C
330
2
100
AcDbSymbolTableRecord
100
AcDbLayerTableRecord
  2
99
 70
     0
 62
    99
  6
CONTINUOUS
  0
LAYER
  5
9D
330
2
100
AcDbSymbolTableRecord
100
AcDbLayerTableRecord
  2
100
 70
     0
 62
   100
  6
CONTINUOUS
  0
LAYER
  5
9E
330
2
100
AcDbSymbolTableRecord
100
AcDbLayerTableRecord
  2
101
 70
     0
 62
   101
  6
CONTINUOUS
  0
LAYER
  5
9F
330
2
100
AcDbSymbolTableRecord
100
AcDbLayerTableRecord
  2
102
 70
     0
 62
   102
  6
CONTINUOUS
  0
LAYER
  5
A0
330
2
100
AcDbSymbolTableRecord
100
AcDbLayerTableRecord
  2
103
 70
     0
 62
   103
  6
CONTINUOUS
  0
LAYER
  5
A1
330
2
100
AcDbSymbolTableRecord
100
AcDbLayerTableRecord
  2
104
 70
     0
 62
   104
  6
CONTINUOUS
  0
LAYER
  5
A2
330
2
100
AcDbSymbolTableRecord
100
AcDbLayerTableRecord
  2
105
 70
     0
 62
   105
  6
CONTINUOUS
  0
LAYER
  5
A3
330
2
100
AcDbSymbolTableRecord
100
AcDbLayerTableRecord
  2
106
 70
     0
 62
   106
  6
CONTINUOUS
  0
LAYER
  5
A4
330
2
100
AcDbSymbolTableRecord
100
AcDbLayerTableRecord
  2
107
 70
     0
 62
   107
  6
CONTINUOUS
  0
LAYER
  5
A5
330
2
100
AcDbSymbolTableRecord
100
AcDbLayerTableRecord
  2
108
 70
     0
 62
   108
  6
CONTINUOUS
  0
LAYER
  5
A6
330
2
100
AcDbSymbolTableRecord
100
AcDbLayerTableRecord
  2
109
 70
     0
 62
   109
  6
CONTINUOUS
  0
LAYER
  5
A7
330
2
100
AcDbSymbolTableRecord
100
AcDbLayerTableRecord
  2
110
 70
     0
 62
   110
  6
CONTINUOUS
  0
LAYER
  5
A8
330
2
100
AcDbSymbolTableRecord
100
AcDbLayerTableRecord
  2
111
 70
     0
 62
   111
  6
CONTINUOUS
  0
LAYER
  5
A9
330
2
100
AcDbSymbolTableRecord
100
AcDbLayerTableRecord
  2
112
 70
     0
 62
   112
  6
CONTINUOUS
  0
LAYER
  5
AA
330
2
100
AcDbSymbolTableRecord
100
AcDbLayerTableRecord
  2
113
 70
     0
 62
   113
  6
CONTINUOUS
  0
LAYER
  5
AB
330
2
100
AcDbSymbolTableRecord
100
AcDbLayerTableRecord
  2
114
 70
     0
 62
   114
  6
CONTINUOUS
  0
LAYER
  5
AC
330
2
100
AcDbSymbolTableRecord
100
AcDbLayerTableRecord
  2
115
 70
     0
 62
   115
  6
CONTINUOUS
  0
LAYER
  5
AD
330
2
100
AcDbSymbolTableRecord
100
AcDbLayerTableRecord
  2
116
 70
     0
 62
   116
  6
CONTINUOUS
  0
LAYER
  5
AE
330
2
100
AcDbSymbolTableRecord
100
AcDbLayerTableRecord
  2
117
 70
     0
 62
   117
  6
CONTINUOUS
  0
LAYER
  5
AF
330
2
100
AcDbSymbolTableRecord
100
AcDbLayerTableRecord
  2
118
 70
     0
 62
   118
  6
CONTINUOUS
  0
LAYER
  5
B0
330
2
100
AcDbSymbolTableRecord
100
AcDbLayerTableRecord
  2
119
 70
     0
 62
   119
  6
CONTINUOUS
  0
LAYER
  5
B1
330
2
100
AcDbSymbolTableRecord
100
AcDbLayerTableRecord
  2
120
 70
     0
 62
   120
  6
CONTINUOUS
  0
LAYER
  5
B2
330
2
100
AcDbSymbolTableRecord
100
AcDbLayerTableRecord
  2
121
 70
     0
 62
   121
  6
CONTINUOUS
  0
LAYER
  5
B3
330
2
100
AcDbSymbolTableRecord
100
AcDbLayerTableRecord
  2
122
 70
     0
 62
   122
  6
CONTINUOUS
  0
LAYER
  5
B4
330
2
100
AcDbSymbolTableRecord
100
AcDbLayerTableRecord
  2
123
 70
     0
 62
   123
  6
CONTINUOUS
  0
LAYER
  5
B5
330
2
100
AcDbSymbolTableRecord
100
AcDbLayerTableRecord
  2
124
 70
     0
 62
   124
  6
CONTINUOUS
  0
LAYER
  5
B6
330
2
100
AcDbSymbolTableRecord
100
AcDbLayerTableRecord
  2
125
 70
     0
 62
   125
  6
CONTINUOUS
  0
LAYER
  5
B7
330
2
100
AcDbSymbolTableRecord
100
AcDbLayerTableRecord
  2
126
 70
     0
 62
   126
  6
CONTINUOUS
  0
LAYER
  5
B8
330
2
100
AcDbSymbolTableRecord
100
AcDbLayerTableRecord
  2
127
 70
     0
 62
   127
  6
CONTINUOUS
  0
LAYER
  5
B9
330
2
100
AcDbSymbolTableRecord
100
AcDbLayerTableRecord
  2
128
 70
     0
 62
   128
  6
CONTINUOUS
  0
LAYER
  5
BA
330
2
100
AcDbSymbolTableRecord
100
AcDbLayerTableRecord
  2
129
 70
     0
 62
   129
  6
CONTINUOUS
  0
LAYER
  5
BB
330
2
100
AcDbSymbolTableRecord
100
AcDbLayerTableRecord
  2
130
 70
     0
 62
   130
  6
CONTINUOUS
  0
LAYER
  5
BC
330
2
100
AcDbSymbolTableRecord
100
AcDbLayerTableRecord
  2
131
 70
     0
 62
   131
  6
CONTINUOUS
  0
LAYER
  5
BD
330
2
100
AcDbSymbolTableRecord
100
AcDbLayerTableRecord
  2
132
 70
     0
 62
   132
  6
CONTINUOUS
  0
LAYER
  5
BE
330
2
100
AcDbSymbolTableRecord
100
AcDbLayerTableRecord
  2
133
 70
     0
 62
   133
  6
CONTINUOUS
  0
LAYER
  5
BF
330
2
100
AcDbSymbolTableRecord
100
AcDbLayerTableRecord
  2
134
 70
     0
 62
   134
  6
CONTINUOUS
  0
LAYER
  5
C0
330
2
100
AcDbSymbolTableRecord
100
AcDbLayerTableRecord
  2
135
 70
     0
 62
   135
  6
CONTINUOUS
  0
LAYER
  5
C1
330
2
100
AcDbSymbolTableRecord
100
AcDbLayerTableRecord
  2
136
 70
     0
 62
   136
  6
CONTINUOUS
  0
LAYER
  5
C2
330
2
100
AcDbSymbolTableRecord
100
AcDbLayerTableRecord
  2
137
 70
     0
 62
   137
  6
CONTINUOUS
  0
LAYER
  5
C3
330
2
100
AcDbSymbolTableRecord
100
AcDbLayerTableRecord
  2
138
 70
     0
 62
   138
  6
CONTINUOUS
  0
LAYER
  5
C4
330
2
100
AcDbSymbolTableRecord
100
AcDbLayerTableRecord
  2
139
 70
     0
 62
   139
  6
CONTINUOUS
  0
LAYER
  5
C5
330
2
100
AcDbSymbolTableRecord
100
AcDbLayerTableRecord
  2
140
 70
     0
 62
   140
  6
CONTINUOUS
  0
LAYER
  5
C6
330
2
100
AcDbSymbolTableRecord
100
AcDbLayerTableRecord
  2
141
 70
     0
 62
   141
  6
CONTINUOUS
  0
LAYER
  5
C7
330
2
100
AcDbSymbolTableRecord
100
AcDbLayerTableRecord
  2
142
 70
     0
 62
   142
  6
CONTINUOUS
  0
LAYER
  5
C8
330
2
100
AcDbSymbolTableRecord
100
AcDbLayerTableRecord
  2
143
 70
     0
 62
   143
  6
CONTINUOUS
  0
LAYER
  5
C9
330
2
100
AcDbSymbolTableRecord
100
AcDbLayerTableRecord
  2
144
 70
     0
 62
   144
  6
CONTINUOUS
  0
LAYER
  5
CA
330
2
100
AcDbSymbolTableRecord
100
AcDbLayerTableRecord
  2
145
 70
     0
 62
   145
  6
CONTINUOUS
  0
LAYER
  5
CB
330
2
100
AcDbSymbolTableRecord
100
AcDbLayerTableRecord
  2
146
 70
     0
 62
   146
  6
CONTINUOUS
  0
LAYER
  5
CC
330
2
100
AcDbSymbolTableRecord
100
AcDbLayerTableRecord
  2
147
 70
     0
 62
   147
  6
CONTINUOUS
  0
LAYER
  5
CD
330
2
100
AcDbSymbolTableRecord
100
AcDbLayerTableRecord
  2
148
 70
     0
 62
   148
  6
CONTINUOUS
  0
LAYER
  5
CE
330
2
100
AcDbSymbolTableRecord
100
AcDbLayerTableRecord
  2
149
 70
     0
 62
   149
  6
CONTINUOUS
  0
LAYER
  5
CF
330
2
100
AcDbSymbolTableRecord
100
AcDbLayerTableRecord
  2
150
 70
     0
 62
   150
  6
CONTINUOUS
  0
LAYER
  5
D0
330
2
100
AcDbSymbolTableRecord
100
AcDbLayerTableRecord
  2
151
 70
     0
 62
   151
  6
CONTINUOUS
  0
LAYER
  5
D1
330
2
100
AcDbSymbolTableRecord
100
AcDbLayerTableRecord
  2
152
 70
     0
 62
   152
  6
CONTINUOUS
  0
LAYER
  5
D2
330
2
100
AcDbSymbolTableRecord
100
AcDbLayerTableRecord
  2
153
 70
     0
 62
   153
  6
CONTINUOUS
  0
LAYER
  5
D3
330
2
100
AcDbSymbolTableRecord
100
AcDbLayerTableRecord
  2
154
 70
     0
 62
   154
  6
CONTINUOUS
  0
LAYER
  5
D4
330
2
100
AcDbSymbolTableRecord
100
AcDbLayerTableRecord
  2
155
 70
     0
 62
   155
  6
CONTINUOUS
  0
LAYER
  5
D5
330
2
100
AcDbSymbolTableRecord
100
AcDbLayerTableRecord
  2
156
 70
     0
 62
   156
  6
CONTINUOUS
  0
LAYER
  5
D6
330
2
100
AcDbSymbolTableRecord
100
AcDbLayerTableRecord
  2
157
 70
     0
 62
   157
  6
CONTINUOUS
  0
LAYER
  5
D7
330
2
100
AcDbSymbolTableRecord
100
AcDbLayerTableRecord
  2
158
 70
     0
 62
   158
  6
CONTINUOUS
  0
LAYER
  5
D8
330
2
100
AcDbSymbolTableRecord
100
AcDbLayerTableRecord
  2
159
 70
     0
 62
   159
  6
CONTINUOUS
  0
LAYER
  5
D9
330
2
100
AcDbSymbolTableRecord
100
AcDbLayerTableRecord
  2
160
 70
     0
 62
   160
  6
CONTINUOUS
  0
LAYER
  5
DA
330
2
100
AcDbSymbolTableRecord
100
AcDbLayerTableRecord
  2
161
 70
     0
 62
   161
  6
CONTINUOUS
  0
LAYER
  5
DB
330
2
100
AcDbSymbolTableRecord
100
AcDbLayerTableRecord
  2
162
 70
     0
 62
   162
  6
CONTINUOUS
  0
LAYER
  5
DC
330
2
100
AcDbSymbolTableRecord
100
AcDbLayerTableRecord
  2
163
 70
     0
 62
   163
  6
CONTINUOUS
  0
LAYER
  5
DD
330
2
100
AcDbSymbolTableRecord
100
AcDbLayerTableRecord
  2
164
 70
     0
 62
   164
  6
CONTINUOUS
  0
LAYER
  5
DE
330
2
100
AcDbSymbolTableRecord
100
AcDbLayerTableRecord
  2
165
 70
     0
 62
   165
  6
CONTINUOUS
  0
LAYER
  5
DF
330
2
100
AcDbSymbolTableRecord
100
AcDbLayerTableRecord
  2
166
 70
     0
 62
   166
  6
CONTINUOUS
  0
LAYER
  5
E0
330
2
100
AcDbSymbolTableRecord
100
AcDbLayerTableRecord
  2
167
 70
     0
 62
   167
  6
CONTINUOUS
  0
LAYER
  5
E1
330
2
100
AcDbSymbolTableRecord
100
AcDbLayerTableRecord
  2
168
 70
     0
 62
   168
  6
CONTINUOUS
  0
LAYER
  5
E2
330
2
100
AcDbSymbolTableRecord
100
AcDbLayerTableRecord
  2
169
 70
     0
 62
   169
  6
CONTINUOUS
  0
LAYER
  5
E3
330
2
100
AcDbSymbolTableRecord
100
AcDbLayerTableRecord
  2
170
 70
     0
 62
   170
  6
CONTINUOUS
  0
LAYER
  5
E4
330
2
100
AcDbSymbolTableRecord
100
AcDbLayerTableRecord
  2
171
 70
     0
 62
   171
  6
CONTINUOUS
  0
LAYER
  5
E5
330
2
100
AcDbSymbolTableRecord
100
AcDbLayerTableRecord
  2
172
 70
     0
 62
   172
  6
CONTINUOUS
  0
LAYER
  5
E6
330
2
100
AcDbSymbolTableRecord
100
AcDbLayerTableRecord
  2
173
 70
     0
 62
   173
  6
CONTINUOUS
  0
LAYER
  5
E7
330
2
100
AcDbSymbolTableRecord
100
AcDbLayerTableRecord
  2
174
 70
     0
 62
   174
  6
CONTINUOUS
  0
LAYER
  5
E8
330
2
100
AcDbSymbolTableRecord
100
AcDbLayerTableRecord
  2
175
 70
     0
 62
   175
  6
CONTINUOUS
  0
LAYER
  5
E9
330
2
100
AcDbSymbolTableRecord
100
AcDbLayerTableRecord
  2
176
 70
     0
 62
   176
  6
CONTINUOUS
  0
LAYER
  5
EA
330
2
100
AcDbSymbolTableRecord
100
AcDbLayerTableRecord
  2
177
 70
     0
 62
   177
  6
CONTINUOUS
  0
LAYER
  5
EB
330
2
100
AcDbSymbolTableRecord
100
AcDbLayerTableRecord
  2
178
 70
     0
 62
   178
  6
CONTINUOUS
  0
LAYER
  5
EC
330
2
100
AcDbSymbolTableRecord
100
AcDbLayerTableRecord
  2
179
 70
     0
 62
   179
  6
CONTINUOUS
  0
LAYER
  5
ED
330
2
100
AcDbSymbolTableRecord
100
AcDbLayerTableRecord
  2
180
 70
     0
 62
   180
  6
CONTINUOUS
  0
LAYER
  5
EE
330
2
100
AcDbSymbolTableRecord
100
AcDbLayerTableRecord
  2
181
 70
     0
 62
   181
  6
CONTINUOUS
  0
LAYER
  5
EF
330
2
100
AcDbSymbolTableRecord
100
AcDbLayerTableRecord
  2
182
 70
     0
 62
   182
  6
CONTINUOUS
  0
LAYER
  5
F0
330
2
100
AcDbSymbolTableRecord
100
AcDbLayerTableRecord
  2
183
 70
     0
 62
   183
  6
CONTINUOUS
  0
LAYER
  5
F1
330
2
100
AcDbSymbolTableRecord
100
AcDbLayerTableRecord
  2
184
 70
     0
 62
   184
  6
CONTINUOUS
  0
LAYER
  5
F2
330
2
100
AcDbSymbolTableRecord
100
AcDbLayerTableRecord
  2
185
 70
     0
 62
   185
  6
CONTINUOUS
  0
LAYER
  5
F3
330
2
100
AcDbSymbolTableRecord
100
AcDbLayerTableRecord
  2
186
 70
     0
 62
   186
  6
CONTINUOUS
  0
LAYER
  5
F4
330
2
100
AcDbSymbolTableRecord
100
AcDbLayerTableRecord
  2
187
 70
     0
 62
   187
  6
CONTINUOUS
  0
LAYER
  5
F5
330
2
100
AcDbSymbolTableRecord
100
AcDbLayerTableRecord
  2
188
 70
     0
 62
   188
  6
CONTINUOUS
  0
LAYER
  5
F6
330
2
100
AcDbSymbolTableRecord
100
AcDbLayerTableRecord
  2
189
 70
     0
 62
   189
  6
CONTINUOUS
  0
LAYER
  5
F7
330
2
100
AcDbSymbolTableRecord
100
AcDbLayerTableRecord
  2
190
 70
     0
 62
   190
  6
CONTINUOUS
  0
LAYER
  5
F8
330
2
100
AcDbSymbolTableRecord
100
AcDbLayerTableRecord
  2
191
 70
     0
 62
   191
  6
CONTINUOUS
  0
LAYER
  5
F9
330
2
100
AcDbSymbolTableRecord
100
AcDbLayerTableRecord
  2
192
 70
     0
 62
   192
  6
CONTINUOUS
  0
LAYER
  5
FA
330
2
100
AcDbSymbolTableRecord
100
AcDbLayerTableRecord
  2
193
 70
     0
 62
   193
  6
CONTINUOUS
  0
LAYER
  5
FB
330
2
100
AcDbSymbolTableRecord
100
AcDbLayerTableRecord
  2
194
 70
     0
 62
   194
  6
CONTINUOUS
  0
LAYER
  5
FC
330
2
100
AcDbSymbolTableRecord
100
AcDbLayerTableRecord
  2
195
 70
     0
 62
   195
  6
CONTINUOUS
  0
LAYER
  5
FD
330
2
100
AcDbSymbolTableRecord
100
AcDbLayerTableRecord
  2
196
 70
     0
 62
   196
  6
CONTINUOUS
  0
LAYER
  5
FE
330
2
100
AcDbSymbolTableRecord
100
AcDbLayerTableRecord
  2
197
 70
     0
 62
   197
  6
CONTINUOUS
  0
LAYER
  5
FF
330
2
100
AcDbSymbolTableRecord
100
AcDbLayerTableRecord
  2
198
 70
     0
 62
   198
  6
CONTINUOUS
  0
LAYER
  5
100
330
2
100
AcDbSymbolTableRecord
100
AcDbLayerTableRecord
  2
199
 70
     0
 62
   199
  6
CONTINUOUS
  0
LAYER
  5
101
330
2
100
AcDbSymbolTableRecord
100
AcDbLayerTableRecord
  2
200
 70
     0
 62
   200
  6
CONTINUOUS
  0
LAYER
  5
102
330
2
100
AcDbSymbolTableRecord
100
AcDbLayerTableRecord
  2
201
 70
     0
 62
   201
  6
CONTINUOUS
  0
LAYER
  5
103
330
2
100
AcDbSymbolTableRecord
100
AcDbLayerTableRecord
  2
202
 70
     0
 62
   202
  6
CONTINUOUS
  0
LAYER
  5
104
330
2
100
AcDbSymbolTableRecord
100
AcDbLayerTableRecord
  2
203
 70
     0
 62
   203
  6
CONTINUOUS
  0
LAYER
  5
105
330
2
100
AcDbSymbolTableRecord
100
AcDbLayerTableRecord
  2
204
 70
     0
 62
   204
  6
CONTINUOUS
  0
LAYER
  5
106
330
2
100
AcDbSymbolTableRecord
100
AcDbLayerTableRecord
  2
205
 70
     0
 62
   205
  6
CONTINUOUS
  0
LAYER
  5
107
330
2
100
AcDbSymbolTableRecord
100
AcDbLayerTableRecord
  2
206
 70
     0
 62
   206
  6
CONTINUOUS
  0
LAYER
  5
108
330
2
100
AcDbSymbolTableRecord
100
AcDbLayerTableRecord
  2
207
 70
     0
 62
   207
  6
CONTINUOUS
  0
LAYER
  5
109
330
2
100
AcDbSymbolTableRecord
100
AcDbLayerTableRecord
  2
208
 70
     0
 62
   208
  6
CONTINUOUS
  0
LAYER
  5
10A
330
2
100
AcDbSymbolTableRecord
100
AcDbLayerTableRecord
  2
209
 70
     0
 62
   209
  6
CONTINUOUS
  0
LAYER
  5
10B
330
2
100
AcDbSymbolTableRecord
100
AcDbLayerTableRecord
  2
210
 70
     0
 62
   210
  6
CONTINUOUS
  0
LAYER
  5
10C
330
2
100
AcDbSymbolTableRecord
100
AcDbLayerTableRecord
  2
211
 70
     0
 62
   211
  6
CONTINUOUS
  0
LAYER
  5
10D
330
2
100
AcDbSymbolTableRecord
100
AcDbLayerTableRecord
  2
212
 70
     0
 62
   212
  6
CONTINUOUS
  0
LAYER
  5
10E
330
2
100
AcDbSymbolTableRecord
100
AcDbLayerTableRecord
  2
213
 70
     0
 62
   213
  6
CONTINUOUS
  0
LAYER
  5
10F
330
2
100
AcDbSymbolTableRecord
100
AcDbLayerTableRecord
  2
214
 70
     0
 62
   214
  6
CONTINUOUS
  0
LAYER
  5
110
330
2
100
AcDbSymbolTableRecord
100
AcDbLayerTableRecord
  2
215
 70
     0
 62
   215
  6
CONTINUOUS
  0
LAYER
  5
111
330
2
100
AcDbSymbolTableRecord
100
AcDbLayerTableRecord
  2
216
 70
     0
 62
   216
  6
CONTINUOUS
  0
LAYER
  5
112
330
2
100
AcDbSymbolTableRecord
100
AcDbLayerTableRecord
  2
217
 70
     0
 62
   217
  6
CONTINUOUS
  0
LAYER
  5
113
330
2
100
AcDbSymbolTableRecord
100
AcDbLayerTableRecord
  2
218
 70
     0
 62
   218
  6
CONTINUOUS
  0
LAYER
  5
114
330
2
100
AcDbSymbolTableRecord
100
AcDbLayerTableRecord
  2
219
 70
     0
 62
   219
  6
CONTINUOUS
  0
LAYER
  5
115
330
2
100
AcDbSymbolTableRecord
100
AcDbLayerTableRecord
  2
220
 70
     0
 62
   220
  6
CONTINUOUS
  0
LAYER
  5
116
330
2
100
AcDbSymbolTableRecord
100
AcDbLayerTableRecord
  2
221
 70
     0
 62
   221
  6
CONTINUOUS
  0
LAYER
  5
117
330
2
100
AcDbSymbolTableRecord
100
AcDbLayerTableRecord
  2
222
 70
     0
 62
   222
  6
CONTINUOUS
  0
LAYER
  5
118
330
2
100
AcDbSymbolTableRecord
100
AcDbLayerTableRecord
  2
223
 70
     0
 62
   223
  6
CONTINUOUS
  0
LAYER
  5
119
330
2
100
AcDbSymbolTableRecord
100
AcDbLayerTableRecord
  2
224
 70
     0
 62
   224
  6
CONTINUOUS
  0
LAYER
  5
11A
330
2
100
AcDbSymbolTableRecord
100
AcDbLayerTableRecord
  2
225
 70
     0
 62
   225
  6
CONTINUOUS
  0
LAYER
  5
11B
330
2
100
AcDbSymbolTableRecord
100
AcDbLayerTableRecord
  2
226
 70
     0
 62
   226
  6
CONTINUOUS
  0
LAYER
  5
11C
330
2
100
AcDbSymbolTableRecord
100
AcDbLayerTableRecord
  2
227
 70
     0
 62
   227
  6
CONTINUOUS
  0
LAYER
  5
11D
330
2
100
AcDbSymbolTableRecord
100
AcDbLayerTableRecord
  2
228
 70
     0
 62
   228
  6
CONTINUOUS
  0
LAYER
  5
11E
330
2
100
AcDbSymbolTableRecord
100
AcDbLayerTableRecord
  2
229
 70
     0
 62
   229
  6
CONTINUOUS
  0
LAYER
  5
11F
330
2
100
AcDbSymbolTableRecord
100
AcDbLayerTableRecord
  2
230
 70
     0
 62
   230
  6
CONTINUOUS
  0
LAYER
  5
120
330
2
100
AcDbSymbolTableRecord
100
AcDbLayerTableRecord
  2
231
 70
     0
 62
   231
  6
CONTINUOUS
  0
LAYER
  5
121
330
2
100
AcDbSymbolTableRecord
100
AcDbLayerTableRecord
  2
232
 70
     0
 62
   232
  6
CONTINUOUS
  0
LAYER
  5
122
330
2
100
AcDbSymbolTableRecord
100
AcDbLayerTableRecord
  2
233
 70
     0
 62
   233
  6
CONTINUOUS
  0
LAYER
  5
123
330
2
100
AcDbSymbolTableRecord
100
AcDbLayerTableRecord
  2
234
 70
     0
 62
   234
  6
CONTINUOUS
  0
LAYER
  5
124
330
2
100
AcDbSymbolTableRecord
100
AcDbLayerTableRecord
  2
235
 70
     0
 62
   235
  6
CONTINUOUS
  0
LAYER
  5
125
330
2
100
AcDbSymbolTableRecord
100
AcDbLayerTableRecord
  2
236
 70
     0
 62
   236
  6
CONTINUOUS
  0
LAYER
  5
126
330
2
100
AcDbSymbolTableRecord
100
AcDbLayerTableRecord
  2
237
 70
     0
 62
   237
  6
CONTINUOUS
  0
LAYER
  5
127
330
2
100
AcDbSymbolTableRecord
100
AcDbLayerTableRecord
  2
238
 70
     0
 62
   238
  6
CONTINUOUS
  0
LAYER
  5
128
330
2
100
AcDbSymbolTableRecord
100
AcDbLayerTableRecord
  2
239
 70
     0
 62
   239
  6
CONTINUOUS
  0
LAYER
  5
129
330
2
100
AcDbSymbolTableRecord
100
AcDbLayerTableRecord
  2
240
 70
     0
 62
   240
  6
CONTINUOUS
  0
LAYER
  5
12A
330
2
100
AcDbSymbolTableRecord
100
AcDbLayerTableRecord
  2
241
 70
     0
 62
   241
  6
CONTINUOUS
  0
LAYER
  5
12B
330
2
100
AcDbSymbolTableRecord
100
AcDbLayerTableRecord
  2
242
 70
     0
 62
   242
  6
CONTINUOUS
  0
LAYER
  5
12C
330
2
100
AcDbSymbolTableRecord
100
AcDbLayerTableRecord
  2
243
 70
     0
 62
   243
  6
CONTINUOUS
  0
LAYER
  5
12D
330
2
100
AcDbSymbolTableRecord
100
AcDbLayerTableRecord
  2
244
 70
     0
 62
   244
  6
CONTINUOUS
  0
LAYER
  5
12E
330
2
100
AcDbSymbolTableRecord
100
AcDbLayerTableRecord
  2
245
 70
     0
 62
   245
  6
CONTINUOUS
  0
LAYER
  5
12F
330
2
100
AcDbSymbolTableRecord
100
AcDbLayerTableRecord
  2
246
 70
     0
 62
   246
  6
CONTINUOUS
  0
LAYER
  5
130
330
2
100
AcDbSymbolTableRecord
100
AcDbLayerTableRecord
  2
247
 70
     0
 62
   247
  6
CONTINUOUS
  0
LAYER
  5
131
330
2
100
AcDbSymbolTableRecord
100
AcDbLayerTableRecord
  2
248
 70
     0
 62
   248
  6
CONTINUOUS
  0
LAYER
  5
132
330
2
100
AcDbSymbolTableRecord
100
AcDbLayerTableRecord
  2
249
 70
     0
 62
   249
  6
CONTINUOUS
  0
LAYER
  5
133
330
2
100
AcDbSymbolTableRecord
100
AcDbLayerTableRecord
  2
250
 70
     0
 62
   250
  6
CONTINUOUS
  0
LAYER
  5
134
330
2
100
AcDbSymbolTableRecord
100
AcDbLayerTableRecord
  2
251
 70
     0
 62
   251
  6
CONTINUOUS
  0
LAYER
  5
135
330
2
100
AcDbSymbolTableRecord
100
AcDbLayerTableRecord
  2
252
 70
     0
 62
   252
  6
CONTINUOUS
  0
LAYER
  5
136
330
2
100
AcDbSymbolTableRecord
100
AcDbLayerTableRecord
  2
253
 70
     0
 62
   253
  6
CONTINUOUS
  0
LAYER
  5
137
330
2
100
AcDbSymbolTableRecord
100
AcDbLayerTableRecord
  2
254
 70
     0
 62
   254
  6
CONTINUOUS
  0
LAYER
  5
138
330
2
100
AcDbSymbolTableRecord
100
AcDbLayerTableRecord
  2
255
 70
     0
 62
   255
  6
CONTINUOUS
  0
LAYER
  5
2A8C
330
2
100
AcDbSymbolTableRecord
100
AcDbLayerTableRecord
  2
DEFPOINTS
 70
     0
 62
     7
  6
CONTINUOUS
  0
ENDTAB
  0
TABLE
  2
STYLE
  5
3
330
0
100
AcDbSymbolTable
 70
     1
  0
STYLE
  5
11
330
3
100
AcDbSymbolTableRecord
100
AcDbTextStyleTableRecord
  2
STANDARD
 70
     0
 40
0.0
 41
1.0
 50
0.0
 71
     0
 42
0.2
  3
monotxt
  4

  0
ENDTAB
  0
TABLE
  2
VIEW
  5
6
330
0
100
AcDbSymbolTable
 70
     0
  0
ENDTAB
  0
TABLE
  2
UCS
  5
7
330
0
100
AcDbSymbolTable
 70
     0
  0
ENDTAB
  0
TABLE
  2
APPID
  5
9
330
0
100
AcDbSymbolTable
 70
     1
  0
APPID
  5
12
330
9
100
AcDbSymbolTableRecord
100
AcDbRegAppTableRecord
  2
ACAD
 70
     0
  0
ENDTAB
  0
TABLE
  2
DIMSTYLE
  5
A
330
0
100
AcDbSymbolTable
 70
     1
  0
DIMSTYLE
105
2529
330
A
100
AcDbSymbolTableRecord
100
AcDbDimStyleTableRecord
  2
STANDARD
 70
     0
  3

  4

  5

  6

  7

 40
1.0
 41
0.18
 42
0.0625
 43
0.38
 44
0.18
 45
0.0
 46
0.0
 47
0.0
 48
0.0
140
0.18
141
0.09
142
0.0
143
25.4
144
1.0
145
0.0
146
1.0
147
0.09
 71
     0
 72
     0
 73
     1
 74
     1
 75
     0
 76
     0
 77
     0
 78
     0
170
     0
171
     2
172
     0
173
     0
174
     0
175
     0
176
     0
177
     0
178
     0
270
     2
271
     4
272
     4
273
     2
274
     2
340
11
275
     0
280
     0
281
     0
282
     0
283
     1
284
     0
285
     0
286
     0
287
     3
288
     0
  0
ENDTAB
  0
TABLE
  2
BLOCK_RECORD
  5
1
330
0
100
AcDbSymbolTable
 70
     1
  0
BLOCK_RECORD
  5
1E
102
{ACAD_XDICTIONARY
360
2531
102
}
330
1
100
AcDbSymbolTableRecord
100
AcDbBlockTableRecord
  2
*MODEL_SPACE
  0
BLOCK_RECORD
  5
1A
102
{ACAD_XDICTIONARY
360
2533
102
}
330
1
100
AcDbSymbolTableRecord
100
AcDbBlockTableRecord
  2
*PAPER_SPACE
  0
ENDTAB
  0
ENDSEC
  0
SECTION
  2
BLOCKS
  0
BLOCK
  5
13B
330
1E
100
AcDbEntity
  8
0
100
AcDbBlockBegin
  2
*MODEL_SPACE
 70
     0
 10
0.0
 20
0.0
 30
0.0
  3
*MODEL_SPACE
  1

  0
ENDBLK
  5
13C
330
1E
100
AcDbEntity
  8
0
100
AcDbBlockEnd
  0
BLOCK
  5
139
330
1A
100
AcDbEntity
 67
     1
  8
0
100
AcDbBlockBegin
  2
*PAPER_SPACE
 70
     0
 10
0.0
 20
0.0
 30
0.0
  3
*PAPER_SPACE
  1

  0
ENDBLK
  5
13A
330
1A
100
AcDbEntity
 67
     1
  8
0
100
AcDbBlockEnd
  0
ENDSEC
  0
SECTION
  2
ENTITIES
  0
LINE
  5
1FEC
330
1E
100
AcDbEntity
  8
7
100
AcDbLine
 10
2.10683646484582
 20
3.362722928655427
 30
0.0
 11
2.116678984530859
 21
3.356817416844403
 31
0.0
  0
LINE
  5
2021
330
1E
100
AcDbEntity
  8
7
100
AcDbLine
 10
-0.6293840075951245
 20
3.352880408970387
 30
0.0
 11
-0.6254469997211097
 21
3.356817416844403
 31
0.0
  0
LINE
  5
2028
330
1E
100
AcDbEntity
  8
7
100
AcDbLine
 10
2.116678984530859
 20
3.356817416844403
 30
0.0
 11
2.120615992404875
 21
3.352880408970387
 31
0.0
  0
LINE
  5
2029
330
1E
100
AcDbEntity
  8
7
100
AcDbLine
 10
-0.4010375509022115
 20
3.520203243616057
 30
0.0
 11
1.892269535711962
 21
3.520203243616057
 31
0.0
  0
LINE
  5
202A
330
1E
100
AcDbEntity
  8
7
100
AcDbLine
 10
2.120615992404875
 20
3.352880408970387
 30
0.0
 11
2.120615992404875
 21
7.732801668812907
 31
0.0
  0
LINE
  5
2036
330
1E
100
AcDbEntity
  8
7
100
AcDbLine
 10
-0.158911566650243
 20
3.697368597946764
 30
0.0
 11
-0.1608800705872508
 21
3.697368597946764
 31
0.0
  0
LINE
  5
203C
330
1E
100
AcDbEntity
  8
7
100
AcDbLine
 10
-0.1923761335793768
 20
3.726896157001883
 30
0.0
 11
-0.1904076296423689
 21
3.72886466093889
 31
0.0
  0
LINE
  5
2042
330
1E
100
AcDbEntity
  8
7
100
AcDbLine
 10
1.652112055397001
 20
3.697368597946764
 30
0.0
 11
1.650143551459994
 21
3.697368597946764
 31
0.0
  0
LINE
  5
2043
330
1E
100
AcDbEntity
  8
7
100
AcDbLine
 10
1.620615992404875
 20
3.697368597946764
 30
0.0
 11
1.650143551459994
 21
3.697368597946764
 31
0.0
  0
LINE
  5
2044
330
1E
100
AcDbEntity
  8
7
100
AcDbLine
 10
1.618647488467868
 20
3.697368597946764
 30
0.0
 11
1.620615992404875
 21
3.697368597946764
 31
0.0
  0
LINE
  5
204A
330
1E
100
AcDbEntity
  8
7
100
AcDbLine
 10
-0.158911566650243
 20
3.697368597946764
 30
0.0
 11
-0.1293840075951249
 21
3.697368597946764
 31
0.0
  0
LINE
  5
204B
330
1E
100
AcDbEntity
  8
7
100
AcDbLine
 10
1.652112055397001
 20
3.697368597946764
 30
0.0
 11
-0.1608800705872508
 21
3.697368597946764
 31
0.0
  0
LINE
  5
2051
330
1E
100
AcDbEntity
  8
7
100
AcDbLine
 10
1.681639614452119
 20
3.72886466093889
 30
0.0
 11
1.683608118389127
 21
3.726896157001883
 31
0.0
  0
LINE
  5
205D
330
1E
100
AcDbEntity
  8
7
100
AcDbLine
 10
1.683608118389127
 20
4.077289857789285
 30
0.0
 11
1.683608118389127
 21
3.726896157001883
 31
0.0
  0
LINE
  5
2066
330
1E
100
AcDbEntity
  8
7
100
AcDbLine
 10
1.673765598704088
 20
4.098943401096372
 30
0.0
 11
1.683608118389127
 21
4.077289857789285
 31
0.0
  0
LINE
  5
2067
330
1E
100
AcDbEntity
  8
7
100
AcDbLine
 10
-0.1923761335793768
 20
7.358785920781411
 30
0.0
 11
-0.1923761335793768
 21
7.008392219994009
 31
0.0
  0
LINE
  5
206D
330
1E
100
AcDbEntity
  8
7
100
AcDbLine
 10
1.652112055397001
 20
7.390281983773537
 30
0.0
 11
-0.1608800705872508
 21
7.390281983773537
 31
0.0
  0
LINE
  5
2073
330
1E
100
AcDbEntity
  8
7
100
AcDbLine
 10
1.683608118389127
 20
7.008392219994009
 30
0.0
 11
1.683608118389127
 21
7.358785920781411
 31
0.0
  0
LINE
  5
2079
330
1E
100
AcDbEntity
  8
7
100
AcDbLine
 10
-0.1608800705872508
 20
6.976896157001883
 30
0.0
 11
1.652112055397001
 21
6.976896157001883
 31
0.0
  0
LINE
  5
207F
330
1E
100
AcDbEntity
  8
7
100
AcDbLine
 10
0.6737655987040885
 20
5.244612692434953
 30
0.0
 11
0.8174663861056625
 21
5.244612692434953
 31
0.0
  0
LINE
  5
2087
330
1E
100
AcDbEntity
  8
7
100
AcDbLine
 10
0.1147104805938515
 20
5.9060300152696
 30
0.0
 11
0.1147104805938515
 21
5.244612692434953
 31
0.0
  0
LINE
  5
2088
330
1E
100
AcDbEntity
  8
7
100
AcDbLine
 10
1.376521504215899
 20
5.9060300152696
 30
0.0
 11
0.1147104805938515
 21
5.9060300152696
 31
0.0
  0
LINE
  5
2089
330
1E
100
AcDbEntity
  8
7
100
AcDbLine
 10
1.376521504215899
 20
5.9060300152696
 30
0.0
 11
1.376521504215899
 21
5.244612692434953
 31
0.0
  0
LINE
  5
208A
330
1E
100
AcDbEntity
  8
7
100
AcDbLine
 10
1.309592370357631
 20
5.244612692434953
 30
0.0
 11
1.376521504215899
 21
5.244612692434953
 31
0.0
  0
LINE
  5
208B
330
1E
100
AcDbEntity
  8
7
100
AcDbLine
 10
1.309592370357631
 20
5.179652062513694
 30
0.0
 11
1.309592370357631
 21
5.244612692434953
 31
0.0
  0
LINE
  5
208C
330
1E
100
AcDbEntity
  8
7
100
AcDbLine
 10
0.8174663861056625
 20
5.179652062513694
 30
0.0
 11
1.309592370357631
 21
5.179652062513694
 31
0.0
  0
LINE
  5
208D
330
1E
100
AcDbEntity
  8
7
100
AcDbLine
 10
0.8174663861056625
 20
5.244612692434953
 30
0.0
 11
0.8174663861056625
 21
5.179652062513694
 31
0.0
  0
LINE
  5
20A0
330
1E
100
AcDbEntity
  8
7
100
AcDbLine
 10
2.059592370357631
 20
7.793825290860151
 30
0.0
 11
-0.5703288894848893
 21
7.793825290860151
 31
0.0
  0
LINE
  5
20A6
330
1E
100
AcDbEntity
  8
7
100
AcDbLine
 10
2.112741976656844
 20
7.762329227868026
 30
0.0
 11
2.120615992404875
 21
7.732801668812907
 31
0.0
  0
LINE
  5
20B0
330
1E
100
AcDbEntity
  8
7
100
AcDbLine
 10
1.618647488467868
 20
4.106817416844403
 30
0.0
 11
1.618647488467868
 21
3.697368597946764
 31
0.0
  0
LINE
  5
20B1
330
1E
100
AcDbEntity
  8
7
100
AcDbLine
 10
-0.127415503658117
 20
4.106817416844403
 30
0.0
 11
1.618647488467868
 21
4.106817416844403
 31
0.0
  0
LINE
  5
20B2
330
1E
100
AcDbEntity
  8
7
100
AcDbLine
 10
-0.127415503658117
 20
4.106817416844403
 30
0.0
 11
-0.127415503658117
 21
3.697368597946764
 31
0.0
  0
LINE
  5
20B3
330
1E
100
AcDbEntity
  8
7
100
AcDbLine
 10
0.8056553624836153
 20
4.05366781054519
 30
0.0
 11
0.6855766223261357
 21
4.05366781054519
 31
0.0
  0
LINE
  5
20C3
330
1E
100
AcDbEntity
  8
7
100
AcDbLine
 10
0.6855766223261357
 20
3.750518204245977
 30
0.0
 11
0.8056553624836153
 21
3.750518204245977
 31
0.0
  0
LINE
  5
20E4
330
1E
100
AcDbEntity
  8
7
100
AcDbLine
 10
0.6383325278379468
 20
7.124533952277474
 30
0.0
 11
0.8509309530347968
 21
7.124533952277474
 31
0.0
  0
LINE
  5
20E5
330
1E
100
AcDbEntity
  8
7
100
AcDbLine
 10
0.6383325278379468
 20
7.244612692434953
 30
0.0
 11
0.8509309530347968
 21
7.244612692434953
 31
0.0
  0
LINE
  5
20E6
330
1E
100
AcDbEntity
  8
7
100
AcDbLine
 10
0.8410884333497579
 20
7.116659936529442
 30
0.0
 11
0.6501435514599941
 21
7.116659936529442
 31
0.0
  0
LINE
  5
20E7
330
1E
100
AcDbEntity
  8
7
100
AcDbLine
 10
0.8509309530347968
 20
7.124533952277474
 30
0.0
 11
0.8410884333497579
 21
7.116659936529442
 31
0.0
  0
LINE
  5
20E8
330
1E
100
AcDbEntity
  8
7
100
AcDbLine
 10
0.6501435514599941
 20
7.116659936529442
 30
0.0
 11
0.6383325278379468
 21
7.124533952277474
 31
0.0
  0
LINE
  5
20E9
330
1E
100
AcDbEntity
  8
7
100
AcDbLine
 10
0.8410884333497579
 20
7.250518204245977
 30
0.0
 11
0.6501435514599941
 21
7.250518204245977
 31
0.0
  0
LINE
  5
20EF
330
1E
100
AcDbEntity
  8
7
100
AcDbLine
 10
0.8056553624836153
 20
7.260360723931016
 30
0.0
 11
0.6855766223261357
 21
7.260360723931016
 31
0.0
  0
LINE
  5
20F0
330
1E
100
AcDbEntity
  8
7
100
AcDbLine
 10
0.6855766223261357
 20
7.258392219994009
 30
0.0
 11
0.6678600868930645
 21
7.256423716057001
 31
0.0
  0
LINE
  5
20F1
330
1E
100
AcDbEntity
  8
7
100
AcDbLine
 10
0.6678600868930645
 20
7.256423716057001
 30
0.0
 11
0.6501435514599941
 21
7.24854970030897
 31
0.0
  0
LINE
  5
20F2
330
1E
100
AcDbEntity
  8
7
100
AcDbLine
 10
0.8410884333497579
 20
7.250518204245977
 30
0.0
 11
0.8509309530347968
 21
7.244612692434953
 31
0.0
  0
LINE
  5
20F3
330
1E
100
AcDbEntity
  8
7
100
AcDbLine
 10
0.6383325278379468
 20
7.244612692434953
 30
0.0
 11
0.6501435514599941
 21
7.250518204245977
 31
0.0
  0
LINE
  5
20F9
330
1E
100
AcDbEntity
  8
7
100
AcDbLine
 10
0.8056553624836153
 20
7.106817416844403
 30
0.0
 11
0.6855766223261357
 21
7.106817416844403
 31
0.0
  0
LINE
  5
210A
330
1E
100
AcDbEntity
  8
7
100
AcDbLine
 10
0.6147104805938524
 20
7.161935527080624
 30
0.0
 11
0.6403010317749543
 21
7.124533952277474
 31
0.0
  0
LINE
  5
2114
330
1E
100
AcDbEntity
  8
7
100
AcDbLine
 10
0.8056553624836153
 20
7.260360723931016
 30
0.0
 11
0.6855766223261357
 21
7.260360723931016
 31
0.0
  0
LINE
  5
211E
330
1E
100
AcDbEntity
  8
7
100
AcDbLine
 10
0.8056553624836153
 20
7.106817416844403
 30
0.0
 11
0.6855766223261357
 21
7.106817416844403
 31
0.0
  0
LINE
  5
211F
330
1E
100
AcDbEntity
  8
7
100
AcDbLine
 10
0.6855766223261357
 20
7.033982771175111
 30
0.0
 11
0.8056553624836153
 21
7.033982771175111
 31
0.0
  0
LINE
  5
212C
330
1E
100
AcDbEntity
  8
7
100
AcDbLine
 10
0.8056553624836153
 20
7.333195369600309
 30
0.0
 11
0.6855766223261357
 21
7.333195369600309
 31
0.0
  0
LINE
  5
2139
330
1E
100
AcDbEntity
  8
7
100
AcDbLine
 10
0.8056553624836153
 20
7.335163873537316
 30
0.0
 11
0.8056553624836153
 21
7.333195369600309
 31
0.0
  0
LINE
  5
213A
330
1E
100
AcDbEntity
  8
7
100
AcDbLine
 10
0.8056553624836153
 20
7.033982771175111
 30
0.0
 11
0.8056553624836153
 21
7.032014267238103
 31
0.0
  0
LINE
  5
214C
330
1E
100
AcDbEntity
  8
7
100
AcDbLine
 10
0.6855766223261357
 20
7.032014267238103
 30
0.0
 11
0.6855766223261357
 21
7.033982771175111
 31
0.0
  0
LINE
  5
215C
330
1E
100
AcDbEntity
  8
7
100
AcDbLine
 10
0.8056553624836153
 20
7.032014267238103
 30
0.0
 11
0.6855766223261357
 21
7.032014267238103
 31
0.0
  0
LINE
  5
215D
330
1E
100
AcDbEntity
  8
7
100
AcDbLine
 10
-0.127415503658117
 20
6.97886466093889
 30
0.0
 11
-0.127415503658117
 21
7.388313479836529
 31
0.0
  0
LINE
  5
215E
330
1E
100
AcDbEntity
  8
7
100
AcDbLine
 10
1.618647488467868
 20
6.97886466093889
 30
0.0
 11
1.618647488467868
 21
7.388313479836529
 31
0.0
  0
LINE
  5
215F
330
1E
100
AcDbEntity
  8
7
100
AcDbLine
 10
-0.127415503658117
 20
6.97886466093889
 30
0.0
 11
-0.1293840075951249
 21
6.97886466093889
 31
0.0
  0
LINE
  5
2160
330
1E
100
AcDbEntity
  8
7
100
AcDbLine
 10
1.618647488467868
 20
6.97886466093889
 30
0.0
 11
1.620615992404875
 21
6.97886466093889
 31
0.0
  0
LINE
  5
2166
330
1E
100
AcDbEntity
  8
7
100
AcDbLine
 10
1.681639614452119
 20
7.358785920781411
 30
0.0
 11
1.681639614452119
 21
7.008392219994009
 31
0.0
  0
LINE
  5
216C
330
1E
100
AcDbEntity
  8
7
100
AcDbLine
 10
1.620615992404875
 20
7.388313479836529
 30
0.0
 11
1.650143551459994
 21
7.388313479836529
 31
0.0
  0
LINE
  5
216D
330
1E
100
AcDbEntity
  8
7
100
AcDbLine
 10
1.650143551459994
 20
6.97886466093889
 30
0.0
 11
1.620615992404875
 21
6.97886466093889
 31
0.0
  0
LINE
  5
216E
330
1E
100
AcDbEntity
  8
7
100
AcDbLine
 10
1.618647488467868
 20
7.388313479836529
 30
0.0
 11
1.620615992404875
 21
7.388313479836529
 31
0.0
  0
LINE
  5
216F
330
1E
100
AcDbEntity
  8
7
100
AcDbLine
 10
1.618647488467868
 20
7.388313479836529
 30
0.0
 11
-0.127415503658117
 21
7.388313479836529
 31
0.0
  0
LINE
  5
2170
330
1E
100
AcDbEntity
  8
7
100
AcDbLine
 10
-0.127415503658117
 20
6.97886466093889
 30
0.0
 11
1.618647488467868
 21
6.97886466093889
 31
0.0
  0
LINE
  5
2171
330
1E
100
AcDbEntity
  8
7
100
AcDbLine
 10
-0.127415503658117
 20
7.388313479836529
 30
0.0
 11
-0.1293840075951249
 21
7.388313479836529
 31
0.0
  0
LINE
  5
2172
330
1E
100
AcDbEntity
  8
7
100
AcDbLine
 10
-0.158911566650243
 20
7.388313479836529
 30
0.0
 11
-0.1293840075951249
 21
7.388313479836529
 31
0.0
  0
LINE
  5
2178
330
1E
100
AcDbEntity
  8
7
100
AcDbLine
 10
-0.1904076296423689
 20
7.008392219994009
 30
0.0
 11
-0.1904076296423689
 21
7.358785920781411
 31
0.0
  0
LINE
  5
217E
330
1E
100
AcDbEntity
  8
7
100
AcDbLine
 10
-0.1293840075951249
 20
6.97886466093889
 30
0.0
 11
-0.158911566650243
 21
6.97886466093889
 31
0.0
  0
LINE
  5
217F
330
1E
100
AcDbEntity
  8
7
100
AcDbLine
 10
-0.1608800705872508
 20
6.976896157001883
 30
0.0
 11
-0.158911566650243
 21
6.97886466093889
 31
0.0
  0
LINE
  5
2180
330
1E
100
AcDbEntity
  8
7
100
AcDbLine
 10
-0.1904076296423689
 20
7.008392219994009
 30
0.0
 11
-0.1923761335793768
 21
7.008392219994009
 31
0.0
  0
LINE
  5
2181
330
1E
100
AcDbEntity
  8
7
100
AcDbLine
 10
1.650143551459994
 20
6.97886466093889
 30
0.0
 11
1.652112055397001
 21
6.976896157001883
 31
0.0
  0
LINE
  5
2182
330
1E
100
AcDbEntity
  8
7
100
AcDbLine
 10
1.683608118389127
 20
7.008392219994009
 30
0.0
 11
1.681639614452119
 21
7.008392219994009
 31
0.0
  0
LINE
  5
2183
330
1E
100
AcDbEntity
  8
7
100
AcDbLine
 10
1.681639614452119
 20
7.358785920781411
 30
0.0
 11
1.683608118389127
 21
7.358785920781411
 31
0.0
  0
LINE
  5
2184
330
1E
100
AcDbEntity
  8
7
100
AcDbLine
 10
1.652112055397001
 20
7.390281983773537
 30
0.0
 11
1.650143551459994
 21
7.388313479836529
 31
0.0
  0
LINE
  5
2185
330
1E
100
AcDbEntity
  8
7
100
AcDbLine
 10
-0.158911566650243
 20
7.388313479836529
 30
0.0
 11
-0.1608800705872508
 21
7.390281983773537
 31
0.0
  0
LINE
  5
2186
330
1E
100
AcDbEntity
  8
7
100
AcDbLine
 10
-0.1923761335793768
 20
7.358785920781411
 30
0.0
 11
-0.1904076296423689
 21
7.358785920781411
 31
0.0
  0
LINE
  5
2187
330
1E
100
AcDbEntity
  8
7
100
AcDbLine
 10
-0.5663918816108727
 20
7.789888282986135
 30
0.0
 11
2.057623866420623
 21
7.789888282986135
 31
0.0
  0
LINE
  5
2190
330
1E
100
AcDbEntity
  8
7
100
AcDbLine
 10
-0.4423761335793768
 20
7.620596944403459
 30
0.0
 11
-0.4010375509022115
 21
7.565478834167237
 31
0.0
  0
LINE
  5
21A8
330
1E
100
AcDbEntity
  8
7
100
AcDbLine
 10
1.683608118389127
 20
4.077289857789285
 30
0.0
 11
1.681639614452119
 21
4.077289857789285
 31
0.0
  0
LINE
  5
21A9
330
1E
100
AcDbEntity
  8
7
100
AcDbLine
 10
1.650143551459994
 20
4.108785920781411
 30
0.0
 11
1.652112055397001
 21
4.108785920781411
 31
0.0
  0
LINE
  5
21AA
330
1E
100
AcDbEntity
  8
7
100
AcDbLine
 10
1.618647488467868
 20
4.106817416844403
 30
0.0
 11
1.620615992404875
 21
4.108785920781411
 31
0.0
  0
LINE
  5
21AB
330
1E
100
AcDbEntity
  8
7
100
AcDbLine
 10
-0.1608800705872508
 20
4.108785920781411
 30
0.0
 11
-0.158911566650243
 21
4.108785920781411
 31
0.0
  0
LINE
  5
21AC
330
1E
100
AcDbEntity
  8
7
100
AcDbLine
 10
-0.127415503658117
 20
4.106817416844403
 30
0.0
 11
-0.1293840075951249
 21
4.108785920781411
 31
0.0
  0
LINE
  5
21B9
330
1E
100
AcDbEntity
  8
7
100
AcDbLine
 10
0.8056553624836153
 20
4.051699306608183
 30
0.0
 11
0.8056553624836153
 21
4.05366781054519
 31
0.0
  0
LINE
  5
21BF
330
1E
100
AcDbEntity
  8
7
100
AcDbLine
 10
0.6855766223261357
 20
3.752486708182985
 30
0.0
 11
0.6855766223261357
 21
3.750518204245977
 31
0.0
  0
LINE
  5
21C5
330
1E
100
AcDbEntity
  8
7
100
AcDbLine
 10
0.6855766223261357
 20
4.051699306608183
 30
0.0
 11
0.6343955199639311
 21
4.041856786923142
 31
0.0
  0
LINE
  5
21E0
330
1E
100
AcDbEntity
  8
7
100
AcDbLine
 10
0.8056553624836153
 20
3.97886466093889
 30
0.0
 11
0.6855766223261357
 21
3.97886466093889
 31
0.0
  0
LINE
  5
21ED
330
1E
100
AcDbEntity
  8
7
100
AcDbLine
 10
0.8056553624836153
 20
3.825321353852277
 30
0.0
 11
0.6855766223261357
 21
3.825321353852277
 31
0.0
  0
LINE
  5
21F7
330
1E
100
AcDbEntity
  8
7
100
AcDbLine
 10
0.8056553624836153
 20
3.825321353852277
 30
0.0
 11
0.6855766223261357
 21
3.825321353852277
 31
0.0
  0
LINE
  5
21F8
330
1E
100
AcDbEntity
  8
7
100
AcDbLine
 10
0.8056553624836153
 20
3.97886466093889
 30
0.0
 11
0.6855766223261357
 21
3.97886466093889
 31
0.0
  0
LINE
  5
21F9
330
1E
100
AcDbEntity
  8
7
100
AcDbLine
 10
0.6383325278379468
 20
3.843037889285348
 30
0.0
 11
0.6501435514599941
 21
3.835163873537316
 31
0.0
  0
LINE
  5
21FA
330
1E
100
AcDbEntity
  8
7
100
AcDbLine
 10
0.6501435514599941
 20
3.969022141253851
 30
0.0
 11
0.6383325278379468
 21
3.963116629442827
 31
0.0
  0
LINE
  5
220A
330
1E
100
AcDbEntity
  8
7
100
AcDbLine
 10
0.8509309530347968
 20
3.963116629442827
 30
0.0
 11
0.8410884333497579
 21
3.969022141253851
 31
0.0
  0
LINE
  5
220B
330
1E
100
AcDbEntity
  8
7
100
AcDbLine
 10
0.8410884333497579
 20
3.835163873537316
 30
0.0
 11
0.8509309530347968
 21
3.843037889285348
 31
0.0
  0
LINE
  5
2211
330
1E
100
AcDbEntity
  8
7
100
AcDbLine
 10
0.8410884333497579
 20
3.969022141253851
 30
0.0
 11
0.6501435514599941
 21
3.969022141253851
 31
0.0
  0
LINE
  5
2212
330
1E
100
AcDbEntity
  8
7
100
AcDbLine
 10
0.6383325278379468
 20
3.963116629442827
 30
0.0
 11
0.8509309530347968
 21
3.963116629442827
 31
0.0
  0
LINE
  5
2213
330
1E
100
AcDbEntity
  8
7
100
AcDbLine
 10
0.8410884333497579
 20
3.835163873537316
 30
0.0
 11
0.6501435514599941
 21
3.835163873537316
 31
0.0
  0
LINE
  5
2214
330
1E
100
AcDbEntity
  8
7
100
AcDbLine
 10
0.6383325278379468
 20
3.843037889285348
 30
0.0
 11
0.8509309530347968
 21
3.843037889285348
 31
0.0
  0
LINE
  5
2215
330
1E
100
AcDbEntity
  8
7
100
AcDbLine
 10
-0.1904076296423689
 20
4.077289857789285
 30
0.0
 11
-0.1923761335793768
 21
4.077289857789285
 31
0.0
  0
LINE
  5
2216
330
1E
100
AcDbEntity
  8
7
100
AcDbLine
 10
0.3017183546095996
 20
5.179652062513694
 30
0.0
 11
0.3253404018536941
 21
5.19343159007275
 31
0.0
  0
LINE
  5
221C
330
1E
100
AcDbEntity
  8
7
100
AcDbLine
 10
0.3253404018536941
 20
5.219022141253851
 30
0.0
 11
0.3253404018536941
 21
5.207211117631805
 31
0.0
  0
LINE
  5
221D
330
1E
100
AcDbEntity
  8
7
100
AcDbLine
 10
0.3253404018536941
 20
5.254455212119994
 30
0.0
 11
0.3253404018536941
 21
5.219022141253851
 31
0.0
  0
LINE
  5
221E
330
1E
100
AcDbEntity
  8
7
100
AcDbLine
 10
0.3253404018536941
 20
5.260360723931016
 30
0.0
 11
0.3253404018536941
 21
5.254455212119994
 31
0.0
  0
LINE
  5
221F
330
1E
100
AcDbEntity
  8
7
100
AcDbLine
 10
0.3253404018536941
 20
5.289888282986135
 30
0.0
 11
0.3253404018536941
 21
5.260360723931016
 31
0.0
  0
LINE
  5
2220
330
1E
100
AcDbEntity
  8
7
100
AcDbLine
 10
0.5320333152395209
 20
5.19343159007275
 30
0.0
 11
0.5556553624836154
 21
5.179652062513694
 31
0.0
  0
LINE
  5
2221
330
1E
100
AcDbEntity
  8
7
100
AcDbLine
 10
0.5300648113025135
 20
5.289888282986135
 30
0.0
 11
0.5300648113025135
 21
5.260360723931016
 31
0.0
  0
LINE
  5
2222
330
1E
100
AcDbEntity
  8
7
100
AcDbLine
 10
0.5300648113025135
 20
5.254455212119994
 30
0.0
 11
0.5300648113025135
 21
5.260360723931016
 31
0.0
  0
LINE
  5
2223
330
1E
100
AcDbEntity
  8
7
100
AcDbLine
 10
0.5300648113025135
 20
5.219022141253851
 30
0.0
 11
0.5300648113025135
 21
5.254455212119994
 31
0.0
  0
LINE
  5
2224
330
1E
100
AcDbEntity
  8
7
100
AcDbLine
 10
0.5300648113025135
 20
5.219022141253851
 30
0.0
 11
0.5300648113025135
 21
5.207211117631805
 31
0.0
  0
LINE
  5
222A
330
1E
100
AcDbEntity
  8
7
100
AcDbLine
 10
0.3017183546095996
 20
5.179652062513694
 30
0.0
 11
0.1836081183891269
 21
5.179652062513694
 31
0.0
  0
LINE
  5
222B
330
1E
100
AcDbEntity
  8
7
100
AcDbLine
 10
0.1816396144521191
 20
5.179652062513694
 30
0.0
 11
0.1836081183891269
 21
5.179652062513694
 31
0.0
  0
LINE
  5
222C
330
1E
100
AcDbEntity
  8
7
100
AcDbLine
 10
0.6737655987040885
 20
5.179652062513694
 30
0.0
 11
0.5556553624836154
 21
5.179652062513694
 31
0.0
  0
LINE
  5
222D
330
1E
100
AcDbEntity
  8
7
100
AcDbLine
 10
0.3253404018536941
 20
5.19343159007275
 30
0.0
 11
0.5320333152395209
 21
5.19343159007275
 31
0.0
  0
LINE
  5
222E
330
1E
100
AcDbEntity
  8
7
100
AcDbLine
 10
0.5300648113025135
 20
5.207211117631805
 30
0.0
 11
0.3253404018536941
 21
5.207211117631805
 31
0.0
  0
LINE
  5
222F
330
1E
100
AcDbEntity
  8
7
100
AcDbLine
 10
0.5300648113025135
 20
5.219022141253851
 30
0.0
 11
0.3253404018536941
 21
5.219022141253851
 31
0.0
  0
LINE
  5
2230
330
1E
100
AcDbEntity
  8
7
100
AcDbLine
 10
0.3253404018536941
 20
5.254455212119994
 30
0.0
 11
0.5300648113025135
 21
5.254455212119994
 31
0.0
  0
LINE
  5
2231
330
1E
100
AcDbEntity
  8
7
100
AcDbLine
 10
0.5300648113025135
 20
5.260360723931016
 30
0.0
 11
0.3253404018536941
 21
5.260360723931016
 31
0.0
  0
LINE
  5
2232
330
1E
100
AcDbEntity
  8
7
100
AcDbLine
 10
0.5300648113025135
 20
5.289888282986135
 30
0.0
 11
0.3253404018536941
 21
5.289888282986135
 31
0.0
  0
LINE
  5
2233
330
1E
100
AcDbEntity
  8
7
100
AcDbLine
 10
0.9591986695702301
 20
5.289888282986135
 30
0.0
 11
1.165891582956056
 21
5.289888282986135
 31
0.0
  0
LINE
  5
2239
330
1E
100
AcDbEntity
  8
7
100
AcDbLine
 10
1.165891582956056
 20
5.289888282986135
 30
0.0
 11
1.165891582956056
 21
5.260360723931016
 31
0.0
  0
LINE
  5
223A
330
1E
100
AcDbEntity
  8
7
100
AcDbLine
 10
1.165891582956056
 20
5.254455212119994
 30
0.0
 11
0.9591986695702301
 21
5.254455212119994
 31
0.0
  0
LINE
  5
223B
330
1E
100
AcDbEntity
  8
7
100
AcDbLine
 10
1.165891582956056
 20
5.260360723931016
 30
0.0
 11
1.165891582956056
 21
5.254455212119994
 31
0.0
  0
LINE
  5
223C
330
1E
100
AcDbEntity
  8
7
100
AcDbLine
 10
0.9591986695702301
 20
5.254455212119994
 30
0.0
 11
0.9591986695702301
 21
5.260360723931016
 31
0.0
  0
LINE
  5
223D
330
1E
100
AcDbEntity
  8
7
100
AcDbLine
 10
0.9611671735072375
 20
5.219022141253851
 30
0.0
 11
1.165891582956056
 21
5.219022141253851
 31
0.0
  0
LINE
  5
223E
330
1E
100
AcDbEntity
  8
7
100
AcDbLine
 10
1.165891582956056
 20
5.254455212119994
 30
0.0
 11
1.165891582956056
 21
5.219022141253851
 31
0.0
  0
LINE
  5
223F
330
1E
100
AcDbEntity
  8
7
100
AcDbLine
 10
0.9611671735072375
 20
5.219022141253851
 30
0.0
 11
0.9591986695702301
 21
5.254455212119994
 31
0.0
  0
LINE
  5
2240
330
1E
100
AcDbEntity
  8
7
100
AcDbLine
 10
0.9611671735072375
 20
5.207211117631805
 30
0.0
 11
1.165891582956056
 21
5.207211117631805
 31
0.0
  0
LINE
  5
2241
330
1E
100
AcDbEntity
  8
7
100
AcDbLine
 10
1.165891582956056
 20
5.219022141253851
 30
0.0
 11
1.165891582956056
 21
5.207211117631805
 31
0.0
  0
LINE
  5
2242
330
1E
100
AcDbEntity
  8
7
100
AcDbLine
 10
0.9611671735072375
 20
5.219022141253851
 30
0.0
 11
0.9611671735072375
 21
5.207211117631805
 31
0.0
  0
LINE
  5
2248
330
1E
100
AcDbEntity
  8
7
100
AcDbLine
 10
1.165891582956056
 20
5.19343159007275
 30
0.0
 11
0.9591986695702301
 21
5.19343159007275
 31
0.0
  0
LINE
  5
224E
330
1E
100
AcDbEntity
  8
7
100
AcDbLine
 10
1.309592370357631
 20
5.244612692434953
 30
0.0
 11
1.307623866420623
 21
5.246581196371963
 31
0.0
  0
LINE
  5
224F
330
1E
100
AcDbEntity
  8
7
100
AcDbLine
 10
1.374553000278891
 20
5.246581196371963
 30
0.0
 11
1.376521504215899
 21
5.244612692434953
 31
0.0
  0
LINE
  5
2250
330
1E
100
AcDbEntity
  8
7
100
AcDbLine
 10
1.307623866420623
 20
5.246581196371963
 30
0.0
 11
1.374553000278891
 21
5.246581196371963
 31
0.0
  0
LINE
  5
2251
330
1E
100
AcDbEntity
  8
7
100
AcDbLine
 10
1.307623866420623
 20
5.246581196371963
 30
0.0
 11
1.307623866420623
 21
5.179652062513694
 31
0.0
  0
LINE
  5
2252
330
1E
100
AcDbEntity
  8
7
100
AcDbLine
 10
1.309592370357631
 20
5.179652062513694
 30
0.0
 11
1.307623866420623
 21
5.179652062513694
 31
0.0
  0
LINE
  5
2253
330
1E
100
AcDbEntity
  8
7
100
AcDbLine
 10
0.8174663861056625
 20
5.179652062513694
 30
0.0
 11
0.8174663861056625
 21
5.246581196371963
 31
0.0
  0
LINE
  5
2254
330
1E
100
AcDbEntity
  8
7
100
AcDbLine
 10
0.8174663861056625
 20
5.244612692434953
 30
0.0
 11
0.8174663861056625
 21
5.246581196371963
 31
0.0
  0
LINE
  5
2255
330
1E
100
AcDbEntity
  8
7
100
AcDbLine
 10
0.9355766223261356
 20
5.179652062513694
 30
0.0
 11
0.8174663861056625
 21
5.179652062513694
 31
0.0
  0
LINE
  5
2256
330
1E
100
AcDbEntity
  8
7
100
AcDbLine
 10
1.376521504215899
 20
5.9060300152696
 30
0.0
 11
1.374553000278891
 21
5.9060300152696
 31
0.0
  0
LINE
  5
2257
330
1E
100
AcDbEntity
  8
7
100
AcDbLine
 10
1.374553000278891
 20
5.246581196371963
 30
0.0
 11
1.374553000278891
 21
5.9060300152696
 31
0.0
  0
LINE
  5
2258
330
1E
100
AcDbEntity
  8
7
100
AcDbLine
 10
0.9749467010662931
 20
5.9060300152696
 30
0.0
 11
1.150143551459994
 21
5.9060300152696
 31
0.0
  0
LINE
  5
225E
330
1E
100
AcDbEntity
  8
7
100
AcDbLine
 10
1.150143551459994
 20
5.9060300152696
 30
0.0
 11
1.150143551459994
 21
5.866659936529442
 31
0.0
  0
LINE
  5
225F
330
1E
100
AcDbEntity
  8
7
100
AcDbLine
 10
1.150143551459994
 20
5.9060300152696
 30
0.0
 11
1.374553000278891
 21
5.9060300152696
 31
0.0
  0
LINE
  5
2266
330
1E
100
AcDbEntity
  8
7
100
AcDbLine
 10
0.6737655987040885
 20
5.246581196371963
 30
0.0
 11
0.8174663861056625
 21
5.246581196371963
 31
0.0
  0
LINE
  5
2267
330
1E
100
AcDbEntity
  8
7
100
AcDbLine
 10
0.6737655987040885
 20
5.244612692434953
 30
0.0
 11
0.6737655987040885
 21
5.246581196371963
 31
0.0
  0
LINE
  5
2268
330
1E
100
AcDbEntity
  8
7
100
AcDbLine
 10
1.165891582956056
 20
5.19343159007275
 30
0.0
 11
1.189513630200151
 21
5.179652062513694
 31
0.0
  0
LINE
  5
2269
330
1E
100
AcDbEntity
  8
7
100
AcDbLine
 10
0.9355766223261356
 20
5.179652062513694
 30
0.0
 11
0.9591986695702301
 21
5.19343159007275
 31
0.0
  0
LINE
  5
226A
330
1E
100
AcDbEntity
  8
7
100
AcDbLine
 10
1.307623866420623
 20
5.179652062513694
 30
0.0
 11
1.189513630200151
 21
5.179652062513694
 31
0.0
  0
LINE
  5
226B
330
1E
100
AcDbEntity
  8
7
100
AcDbLine
 10
0.341088433349757
 20
5.866659936529442
 30
0.0
 11
0.516285283743458
 21
5.866659936529442
 31
0.0
  0
LINE
  5
226C
330
1E
100
AcDbEntity
  8
7
100
AcDbLine
 10
0.341088433349757
 20
5.9060300152696
 30
0.0
 11
0.341088433349757
 21
5.866659936529442
 31
0.0
  0
LINE
  5
226D
330
1E
100
AcDbEntity
  8
7
100
AcDbLine
 10
0.516285283743458
 20
5.9060300152696
 30
0.0
 11
0.516285283743458
 21
5.866659936529442
 31
0.0
  0
LINE
  5
226E
330
1E
100
AcDbEntity
  8
7
100
AcDbLine
 10
0.6737655987040885
 20
5.246581196371963
 30
0.0
 11
0.6737655987040885
 21
5.179652062513694
 31
0.0
  0
LINE
  5
226F
330
1E
100
AcDbEntity
  8
7
100
AcDbLine
 10
0.1147104805938515
 20
5.9060300152696
 30
0.0
 11
0.1147104805938515
 21
5.246581196371963
 31
0.0
  0
LINE
  5
2270
330
1E
100
AcDbEntity
  8
7
100
AcDbLine
 10
0.1836081183891269
 20
5.179652062513694
 30
0.0
 11
0.1836081183891269
 21
5.246581196371963
 31
0.0
  0
LINE
  5
2271
330
1E
100
AcDbEntity
  8
7
100
AcDbLine
 10
0.1816396144521191
 20
5.244612692434953
 30
0.0
 11
0.1836081183891269
 21
5.246581196371963
 31
0.0
  0
LINE
  5
2272
330
1E
100
AcDbEntity
  8
7
100
AcDbLine
 10
0.1147104805938515
 20
5.246581196371963
 30
0.0
 11
0.1836081183891269
 21
5.246581196371963
 31
0.0
  0
LINE
  5
2273
330
1E
100
AcDbEntity
  8
7
100
AcDbLine
 10
0.1147104805938515
 20
5.246581196371963
 30
0.0
 11
0.1147104805938515
 21
5.244612692434953
 31
0.0
  0
LINE
  5
228C
330
1E
100
AcDbEntity
  8
7
100
AcDbLine
 10
5.959198669570229
 20
3.293825290860151
 30
0.0
 11
5.898175047522986
 21
3.295793794797159
 31
0.0
  0
LINE
  5
229C
330
1E
100
AcDbEntity
  8
7
100
AcDbLine
 10
5.898175047522986
 20
3.356817416844403
 30
0.0
 11
5.959198669570229
 21
3.352880408970387
 31
0.0
  0
LINE
  5
22A3
330
1E
100
AcDbEntity
  8
7
100
AcDbLine
 10
5.685576622326134
 20
3.520203243616057
 30
0.0
 11
5.685576622326134
 21
7.565478834167237
 31
0.0
  0
LINE
  5
22CF
330
1E
100
AcDbEntity
  8
7
100
AcDbLine
 10
6.028096307365505
 20
4.945400094009757
 30
0.0
 11
6.028096307365505
 21
6.134376471962513
 31
0.0
  0
LINE
  5
22D0
330
1E
100
AcDbEntity
  8
7
100
AcDbLine
 10
6.341088433349757
 20
5.126502456214481
 30
0.0
 11
6.028096307365505
 21
5.104848912907396
 31
0.0
  0
LINE
  5
22D1
330
1E
100
AcDbEntity
  8
7
100
AcDbLine
 10
6.028096307365505
 20
6.134376471962513
 30
0.0
 11
5.959198669570229
 21
6.134376471962513
 31
0.0
  0
LINE
  5
22D2
330
1E
100
AcDbEntity
  8
7
100
AcDbLine
 10
6.028096307365505
 20
4.945400094009757
 30
0.0
 11
5.959198669570229
 21
4.94343159007275
 31
0.0
  0
LINE
  5
22D3
330
1E
100
AcDbEntity
  8
7
100
AcDbLine
 10
6.360773472719836
 20
5.175715054639679
 30
0.0
 11
6.276127803428497
 21
5.258392219994009
 31
0.0
  0
LINE
  5
22D9
330
1E
100
AcDbEntity
  8
7
100
AcDbLine
 10
6.195419142011175
 20
5.289888282986135
 30
0.0
 11
6.215104181381253
 21
5.287919779049127
 31
0.0
  0
LINE
  5
22E1
330
1E
100
AcDbEntity
  8
7
100
AcDbLine
 10
6.028096307365505
 20
5.073352849915268
 30
0.0
 11
6.27415929949149
 21
5.083195369600309
 31
0.0
  0
LINE
  5
22F2
330
1E
100
AcDbEntity
  8
7
100
AcDbLine
 10
6.293844338861568
 20
5.122565448340466
 30
0.0
 11
6.293844338861568
 21
5.102880408970387
 31
0.0
  0
LINE
  5
22F3
330
1E
100
AcDbEntity
  8
7
100
AcDbLine
 10
6.193450638074166
 20
5.19343159007275
 30
0.0
 11
6.028096307365505
 21
5.187526078261726
 31
0.0
  0
LINE
  5
2639
330
1E
100
AcDbEntity
  8
7
100
AcDbLine
 10
6.360773472719836
 20
5.175715054639679
 30
0.0
 11
6.368647488467868
 21
5.1560300152696
 31
0.0
  0
LINE
  5
263A
330
1E
100
AcDbEntity
  8
7
100
AcDbLine
 10
6.368647488467868
 20
5.1560300152696
 30
0.0
 11
6.360773472719836
 21
5.134376471962513
 31
0.0
  0
LINE
  5
263B
330
1E
100
AcDbEntity
  8
7
100
AcDbLine
 10
6.360773472719836
 20
5.134376471962513
 30
0.0
 11
6.341088433349757
 21
5.126502456214481
 31
0.0
  0
LINE
  5
263C
330
1E
100
AcDbEntity
  8
7
100
AcDbLine
 10
6.209198669570229
 20
5.207211117631805
 30
0.0
 11
6.205261661696214
 21
5.197368597946764
 31
0.0
  0
LINE
  5
263D
330
1E
100
AcDbEntity
  8
7
100
AcDbLine
 10
6.205261661696214
 20
5.197368597946764
 30
0.0
 11
6.193450638074166
 21
5.19343159007275
 31
0.0
  0
LINE
  5
263E
330
1E
100
AcDbEntity
  8
7
100
AcDbLine
 10
6.293844338861568
 20
5.102880408970387
 30
0.0
 11
6.287938827050544
 21
5.089100881411333
 31
0.0
  0
LINE
  5
263F
330
1E
100
AcDbEntity
  8
7
100
AcDbLine
 10
6.287938827050544
 20
5.089100881411333
 30
0.0
 11
6.27415929949149
 21
5.083195369600309
 31
0.0
  0
LINE
  5
2640
330
1E
100
AcDbEntity
  8
7
100
AcDbLine
 10
6.195419142011175
 20
5.289888282986135
 30
0.0
 11
6.195419142011175
 21
5.260360723931016
 31
0.0
  0
LINE
  5
2641
330
1E
100
AcDbEntity
  8
7
100
AcDbLine
 10
6.195419142011175
 20
5.260360723931016
 30
0.0
 11
6.197387645948182
 21
5.254455212119994
 31
0.0
  0
LINE
  5
2642
330
1E
100
AcDbEntity
  8
7
100
AcDbLine
 10
6.197387645948182
 20
5.254455212119994
 30
0.0
 11
6.209198669570229
 21
5.219022141253851
 31
0.0
  0
LINE
  5
2643
330
1E
100
AcDbEntity
  8
7
100
AcDbLine
 10
6.209198669570229
 20
5.219022141253851
 30
0.0
 11
6.209198669570229
 21
5.207211117631805
 31
0.0
  0
LINE
  5
2644
330
1E
100
AcDbEntity
  8
7
100
AcDbLine
 10
6.215104181381253
 20
5.287919779049127
 30
0.0
 11
6.248568748310386
 21
5.278077259364089
 31
0.0
  0
LINE
  5
2645
330
1E
100
AcDbEntity
  8
7
100
AcDbLine
 10
6.248568748310386
 20
5.278077259364089
 30
0.0
 11
6.276127803428497
 21
5.258392219994009
 31
0.0
  0
LINE
  5
2646
330
1E
100
AcDbEntity
  8
7
100
AcDbLine
 10
5.898175047522986
 20
7.7308331648759
 30
0.0
 11
5.896206543585977
 21
7.760360723931016
 31
0.0
  0
LINE
  5
2647
330
1E
100
AcDbEntity
  8
7
100
AcDbLine
 10
5.896206543585977
 20
7.760360723931016
 30
0.0
 11
5.896206543585977
 21
7.782014267238103
 31
0.0
  0
LINE
  5
2648
330
1E
100
AcDbEntity
  8
7
100
AcDbLine
 10
5.896206543585977
 20
7.782014267238103
 30
0.0
 11
5.898175047522986
 21
7.789888282986135
 31
0.0
  0
LINE
  5
2649
330
1E
100
AcDbEntity
  8
7
100
AcDbLine
 10
5.691482134137158
 20
7.620596944403459
 30
0.0
 11
5.713135677444245
 21
7.67374655070267
 31
0.0
  0
LINE
  5
264A
330
1E
100
AcDbEntity
  8
7
100
AcDbLine
 10
5.713135677444245
 20
7.67374655070267
 30
0.0
 11
5.746600244373379
 21
7.720990645190859
 31
0.0
  0
LINE
  5
264B
330
1E
100
AcDbEntity
  8
7
100
AcDbLine
 10
5.746600244373379
 20
7.720990645190859
 30
0.0
 11
5.789907330987553
 21
7.756423716057001
 31
0.0
  0
LINE
  5
264C
330
1E
100
AcDbEntity
  8
7
100
AcDbLine
 10
5.789907330987553
 20
7.756423716057001
 30
0.0
 11
5.843056937286764
 21
7.780045763301096
 31
0.0
  0
LINE
  5
264D
330
1E
100
AcDbEntity
  8
7
100
AcDbLine
 10
5.843056937286764
 20
7.780045763301096
 30
0.0
 11
5.898175047522986
 21
7.789888282986135
 31
0.0
  0
LINE
  5
264E
330
1E
100
AcDbEntity
  8
7
100
AcDbLine
 10
5.898175047522986
 20
7.789888282986135
 30
0.0
 11
5.959198669570229
 21
7.793825290860151
 31
0.0
  0
LINE
  5
264F
330
1E
100
AcDbEntity
  8
7
100
AcDbLine
 10
5.898175047522986
 20
7.789888282986135
 30
0.0
 11
5.843056937286764
 21
7.780045763301096
 31
0.0
  0
LINE
  5
2650
330
1E
100
AcDbEntity
  8
7
100
AcDbLine
 10
5.843056937286764
 20
7.780045763301096
 30
0.0
 11
5.789907330987553
 21
7.756423716057001
 31
0.0
  0
LINE
  5
2651
330
1E
100
AcDbEntity
  8
7
100
AcDbLine
 10
5.789907330987553
 20
7.756423716057001
 30
0.0
 11
5.746600244373379
 21
7.720990645190859
 31
0.0
  0
LINE
  5
2652
330
1E
100
AcDbEntity
  8
7
100
AcDbLine
 10
5.746600244373379
 20
7.720990645190859
 30
0.0
 11
5.713135677444245
 21
7.67374655070267
 31
0.0
  0
LINE
  5
2653
330
1E
100
AcDbEntity
  8
7
100
AcDbLine
 10
5.713135677444245
 20
7.67374655070267
 30
0.0
 11
5.691482134137158
 21
7.620596944403459
 31
0.0
  0
LINE
  5
2654
330
1E
100
AcDbEntity
  8
7
100
AcDbLine
 10
5.691482134137158
 20
7.620596944403459
 30
0.0
 11
5.685576622326134
 21
7.565478834167237
 31
0.0
  0
LINE
  5
2655
330
1E
100
AcDbEntity
  8
7
100
AcDbLine
 10
5.685576622326134
 20
7.565478834167237
 30
0.0
 11
5.691482134137158
 21
7.620596944403459
 31
0.0
  0
LINE
  5
2656
330
1E
100
AcDbEntity
  8
7
100
AcDbLine
 10
5.789907330987553
 20
7.705242613694796
 30
0.0
 11
5.746600244373379
 21
7.679652062513694
 31
0.0
  0
LINE
  5
2657
330
1E
100
AcDbEntity
  8
7
100
AcDbLine
 10
5.746600244373379
 20
7.679652062513694
 30
0.0
 11
5.713135677444245
 21
7.644218991647553
 31
0.0
  0
LINE
  5
2658
330
1E
100
AcDbEntity
  8
7
100
AcDbLine
 10
5.713135677444245
 20
7.644218991647553
 30
0.0
 11
5.691482134137158
 21
7.606817416844403
 31
0.0
  0
LINE
  5
2659
330
1E
100
AcDbEntity
  8
7
100
AcDbLine
 10
5.691482134137158
 20
7.606817416844403
 30
0.0
 11
5.685576622326134
 21
7.565478834167237
 31
0.0
  0
LINE
  5
265A
330
1E
100
AcDbEntity
  8
7
100
AcDbLine
 10
5.898175047522986
 20
7.7308331648759
 30
0.0
 11
5.843056937286764
 21
7.722959149127868
 31
0.0
  0
LINE
  5
265B
330
1E
100
AcDbEntity
  8
7
100
AcDbLine
 10
5.843056937286764
 20
7.722959149127868
 30
0.0
 11
5.789907330987553
 21
7.705242613694796
 31
0.0
  0
LINE
  5
265C
330
1E
100
AcDbEntity
  8
7
100
AcDbLine
 10
5.959198669570229
 20
7.793825290860151
 30
0.0
 11
5.959198669570229
 21
7.78595127511212
 31
0.0
  0
LINE
  5
265D
330
1E
100
AcDbEntity
  8
7
100
AcDbLine
 10
5.959198669570229
 20
7.78595127511212
 30
0.0
 11
5.959198669570229
 21
7.762329227868026
 31
0.0
  0
LINE
  5
265E
330
1E
100
AcDbEntity
  8
7
100
AcDbLine
 10
5.959198669570229
 20
7.762329227868026
 30
0.0
 11
5.959198669570229
 21
7.732801668812907
 31
0.0
  0
LINE
  5
265F
330
1E
100
AcDbEntity
  8
7
100
AcDbLine
 10
5.959198669570229
 20
3.352880408970387
 30
0.0
 11
5.959198669570229
 21
7.732801668812907
 31
0.0
  0
LINE
  5
2660
330
1E
100
AcDbEntity
  8
7
100
AcDbLine
 10
5.959198669570229
 20
7.732801668812907
 30
0.0
 11
5.898175047522986
 21
7.7308331648759
 31
0.0
  0
LINE
  5
2661
330
1E
100
AcDbEntity
  8
7
100
AcDbLine
 10
5.898175047522986
 20
7.7308331648759
 30
0.0
 11
5.898175047522986
 21
3.356817416844403
 31
0.0
  0
LINE
  5
2662
330
1E
100
AcDbEntity
  8
7
100
AcDbLine
 10
5.959198669570229
 20
3.352880408970387
 30
0.0
 11
5.959198669570229
 21
3.323352849915268
 31
0.0
  0
LINE
  5
2663
330
1E
100
AcDbEntity
  8
7
100
AcDbLine
 10
5.959198669570229
 20
3.323352849915268
 30
0.0
 11
5.959198669570229
 21
3.301699306608183
 31
0.0
  0
LINE
  5
2664
330
1E
100
AcDbEntity
  8
7
100
AcDbLine
 10
5.959198669570229
 20
3.301699306608183
 30
0.0
 11
5.959198669570229
 21
3.293825290860151
 31
0.0
  0
LINE
  5
2665
330
1E
100
AcDbEntity
  8
7
100
AcDbLine
 10
5.685576622326134
 20
3.520203243616057
 30
0.0
 11
5.691482134137158
 21
3.465085133379837
 31
0.0
  0
LINE
  5
2666
330
1E
100
AcDbEntity
  8
7
100
AcDbLine
 10
5.691482134137158
 20
3.465085133379837
 30
0.0
 11
5.713135677444245
 21
3.411935527080624
 31
0.0
  0
LINE
  5
2667
330
1E
100
AcDbEntity
  8
7
100
AcDbLine
 10
5.713135677444245
 20
3.411935527080624
 30
0.0
 11
5.746600244373379
 21
3.366659936529442
 31
0.0
  0
LINE
  5
2668
330
1E
100
AcDbEntity
  8
7
100
AcDbLine
 10
5.746600244373379
 20
3.366659936529442
 30
0.0
 11
5.789907330987553
 21
3.331226865663301
 31
0.0
  0
LINE
  5
2669
330
1E
100
AcDbEntity
  8
7
100
AcDbLine
 10
5.789907330987553
 20
3.331226865663301
 30
0.0
 11
5.843056937286764
 21
3.305636314482198
 31
0.0
  0
LINE
  5
266A
330
1E
100
AcDbEntity
  8
7
100
AcDbLine
 10
5.843056937286764
 20
3.305636314482198
 30
0.0
 11
5.898175047522986
 21
3.295793794797159
 31
0.0
  0
LINE
  5
266B
330
1E
100
AcDbEntity
  8
7
100
AcDbLine
 10
5.898175047522986
 20
3.295793794797159
 30
0.0
 11
5.896206543585977
 21
3.30366781054519
 31
0.0
  0
LINE
  5
266C
330
1E
100
AcDbEntity
  8
7
100
AcDbLine
 10
5.896206543585977
 20
3.30366781054519
 30
0.0
 11
5.896206543585977
 21
3.327289857789285
 31
0.0
  0
LINE
  5
266D
330
1E
100
AcDbEntity
  8
7
100
AcDbLine
 10
5.896206543585977
 20
3.327289857789285
 30
0.0
 11
5.898175047522986
 21
3.356817416844403
 31
0.0
  0
LINE
  5
266E
330
1E
100
AcDbEntity
  8
7
100
AcDbLine
 10
5.898175047522986
 20
3.295793794797159
 30
0.0
 11
5.843056937286764
 21
3.305636314482198
 31
0.0
  0
LINE
  5
266F
330
1E
100
AcDbEntity
  8
7
100
AcDbLine
 10
5.843056937286764
 20
3.305636314482198
 30
0.0
 11
5.789907330987553
 21
3.331226865663301
 31
0.0
  0
LINE
  5
2670
330
1E
100
AcDbEntity
  8
7
100
AcDbLine
 10
5.789907330987553
 20
3.331226865663301
 30
0.0
 11
5.746600244373379
 21
3.366659936529442
 31
0.0
  0
LINE
  5
2671
330
1E
100
AcDbEntity
  8
7
100
AcDbLine
 10
5.746600244373379
 20
3.366659936529442
 30
0.0
 11
5.713135677444245
 21
3.411935527080624
 31
0.0
  0
LINE
  5
2672
330
1E
100
AcDbEntity
  8
7
100
AcDbLine
 10
5.713135677444245
 20
3.411935527080624
 30
0.0
 11
5.691482134137158
 21
3.465085133379837
 31
0.0
  0
LINE
  5
2673
330
1E
100
AcDbEntity
  8
7
100
AcDbLine
 10
5.691482134137158
 20
3.465085133379837
 30
0.0
 11
5.685576622326134
 21
3.520203243616057
 31
0.0
  0
LINE
  5
2674
330
1E
100
AcDbEntity
  8
7
100
AcDbLine
 10
5.685576622326134
 20
3.520203243616057
 30
0.0
 11
5.691482134137158
 21
3.47886466093889
 31
0.0
  0
LINE
  5
2675
330
1E
100
AcDbEntity
  8
7
100
AcDbLine
 10
5.691482134137158
 20
3.47886466093889
 30
0.0
 11
5.713135677444245
 21
3.441463086135742
 31
0.0
  0
LINE
  5
2676
330
1E
100
AcDbEntity
  8
7
100
AcDbLine
 10
5.713135677444245
 20
3.441463086135742
 30
0.0
 11
5.746600244373379
 21
3.407998519206607
 31
0.0
  0
LINE
  5
2677
330
1E
100
AcDbEntity
  8
7
100
AcDbLine
 10
5.746600244373379
 20
3.407998519206607
 30
0.0
 11
5.789907330987553
 21
3.380439464088498
 31
0.0
  0
LINE
  5
2678
330
1E
100
AcDbEntity
  8
7
100
AcDbLine
 10
5.789907330987553
 20
3.380439464088498
 30
0.0
 11
5.843056937286764
 21
3.362722928655427
 31
0.0
  0
LINE
  5
2679
330
1E
100
AcDbEntity
  8
7
100
AcDbLine
 10
5.843056937286764
 20
3.362722928655427
 30
0.0
 11
5.898175047522986
 21
3.356817416844403
 31
0.0
  0
LINE
  5
267A
330
1E
100
AcDbEntity
  8
7
100
AcDbLine
 10
0.1147104805938515
 20
5.9060300152696
 30
0.0
 11
0.341088433349757
 21
5.9060300152696
 31
0.0
  0
LINE
  5
267B
330
1E
100
AcDbEntity
  8
7
100
AcDbLine
 10
0.341088433349757
 20
5.9060300152696
 30
0.0
 11
0.516285283743458
 21
5.9060300152696
 31
0.0
  0
LINE
  5
267C
330
1E
100
AcDbEntity
  8
7
100
AcDbLine
 10
0.516285283743458
 20
5.9060300152696
 30
0.0
 11
0.9749467010662931
 21
5.9060300152696
 31
0.0
  0
LINE
  5
267D
330
1E
100
AcDbEntity
  8
7
100
AcDbLine
 10
0.9749467010662931
 20
5.9060300152696
 30
0.0
 11
0.9749467010662931
 21
5.866659936529442
 31
0.0
  0
LINE
  5
267E
330
1E
100
AcDbEntity
  8
7
100
AcDbLine
 10
0.9749467010662931
 20
5.866659936529442
 30
0.0
 11
1.150143551459994
 21
5.866659936529442
 31
0.0
  0
LINE
  5
267F
330
1E
100
AcDbEntity
  8
7
100
AcDbLine
 10
1.165891582956056
 20
5.207211117631805
 30
0.0
 11
1.165891582956056
 21
5.197368597946764
 31
0.0
  0
LINE
  5
2680
330
1E
100
AcDbEntity
  8
7
100
AcDbLine
 10
1.165891582956056
 20
5.197368597946764
 30
0.0
 11
1.165891582956056
 21
5.19343159007275
 31
0.0
  0
LINE
  5
2681
330
1E
100
AcDbEntity
  8
7
100
AcDbLine
 10
0.9591986695702301
 20
5.19343159007275
 30
0.0
 11
0.9611671735072375
 21
5.197368597946764
 31
0.0
  0
LINE
  5
2682
330
1E
100
AcDbEntity
  8
7
100
AcDbLine
 10
0.9611671735072375
 20
5.197368597946764
 30
0.0
 11
0.9611671735072375
 21
5.207211117631805
 31
0.0
  0
LINE
  5
2683
330
1E
100
AcDbEntity
  8
7
100
AcDbLine
 10
0.9591986695702301
 20
5.289888282986135
 30
0.0
 11
0.9591986695702301
 21
5.260360723931016
 31
0.0
  0
LINE
  5
2684
330
1E
100
AcDbEntity
  8
7
100
AcDbLine
 10
0.9591986695702301
 20
5.260360723931016
 30
0.0
 11
1.165891582956056
 21
5.260360723931016
 31
0.0
  0
LINE
  5
2685
330
1E
100
AcDbEntity
  8
7
100
AcDbLine
 10
0.5320333152395209
 20
5.19343159007275
 30
0.0
 11
0.5300648113025135
 21
5.197368597946764
 31
0.0
  0
LINE
  5
2686
330
1E
100
AcDbEntity
  8
7
100
AcDbLine
 10
0.5300648113025135
 20
5.197368597946764
 30
0.0
 11
0.5300648113025135
 21
5.207211117631805
 31
0.0
  0
LINE
  5
2687
330
1E
100
AcDbEntity
  8
7
100
AcDbLine
 10
0.3253404018536941
 20
5.207211117631805
 30
0.0
 11
0.3253404018536941
 21
5.197368597946764
 31
0.0
  0
LINE
  5
2688
330
1E
100
AcDbEntity
  8
7
100
AcDbLine
 10
0.3253404018536941
 20
5.197368597946764
 30
0.0
 11
0.3253404018536941
 21
5.19343159007275
 31
0.0
  0
LINE
  5
2689
330
1E
100
AcDbEntity
  8
7
100
AcDbLine
 10
0.8056553624836153
 20
3.827289857789285
 30
0.0
 11
0.8233718979166866
 21
3.829258361726292
 31
0.0
  0
LINE
  5
268A
330
1E
100
AcDbEntity
  8
7
100
AcDbLine
 10
0.8233718979166866
 20
3.829258361726292
 30
0.0
 11
0.8410884333497579
 21
3.837132377474324
 31
0.0
  0
LINE
  5
268B
330
1E
100
AcDbEntity
  8
7
100
AcDbLine
 10
0.8410884333497579
 20
3.967053637316844
 30
0.0
 11
0.8233718979166866
 21
3.974927653064876
 31
0.0
  0
LINE
  5
268C
330
1E
100
AcDbEntity
  8
7
100
AcDbLine
 10
0.8233718979166866
 20
3.974927653064876
 30
0.0
 11
0.8056553624836153
 21
3.976896157001883
 31
0.0
  0
LINE
  5
268D
330
1E
100
AcDbEntity
  8
7
100
AcDbLine
 10
0.6501435514599941
 20
3.837132377474324
 30
0.0
 11
0.6678600868930645
 21
3.829258361726292
 31
0.0
  0
LINE
  5
268E
330
1E
100
AcDbEntity
  8
7
100
AcDbLine
 10
0.6678600868930645
 20
3.829258361726292
 30
0.0
 11
0.6855766223261357
 21
3.827289857789285
 31
0.0
  0
LINE
  5
268F
330
1E
100
AcDbEntity
  8
7
100
AcDbLine
 10
0.6855766223261357
 20
3.976896157001883
 30
0.0
 11
0.6678600868930645
 21
3.974927653064876
 31
0.0
  0
LINE
  5
2690
330
1E
100
AcDbEntity
  8
7
100
AcDbLine
 10
0.6678600868930645
 20
3.974927653064876
 30
0.0
 11
0.6501435514599941
 21
3.967053637316844
 31
0.0
  0
LINE
  5
2691
330
1E
100
AcDbEntity
  8
7
100
AcDbLine
 10
0.6855766223261357
 20
3.976896157001883
 30
0.0
 11
0.6481750475229858
 21
3.967053637316844
 31
0.0
  0
LINE
  5
2692
330
1E
100
AcDbEntity
  8
7
100
AcDbLine
 10
0.6481750475229858
 20
3.967053637316844
 30
0.0
 11
0.6206159924048756
 21
3.939494582198733
 31
0.0
  0
LINE
  5
2693
330
1E
100
AcDbEntity
  8
7
100
AcDbLine
 10
0.6206159924048756
 20
3.939494582198733
 30
0.0
 11
0.6107734727198367
 21
3.902093007395585
 31
0.0
  0
LINE
  5
2694
330
1E
100
AcDbEntity
  8
7
100
AcDbLine
 10
0.6107734727198367
 20
3.902093007395585
 30
0.0
 11
0.6206159924048756
 21
3.864691432592435
 31
0.0
  0
LINE
  5
2695
330
1E
100
AcDbEntity
  8
7
100
AcDbLine
 10
0.6206159924048756
 20
3.864691432592435
 30
0.0
 11
0.6481750475229858
 21
3.837132377474324
 31
0.0
  0
LINE
  5
2696
330
1E
100
AcDbEntity
  8
7
100
AcDbLine
 10
0.6481750475229858
 20
3.837132377474324
 30
0.0
 11
0.6855766223261357
 21
3.827289857789285
 31
0.0
  0
LINE
  5
2697
330
1E
100
AcDbEntity
  8
7
100
AcDbLine
 10
0.8706159924048755
 20
3.939494582198733
 30
0.0
 11
0.8430569372867653
 21
3.967053637316844
 31
0.0
  0
LINE
  5
2698
330
1E
100
AcDbEntity
  8
7
100
AcDbLine
 10
0.8430569372867653
 20
3.967053637316844
 30
0.0
 11
0.8056553624836153
 21
3.976896157001883
 31
0.0
  0
LINE
  5
2699
330
1E
100
AcDbEntity
  8
7
100
AcDbLine
 10
0.8056553624836153
 20
3.827289857789285
 30
0.0
 11
0.8430569372867653
 21
3.837132377474324
 31
0.0
  0
LINE
  5
269A
330
1E
100
AcDbEntity
  8
7
100
AcDbLine
 10
0.8430569372867653
 20
3.837132377474324
 30
0.0
 11
0.8706159924048755
 21
3.864691432592435
 31
0.0
  0
LINE
  5
269B
330
1E
100
AcDbEntity
  8
7
100
AcDbLine
 10
0.8706159924048755
 20
3.864691432592435
 30
0.0
 11
0.8804585120899153
 21
3.902093007395585
 31
0.0
  0
LINE
  5
269C
330
1E
100
AcDbEntity
  8
7
100
AcDbLine
 10
0.8804585120899153
 20
3.902093007395585
 30
0.0
 11
0.8706159924048755
 21
3.939494582198733
 31
0.0
  0
LINE
  5
269D
330
1E
100
AcDbEntity
  8
7
100
AcDbLine
 10
0.9355766223261356
 20
3.827289857789285
 30
0.0
 11
0.953293157759206
 21
3.876502456214481
 31
0.0
  0
LINE
  5
269E
330
1E
100
AcDbEntity
  8
7
100
AcDbLine
 10
0.953293157759206
 20
3.876502456214481
 30
0.0
 11
0.953293157759206
 21
3.927683558576687
 31
0.0
  0
LINE
  5
269F
330
1E
100
AcDbEntity
  8
7
100
AcDbLine
 10
0.953293157759206
 20
3.927683558576687
 30
0.0
 11
0.9355766223261356
 21
3.976896157001883
 31
0.0
  0
LINE
  5
26A0
330
1E
100
AcDbEntity
  8
7
100
AcDbLine
 10
0.9355766223261356
 20
3.976896157001883
 30
0.0
 11
0.9021120553970014
 21
4.01626623574204
 31
0.0
  0
LINE
  5
26A1
330
1E
100
AcDbEntity
  8
7
100
AcDbLine
 10
0.9021120553970014
 20
4.01626623574204
 30
0.0
 11
0.8568364648458208
 21
4.041856786923142
 31
0.0
  0
LINE
  5
26A2
330
1E
100
AcDbEntity
  8
7
100
AcDbLine
 10
0.8568364648458208
 20
4.041856786923142
 30
0.0
 11
0.8056553624836153
 21
4.051699306608183
 31
0.0
  0
LINE
  5
26A3
330
1E
100
AcDbEntity
  8
7
100
AcDbLine
 10
0.8056553624836153
 20
3.752486708182985
 30
0.0
 11
0.8568364648458208
 21
3.762329227868026
 31
0.0
  0
LINE
  5
26A4
330
1E
100
AcDbEntity
  8
7
100
AcDbLine
 10
0.8568364648458208
 20
3.762329227868026
 30
0.0
 11
0.9021120553970014
 21
3.787919779049127
 31
0.0
  0
LINE
  5
26A5
330
1E
100
AcDbEntity
  8
7
100
AcDbLine
 10
0.9021120553970014
 20
3.787919779049127
 30
0.0
 11
0.9355766223261356
 21
3.827289857789285
 31
0.0
  0
LINE
  5
26A6
330
1E
100
AcDbEntity
  8
7
100
AcDbLine
 10
0.6343955199639311
 20
4.041856786923142
 30
0.0
 11
0.5891199294127496
 21
4.01626623574204
 31
0.0
  0
LINE
  5
26A7
330
1E
100
AcDbEntity
  8
7
100
AcDbLine
 10
0.5891199294127496
 20
4.01626623574204
 30
0.0
 11
0.5556553624836154
 21
3.976896157001883
 31
0.0
  0
LINE
  5
26A8
330
1E
100
AcDbEntity
  8
7
100
AcDbLine
 10
0.5556553624836154
 20
3.976896157001883
 30
0.0
 11
0.537938827050545
 21
3.927683558576687
 31
0.0
  0
LINE
  5
26A9
330
1E
100
AcDbEntity
  8
7
100
AcDbLine
 10
0.537938827050545
 20
3.927683558576687
 30
0.0
 11
0.537938827050545
 21
3.876502456214481
 31
0.0
  0
LINE
  5
26AA
330
1E
100
AcDbEntity
  8
7
100
AcDbLine
 10
0.537938827050545
 20
3.876502456214481
 30
0.0
 11
0.5556553624836154
 21
3.827289857789285
 31
0.0
  0
LINE
  5
26AB
330
1E
100
AcDbEntity
  8
7
100
AcDbLine
 10
0.5556553624836154
 20
3.827289857789285
 30
0.0
 11
0.5891199294127496
 21
3.787919779049127
 31
0.0
  0
LINE
  5
26AC
330
1E
100
AcDbEntity
  8
7
100
AcDbLine
 10
0.5891199294127496
 20
3.787919779049127
 30
0.0
 11
0.6343955199639311
 21
3.762329227868026
 31
0.0
  0
LINE
  5
26AD
330
1E
100
AcDbEntity
  8
7
100
AcDbLine
 10
0.6343955199639311
 20
3.762329227868026
 30
0.0
 11
0.6855766223261357
 21
3.752486708182985
 31
0.0
  0
LINE
  5
26AE
330
1E
100
AcDbEntity
  8
7
100
AcDbLine
 10
0.8056553624836153
 20
3.750518204245977
 30
0.0
 11
0.8056553624836153
 21
3.752486708182985
 31
0.0
  0
LINE
  5
26AF
330
1E
100
AcDbEntity
  8
7
100
AcDbLine
 10
0.8056553624836153
 20
3.752486708182985
 30
0.0
 11
0.6855766223261357
 21
3.752486708182985
 31
0.0
  0
LINE
  5
26B0
330
1E
100
AcDbEntity
  8
7
100
AcDbLine
 10
0.6855766223261357
 20
4.05366781054519
 30
0.0
 11
0.6855766223261357
 21
4.051699306608183
 31
0.0
  0
LINE
  5
26B1
330
1E
100
AcDbEntity
  8
7
100
AcDbLine
 10
0.6855766223261357
 20
4.051699306608183
 30
0.0
 11
0.8056553624836153
 21
4.051699306608183
 31
0.0
  0
LINE
  5
26B2
330
1E
100
AcDbEntity
  8
7
100
AcDbLine
 10
0.8509309530347968
 20
3.843037889285348
 30
0.0
 11
0.8765215042158995
 21
3.880439464088498
 31
0.0
  0
LINE
  5
26B3
330
1E
100
AcDbEntity
  8
7
100
AcDbLine
 10
0.8765215042158995
 20
3.880439464088498
 30
0.0
 11
0.8765215042158995
 21
3.92374655070267
 31
0.0
  0
LINE
  5
26B4
330
1E
100
AcDbEntity
  8
7
100
AcDbLine
 10
0.8765215042158995
 20
3.92374655070267
 30
0.0
 11
0.8509309530347968
 21
3.96114812550582
 31
0.0
  0
LINE
  5
26B5
330
1E
100
AcDbEntity
  8
7
100
AcDbLine
 10
0.6403010317749543
 20
3.96114812550582
 30
0.0
 11
0.6147104805938524
 21
3.92374655070267
 31
0.0
  0
LINE
  5
26B6
330
1E
100
AcDbEntity
  8
7
100
AcDbLine
 10
0.6147104805938524
 20
3.92374655070267
 30
0.0
 11
0.6147104805938524
 21
3.880439464088498
 31
0.0
  0
LINE
  5
26B7
330
1E
100
AcDbEntity
  8
7
100
AcDbLine
 10
0.6147104805938524
 20
3.880439464088498
 30
0.0
 11
0.6403010317749543
 21
3.843037889285348
 31
0.0
  0
LINE
  5
26B8
330
1E
100
AcDbEntity
  8
7
100
AcDbLine
 10
-0.5703288894848893
 20
7.793825290860151
 30
0.0
 11
-0.5663918816108727
 21
7.789888282986135
 31
0.0
  0
LINE
  5
26B9
330
1E
100
AcDbEntity
  8
7
100
AcDbLine
 10
-0.5663918816108727
 20
7.789888282986135
 30
0.0
 11
-0.5959194406659912
 21
7.782014267238103
 31
0.0
  0
LINE
  5
26BA
330
1E
100
AcDbEntity
  8
7
100
AcDbLine
 10
-0.5959194406659912
 20
7.782014267238103
 30
0.0
 11
-0.6175729839730782
 21
7.760360723931016
 31
0.0
  0
LINE
  5
26BB
330
1E
100
AcDbEntity
  8
7
100
AcDbLine
 10
-0.6175729839730782
 20
7.760360723931016
 30
0.0
 11
-0.6254469997211097
 21
7.7308331648759
 31
0.0
  0
LINE
  5
26BC
330
1E
100
AcDbEntity
  8
7
100
AcDbLine
 10
2.116678984530859
 20
7.7308331648759
 30
0.0
 11
2.108804968782828
 21
7.760360723931016
 31
0.0
  0
LINE
  5
26BD
330
1E
100
AcDbEntity
  8
7
100
AcDbLine
 10
2.108804968782828
 20
7.760360723931016
 30
0.0
 11
2.087151425475741
 21
7.782014267238103
 31
0.0
  0
LINE
  5
26BE
330
1E
100
AcDbEntity
  8
7
100
AcDbLine
 10
2.087151425475741
 20
7.782014267238103
 30
0.0
 11
2.057623866420623
 21
7.789888282986135
 31
0.0
  0
LINE
  5
26BF
330
1E
100
AcDbEntity
  8
7
100
AcDbLine
 10
1.892269535711962
 20
7.565478834167237
 30
0.0
 11
1.933608118389127
 21
7.620596944403459
 31
0.0
  0
LINE
  5
26C0
330
1E
100
AcDbEntity
  8
7
100
AcDbLine
 10
1.933608118389127
 20
7.620596944403459
 30
0.0
 11
1.972978197129284
 21
7.67374655070267
 31
0.0
  0
LINE
  5
26C1
330
1E
100
AcDbEntity
  8
7
100
AcDbLine
 10
1.972978197129284
 20
7.67374655070267
 30
0.0
 11
2.006442764058419
 21
7.720990645190859
 31
0.0
  0
LINE
  5
26C2
330
1E
100
AcDbEntity
  8
7
100
AcDbLine
 10
2.006442764058419
 20
7.720990645190859
 30
0.0
 11
2.03203331523952
 21
7.756423716057001
 31
0.0
  0
LINE
  5
26C3
330
1E
100
AcDbEntity
  8
7
100
AcDbLine
 10
2.03203331523952
 20
7.756423716057001
 30
0.0
 11
2.049749850672592
 21
7.780045763301096
 31
0.0
  0
LINE
  5
26C4
330
1E
100
AcDbEntity
  8
7
100
AcDbLine
 10
2.049749850672592
 20
7.780045763301096
 30
0.0
 11
2.057623866420623
 21
7.789888282986135
 31
0.0
  0
LINE
  5
26C5
330
1E
100
AcDbEntity
  8
7
100
AcDbLine
 10
2.057623866420623
 20
7.789888282986135
 30
0.0
 11
2.059592370357631
 21
7.793825290860151
 31
0.0
  0
LINE
  5
26C6
330
1E
100
AcDbEntity
  8
7
100
AcDbLine
 10
-0.5663918816108727
 20
7.789888282986135
 30
0.0
 11
-0.5585178658628412
 21
7.780045763301096
 31
0.0
  0
LINE
  5
26C7
330
1E
100
AcDbEntity
  8
7
100
AcDbLine
 10
-0.5585178658628412
 20
7.780045763301096
 30
0.0
 11
-0.5408013304297708
 21
7.756423716057001
 31
0.0
  0
LINE
  5
26C8
330
1E
100
AcDbEntity
  8
7
100
AcDbLine
 10
-0.5408013304297708
 20
7.756423716057001
 30
0.0
 11
-0.515210779248668
 21
7.720990645190859
 31
0.0
  0
LINE
  5
26C9
330
1E
100
AcDbEntity
  8
7
100
AcDbLine
 10
-0.515210779248668
 20
7.720990645190859
 30
0.0
 11
-0.4817462123195338
 21
7.67374655070267
 31
0.0
  0
LINE
  5
26CA
330
1E
100
AcDbEntity
  8
7
100
AcDbLine
 10
-0.4817462123195338
 20
7.67374655070267
 30
0.0
 11
-0.4423761335793768
 21
7.620596944403459
 31
0.0
  0
LINE
  5
26CB
330
1E
100
AcDbEntity
  8
7
100
AcDbLine
 10
-0.158911566650243
 20
6.97886466093889
 30
0.0
 11
-0.1805651099573296
 21
6.986738676686922
 31
0.0
  0
LINE
  5
26CC
330
1E
100
AcDbEntity
  8
7
100
AcDbLine
 10
-0.1805651099573296
 20
6.986738676686922
 30
0.0
 11
-0.1904076296423689
 21
7.008392219994009
 31
0.0
  0
LINE
  5
26CD
330
1E
100
AcDbEntity
  8
7
100
AcDbLine
 10
-0.1904076296423689
 20
7.358785920781411
 30
0.0
 11
-0.1805651099573296
 21
7.380439464088498
 31
0.0
  0
LINE
  5
26CE
330
1E
100
AcDbEntity
  8
7
100
AcDbLine
 10
-0.1805651099573296
 20
7.380439464088498
 30
0.0
 11
-0.158911566650243
 21
7.388313479836529
 31
0.0
  0
LINE
  5
26CF
330
1E
100
AcDbEntity
  8
7
100
AcDbLine
 10
1.650143551459994
 20
7.388313479836529
 30
0.0
 11
1.67179709476708
 21
7.380439464088498
 31
0.0
  0
LINE
  5
26D0
330
1E
100
AcDbEntity
  8
7
100
AcDbLine
 10
1.67179709476708
 20
7.380439464088498
 30
0.0
 11
1.681639614452119
 21
7.358785920781411
 31
0.0
  0
LINE
  5
26D1
330
1E
100
AcDbEntity
  8
7
100
AcDbLine
 10
1.681639614452119
 20
7.008392219994009
 30
0.0
 11
1.67179709476708
 21
6.986738676686922
 31
0.0
  0
LINE
  5
26D2
330
1E
100
AcDbEntity
  8
7
100
AcDbLine
 10
1.67179709476708
 20
6.986738676686922
 30
0.0
 11
1.650143551459994
 21
6.97886466093889
 31
0.0
  0
LINE
  5
26D3
330
1E
100
AcDbEntity
  8
7
100
AcDbLine
 10
0.553686858546608
 20
7.108785920781411
 30
0.0
 11
0.5891199294127496
 21
7.067447338104246
 31
0.0
  0
LINE
  5
26D4
330
1E
100
AcDbEntity
  8
7
100
AcDbLine
 10
0.5891199294127496
 20
7.067447338104246
 30
0.0
 11
0.6343955199639311
 21
7.041856786923142
 31
0.0
  0
LINE
  5
26D5
330
1E
100
AcDbEntity
  8
7
100
AcDbLine
 10
0.6343955199639311
 20
7.041856786923142
 30
0.0
 11
0.6855766223261357
 21
7.032014267238103
 31
0.0
  0
LINE
  5
26D6
330
1E
100
AcDbEntity
  8
7
100
AcDbLine
 10
0.6855766223261357
 20
7.335163873537316
 30
0.0
 11
0.6343955199639311
 21
7.325321353852277
 31
0.0
  0
LINE
  5
26D7
330
1E
100
AcDbEntity
  8
7
100
AcDbLine
 10
0.6343955199639311
 20
7.325321353852277
 30
0.0
 11
0.5891199294127496
 21
7.299730802671174
 31
0.0
  0
LINE
  5
26D8
330
1E
100
AcDbEntity
  8
7
100
AcDbLine
 10
0.5891199294127496
 20
7.299730802671174
 30
0.0
 11
0.553686858546608
 21
7.260360723931016
 31
0.0
  0
LINE
  5
26D9
330
1E
100
AcDbEntity
  8
7
100
AcDbLine
 10
0.553686858546608
 20
7.260360723931016
 30
0.0
 11
0.5359703231135367
 21
7.209179621568813
 31
0.0
  0
LINE
  5
26DA
330
1E
100
AcDbEntity
  8
7
100
AcDbLine
 10
0.5359703231135367
 20
7.209179621568813
 30
0.0
 11
0.5359703231135367
 21
7.157998519206607
 31
0.0
  0
LINE
  5
26DB
330
1E
100
AcDbEntity
  8
7
100
AcDbLine
 10
0.5359703231135367
 20
7.157998519206607
 30
0.0
 11
0.553686858546608
 21
7.108785920781411
 31
0.0
  0
LINE
  5
26DC
330
1E
100
AcDbEntity
  8
7
100
AcDbLine
 10
0.6855766223261357
 20
7.333195369600309
 30
0.0
 11
0.6855766223261357
 21
7.335163873537316
 31
0.0
  0
LINE
  5
26DD
330
1E
100
AcDbEntity
  8
7
100
AcDbLine
 10
0.6855766223261357
 20
7.335163873537316
 30
0.0
 11
0.8056553624836153
 21
7.335163873537316
 31
0.0
  0
LINE
  5
26DE
330
1E
100
AcDbEntity
  8
7
100
AcDbLine
 10
0.8056553624836153
 20
7.032014267238103
 30
0.0
 11
0.8568364648458208
 21
7.041856786923142
 31
0.0
  0
LINE
  5
26DF
330
1E
100
AcDbEntity
  8
7
100
AcDbLine
 10
0.8568364648458208
 20
7.041856786923142
 30
0.0
 11
0.9021120553970014
 21
7.067447338104246
 31
0.0
  0
LINE
  5
26E0
330
1E
100
AcDbEntity
  8
7
100
AcDbLine
 10
0.9021120553970014
 20
7.067447338104246
 30
0.0
 11
0.9375451262631431
 21
7.106817416844403
 31
0.0
  0
LINE
  5
26E1
330
1E
100
AcDbEntity
  8
7
100
AcDbLine
 10
0.9375451262631431
 20
7.106817416844403
 30
0.0
 11
0.9552616616962144
 21
7.157998519206607
 31
0.0
  0
LINE
  5
26E2
330
1E
100
AcDbEntity
  8
7
100
AcDbLine
 10
0.9552616616962144
 20
7.157998519206607
 30
0.0
 11
0.9552616616962144
 21
7.209179621568813
 31
0.0
  0
LINE
  5
26E3
330
1E
100
AcDbEntity
  8
7
100
AcDbLine
 10
0.9552616616962144
 20
7.209179621568813
 30
0.0
 11
0.9375451262631431
 21
7.258392219994009
 31
0.0
  0
LINE
  5
26E4
330
1E
100
AcDbEntity
  8
7
100
AcDbLine
 10
0.9375451262631431
 20
7.258392219994009
 30
0.0
 11
0.9021120553970014
 21
7.299730802671174
 31
0.0
  0
LINE
  5
26E5
330
1E
100
AcDbEntity
  8
7
100
AcDbLine
 10
0.9021120553970014
 20
7.299730802671174
 30
0.0
 11
0.8568364648458208
 21
7.325321353852277
 31
0.0
  0
LINE
  5
26E6
330
1E
100
AcDbEntity
  8
7
100
AcDbLine
 10
0.8568364648458208
 20
7.325321353852277
 30
0.0
 11
0.8056553624836153
 21
7.335163873537316
 31
0.0
  0
LINE
  5
26E7
330
1E
100
AcDbEntity
  8
7
100
AcDbLine
 10
0.6855766223261357
 20
7.333195369600309
 30
0.0
 11
0.6343955199639311
 21
7.323352849915268
 31
0.0
  0
LINE
  5
26E8
330
1E
100
AcDbEntity
  8
7
100
AcDbLine
 10
0.6343955199639311
 20
7.323352849915268
 30
0.0
 11
0.5891199294127496
 21
7.297762298734166
 31
0.0
  0
LINE
  5
26E9
330
1E
100
AcDbEntity
  8
7
100
AcDbLine
 10
0.5891199294127496
 20
7.297762298734166
 30
0.0
 11
0.5556553624836154
 21
7.258392219994009
 31
0.0
  0
LINE
  5
26EA
330
1E
100
AcDbEntity
  8
7
100
AcDbLine
 10
0.5556553624836154
 20
7.258392219994009
 30
0.0
 11
0.537938827050545
 21
7.209179621568813
 31
0.0
  0
LINE
  5
26EB
330
1E
100
AcDbEntity
  8
7
100
AcDbLine
 10
0.537938827050545
 20
7.209179621568813
 30
0.0
 11
0.537938827050545
 21
7.157998519206607
 31
0.0
  0
LINE
  5
26EC
330
1E
100
AcDbEntity
  8
7
100
AcDbLine
 10
0.537938827050545
 20
7.157998519206607
 30
0.0
 11
0.5556553624836154
 21
7.108785920781411
 31
0.0
  0
LINE
  5
26ED
330
1E
100
AcDbEntity
  8
7
100
AcDbLine
 10
0.5556553624836154
 20
7.108785920781411
 30
0.0
 11
0.5891199294127496
 21
7.069415842041253
 31
0.0
  0
LINE
  5
26EE
330
1E
100
AcDbEntity
  8
7
100
AcDbLine
 10
0.5891199294127496
 20
7.069415842041253
 30
0.0
 11
0.6343955199639311
 21
7.043825290860151
 31
0.0
  0
LINE
  5
26EF
330
1E
100
AcDbEntity
  8
7
100
AcDbLine
 10
0.6343955199639311
 20
7.043825290860151
 30
0.0
 11
0.6855766223261357
 21
7.033982771175111
 31
0.0
  0
LINE
  5
26F0
330
1E
100
AcDbEntity
  8
7
100
AcDbLine
 10
0.8056553624836153
 20
7.033982771175111
 30
0.0
 11
0.8568364648458208
 21
7.043825290860151
 31
0.0
  0
LINE
  5
26F1
330
1E
100
AcDbEntity
  8
7
100
AcDbLine
 10
0.8568364648458208
 20
7.043825290860151
 30
0.0
 11
0.9021120553970014
 21
7.069415842041253
 31
0.0
  0
LINE
  5
26F2
330
1E
100
AcDbEntity
  8
7
100
AcDbLine
 10
0.9021120553970014
 20
7.069415842041253
 30
0.0
 11
0.9355766223261356
 21
7.108785920781411
 31
0.0
  0
LINE
  5
26F3
330
1E
100
AcDbEntity
  8
7
100
AcDbLine
 10
0.9355766223261356
 20
7.108785920781411
 30
0.0
 11
0.953293157759206
 21
7.157998519206607
 31
0.0
  0
LINE
  5
26F4
330
1E
100
AcDbEntity
  8
7
100
AcDbLine
 10
0.953293157759206
 20
7.157998519206607
 30
0.0
 11
0.953293157759206
 21
7.209179621568813
 31
0.0
  0
LINE
  5
26F5
330
1E
100
AcDbEntity
  8
7
100
AcDbLine
 10
0.953293157759206
 20
7.209179621568813
 30
0.0
 11
0.9355766223261356
 21
7.258392219994009
 31
0.0
  0
LINE
  5
26F6
330
1E
100
AcDbEntity
  8
7
100
AcDbLine
 10
0.9355766223261356
 20
7.258392219994009
 30
0.0
 11
0.9021120553970014
 21
7.297762298734166
 31
0.0
  0
LINE
  5
26F7
330
1E
100
AcDbEntity
  8
7
100
AcDbLine
 10
0.9021120553970014
 20
7.297762298734166
 30
0.0
 11
0.8568364648458208
 21
7.323352849915268
 31
0.0
  0
LINE
  5
26F8
330
1E
100
AcDbEntity
  8
7
100
AcDbLine
 10
0.8568364648458208
 20
7.323352849915268
 30
0.0
 11
0.8056553624836153
 21
7.333195369600309
 31
0.0
  0
LINE
  5
26F9
330
1E
100
AcDbEntity
  8
7
100
AcDbLine
 10
0.6855766223261357
 20
7.258392219994009
 30
0.0
 11
0.6481750475229858
 21
7.24854970030897
 31
0.0
  0
LINE
  5
26FA
330
1E
100
AcDbEntity
  8
7
100
AcDbLine
 10
0.6481750475229858
 20
7.24854970030897
 30
0.0
 11
0.6206159924048756
 21
7.220990645190859
 31
0.0
  0
LINE
  5
26FB
330
1E
100
AcDbEntity
  8
7
100
AcDbLine
 10
0.6206159924048756
 20
7.220990645190859
 30
0.0
 11
0.6107734727198367
 21
7.183589070387711
 31
0.0
  0
LINE
  5
26FC
330
1E
100
AcDbEntity
  8
7
100
AcDbLine
 10
0.6107734727198367
 20
7.183589070387711
 30
0.0
 11
0.6206159924048756
 21
7.146187495584561
 31
0.0
  0
LINE
  5
26FD
330
1E
100
AcDbEntity
  8
7
100
AcDbLine
 10
0.6206159924048756
 20
7.146187495584561
 30
0.0
 11
0.6481750475229858
 21
7.11862844046645
 31
0.0
  0
LINE
  5
26FE
330
1E
100
AcDbEntity
  8
7
100
AcDbLine
 10
0.6481750475229858
 20
7.11862844046645
 30
0.0
 11
0.6855766223261357
 21
7.108785920781411
 31
0.0
  0
LINE
  5
26FF
330
1E
100
AcDbEntity
  8
7
100
AcDbLine
 10
0.8056553624836153
 20
7.108785920781411
 30
0.0
 11
0.8430569372867653
 21
7.11862844046645
 31
0.0
  0
LINE
  5
2700
330
1E
100
AcDbEntity
  8
7
100
AcDbLine
 10
0.8430569372867653
 20
7.11862844046645
 30
0.0
 11
0.8706159924048755
 21
7.146187495584561
 31
0.0
  0
LINE
  5
2701
330
1E
100
AcDbEntity
  8
7
100
AcDbLine
 10
0.8706159924048755
 20
7.146187495584561
 30
0.0
 11
0.8804585120899153
 21
7.183589070387711
 31
0.0
  0
LINE
  5
2702
330
1E
100
AcDbEntity
  8
7
100
AcDbLine
 10
0.8804585120899153
 20
7.183589070387711
 30
0.0
 11
0.8706159924048755
 21
7.220990645190859
 31
0.0
  0
LINE
  5
2703
330
1E
100
AcDbEntity
  8
7
100
AcDbLine
 10
0.8706159924048755
 20
7.220990645190859
 30
0.0
 11
0.8430569372867653
 21
7.24854970030897
 31
0.0
  0
LINE
  5
2704
330
1E
100
AcDbEntity
  8
7
100
AcDbLine
 10
0.8430569372867653
 20
7.24854970030897
 30
0.0
 11
0.8056553624836153
 21
7.258392219994009
 31
0.0
  0
LINE
  5
2705
330
1E
100
AcDbEntity
  8
7
100
AcDbLine
 10
0.6403010317749543
 20
7.242644188497946
 30
0.0
 11
0.6147104805938524
 21
7.205242613694796
 31
0.0
  0
LINE
  5
2706
330
1E
100
AcDbEntity
  8
7
100
AcDbLine
 10
0.6147104805938524
 20
7.205242613694796
 30
0.0
 11
0.6147104805938524
 21
7.161935527080624
 31
0.0
  0
LINE
  5
2707
330
1E
100
AcDbEntity
  8
7
100
AcDbLine
 10
0.8509309530347968
 20
7.124533952277474
 30
0.0
 11
0.8765215042158995
 21
7.161935527080624
 31
0.0
  0
LINE
  5
2708
330
1E
100
AcDbEntity
  8
7
100
AcDbLine
 10
0.8765215042158995
 20
7.161935527080624
 30
0.0
 11
0.8765215042158995
 21
7.205242613694796
 31
0.0
  0
LINE
  5
2709
330
1E
100
AcDbEntity
  8
7
100
AcDbLine
 10
0.8765215042158995
 20
7.205242613694796
 30
0.0
 11
0.8509309530347968
 21
7.242644188497946
 31
0.0
  0
LINE
  5
270A
330
1E
100
AcDbEntity
  8
7
100
AcDbLine
 10
0.8056553624836153
 20
7.108785920781411
 30
0.0
 11
0.8233718979166866
 21
7.110754424718418
 31
0.0
  0
LINE
  5
270B
330
1E
100
AcDbEntity
  8
7
100
AcDbLine
 10
0.8233718979166866
 20
7.110754424718418
 30
0.0
 11
0.8410884333497579
 21
7.11862844046645
 31
0.0
  0
LINE
  5
270C
330
1E
100
AcDbEntity
  8
7
100
AcDbLine
 10
0.6501435514599941
 20
7.11862844046645
 30
0.0
 11
0.6678600868930645
 21
7.110754424718418
 31
0.0
  0
LINE
  5
270D
330
1E
100
AcDbEntity
  8
7
100
AcDbLine
 10
0.6678600868930645
 20
7.110754424718418
 30
0.0
 11
0.6855766223261357
 21
7.108785920781411
 31
0.0
  0
LINE
  5
270E
330
1E
100
AcDbEntity
  8
7
100
AcDbLine
 10
0.8410884333497579
 20
7.24854970030897
 30
0.0
 11
0.8233718979166866
 21
7.256423716057001
 31
0.0
  0
LINE
  5
270F
330
1E
100
AcDbEntity
  8
7
100
AcDbLine
 10
0.8233718979166866
 20
7.256423716057001
 30
0.0
 11
0.8056553624836153
 21
7.258392219994009
 31
0.0
  0
LINE
  5
2710
330
1E
100
AcDbEntity
  8
7
100
AcDbLine
 10
1.67179709476708
 20
4.098943401096372
 30
0.0
 11
1.650143551459994
 21
4.108785920781411
 31
0.0
  0
LINE
  5
2711
330
1E
100
AcDbEntity
  8
7
100
AcDbLine
 10
1.650143551459994
 20
4.108785920781411
 30
0.0
 11
1.620615992404875
 21
4.108785920781411
 31
0.0
  0
LINE
  5
2712
330
1E
100
AcDbEntity
  8
7
100
AcDbLine
 10
1.681639614452119
 20
3.72886466093889
 30
0.0
 11
1.681639614452119
 21
4.077289857789285
 31
0.0
  0
LINE
  5
2713
330
1E
100
AcDbEntity
  8
7
100
AcDbLine
 10
1.681639614452119
 20
4.077289857789285
 30
0.0
 11
1.67179709476708
 21
4.098943401096372
 31
0.0
  0
LINE
  5
2714
330
1E
100
AcDbEntity
  8
7
100
AcDbLine
 10
-0.1293840075951249
 20
4.108785920781411
 30
0.0
 11
-0.158911566650243
 21
4.108785920781411
 31
0.0
  0
LINE
  5
2715
330
1E
100
AcDbEntity
  8
7
100
AcDbLine
 10
-0.158911566650243
 20
4.108785920781411
 30
0.0
 11
-0.1805651099573296
 21
4.098943401096372
 31
0.0
  0
LINE
  5
2716
330
1E
100
AcDbEntity
  8
7
100
AcDbLine
 10
-0.1805651099573296
 20
4.098943401096372
 30
0.0
 11
-0.1904076296423689
 21
4.077289857789285
 31
0.0
  0
LINE
  5
2717
330
1E
100
AcDbEntity
  8
7
100
AcDbLine
 10
-0.1904076296423689
 20
4.077289857789285
 30
0.0
 11
-0.1904076296423689
 21
3.72886466093889
 31
0.0
  0
LINE
  5
2718
330
1E
100
AcDbEntity
  8
7
100
AcDbLine
 10
0.5359703231135367
 20
3.876502456214481
 30
0.0
 11
0.553686858546608
 21
3.827289857789285
 31
0.0
  0
LINE
  5
2719
330
1E
100
AcDbEntity
  8
7
100
AcDbLine
 10
0.553686858546608
 20
3.827289857789285
 30
0.0
 11
0.5891199294127496
 21
3.78595127511212
 31
0.0
  0
LINE
  5
271A
330
1E
100
AcDbEntity
  8
7
100
AcDbLine
 10
0.5891199294127496
 20
3.78595127511212
 30
0.0
 11
0.6343955199639311
 21
3.760360723931016
 31
0.0
  0
LINE
  5
271B
330
1E
100
AcDbEntity
  8
7
100
AcDbLine
 10
0.6343955199639311
 20
3.760360723931016
 30
0.0
 11
0.6855766223261357
 21
3.750518204245977
 31
0.0
  0
LINE
  5
271C
330
1E
100
AcDbEntity
  8
7
100
AcDbLine
 10
0.6855766223261357
 20
4.05366781054519
 30
0.0
 11
0.6343955199639311
 21
4.043825290860151
 31
0.0
  0
LINE
  5
271D
330
1E
100
AcDbEntity
  8
7
100
AcDbLine
 10
0.6343955199639311
 20
4.043825290860151
 30
0.0
 11
0.5891199294127496
 21
4.018234739679048
 31
0.0
  0
LINE
  5
271E
330
1E
100
AcDbEntity
  8
7
100
AcDbLine
 10
0.5891199294127496
 20
4.018234739679048
 30
0.0
 11
0.553686858546608
 21
3.97886466093889
 31
0.0
  0
LINE
  5
271F
330
1E
100
AcDbEntity
  8
7
100
AcDbLine
 10
0.553686858546608
 20
3.97886466093889
 30
0.0
 11
0.5359703231135367
 21
3.927683558576687
 31
0.0
  0
LINE
  5
2720
330
1E
100
AcDbEntity
  8
7
100
AcDbLine
 10
0.5359703231135367
 20
3.927683558576687
 30
0.0
 11
0.5359703231135367
 21
3.876502456214481
 31
0.0
  0
LINE
  5
2721
330
1E
100
AcDbEntity
  8
7
100
AcDbLine
 10
0.9375451262631431
 20
3.976896157001883
 30
0.0
 11
0.9021120553970014
 21
4.018234739679048
 31
0.0
  0
LINE
  5
2722
330
1E
100
AcDbEntity
  8
7
100
AcDbLine
 10
0.9021120553970014
 20
4.018234739679048
 30
0.0
 11
0.8568364648458208
 21
4.043825290860151
 31
0.0
  0
LINE
  5
2723
330
1E
100
AcDbEntity
  8
7
100
AcDbLine
 10
0.8568364648458208
 20
4.043825290860151
 30
0.0
 11
0.8056553624836153
 21
4.05366781054519
 31
0.0
  0
LINE
  5
2724
330
1E
100
AcDbEntity
  8
7
100
AcDbLine
 10
0.8056553624836153
 20
3.750518204245977
 30
0.0
 11
0.8568364648458208
 21
3.760360723931016
 31
0.0
  0
LINE
  5
2725
330
1E
100
AcDbEntity
  8
7
100
AcDbLine
 10
0.8568364648458208
 20
3.760360723931016
 30
0.0
 11
0.9021120553970014
 21
3.78595127511212
 31
0.0
  0
LINE
  5
2726
330
1E
100
AcDbEntity
  8
7
100
AcDbLine
 10
0.9021120553970014
 20
3.78595127511212
 30
0.0
 11
0.9375451262631431
 21
3.825321353852277
 31
0.0
  0
LINE
  5
2727
330
1E
100
AcDbEntity
  8
7
100
AcDbLine
 10
0.9375451262631431
 20
3.825321353852277
 30
0.0
 11
0.9552616616962144
 21
3.876502456214481
 31
0.0
  0
LINE
  5
2728
330
1E
100
AcDbEntity
  8
7
100
AcDbLine
 10
0.9552616616962144
 20
3.876502456214481
 30
0.0
 11
0.9552616616962144
 21
3.927683558576687
 31
0.0
  0
LINE
  5
2729
330
1E
100
AcDbEntity
  8
7
100
AcDbLine
 10
0.9552616616962144
 20
3.927683558576687
 30
0.0
 11
0.9375451262631431
 21
3.976896157001883
 31
0.0
  0
LINE
  5
272A
330
1E
100
AcDbEntity
  8
7
100
AcDbLine
 10
2.116678984530859
 20
7.7308331648759
 30
0.0
 11
2.10683646484582
 21
7.722959149127868
 31
0.0
  0
LINE
  5
272B
330
1E
100
AcDbEntity
  8
7
100
AcDbLine
 10
2.10683646484582
 20
7.722959149127868
 30
0.0
 11
2.083214417601725
 21
7.705242613694796
 31
0.0
  0
LINE
  5
272C
330
1E
100
AcDbEntity
  8
7
100
AcDbLine
 10
2.083214417601725
 20
7.705242613694796
 30
0.0
 11
2.047781346735583
 21
7.679652062513694
 31
0.0
  0
LINE
  5
272D
330
1E
100
AcDbEntity
  8
7
100
AcDbLine
 10
2.047781346735583
 20
7.679652062513694
 30
0.0
 11
2.002505756184403
 21
7.644218991647553
 31
0.0
  0
LINE
  5
272E
330
1E
100
AcDbEntity
  8
7
100
AcDbLine
 10
2.002505756184403
 20
7.644218991647553
 30
0.0
 11
1.94935614988519
 21
7.606817416844403
 31
0.0
  0
LINE
  5
272F
330
1E
100
AcDbEntity
  8
7
100
AcDbLine
 10
1.94935614988519
 20
7.606817416844403
 30
0.0
 11
1.892269535711962
 21
7.565478834167237
 31
0.0
  0
LINE
  5
2730
330
1E
100
AcDbEntity
  8
7
100
AcDbLine
 10
2.059592370357631
 20
7.793825290860151
 30
0.0
 11
2.091088433349757
 21
7.78595127511212
 31
0.0
  0
LINE
  5
2731
330
1E
100
AcDbEntity
  8
7
100
AcDbLine
 10
2.091088433349757
 20
7.78595127511212
 30
0.0
 11
2.112741976656844
 21
7.762329227868026
 31
0.0
  0
LINE
  5
2732
330
1E
100
AcDbEntity
  8
7
100
AcDbLine
 10
-0.6293840075951245
 20
7.732801668812907
 30
0.0
 11
-0.621509991847093
 21
7.762329227868026
 31
0.0
  0
LINE
  5
2733
330
1E
100
AcDbEntity
  8
7
100
AcDbLine
 10
-0.621509991847093
 20
7.762329227868026
 30
0.0
 11
-0.5998564485400069
 21
7.78595127511212
 31
0.0
  0
LINE
  5
2734
330
1E
100
AcDbEntity
  8
7
100
AcDbLine
 10
-0.5998564485400069
 20
7.78595127511212
 30
0.0
 11
-0.5703288894848893
 21
7.793825290860151
 31
0.0
  0
LINE
  5
2735
330
1E
100
AcDbEntity
  8
7
100
AcDbLine
 10
-0.5112737713746523
 20
7.644218991647553
 30
0.0
 11
-0.5565493619258337
 21
7.679652062513694
 31
0.0
  0
LINE
  5
2736
330
1E
100
AcDbEntity
  8
7
100
AcDbLine
 10
-0.5565493619258337
 20
7.679652062513694
 30
0.0
 11
-0.5919824327919754
 21
7.705242613694796
 31
0.0
  0
LINE
  5
2737
330
1E
100
AcDbEntity
  8
7
100
AcDbLine
 10
-0.5919824327919754
 20
7.705242613694796
 30
0.0
 11
-0.6156044800360699
 21
7.722959149127868
 31
0.0
  0
LINE
  5
2738
330
1E
100
AcDbEntity
  8
7
100
AcDbLine
 10
-0.6156044800360699
 20
7.722959149127868
 30
0.0
 11
-0.6254469997211097
 21
7.7308331648759
 31
0.0
  0
LINE
  5
2739
330
1E
100
AcDbEntity
  8
7
100
AcDbLine
 10
-0.4010375509022115
 20
7.565478834167237
 30
0.0
 11
-0.4581241650754393
 21
7.606817416844403
 31
0.0
  0
LINE
  5
273A
330
1E
100
AcDbEntity
  8
7
100
AcDbLine
 10
-0.4581241650754393
 20
7.606817416844403
 30
0.0
 11
-0.5112737713746523
 21
7.644218991647553
 31
0.0
  0
LINE
  5
273B
330
1E
100
AcDbEntity
  8
7
100
AcDbLine
 10
0.6737655987040885
 20
5.244612692434953
 30
0.0
 11
0.6737655987040885
 21
5.179652062513694
 31
0.0
  0
LINE
  5
273C
330
1E
100
AcDbEntity
  8
7
100
AcDbLine
 10
0.6737655987040885
 20
5.179652062513694
 30
0.0
 11
0.1816396144521191
 21
5.179652062513694
 31
0.0
  0
LINE
  5
273D
330
1E
100
AcDbEntity
  8
7
100
AcDbLine
 10
0.1816396144521191
 20
5.179652062513694
 30
0.0
 11
0.1816396144521191
 21
5.244612692434953
 31
0.0
  0
LINE
  5
273E
330
1E
100
AcDbEntity
  8
7
100
AcDbLine
 10
0.1816396144521191
 20
5.244612692434953
 30
0.0
 11
0.1147104805938515
 21
5.244612692434953
 31
0.0
  0
LINE
  5
273F
330
1E
100
AcDbEntity
  8
7
100
AcDbLine
 10
-0.1923761335793768
 20
7.008392219994009
 30
0.0
 11
-0.1825336138943374
 21
6.986738676686922
 31
0.0
  0
LINE
  5
2740
330
1E
100
AcDbEntity
  8
7
100
AcDbLine
 10
-0.1825336138943374
 20
6.986738676686922
 30
0.0
 11
-0.1608800705872508
 21
6.976896157001883
 31
0.0
  0
LINE
  5
2741
330
1E
100
AcDbEntity
  8
7
100
AcDbLine
 10
1.652112055397001
 20
6.976896157001883
 30
0.0
 11
1.673765598704088
 21
6.986738676686922
 31
0.0
  0
LINE
  5
2742
330
1E
100
AcDbEntity
  8
7
100
AcDbLine
 10
1.673765598704088
 20
6.986738676686922
 30
0.0
 11
1.683608118389127
 21
7.008392219994009
 31
0.0
  0
LINE
  5
2743
330
1E
100
AcDbEntity
  8
7
100
AcDbLine
 10
1.683608118389127
 20
7.358785920781411
 30
0.0
 11
1.673765598704088
 21
7.380439464088498
 31
0.0
  0
LINE
  5
2744
330
1E
100
AcDbEntity
  8
7
100
AcDbLine
 10
1.673765598704088
 20
7.380439464088498
 30
0.0
 11
1.652112055397001
 21
7.390281983773537
 31
0.0
  0
LINE
  5
2745
330
1E
100
AcDbEntity
  8
7
100
AcDbLine
 10
-0.1608800705872508
 20
7.390281983773537
 30
0.0
 11
-0.1825336138943374
 21
7.380439464088498
 31
0.0
  0
LINE
  5
2746
330
1E
100
AcDbEntity
  8
7
100
AcDbLine
 10
-0.1825336138943374
 20
7.380439464088498
 30
0.0
 11
-0.1923761335793768
 21
7.358785920781411
 31
0.0
  0
LINE
  5
2747
330
1E
100
AcDbEntity
  8
7
100
AcDbLine
 10
-0.1923761335793768
 20
3.726896157001883
 30
0.0
 11
-0.1923761335793768
 21
4.077289857789285
 31
0.0
  0
LINE
  5
2748
330
1E
100
AcDbEntity
  8
7
100
AcDbLine
 10
-0.1923761335793768
 20
4.077289857789285
 30
0.0
 11
-0.1825336138943374
 21
4.098943401096372
 31
0.0
  0
LINE
  5
2749
330
1E
100
AcDbEntity
  8
7
100
AcDbLine
 10
-0.1825336138943374
 20
4.098943401096372
 30
0.0
 11
-0.1608800705872508
 21
4.108785920781411
 31
0.0
  0
LINE
  5
274A
330
1E
100
AcDbEntity
  8
7
100
AcDbLine
 10
-0.1608800705872508
 20
4.108785920781411
 30
0.0
 11
1.652112055397001
 21
4.108785920781411
 31
0.0
  0
LINE
  5
274B
330
1E
100
AcDbEntity
  8
7
100
AcDbLine
 10
1.652112055397001
 20
4.108785920781411
 30
0.0
 11
1.673765598704088
 21
4.098943401096372
 31
0.0
  0
LINE
  5
274C
330
1E
100
AcDbEntity
  8
7
100
AcDbLine
 10
1.892269535711962
 20
3.520203243616057
 30
0.0
 11
1.892269535711962
 21
7.565478834167237
 31
0.0
  0
LINE
  5
274D
330
1E
100
AcDbEntity
  8
7
100
AcDbLine
 10
1.892269535711962
 20
7.565478834167237
 30
0.0
 11
-0.4010375509022115
 21
7.565478834167237
 31
0.0
  0
LINE
  5
274E
330
1E
100
AcDbEntity
  8
7
100
AcDbLine
 10
-0.4010375509022115
 20
7.565478834167237
 30
0.0
 11
-0.4010375509022115
 21
3.520203243616057
 31
0.0
  0
LINE
  5
274F
330
1E
100
AcDbEntity
  8
7
100
AcDbLine
 10
1.650143551459994
 20
3.697368597946764
 30
0.0
 11
1.67179709476708
 21
3.707211117631805
 31
0.0
  0
LINE
  5
2750
330
1E
100
AcDbEntity
  8
7
100
AcDbLine
 10
1.67179709476708
 20
3.707211117631805
 30
0.0
 11
1.681639614452119
 21
3.72886466093889
 31
0.0
  0
LINE
  5
2751
330
1E
100
AcDbEntity
  8
7
100
AcDbLine
 10
1.683608118389127
 20
3.726896157001883
 30
0.0
 11
1.673765598704088
 21
3.705242613694796
 31
0.0
  0
LINE
  5
2752
330
1E
100
AcDbEntity
  8
7
100
AcDbLine
 10
1.673765598704088
 20
3.705242613694796
 30
0.0
 11
1.652112055397001
 21
3.697368597946764
 31
0.0
  0
LINE
  5
2753
330
1E
100
AcDbEntity
  8
7
100
AcDbLine
 10
1.618647488467868
 20
3.697368597946764
 30
0.0
 11
-0.127415503658117
 21
3.697368597946764
 31
0.0
  0
LINE
  5
2754
330
1E
100
AcDbEntity
  8
7
100
AcDbLine
 10
-0.127415503658117
 20
3.697368597946764
 30
0.0
 11
-0.1293840075951249
 21
3.697368597946764
 31
0.0
  0
LINE
  5
2755
330
1E
100
AcDbEntity
  8
7
100
AcDbLine
 10
-0.1608800705872508
 20
3.697368597946764
 30
0.0
 11
-0.1825336138943374
 21
3.705242613694796
 31
0.0
  0
LINE
  5
2756
330
1E
100
AcDbEntity
  8
7
100
AcDbLine
 10
-0.1825336138943374
 20
3.705242613694796
 30
0.0
 11
-0.1923761335793768
 21
3.726896157001883
 31
0.0
  0
LINE
  5
2757
330
1E
100
AcDbEntity
  8
7
100
AcDbLine
 10
-0.1904076296423689
 20
3.72886466093889
 30
0.0
 11
-0.1805651099573296
 21
3.707211117631805
 31
0.0
  0
LINE
  5
2758
330
1E
100
AcDbEntity
  8
7
100
AcDbLine
 10
-0.1805651099573296
 20
3.707211117631805
 30
0.0
 11
-0.158911566650243
 21
3.697368597946764
 31
0.0
  0
LINE
  5
2759
330
1E
100
AcDbEntity
  8
7
100
AcDbLine
 10
-0.6254469997211097
 20
3.356817416844403
 30
0.0
 11
-0.6254469997211097
 21
7.7308331648759
 31
0.0
  0
LINE
  5
275A
330
1E
100
AcDbEntity
  8
7
100
AcDbLine
 10
-0.6254469997211097
 20
7.7308331648759
 30
0.0
 11
-0.6293840075951245
 21
7.732801668812907
 31
0.0
  0
LINE
  5
275B
330
1E
100
AcDbEntity
  8
7
100
AcDbLine
 10
-0.6293840075951245
 20
7.732801668812907
 30
0.0
 11
-0.6293840075951245
 21
3.352880408970387
 31
0.0
  0
LINE
  5
275C
330
1E
100
AcDbEntity
  8
7
100
AcDbLine
 10
2.120615992404875
 20
7.732801668812907
 30
0.0
 11
2.116678984530859
 21
7.7308331648759
 31
0.0
  0
LINE
  5
275D
330
1E
100
AcDbEntity
  8
7
100
AcDbLine
 10
2.116678984530859
 20
7.7308331648759
 30
0.0
 11
2.116678984530859
 21
3.356817416844403
 31
0.0
  0
LINE
  5
275E
330
1E
100
AcDbEntity
  8
7
100
AcDbLine
 10
2.120615992404875
 20
3.352880408970387
 30
0.0
 11
2.112741976656844
 21
3.323352849915268
 31
0.0
  0
LINE
  5
275F
330
1E
100
AcDbEntity
  8
7
100
AcDbLine
 10
2.112741976656844
 20
3.323352849915268
 30
0.0
 11
2.091088433349757
 21
3.301699306608183
 31
0.0
  0
LINE
  5
2760
330
1E
100
AcDbEntity
  8
7
100
AcDbLine
 10
2.091088433349757
 20
3.301699306608183
 30
0.0
 11
2.059592370357631
 21
3.293825290860151
 31
0.0
  0
LINE
  5
2761
330
1E
100
AcDbEntity
  8
7
100
AcDbLine
 10
-0.5703288894848893
 20
3.293825290860151
 30
0.0
 11
-0.5998564485400069
 21
3.301699306608183
 31
0.0
  0
LINE
  5
2762
330
1E
100
AcDbEntity
  8
7
100
AcDbLine
 10
-0.5998564485400069
 20
3.301699306608183
 30
0.0
 11
-0.621509991847093
 21
3.323352849915268
 31
0.0
  0
LINE
  5
2763
330
1E
100
AcDbEntity
  8
7
100
AcDbLine
 10
-0.621509991847093
 20
3.323352849915268
 30
0.0
 11
-0.6293840075951245
 21
3.352880408970387
 31
0.0
  0
LINE
  5
2764
330
1E
100
AcDbEntity
  8
7
100
AcDbLine
 10
-0.6254469997211097
 20
3.356817416844403
 30
0.0
 11
-0.6175729839730782
 21
3.327289857789285
 31
0.0
  0
LINE
  5
2765
330
1E
100
AcDbEntity
  8
7
100
AcDbLine
 10
-0.6175729839730782
 20
3.327289857789285
 30
0.0
 11
-0.5959194406659912
 21
3.30366781054519
 31
0.0
  0
LINE
  5
2766
330
1E
100
AcDbEntity
  8
7
100
AcDbLine
 10
-0.5959194406659912
 20
3.30366781054519
 30
0.0
 11
-0.5663918816108727
 21
3.295793794797159
 31
0.0
  0
LINE
  5
2767
330
1E
100
AcDbEntity
  8
7
100
AcDbLine
 10
-0.6254469997211097
 20
3.356817416844403
 30
0.0
 11
-0.6156044800360699
 21
3.362722928655427
 31
0.0
  0
LINE
  5
2768
330
1E
100
AcDbEntity
  8
7
100
AcDbLine
 10
-0.6156044800360699
 20
3.362722928655427
 30
0.0
 11
-0.5919824327919754
 21
3.380439464088498
 31
0.0
  0
LINE
  5
2769
330
1E
100
AcDbEntity
  8
7
100
AcDbLine
 10
-0.5919824327919754
 20
3.380439464088498
 30
0.0
 11
-0.5565493619258337
 21
3.407998519206607
 31
0.0
  0
LINE
  5
276A
330
1E
100
AcDbEntity
  8
7
100
AcDbLine
 10
-0.5565493619258337
 20
3.407998519206607
 30
0.0
 11
-0.5112737713746523
 21
3.441463086135742
 31
0.0
  0
LINE
  5
276B
330
1E
100
AcDbEntity
  8
7
100
AcDbLine
 10
-0.5112737713746523
 20
3.441463086135742
 30
0.0
 11
-0.4581241650754393
 21
3.47886466093889
 31
0.0
  0
LINE
  5
276C
330
1E
100
AcDbEntity
  8
7
100
AcDbLine
 10
-0.4581241650754393
 20
3.47886466093889
 30
0.0
 11
-0.4010375509022115
 21
3.520203243616057
 31
0.0
  0
LINE
  5
276D
330
1E
100
AcDbEntity
  8
7
100
AcDbLine
 10
-0.4010375509022115
 20
3.520203243616057
 30
0.0
 11
-0.4423761335793768
 21
3.465085133379837
 31
0.0
  0
LINE
  5
276E
330
1E
100
AcDbEntity
  8
7
100
AcDbLine
 10
-0.4423761335793768
 20
3.465085133379837
 30
0.0
 11
-0.4817462123195338
 21
3.411935527080624
 31
0.0
  0
LINE
  5
276F
330
1E
100
AcDbEntity
  8
7
100
AcDbLine
 10
-0.4817462123195338
 20
3.411935527080624
 30
0.0
 11
-0.515210779248668
 21
3.366659936529442
 31
0.0
  0
LINE
  5
2770
330
1E
100
AcDbEntity
  8
7
100
AcDbLine
 10
-0.515210779248668
 20
3.366659936529442
 30
0.0
 11
-0.5408013304297708
 21
3.331226865663301
 31
0.0
  0
LINE
  5
2771
330
1E
100
AcDbEntity
  8
7
100
AcDbLine
 10
-0.5408013304297708
 20
3.331226865663301
 30
0.0
 11
-0.5585178658628412
 21
3.305636314482198
 31
0.0
  0
LINE
  5
2772
330
1E
100
AcDbEntity
  8
7
100
AcDbLine
 10
-0.5585178658628412
 20
3.305636314482198
 30
0.0
 11
-0.5663918816108727
 21
3.295793794797159
 31
0.0
  0
LINE
  5
2773
330
1E
100
AcDbEntity
  8
7
100
AcDbLine
 10
2.057623866420623
 20
3.295793794797159
 30
0.0
 11
-0.5663918816108727
 21
3.295793794797159
 31
0.0
  0
LINE
  5
2774
330
1E
100
AcDbEntity
  8
7
100
AcDbLine
 10
-0.5663918816108727
 20
3.295793794797159
 30
0.0
 11
-0.5703288894848893
 21
3.293825290860151
 31
0.0
  0
LINE
  5
2775
330
1E
100
AcDbEntity
  8
7
100
AcDbLine
 10
-0.5703288894848893
 20
3.293825290860151
 30
0.0
 11
2.059592370357631
 21
3.293825290860151
 31
0.0
  0
LINE
  5
2776
330
1E
100
AcDbEntity
  8
7
100
AcDbLine
 10
2.059592370357631
 20
3.293825290860151
 30
0.0
 11
2.057623866420623
 21
3.295793794797159
 31
0.0
  0
LINE
  5
2777
330
1E
100
AcDbEntity
  8
7
100
AcDbLine
 10
2.057623866420623
 20
3.295793794797159
 30
0.0
 11
2.087151425475741
 21
3.30366781054519
 31
0.0
  0
LINE
  5
2778
330
1E
100
AcDbEntity
  8
7
100
AcDbLine
 10
2.087151425475741
 20
3.30366781054519
 30
0.0
 11
2.108804968782828
 21
3.327289857789285
 31
0.0
  0
LINE
  5
2779
330
1E
100
AcDbEntity
  8
7
100
AcDbLine
 10
2.108804968782828
 20
3.327289857789285
 30
0.0
 11
2.116678984530859
 21
3.356817416844403
 31
0.0
  0
LINE
  5
277A
330
1E
100
AcDbEntity
  8
7
100
AcDbLine
 10
2.057623866420623
 20
3.295793794797159
 30
0.0
 11
2.049749850672592
 21
3.305636314482198
 31
0.0
  0
LINE
  5
277B
330
1E
100
AcDbEntity
  8
7
100
AcDbLine
 10
2.049749850672592
 20
3.305636314482198
 30
0.0
 11
2.03203331523952
 21
3.331226865663301
 31
0.0
  0
LINE
  5
277C
330
1E
100
AcDbEntity
  8
7
100
AcDbLine
 10
2.03203331523952
 20
3.331226865663301
 30
0.0
 11
2.006442764058419
 21
3.366659936529442
 31
0.0
  0
LINE
  5
277D
330
1E
100
AcDbEntity
  8
7
100
AcDbLine
 10
2.006442764058419
 20
3.366659936529442
 30
0.0
 11
1.972978197129284
 21
3.411935527080624
 31
0.0
  0
LINE
  5
277E
330
1E
100
AcDbEntity
  8
7
100
AcDbLine
 10
1.972978197129284
 20
3.411935527080624
 30
0.0
 11
1.933608118389127
 21
3.465085133379837
 31
0.0
  0
LINE
  5
277F
330
1E
100
AcDbEntity
  8
7
100
AcDbLine
 10
1.933608118389127
 20
3.465085133379837
 30
0.0
 11
1.892269535711962
 21
3.520203243616057
 31
0.0
  0
LINE
  5
2780
330
1E
100
AcDbEntity
  8
7
100
AcDbLine
 10
1.892269535711962
 20
3.520203243616057
 30
0.0
 11
1.94935614988519
 21
3.47886466093889
 31
0.0
  0
LINE
  5
2781
330
1E
100
AcDbEntity
  8
7
100
AcDbLine
 10
1.94935614988519
 20
3.47886466093889
 30
0.0
 11
2.002505756184403
 21
3.441463086135742
 31
0.0
  0
LINE
  5
2782
330
1E
100
AcDbEntity
  8
7
100
AcDbLine
 10
2.002505756184403
 20
3.441463086135742
 30
0.0
 11
2.047781346735583
 21
3.407998519206607
 31
0.0
  0
LINE
  5
2783
330
1E
100
AcDbEntity
  8
7
100
AcDbLine
 10
2.047781346735583
 20
3.407998519206607
 30
0.0
 11
2.083214417601725
 21
3.380439464088498
 31
0.0
  0
LINE
  5
2784
330
1E
100
AcDbEntity
  8
7
100
AcDbLine
 10
2.083214417601725
 20
3.380439464088498
 30
0.0
 11
2.10683646484582
 21
3.362722928655427
 31
0.0
  0
ENDSEC
  0
SECTION
  2
OBJECTS
  0
DICTIONARY
  5
C
330
0
100
AcDbDictionary
  3
ACAD_GROUP
350
D
  3
ACAD_LAYOUT
350
19
  3
ACAD_MLINESTYLE
350
16
  3
ACAD_PLOTSETTINGS
350
18
1001
ACAD
1000
TREAT_AS_HARD
1070
     0
  0
DICTIONARY
  5
2531
330
1E
100
AcDbDictionary
  3
ACAD_LAYOUTSELFREF
350
2ADE
1001
ACAD
1000
TREAT_AS_HARD
1070
     1
  0
DICTIONARY
  5
2533
330
1A
100
AcDbDictionary
  3
ACAD_LAYOUTSELFREF
350
2ADD
1001
ACAD
1000
TREAT_AS_HARD
1070
     1
  0
DICTIONARY
  5
D
102
{ACAD_REACTORS
330
C
102
}
330
C
100
AcDbDictionary
1001
ACAD
1000
TREAT_AS_HARD
1070
     0
  0
DICTIONARY
  5
19
102
{ACAD_REACTORS
330
C
102
}
330
C
100
AcDbDictionary
1001
ACAD
1000
TREAT_AS_HARD
1070
     0
  0
DICTIONARY
  5
16
102
{ACAD_REACTORS
330
C
102
}
330
C
100
AcDbDictionary
  3
STANDARD
350
17
1001
ACAD
1000
TREAT_AS_HARD
1070
     0
  0
DICTIONARY
  5
18
102
{ACAD_REACTORS
330
C
102
}
330
C
100
AcDbDictionary
1001
ACAD
1000
TREAT_AS_HARD
1070
     0
  0
XRECORD
  5
2ADE
102
{ACAD_REACTORS
330
2531
102
}
330
2531
100
AcDbXrecord
340
1E
  0
XRECORD
  5
2ADD
102
{ACAD_REACTORS
330
2533
102
}
330
2533
100
AcDbXrecord
340
1A
  0
MLINESTYLE
  5
17
102
{ACAD_REACTORS
330
16
102
}
330
16
100
AcDbMlineStyle
  2
STANDARD
 70
     0
  3

 62
   256
 51
90.0
 52
90.0
 71
     2
 49
0.5
 62
   256
  6
BYLAYER
 49
-0.5
 62
   256
  6
BYLAYER
  0
ENDSEC
  0
EOF
