  0
SECTION
  2
HEADER
  9
$ACADVER
  1
AC1015
  9
$ACADMAINTVER
 70
     6
  9
$DWGCODEPAGE
  3
ANSI_1252
  9
$INSBASE
 10
0.0
 20
0.0
 30
0.0
  9
$EXTMIN
 10
-0.5
 20
-0.5
 30
-0.5
  9
$EXTMAX
 10
5.0
 20
5.0
 30
5.0
  9
$LIMMIN
 10
-0.5
 20
-0.5
  9
$LIMMAX
 10
5.0
 20
5.0
  9
$ORTHOMODE
 70
     0
  9
$REGENMODE
 70
     1
  9
$FILLMODE
 70
     1
  9
$QTEXTMODE
 70
     0
  9
$MIRRTEXT
 70
     1
  9
$LTSCALE
 40
1.0
  9
$ATTMODE
 70
     1
  9
$TEXTSIZE
 40
0.2
  9
$TRACEWID
 40
0.05
  9
$TEXTSTYLE
  7
Standard
  9
$CLAYER
  8
0
  9
$CELTYPE
  6
Continuous
  9
$CECOLOR
 62
   256
  9
$CELTSCALE
 40
1.0
  9
$DISPSILH
 70
     0
  9
$DIMSCALE
 40
1.0
  9
$DIMASZ
 40
0.18
  9
$DIMEXO
 40
0.0625
  9
$DIMDLI
 40
0.38
  9
$DIMRND
 40
0.0
  9
$DIMDLE
 40
0.0
  9
$DIMEXE
 40
0.18
  9
$DIMTP
 40
0.0
  9
$DIMTM
 40
0.0
  9
$DIMTXT
 40
0.18
  9
$DIMCEN
 40
0.09
  9
$DIMTSZ
 40
0.0
  9
$DIMTOL
 70
     0
  9
$DIMLIM
 70
     0
  9
$DIMTIH
 70
     1
  9
$DIMTOH
 70
     1
  9
$DIMSE1
 70
     0
  9
$DIMSE2
 70
     0
  9
$DIMTAD
 70
     0
  9
$DIMZIN
 70
     0
  9
$DIMBLK
  1

  9
$DIMASO
 70
     1
  9
$DIMSHO
 70
     1
  9
$DIMPOST
  1

  9
$DIMAPOST
  1

  9
$DIMALT
 70
     0
  9
$DIMALTD
 70
     2
  9
$DIMALTF
 40
25.4
  9
$DIMLFAC
 40
1.0
  9
$DIMTOFL
 70
     0
  9
$DIMTVP
 40
0.0
  9
$DIMTIX
 70
     0
  9
$DIMSOXD
 70
     0
  9
$DIMSAH
 70
     0
  9
$DIMBLK1
  1

  9
$DIMBLK2
  1

  9
$DIMSTYLE
  2
Standard
  9
$DIMCLRD
 70
     0
  9
$DIMCLRE
 70
     0
  9
$DIMCLRT
 70
     0
  9
$DIMTFAC
 40
1.0
  9
$DIMGAP
 40
0.09
  9
$DIMJUST
 70
     0
  9
$DIMSD1
 70
     0
  9
$DIMSD2
 70
     0
  9
$DIMTOLJ
 70
     1
  9
$DIMTZIN
 70
     0
  9
$DIMALTZ
 70
     0
  9
$DIMALTTZ
 70
     0
  9
$DIMUPT
 70
     0
  9
$DIMDEC
 70
     4
  9
$DIMTDEC
 70
     4
  9
$DIMALTU
 70
     2
  9
$DIMALTTD
 70
     2
  9
$DIMTXSTY
  7
Standard
  9
$DIMAUNIT
 70
     0
  9
$DIMADEC
 70
     0
  9
$DIMALTRND
 40
0.0
  9
$DIMAZIN
 70
     0
  9
$DIMDSEP
 70
     0
  9
$DIMATFIT
 70
     3
  9
$DIMFRAC
 70
     0
  9
$DIMLDRBLK
  1

  9
$DIMLUNIT
 70
     2
  9
$DIMLWD
 70
     0
  9
$DIMLWE
 70
     0
  9
$DIMTMOVE
 70
     0
  9
$LUNITS
 70
     2
  9
$LUPREC
 70
     4
  9
$SKETCHINC
 40
0.1
  9
$FILLETRAD
 40
0.0
  9
$AUNITS
 70
     0
  9
$AUPREC
 70
     0
  9
$MENU
  1
acad
  9
$ELEVATION
 40
0.0
  9
$PELEVATION
 40
0.0
  9
$THICKNESS
 40
0.0
  9
$LIMCHECK
 70
     0
  9
$CHAMFERA
 40
0.0
  9
$CHAMFERB
 40
0.0
  9
$CHAMFERC
 40
0.0
  9
$CHAMFERD
 40
0.0
  9
$SKPOLY
 70
     0
  9
$TDCREATE
 40
0.000000000
  9
$TDUCREATE
 40
0.000000000
  9
$TDUPDATE
 40
0.000000000
  9
$TDUUPDATE
 40
0.000000000
  9
$TDINDWG
 40
0.0000000000
  9
$TDUSRTIMER
 40
0.0000000000
  9
$USRTIMER
 70
     1
  9
$ANGBASE
 50
0.0
  9
$ANGDIR
 70
     0
  9
$PDMODE
 70
     0
  9
$PDSIZE
 40
0.0
  9
$PLINEWID
 40
0.0
  9
$SPLFRAME
 70
     0
  9
$SPLINETYPE
 70
     6
  9
$SPLINESEGS
 70
     8
  9
$HANDSEED
  5
1D7
  9
$SURFTAB1
 70
     6
  9
$SURFTAB2
 70
     6
  9
$SURFTYPE
 70
     6
  9
$SURFU
 70
     6
  9
$SURFV
 70
     6
  9
$UCSBASE
  2

  9
$UCSNAME
  2

  9
$UCSORG
 10
0.0
 20
0.0
 30
0.0
  9
$UCSXDIR
 10
1.0
 20
0.0
 30
0.0
  9
$UCSYDIR
 10
0.0
 20
1.0
 30
0.0
  9
$UCSORTHOREF
  2

  9
$UCSORTHOVIEW
 70
     0
  9
$UCSORGTOP
 10
0.0
 20
0.0
 30
0.0
  9
$UCSORGBOTTOM
 10
0.0
 20
0.0
 30
0.0
  9
$UCSORGLEFT
 10
0.0
 20
0.0
 30
0.0
  9
$UCSORGRIGHT
 10
0.0
 20
0.0
 30
0.0
  9
$UCSORGFRONT
 10
0.0
 20
0.0
 30
0.0
  9
$UCSORGBACK
 10
0.0
 20
0.0
 30
0.0
  9
$PUCSBASE
  2

  9
$PUCSNAME
  2

  9
$PUCSORG
 10
0.0
 20
0.0
 30
0.0
  9
$PUCSXDIR
 10
1.0
 20
0.0
 30
0.0
  9
$PUCSYDIR
 10
0.0
 20
1.0
 30
0.0
  9
$PUCSORTHOREF
  2

  9
$PUCSORTHOVIEW
 70
     0
  9
$PUCSORGTOP
 10
0.0
 20
0.0
 30
0.0
  9
$PUCSORGBOTTOM
 10
0.0
 20
0.0
 30
0.0
  9
$PUCSORGLEFT
 10
0.0
 20
0.0
 30
0.0
  9
$PUCSORGRIGHT
 10
0.0
 20
0.0
 30
0.0
  9
$PUCSORGFRONT
 10
0.0
 20
0.0
 30
0.0
  9
$PUCSORGBACK
 10
0.0
 20
0.0
 30
0.0
  9
$USERI1
 70
     0
  9
$USERI2
 70
     0
  9
$USERI3
 70
     0
  9
$USERI4
 70
     0
  9
$USERI5
 70
     0
  9
$USERR1
 40
0.0
  9
$USERR2
 40
0.0
  9
$USERR3
 40
0.0
  9
$USERR4
 40
0.0
  9
$USERR5
 40
0.0
  9
$WORLDVIEW
 70
     1
  9
$SHADEDGE
 70
     3
  9
$SHADEDIF
 70
    70
  9
$TILEMODE
 70
     0
  9
$MAXACTVP
 70
    64
  9
$PINSBASE
 10
0.0
 20
0.0
 30
0.0
  9
$PLIMCHECK
 70
     0
  9
$PEXTMIN
 10
-0.5
 20
-0.5
 30
-0.5
  9
$PEXTMAX
 10
11.0
 20
8.5
 30
5.0
  9
$PLIMMIN
 10
-0.5
 20
-0.5
  9
$PLIMMAX
 10
11.0
 20
8.5
  9
$UNITMODE
 70
     0
  9
$VISRETAIN
 70
     0
  9
$PLINEGEN
 70
     1
  9
$PSLTSCALE
 70
     0
  9
$TREEDEPTH
 70
  3020
  9
$CMLSTYLE
  2
Standard
  9
$CMLJUST
 70
     0
  9
$CMLSCALE
 40
1.0
  9
$PROXYGRAPHICS
 70
     0
  9
$MEASUREMENT
 70
     0
  9
$CELWEIGHT
370
     0
  9
$ENDCAPS
280
     0
  9
$JOINSTYLE
280
     0
  9
$LWDISPLAY
290
     0
  9
$INSUNITS
 70
     0
  9
$HYPERLINKBASE
  1

  9
$STYLESHEET
  1

  9
$XEDIT
290
     1
  9
$CEPSNTYPE
380
     0
  9
$PSTYLEMODE
290
     1
  9
$FINGERPRINTGUID
  2

  9
$VERSIONGUID
  2

  9
$EXTNAMES
290
     1
  9
$PSVPSCALE
 40
0.0
  0
ENDSEC
  0
SECTION
  2
CLASSES
  0
CLASS
  1
LWPOLYLINE
  2
AcDbPolyline
  3
AutoCAD 2000
 90
        0
280
     0
281
     1
  0
CLASS
  1
IMAGE
  2
AcDbRasterImage
  3
ISM
 90
      127
280
     0
281
     1
  0
CLASS
  1
OLE2FRAME
  2
AcDbOle2Frame
  3
AutoCAD 2000
 90
        0
280
     0
281
     1
  0
CLASS
  1
HATCH
  2
AcDbHatch
  3
AutoCAD 2000
 90
        0
280
     0
281
     1
  0
CLASS
  1
DICTIONARYVAR
  2
AcDbDictionaryVar
  3
AutoCAD 2000
 90
        0
280
     0
281
     0
  0
CLASS
  1
RASTERVARIABLES
  2
AcDbRasterVariables
  3
ISM
 90
        0
280
     0
281
     0
  0
CLASS
  1
IMAGEDEF
  2
AcDbRasterImageDef
  3
ISM
 90
        0
280
     0
281
     0
  0
CLASS
  1
IMAGEDEF_REACTOR
  2
AcDbRasterImageDefReactor
  3
ISM
 90
        1
280
     0
281
     0
  0
CLASS
  1
IDBUFFER
  2
AcDbIdBuffer
  3
AutoCAD 2000
 90
        0
280
     0
281
     0
  0
CLASS
  1
SPATIAL_FILTER
  2
AcDbSpatialFilter
  3
AutoCAD 2000
 90
        0
280
     0
281
     0
  0
CLASS
  1
XRECORD
  2
AcDbXrecord
  3
AutoCAD 2000
 90
        0
280
     0
281
     0
  0
CLASS
  1
SORTENTSTABLE
  2
AcDbSortentsTable
  3
AutoCAD 2000
 90
        0
280
     0
281
     0
  0
CLASS
  1
LAYER_INDEX
  2
AcDbLayerIndex
  3
AutoCAD 2000
 90
        0
280
     0
281
     0
  0
CLASS
  1
SPATIAL_INDEX
  2
AcDbSpatialIndex
  3
AutoCAD 2000
 90
        0
280
     0
281
     0
  0
CLASS
  1
OBJECT_PTR
  2
CAseDLPNTableRecord
  3
"ASE-LPNTableRecord"
 90
        1
280
     0
281
     0
  0
CLASS
  1
LAYOUT
  2
AcDbLayout
  3
AutoCAD 2000
 90
        0
280
     0
281
     0
  0
CLASS
  1
PLOTSETTINGS
  2
AcDbPlotSettings
  3
AutoCAD 2000
 90
        0
280
     0
281
     0
  0
CLASS
  1
ACDBDICTIONARYWDFLT
  2
AcDbDictionaryWithDefault
  3
AutoCAD 2000
 90
        0
280
     0
281
     0
  0
CLASS
  1
ACDBPLACEHOLDER
  2
AcDbPlaceHolder
  3
AutoCAD 2000
 90
        0
280
     0
281
     0
  0
CLASS
  1
VBA_PROJECT
  2
AcDbVbaProject
  3
acadvba
 90
        0
280
     0
281
     0
  0
CLASS
  1
WIPEOUT
  2
AcDbWipeout
  3
WipeOut|AutoCAD Express Tool|expresstools@autodesk.com
 90
      127
280
     0
281
     1
  0
CLASS
  1
WIPEOUTVARIABLES
  2
AcDbWipeoutVariables
  3
WipeOut|AutoCAD Express Tool|expresstools@autodesk.com
 90
        0
280
     0
281
     0
  0
CLASS
  1
RTEXT
  2
RText
  3
RText|AutoCAD Express Tool|expresstools@autodesk.com
 90
        0
280
     0
281
     1
  0
CLASS
  1
ARCALIGNEDTEXT
  2
AcDbArcAlignedText
  3
ATEXT|AutoCAD Express Tool|expresstools@autodesk.com
 90
        0
280
     0
281
     1
  0
ENDSEC
  0
SECTION
  2
TABLES
  0
TABLE
  2
VPORT
  5
7
100
AcDbSymbolTable
 70
    16
  0
VPORT
  5
1C7
100
AcDbSymbolTableRecord
100
AcDbViewportTableRecord
  2
*ACTIVE
 70
     0
 10
0.0
 20
0.0
 11
1.0
 21
1.0
 12
0.0
 22
0.0
 13
0.0
 23
0.0
 14
1.0
 24
1.0
 15
0.0
 25
0.0
 16
0.718873
 26
-0.585049
 36
0.375419
 17
0.0
 27
0.0
 37
0.0
 40
53.563172
 41
0.688564
 42
50.0
 43
26.584972
 44
-26.584972
 50
0.0
 51
0.0
 71
    16
 72
   100
 73
     1
 74
     1
 75
     0
 76
     0
 77
     0
 78
     0
281
     0
 65
     0
110
0.0
120
0.0
130
0.0
111
1.0
121
0.0
131
0.0
112
0.0
122
1.0
132
0.0
345
0
346
0
 79
     0
146
0.0
  0
VPORT
  5
1C8
100
AcDbSymbolTableRecord
100
AcDbViewportTableRecord
  2
L1
 70
     0
 10
0.0
 20
0.0
 11
1.0
 21
1.0
 12
0.0
 22
0.0
 13
0.0
 23
0.0
 14
1.0
 24
1.0
 15
0.0
 25
0.0
 16
0.718873
 26
-0.585049
 36
0.375419
 17
0.0
 27
0.0
 37
0.0
 40
53.563172
 41
0.688564
 42
50.0
 43
26.584972
 44
-26.584972
 50
0.0
 51
0.0
 71
    16
 72
   100
 73
     1
 74
     1
 75
     0
 76
     0
 77
     0
 78
     0
281
     0
 65
     0
110
0.0
120
0.0
130
0.0
111
1.0
121
0.0
131
0.0
112
0.0
122
1.0
132
0.0
345
0
346
0
 79
     0
146
0.0
  0
VPORT
  5
1C9
100
AcDbSymbolTableRecord
100
AcDbViewportTableRecord
  2
L2
 70
     0
 10
0.0
 20
0.0
 11
0.5
 21
1.0
 12
0.0
 22
0.0
 13
0.0
 23
0.0
 14
1.0
 24
1.0
 15
0.0
 25
0.0
 16
0.0
 26
-1.0
 36
0.0
 17
0.0
 27
0.0
 37
0.0
 40
51.873115
 41
0.688564
 42
50.0
 43
26.545523
 44
-26.545523
 50
0.0
 51
0.0
 71
    16
 72
   100
 73
     1
 74
     1
 75
     0
 76
     0
 77
     0
 78
     0
281
     0
 65
     0
110
0.0
120
0.0
130
0.0
111
1.0
121
0.0
131
0.0
112
0.0
122
1.0
132
0.0
345
0
346
0
 79
     0
146
0.0
  0
VPORT
  5
1CA
100
AcDbSymbolTableRecord
100
AcDbViewportTableRecord
  2
L2
 70
     0
 10
0.5
 20
0.0
 11
1.0
 21
1.0
 12
0.0
 22
0.0
 13
0.0
 23
0.0
 14
1.0
 24
1.0
 15
0.0
 25
0.0
 16
1.0
 26
0.0
 36
0.0
 17
0.0
 27
0.0
 37
0.0
 40
51.873115
 41
0.688564
 42
50.0
 43
26.345733
 44
-26.345733
 50
0.0
 51
0.0
 71
    16
 72
   100
 73
     1
 74
     1
 75
     0
 76
     0
 77
     0
 78
     0
281
     0
 65
     0
110
0.0
120
0.0
130
0.0
111
1.0
121
0.0
131
0.0
112
0.0
122
1.0
132
0.0
345
0
346
0
 79
     0
146
0.0
  0
VPORT
  5
1CB
100
AcDbSymbolTableRecord
100
AcDbViewportTableRecord
  2
L3
 70
     0
 10
0.0
 20
0.5
 11
1.0
 21
1.0
 12
0.0
 22
0.0
 13
0.0
 23
0.0
 14
1.0
 24
1.0
 15
0.0
 25
0.0
 16
0.0
 26
0.0
 36
1.0
 17
0.0
 27
0.0
 37
0.0
 40
9.250431
 41
0.688564
 42
50.0
 43
25.936558
 44
-25.936558
 50
0.0
 51
0.0
 71
    16
 72
   100
 73
     1
 74
     1
 75
     0
 76
     0
 77
     0
 78
     0
281
     0
 65
     0
110
0.0
120
0.0
130
0.0
111
1.0
121
0.0
131
0.0
112
0.0
122
1.0
132
0.0
345
0
346
0
 79
     0
146
0.0
  0
VPORT
  5
1CC
100
AcDbSymbolTableRecord
100
AcDbViewportTableRecord
  2
L3
 70
     0
 10
0.0
 20
0.0
 11
1.0
 21
0.5
 12
0.0
 22
0.0
 13
0.0
 23
0.0
 14
1.0
 24
1.0
 15
0.0
 25
0.0
 16
0.0
 26
-1.0
 36
0.0
 17
0.0
 27
0.0
 37
0.0
 40
51.873115
 41
0.688564
 42
50.0
 43
26.545523
 44
-26.545523
 50
0.0
 51
0.0
 71
    16
 72
   100
 73
     1
 74
     1
 75
     0
 76
     0
 77
     0
 78
     0
281
     0
 65
     0
110
0.0
120
0.0
130
0.0
111
1.0
121
0.0
131
0.0
112
0.0
122
1.0
132
0.0
345
0
346
0
 79
     0
146
0.0
  0
VPORT
  5
1CD
100
AcDbSymbolTableRecord
100
AcDbViewportTableRecord
  2
L4
 70
     0
 10
0.0
 20
0.5
 11
0.5
 21
1.0
 12
0.0
 22
0.0
 13
0.0
 23
0.0
 14
1.0
 24
1.0
 15
0.0
 25
0.0
 16
0.0
 26
0.0
 36
1.0
 17
0.0
 27
0.0
 37
0.0
 40
9.250431
 41
0.688564
 42
50.0
 43
25.936558
 44
-25.936558
 50
0.0
 51
0.0
 71
    16
 72
   100
 73
     1
 74
     1
 75
     0
 76
     0
 77
     0
 78
     0
281
     0
 65
     0
110
0.0
120
0.0
130
0.0
111
1.0
121
0.0
131
0.0
112
0.0
122
1.0
132
0.0
345
0
346
0
 79
     0
146
0.0
  0
VPORT
  5
1CE
100
AcDbSymbolTableRecord
100
AcDbViewportTableRecord
  2
L4
 70
     0
 10
0.0
 20
0.0
 11
0.5
 21
0.5
 12
0.0
 22
0.0
 13
0.0
 23
0.0
 14
1.0
 24
1.0
 15
0.0
 25
0.0
 16
0.0
 26
-1.0
 36
0.0
 17
0.0
 27
0.0
 37
0.0
 40
51.873115
 41
0.688564
 42
50.0
 43
26.545523
 44
-26.545523
 50
0.0
 51
0.0
 71
    16
 72
   100
 73
     1
 74
     1
 75
     0
 76
     0
 77
     0
 78
     0
281
     0
 65
     0
110
0.0
120
0.0
130
0.0
111
1.0
121
0.0
131
0.0
112
0.0
122
1.0
132
0.0
345
0
346
0
 79
     0
146
0.0
  0
VPORT
  5
1CF
100
AcDbSymbolTableRecord
100
AcDbViewportTableRecord
  2
L4
 70
     0
 10
0.5
 20
0.0
 11
1.0
 21
0.5
 12
0.0
 22
0.0
 13
0.0
 23
0.0
 14
1.0
 24
1.0
 15
0.0
 25
0.0
 16
1.0
 26
0.0
 36
0.0
 17
0.0
 27
0.0
 37
0.0
 40
51.873115
 41
0.688564
 42
50.0
 43
26.345733
 44
-26.345733
 50
0.0
 51
0.0
 71
    16
 72
   100
 73
     1
 74
     1
 75
     0
 76
     0
 77
     0
 78
     0
281
     0
 65
     0
110
0.0
120
0.0
130
0.0
111
1.0
121
0.0
131
0.0
112
0.0
122
1.0
132
0.0
345
0
346
0
 79
     0
146
0.0
  0
VPORT
  5
1D0
100
AcDbSymbolTableRecord
100
AcDbViewportTableRecord
  2
L4
 70
     0
 10
0.5
 20
0.5
 11
1.0
 21
1.0
 12
0.0
 22
0.0
 13
0.0
 23
0.0
 14
1.0
 24
1.0
 15
0.0
 25
0.0
 16
0.57735
 26
-0.57735
 36
0.57735
 17
0.0
 27
0.0
 37
0.0
 40
50.746592
 41
0.688564
 42
50.0
 43
26.393712
 44
-26.393712
 50
0.0
 51
0.0
 71
    16
 72
   100
 73
     1
 74
     1
 75
     0
 76
     0
 77
     0
 78
     0
281
     0
 65
     0
110
0.0
120
0.0
130
0.0
111
1.0
121
0.0
131
0.0
112
0.0
122
1.0
132
0.0
345
0
346
0
 79
     0
146
0.0
  0
VPORT
  5
1D1
100
AcDbSymbolTableRecord
100
AcDbViewportTableRecord
  2
L6
 70
     0
 10
0.0
 20
0.5
 11
0.333333
 21
1.0
 12
0.0
 22
0.0
 13
0.0
 23
0.0
 14
1.0
 24
1.0
 15
0.0
 25
0.0
 16
0.718873
 26
-0.585049
 36
0.375419
 17
0.0
 27
0.0
 37
0.0
 40
53.563172
 41
0.688564
 42
50.0
 43
26.584972
 44
-26.584972
 50
0.0
 51
0.0
 71
    16
 72
   100
 73
     1
 74
     1
 75
     0
 76
     0
 77
     0
 78
     0
281
     0
 65
     0
110
0.0
120
0.0
130
0.0
111
1.0
121
0.0
131
0.0
112
0.0
122
1.0
132
0.0
345
0
346
0
 79
     0
146
0.0
  0
VPORT
  5
1D2
100
AcDbSymbolTableRecord
100
AcDbViewportTableRecord
  2
L6
 70
     0
 10
0.0
 20
0.0
 11
0.333333
 21
0.5
 12
0.0
 22
0.0
 13
0.0
 23
0.0
 14
1.0
 24
1.0
 15
0.0
 25
0.0
 16
-1.0
 26
0.0
 36
0.0
 17
0.0
 27
0.0
 37
0.0
 40
51.873115
 41
0.688564
 42
50.0
 43
26.345733
 44
-26.345733
 50
0.0
 51
0.0
 71
    16
 72
   100
 73
     1
 74
     1
 75
     0
 76
     0
 77
     0
 78
     0
281
     0
 65
     0
110
0.0
120
0.0
130
0.0
111
1.0
121
0.0
131
0.0
112
0.0
122
1.0
132
0.0
345
0
346
0
 79
     0
146
0.0
  0
VPORT
  5
1D3
100
AcDbSymbolTableRecord
100
AcDbViewportTableRecord
  2
L6
 70
     0
 10
0.333333
 20
0.5
 11
0.666667
 21
1.0
 12
0.0
 22
0.0
 13
0.0
 23
0.0
 14
1.0
 24
1.0
 15
0.0
 25
0.0
 16
0.0
 26
0.0
 36
1.0
 17
0.0
 27
0.0
 37
0.0
 40
9.250431
 41
0.688564
 42
50.0
 43
25.936558
 44
-25.936558
 50
0.0
 51
0.0
 71
    16
 72
   100
 73
     1
 74
     1
 75
     0
 76
     0
 77
     0
 78
     0
281
     0
 65
     0
110
0.0
120
0.0
130
0.0
111
1.0
121
0.0
131
0.0
112
0.0
122
1.0
132
0.0
345
0
346
0
 79
     0
146
0.0
  0
VPORT
  5
1D4
100
AcDbSymbolTableRecord
100
AcDbViewportTableRecord
  2
L6
 70
     0
 10
0.333333
 20
0.0
 11
0.666667
 21
0.5
 12
0.0
 22
0.0
 13
0.0
 23
0.0
 14
1.0
 24
1.0
 15
0.0
 25
0.0
 16
0.0
 26
-1.0
 36
0.0
 17
0.0
 27
0.0
 37
0.0
 40
51.873115
 41
0.688564
 42
50.0
 43
26.545523
 44
-26.545523
 50
0.0
 51
0.0
 71
    16
 72
   100
 73
     1
 74
     1
 75
     0
 76
     0
 77
     0
 78
     0
281
     0
 65
     0
110
0.0
120
0.0
130
0.0
111
1.0
121
0.0
131
0.0
112
0.0
122
1.0
132
0.0
345
0
346
0
 79
     0
146
0.0
  0
VPORT
  5
1D5
100
AcDbSymbolTableRecord
100
AcDbViewportTableRecord
  2
L6
 70
     0
 10
0.666667
 20
0.5
 11
1.0
 21
1.0
 12
0.0
 22
0.0
 13
0.0
 23
0.0
 14
1.0
 24
1.0
 15
0.0
 25
0.0
 16
0.57735
 26
-0.57735
 36
0.57735
 17
0.0
 27
0.0
 37
0.0
 40
50.746592
 41
0.688564
 42
50.0
 43
26.393712
 44
-26.393712
 50
0.0
 51
0.0
 71
    16
 72
   100
 73
     1
 74
     1
 75
     0
 76
     0
 77
     0
 78
     0
281
     0
 65
     0
110
0.0
120
0.0
130
0.0
111
1.0
121
0.0
131
0.0
112
0.0
122
1.0
132
0.0
345
0
346
0
 79
     0
146
0.0
  0
VPORT
  5
1D6
100
AcDbSymbolTableRecord
100
AcDbViewportTableRecord
  2
L6
 70
     0
 10
0.666667
 20
0.0
 11
1.0
 21
0.5
 12
0.0
 22
0.0
 13
0.0
 23
0.0
 14
1.0
 24
1.0
 15
0.0
 25
0.0
 16
1.0
 26
0.0
 36
0.0
 17
0.0
 27
0.0
 37
0.0
 40
51.873115
 41
0.688564
 42
50.0
 43
26.345733
 44
-26.345733
 50
0.0
 51
0.0
 71
    16
 72
   100
 73
     1
 74
     1
 75
     0
 76
     0
 77
     0
 78
     0
281
     0
 65
     0
110
0.0
120
0.0
130
0.0
111
1.0
121
0.0
131
0.0
112
0.0
122
1.0
132
0.0
345
0
346
0
 79
     0
146
0.0
  0
ENDTAB
  0
TABLE
  2
LTYPE
  5
4
100
AcDbSymbolTable
 70
     9
  0
LTYPE
  5
11
100
AcDbSymbolTableRecord
100
AcDbLinetypeTableRecord
  2
ByBlock
 70
    64
  3

 72
    65
 73
     0
 40
0.0
  0
LTYPE
  5
12
100
AcDbSymbolTableRecord
100
AcDbLinetypeTableRecord
  2
ByLayer
 70
    64
  3

 72
    65
 73
     0
 40
0.0
  0
LTYPE
  5
13
100
AcDbSymbolTableRecord
100
AcDbLinetypeTableRecord
  2
Continuous
 70
    64
  3
Solid line
 72
    65
 73
     0
 40
0.0
  0
LTYPE
  5
24
100
AcDbSymbolTableRecord
100
AcDbLinetypeTableRecord
  2
DASHED
 70
    64
  3
__ __ __ __ __ __ __ __ __
 72
    65
 73
     2
 40
0.75
 49
0.5
 74
     0
 49
-0.25
 74
     0
  0
LTYPE
  5
25
100
AcDbSymbolTableRecord
100
AcDbLinetypeTableRecord
  2
HIDDEN
 70
    64
  3
_ _ _ _ _ _ _ _ _ _ _ _ _ _ _
 72
    65
 73
     2
 40
0.5
 49
0.25
 74
     0
 49
-0.25
 74
     0
  0
LTYPE
  5
26
100
AcDbSymbolTableRecord
100
AcDbLinetypeTableRecord
  2
PHANTOM
 70
    64
  3
____ _ _ ____ _ _ _____ _ _ ____
 72
    65
 73
     6
 40
2.5
 49
1.25
 74
     0
 49
-0.25
 74
     0
 49
0.25
 74
     0
 49
-0.25
 74
     0
 49
0.25
 74
     0
 49
-0.25
 74
     0
  0
LTYPE
  5
27
100
AcDbSymbolTableRecord
100
AcDbLinetypeTableRecord
  2
CENTER
 70
    64
  3
____ _ ____ _ ____ _ ____
 72
    65
 73
     4
 40
2.0
 49
1.25
 74
     0
 49
-0.25
 74
     0
 49
0.25
 74
     0
 49
-0.25
 74
     0
  0
LTYPE
  5
28
100
AcDbSymbolTableRecord
100
AcDbLinetypeTableRecord
  2
DOT
 70
    64
  3
.........................
 72
    65
 73
     2
 40
0.25
 49
0.0
 74
     0
 49
-0.25
 74
     0
  0
LTYPE
  5
29
100
AcDbSymbolTableRecord
100
AcDbLinetypeTableRecord
  2
DASHDOT
 70
    64
  3
_._._._._._._._._._._._._._._._.
 72
    65
 73
     4
 40
1.0
 49
0.5
 74
     0
 49
-0.25
 74
     0
 49
0.0
 74
     0
 49
-0.25
 74
     0
  0
ENDTAB
  0
TABLE
  2
LAYER
  5
2
100
AcDbSymbolTable
 70
     2
  0
LAYER
  5
14
100
AcDbSymbolTableRecord
100
AcDbLayerTableRecord
  2
0
 70
     0
 62
     7
  6
Continuous
290
     1
370
    -3
390
1D
  0
LAYER
  5
34
100
AcDbSymbolTableRecord
100
AcDbLayerTableRecord
  2
1
 70
     0
 62
     7
  6
Continuous
290
     1
370
    -3
390
1D
  0
ENDTAB
  0
TABLE
  2
STYLE
  5
3
100
AcDbSymbolTable
 70
     2
  0
STYLE
  5
17
100
AcDbSymbolTableRecord
100
AcDbTextStyleTableRecord
  2
Standard
 70
     0
 40
0.0
 41
1.0
 50
0.0
 71
     0
 42
0.0
  3
txt
  4

  0
STYLE
  5
127
100
AcDbSymbolTableRecord
100
AcDbTextStyleTableRecord
  2
blockfont
 70
     0
 40
0.0
 41
1.0
 50
0.0
 71
     0
 42
0.2
  3
simplex.shx
  4
bigfont
  0
ENDTAB
  0
TABLE
  2
VIEW
  5
5
100
AcDbSymbolTable
 70
     8
  0
VIEW
  5
2A
100
AcDbSymbolTableRecord
100
AcDbViewTableRecord
  2
TOP
 70
     0
 40
9.250431
 10
0.0
 20
0.0
 41
11.306594
 11
0.0
 21
0.0
 31
1.0
 12
0.0
 22
0.0
 32
0.0
 42
50.0
 43
25.936558
 44
-25.936558
 50
0.0
 71
    16
281
     0
 72
     0
110
0.0
120
0.0
130
0.0
111
1.0
121
0.0
131
0.0
112
0.0
122
1.0
132
0.0
  0
VIEW
  5
2B
100
AcDbSymbolTableRecord
100
AcDbViewTableRecord
  2
FRONT
 70
     0
 40
51.873115
 10
0.0
 20
0.0
 41
11.306594
 11
0.0
 21
-1.0
 31
0.0
 12
0.0
 22
0.0
 32
0.0
 42
50.0
 43
26.545523
 44
-26.545523
 50
0.0
 71
    16
281
     0
 72
     0
110
0.0
120
0.0
130
0.0
111
1.0
121
0.0
131
0.0
112
0.0
122
1.0
132
0.0
  0
VIEW
  5
2C
100
AcDbSymbolTableRecord
100
AcDbViewTableRecord
  2
RIGHT
 70
     0
 40
51.873115
 10
0.0
 20
0.0
 41
9.250431
 11
1.0
 21
0.0
 31
0.0
 12
0.0
 22
0.0
 32
0.0
 42
50.0
 43
26.345733
 44
-26.345733
 50
0.0
 71
    16
281
     0
 72
     0
110
0.0
120
0.0
130
0.0
111
1.0
121
0.0
131
0.0
112
0.0
122
1.0
132
0.0
  0
VIEW
  5
2D
100
AcDbSymbolTableRecord
100
AcDbViewTableRecord
  2
BACK
 70
     0
 40
51.873115
 10
0.0
 20
0.0
 41
11.306594
 11
0.0
 21
1.0
 31
0.0
 12
0.0
 22
0.0
 32
0.0
 42
50.0
 43
26.545523
 44
-26.545523
 50
0.0
 71
    16
281
     0
 72
     0
110
0.0
120
0.0
130
0.0
111
1.0
121
0.0
131
0.0
112
0.0
122
1.0
132
0.0
  0
VIEW
  5
2E
100
AcDbSymbolTableRecord
100
AcDbViewTableRecord
  2
BOTTOM
 70
     0
 40
9.250431
 10
0.0
 20
0.0
 41
11.306594
 11
0.0
 21
0.0
 31
-1.0
 12
0.0
 22
0.0
 32
0.0
 42
50.0
 43
25.936558
 44
-25.936558
 50
180.0
 71
    16
281
     0
 72
     0
110
0.0
120
0.0
130
0.0
111
1.0
121
0.0
131
0.0
112
0.0
122
1.0
132
0.0
  0
VIEW
  5
2F
100
AcDbSymbolTableRecord
100
AcDbViewTableRecord
  2
LEFT
 70
     0
 40
51.873115
 10
0.0
 20
0.0
 41
9.250431
 11
-1.0
 21
0.0
 31
0.0
 12
0.0
 22
0.0
 32
0.0
 42
50.0
 43
26.345733
 44
-26.345733
 50
0.0
 71
    16
281
     0
 72
     0
110
0.0
120
0.0
130
0.0
111
1.0
121
0.0
131
0.0
112
0.0
122
1.0
132
0.0
  0
VIEW
  5
30
100
AcDbSymbolTableRecord
100
AcDbViewTableRecord
  2
TFR-ISO
 70
     0
 40
50.746592
 10
0.0
 20
0.0
 41
14.536012
 11
0.57735
 21
-0.57735
 31
0.57735
 12
0.0
 22
0.0
 32
0.0
 42
50.0
 43
26.393712
 44
-26.393712
 50
0.0
 71
    16
281
     0
 72
     0
110
0.0
120
0.0
130
0.0
111
1.0
121
0.0
131
0.0
112
0.0
122
1.0
132
0.0
  0
VIEW
  5
31
100
AcDbSymbolTableRecord
100
AcDbViewTableRecord
  2
TFR-TRI
 70
     0
 40
53.563172
 10
0.0
 20
0.0
 41
14.311614
 11
0.718873
 21
-0.585049
 31
0.375419
 12
0.0
 22
0.0
 32
0.0
 42
50.0
 43
26.584972
 44
-26.584972
 50
0.0
 71
    16
281
     0
 72
     0
110
0.0
120
0.0
130
0.0
111
1.0
121
0.0
131
0.0
112
0.0
122
1.0
132
0.0
  0
ENDTAB
  0
TABLE
  2
UCS
  5
6
100
AcDbSymbolTable
 70
     0
  0
ENDTAB
  0
TABLE
  2
APPID
  5
8
100
AcDbSymbolTable
 70
     1
  0
APPID
  5
16
100
AcDbSymbolTableRecord
100
AcDbRegAppTableRecord
  2
ACAD
 70
     0
  0
ENDTAB
  0
TABLE
  2
DIMSTYLE
  5
9
100
AcDbSymbolTable
 70
     1
100
AcDbDimStyleTable
 71
     0
  0
DIMSTYLE
105
18
100
AcDbSymbolTableRecord
100
AcDbDimStyleTableRecord
  2
Standard
 70
     0
  3

  4

 40
1.0
 41
0.18
 42
0.0625
 43
0.38
 44
0.18
 45
0.0
 46
0.0
 47
0.0
 48
0.0
 71
     0
 72
     0
 73
     1
 74
     1
 75
     0
 76
     0
 77
     0
 78
     0
 79
     0
140
0.18
141
0.09
142
0.0
143
25.4
144
1.0
145
0.0
146
1.0
147
0.09
148
0.0
170
     0
171
     2
172
     0
173
     0
174
     0
175
     0
176
     0
177
     0
178
     0
179
     0
271
     4
272
     4
273
     2
274
     2
275
     0
276
     0
277
     2
278
    46
279
     0
280
     0
281
     0
282
     0
283
     1
284
     0
285
     0
286
     0
288
     0
289
     3
340
17
341
0
342
0
343
0
344
0
371
    -2
372
    -2
  0
ENDTAB
  0
TABLE
  2
BLOCK_RECORD
  5
1
100
AcDbSymbolTable
 70
     0
  0
BLOCK_RECORD
  5
A
100
AcDbSymbolTableRecord
100
AcDbBlockTableRecord
  2
*MODEL_SPACE
340
20
  0
BLOCK_RECORD
  5
B
100
AcDbSymbolTableRecord
100
AcDbBlockTableRecord
  2
*PAPER_SPACE
340
21
  0
ENDTAB
  0
ENDSEC
  0
SECTION
  2
BLOCKS
  0
BLOCK
  5
D
100
AcDbEntity
  8
0
390
0
100
AcDbBlockBegin
  2
*MODEL_SPACE
 70
     0
 10
0.0
 20
0.0
 30
0.0
  3
*MODEL_SPACE
  1

  0
ENDBLK
  5
E
100
AcDbEntity
  8
0
390
0
100
AcDbBlockEnd
  0
BLOCK
  5
F
100
AcDbEntity
 67
     1
  8
0
390
0
100
AcDbBlockBegin
  2
*PAPER_SPACE
 70
     0
 10
0.0
 20
0.0
 30
0.0
  3
*PAPER_SPACE
  1

  0
ENDBLK
  5
10
100
AcDbEntity
 67
     1
  8
0
390
0
100
AcDbBlockEnd
  0
ENDSEC
  0
SECTION
  2
ENTITIES
  0
VIEWPORT
  5
32
100
AcDbEntity
 67
     1
  8
0
390
0
100
AcDbViewport
 10
5.5
 20
4.25
 30
0.0
 40
11.0
 41
8.5
 68
     1
 69
     1
 12
5.5
 22
4.25
 13
0.0
 23
0.0
 14
0.0
 24
0.0
 15
0.0
 25
0.0
 16
0.0
 26
0.0
 36
1.0
 17
0.0
 27
0.0
 37
0.0
 42
50.140109
 43
0.0
 44
0.0
 45
8.5
 50
0.0
 51
0.0
 72
   100
 90
    32800
340
0
  1

281
     0
 71
     0
 74
     1
110
0.0
120
0.0
130
0.0
111
1.0
121
0.0
131
0.0
112
0.0
122
1.0
132
0.0
345
0
346
0
 79
     0
146
0.0
  0
LINE
  5
33
100
AcDbEntity
 67
     1
  8
1
390
0
  6
Continuous
 62
     7
100
AcDbLine
 10
8.544395
 20
6.312374
 30
0.0
 11
8.544395
 21
6.342374
 31
0.0
  0
LINE
  5
35
100
AcDbEntity
 67
     1
  8
1
390
0
  6
Continuous
 62
     7
100
AcDbLine
 10
0.301655
 20
8.20386
 30
0.0
 11
10.75
 21
8.20386
 31
0.0
  0
LINE
  5
36
100
AcDbEntity
 67
     1
  8
1
390
0
  6
Continuous
 62
     7
100
AcDbLine
 10
9.616967
 20
4.349224
 30
0.0
 11
9.876775
 21
4.349224
 31
0.0
  0
LINE
  5
37
100
AcDbEntity
 67
     1
  8
1
390
0
  6
Continuous
 62
     7
100
AcDbLine
 10
6.285779
 20
5.653418
 30
0.0
 11
6.260935
 21
5.653418
 31
0.0
  0
LINE
  5
38
100
AcDbEntity
 67
     1
  8
1
390
0
  6
Continuous
 62
     7
100
AcDbLine
 10
8.394395
 20
6.151828
 30
0.0
 11
8.394395
 21
6.921555
 31
0.0
  0
LINE
  5
39
100
AcDbEntity
 67
     1
  8
1
390
0
  6
Continuous
 62
     7
100
AcDbLine
 10
0.578499
 20
3.244728
 30
0.0
 11
0.578499
 21
5.753089
 31
0.0
  0
LINE
  5
3A
100
AcDbEntity
 67
     1
  8
1
390
0
  6
Continuous
 62
     7
100
AcDbLine
 10
9.014395
 20
4.675378
 30
0.0
 11
8.924396
 21
4.690378
 31
0.0
  0
LINE
  5
3B
100
AcDbEntity
 67
     1
  8
1
390
0
  6
Continuous
 62
     7
100
AcDbLine
 10
7.180153
 20
6.133182
 30
0.0
 11
7.130466
 21
6.133182
 31
0.0
  0
LINE
  5
3C
100
AcDbEntity
 67
     1
  8
1
390
0
  6
Continuous
 62
     7
100
AcDbLine
 10
6.434841
 20
5.627057
 30
0.0
 11
6.484529
 21
5.627057
 31
0.0
  0
LINE
  5
3D
100
AcDbEntity
 67
     1
  8
1
390
0
  6
Continuous
 62
     7
100
AcDbLine
 10
5.365818
 20
7.535234
 30
0.0
 11
5.625626
 21
7.535234
 31
0.0
  0
LINE
  5
3E
100
AcDbEntity
 67
     1
  8
1
390
0
  6
Continuous
 62
     7
100
AcDbLine
 10
6.260935
 20
6.554911
 30
0.0
 11
6.721247
 21
6.554911
 31
0.0
  0
LINE
  5
3F
100
AcDbEntity
 67
     1
  8
1
390
0
  6
Continuous
 62
     7
100
AcDbLine
 10
5.964486
 20
3.744728
 30
0.0
 11
3.168855
 21
3.744728
 31
0.0
  0
LINE
  5
40
100
AcDbEntity
 67
     1
  8
1
390
0
  6
Continuous
 62
     7
100
AcDbLine
 10
8.193539
 20
4.675378
 30
0.0
 11
8.283539
 21
4.660378
 31
0.0
  0
LINE
  5
41
100
AcDbEntity
 67
     1
  8
1
390
0
  6
Continuous
 62
     7
100
AcDbLine
 10
7.378903
 20
5.653418
 30
0.0
 11
7.329216
 21
5.653418
 31
0.0
  0
LINE
  5
42
100
AcDbEntity
 67
     1
  8
1
390
0
  6
Continuous
 62
     7
100
AcDbLine
 10
10.222365
 20
2.877662
 30
0.0
 11
10.482173
 21
2.877662
 31
0.0
  0
LINE
  5
43
100
AcDbEntity
 67
     1
  8
1
390
0
  6
Continuous
 62
     7
100
AcDbLine
 10
8.924396
 20
4.660378
 30
0.0
 11
9.014395
 21
4.675378
 31
0.0
  0
LINE
  5
44
100
AcDbEntity
 67
     1
  8
1
390
0
  6
Continuous
 62
     7
100
AcDbLine
 10
4.511886
 20
0.25
 30
0.0
 11
4.511886
 21
2.573295
 31
0.0
  0
LINE
  5
45
100
AcDbEntity
 67
     1
  8
1
390
0
  6
Continuous
 62
     7
100
AcDbLine
 10
9.971285
 20
5.046965
 30
0.0
 11
9.917848
 21
5.046965
 31
0.0
  0
LINE
  5
46
100
AcDbEntity
 67
     1
  8
1
390
0
  6
Continuous
 62
     7
100
AcDbLine
 10
3.960579
 20
5.807418
 30
0.0
 11
3.830676
 21
6.032418
 31
0.0
  0
LINE
  5
47
100
AcDbEntity
 67
     1
  8
1
390
0
  6
Continuous
 62
     7
100
AcDbLine
 10
6.260935
 20
6.554911
 30
0.0
 11
6.350935
 21
6.539911
 31
0.0
  0
LINE
  5
48
100
AcDbEntity
 67
     1
  8
1
390
0
  6
Continuous
 62
     7
100
AcDbLine
 10
1.965405
 20
4.244728
 30
0.0
 11
3.166857
 21
4.244728
 31
0.0
  0
LINE
  5
49
100
AcDbEntity
 67
     1
  8
1
390
0
  6
Continuous
 62
     7
100
AcDbLine
 10
6.191659
 20
0.25
 30
0.0
 11
6.191659
 21
2.573295
 31
0.0
  0
LINE
  5
4A
100
AcDbEntity
 67
     1
  8
1
390
0
  6
Continuous
 62
     7
100
AcDbLine
 10
5.766521
 20
5.797534
 30
0.0
 11
5.636618
 21
6.022533
 31
0.0
  0
LINE
  5
4B
100
AcDbEntity
 67
     1
  8
1
390
0
  6
Continuous
 62
     7
100
AcDbLine
 10
7.677029
 20
6.133182
 30
0.0
 11
7.627341
 21
6.133182
 31
0.0
  0
LINE
  5
4C
100
AcDbEntity
 67
     1
  8
1
390
0
  6
Continuous
 62
     7
100
AcDbLine
 10
8.283539
 20
4.660378
 30
0.0
 11
8.283539
 21
4.690378
 31
0.0
  0
LINE
  5
4D
100
AcDbEntity
 67
     1
  8
1
390
0
  6
Continuous
 62
     7
100
AcDbLine
 10
6.350935
 20
6.569911
 30
0.0
 11
6.260935
 21
6.554911
 31
0.0
  0
LINE
  5
4E
100
AcDbEntity
 67
     1
  8
1
390
0
  6
Continuous
 62
     7
100
AcDbLine
 10
7.378903
 20
6.133182
 30
0.0
 11
7.329216
 21
6.133182
 31
0.0
  0
LINE
  5
4F
100
AcDbEntity
 67
     1
  8
1
390
0
  6
Continuous
 62
     7
100
AcDbLine
 10
10.75
 20
2.804295
 30
0.0
 11
6.585438
 21
2.804295
 31
0.0
  0
LINE
  5
50
100
AcDbEntity
 67
     1
  8
1
390
0
  6
Continuous
 62
     7
100
AcDbLine
 10
7.229841
 20
5.627057
 30
0.0
 11
7.279529
 21
5.627057
 31
0.0
  0
LINE
  5
51
100
AcDbEntity
 67
     1
  8
1
390
0
  6
Continuous
 62
     7
100
AcDbLine
 10
7.080779
 20
6.133182
 30
0.0
 11
7.031091
 21
6.133182
 31
0.0
  0
LINE
  5
52
100
AcDbEntity
 67
     1
  8
1
390
0
  6
Continuous
 62
     7
100
AcDbLine
 10
7.478279
 20
5.653418
 30
0.0
 11
7.428591
 21
5.653418
 31
0.0
  0
LINE
  5
53
100
AcDbEntity
 67
     1
  8
1
390
0
  6
Continuous
 62
     7
100
AcDbLine
 10
9.014395
 20
5.52809
 30
0.0
 11
9.014395
 21
4.982286
 31
0.0
  0
LINE
  5
54
100
AcDbEntity
 67
     1
  8
1
390
0
  6
Continuous
 62
     7
100
AcDbLine
 10
0.578499
 20
4.494728
 30
0.0
 11
5.964486
 21
4.494728
 31
0.0
  0
LINE
  5
55
100
AcDbEntity
 67
     1
  8
1
390
0
  6
Continuous
 62
     7
100
AcDbLine
 10
7.760935
 20
6.569911
 30
0.0
 11
7.760935
 21
6.539911
 31
0.0
  0
LINE
  5
56
100
AcDbEntity
 67
     1
  8
1
390
0
  6
Continuous
 62
     7
100
AcDbLine
 10
0.301655
 20
1.54347
 30
0.0
 11
6.585438
 21
1.54347
 31
0.0
  0
LINE
  5
57
100
AcDbEntity
 67
     1
  8
1
390
0
  6
Continuous
 62
     7
100
AcDbLine
 10
9.707332
 20
5.37489
 30
0.0
 11
9.577428
 21
5.14989
 31
0.0
  0
LINE
  5
58
100
AcDbEntity
 67
     1
  8
1
390
0
  6
Continuous
 62
     7
100
AcDbLine
 10
6.782653
 20
6.133182
 30
0.0
 11
6.732966
 21
6.133182
 31
0.0
  0
LINE
  5
59
100
AcDbEntity
 67
     1
  8
1
390
0
  6
Continuous
 62
     7
100
AcDbLine
 10
5.336618
 20
6.022533
 30
0.0
 11
5.206714
 21
5.797534
 31
0.0
  0
LINE
  5
5A
100
AcDbEntity
 67
     1
  8
1
390
0
  6
Continuous
 62
     7
100
AcDbLine
 10
8.454395
 20
6.831555
 30
0.0
 11
8.544395
 21
6.816555
 31
0.0
  0
LINE
  5
5B
100
AcDbEntity
 67
     1
  8
1
390
0
  6
Continuous
 62
     7
100
AcDbLine
 10
6.585438
 20
2.804295
 30
0.0
 11
6.585438
 21
0.25
 31
0.0
  0
LINE
  5
5C
100
AcDbEntity
 67
     1
  8
1
390
0
  6
Continuous
 62
     7
100
AcDbLine
 10
5.466522
 20
5.797534
 30
0.0
 11
5.336618
 21
6.022533
 31
0.0
  0
LINE
  5
5D
100
AcDbEntity
 67
     1
  8
1
390
0
  6
Continuous
 62
     7
100
AcDbLine
 10
8.454395
 20
6.327374
 30
0.0
 11
8.544395
 21
6.312374
 31
0.0
  0
LINE
  5
5E
100
AcDbEntity
 67
     1
  8
1
390
0
  6
Continuous
 62
     7
100
AcDbLine
 10
6.484529
 20
6.133182
 30
0.0
 11
6.434841
 21
6.133182
 31
0.0
  0
LINE
  5
5F
100
AcDbEntity
 67
     1
  8
1
390
0
  6
Continuous
 62
     7
100
AcDbLine
 10
8.979528
 20
5.072286
 30
0.0
 11
9.159529
 21
5.072286
 31
0.0
  0
LINE
  5
60
100
AcDbEntity
 67
     1
  8
1
390
0
  6
Continuous
 62
     7
100
AcDbLine
 10
5.206714
 20
5.797534
 30
0.0
 11
5.466522
 21
5.797534
 31
0.0
  0
LINE
  5
61
100
AcDbEntity
 67
     1
  8
1
390
0
  6
Continuous
 62
     7
100
AcDbLine
 10
8.815313
 20
1.087059
 30
0.0
 11
8.68541
 21
1.312059
 31
0.0
  0
LINE
  5
62
100
AcDbEntity
 67
     1
  8
1
390
0
  6
Continuous
 62
     7
100
AcDbLine
 10
7.850935
 20
5.711411
 30
0.0
 11
7.826091
 21
5.711411
 31
0.0
  0
LINE
  5
63
100
AcDbEntity
 67
     1
  8
1
390
0
  6
Continuous
 62
     7
100
AcDbLine
 10
9.447392
 20
5.995903
 30
0.0
 11
9.393955
 21
5.995903
 31
0.0
  0
LINE
  5
64
100
AcDbEntity
 67
     1
  8
1
390
0
  6
Continuous
 62
     7
100
AcDbLine
 10
8.474395
 20
5.716828
 30
0.0
 11
8.844395
 21
5.716828
 31
0.0
  0
LINE
  5
65
100
AcDbEntity
 67
     1
  8
1
390
0
  6
Continuous
 62
     7
100
AcDbLine
 10
7.329216
 20
5.627057
 30
0.0
 11
7.378903
 21
5.627057
 31
0.0
  0
LINE
  5
66
100
AcDbEntity
 67
     1
  8
1
390
0
  6
Continuous
 62
     7
100
AcDbLine
 10
6.585438
 20
2.057382
 30
0.0
 11
0.301655
 21
2.057382
 31
0.0
  0
LINE
  5
67
100
AcDbEntity
 67
     1
  8
1
390
0
  6
Continuous
 62
     7
100
AcDbLine
 10
3.166857
 20
3.244728
 30
0.0
 11
3.166857
 21
5.753089
 31
0.0
  0
LINE
  5
68
100
AcDbEntity
 67
     1
  8
1
390
0
  6
Continuous
 62
     7
100
AcDbLine
 10
8.262263
 20
5.524696
 30
0.0
 11
8.254835
 21
5.532124
 31
0.0
  0
LINE
  5
69
100
AcDbEntity
 67
     1
  8
1
390
0
  6
Continuous
 62
     7
100
AcDbLine
 10
9.014395
 20
5.072286
 30
0.0
 11
8.924396
 21
5.087286
 31
0.0
  0
LINE
  5
6A
100
AcDbEntity
 67
     1
  8
1
390
0
  6
Continuous
 62
     7
100
AcDbLine
 10
7.726716
 20
5.627057
 30
0.0
 11
7.776403
 21
5.627057
 31
0.0
  0
LINE
  5
6B
100
AcDbEntity
 67
     1
  8
1
390
0
  6
Continuous
 62
     7
100
AcDbLine
 10
8.555506
 20
1.087059
 30
0.0
 11
8.815313
 21
1.087059
 31
0.0
  0
LINE
  5
6C
100
AcDbEntity
 67
     1
  8
1
390
0
  6
Continuous
 62
     7
100
AcDbLine
 10
7.279529
 20
5.711411
 30
0.0
 11
7.229841
 21
5.711411
 31
0.0
  0
LINE
  5
6D
100
AcDbEntity
 67
     1
  8
1
390
0
  6
Continuous
 62
     7
100
AcDbLine
 10
8.199221
 20
5.755173
 30
0.0
 11
8.305051
 21
6.253066
 31
0.0
  0
LINE
  5
6E
100
AcDbEntity
 67
     1
  8
1
390
0
  6
Continuous
 62
     7
100
AcDbLine
 10
9.447392
 20
5.95934
 30
0.0
 11
9.393955
 21
5.95934
 31
0.0
  0
LINE
  5
6F
100
AcDbEntity
 67
     1
  8
1
390
0
  6
Continuous
 62
     7
100
AcDbLine
 10
9.156445
 20
1.51347
 30
0.0
 11
9.156445
 21
0.25
 31
0.0
  0
LINE
  5
70
100
AcDbEntity
 67
     1
  8
1
390
0
  6
Continuous
 62
     7
100
AcDbLine
 10
6.981403
 20
5.711411
 30
0.0
 11
6.931716
 21
5.711411
 31
0.0
  0
LINE
  5
71
100
AcDbEntity
 67
     1
  8
1
390
0
  6
Continuous
 62
     7
100
AcDbLine
 10
8.257909
 20
5.742699
 30
0.0
 11
8.363739
 21
6.240591
 31
0.0
  0
LINE
  5
72
100
AcDbEntity
 67
     1
  8
1
390
0
  6
Continuous
 62
     7
100
AcDbLine
 10
8.633223
 20
6.831555
 30
0.0
 11
8.813223
 21
6.831555
 31
0.0
  0
LINE
  5
73
100
AcDbEntity
 67
     1
  8
1
390
0
  6
Continuous
 62
     7
100
AcDbLine
 10
8.784395
 20
6.342374
 30
0.0
 11
8.784395
 21
6.312374
 31
0.0
  0
LINE
  5
74
100
AcDbEntity
 67
     1
  8
1
390
0
  6
Continuous
 62
     7
100
AcDbLine
 10
6.683279
 20
5.711411
 30
0.0
 11
6.633591
 21
5.711411
 31
0.0
  0
LINE
  5
75
100
AcDbEntity
 67
     1
  8
1
390
0
  6
Continuous
 62
     7
100
AcDbLine
 10
9.885258
 20
6.442446
 30
0.0
 11
9.755354
 21
6.217446
 31
0.0
  0
LINE
  5
76
100
AcDbEntity
 67
     1
  8
1
390
0
  6
Continuous
 62
     7
100
AcDbLine
 10
10.75
 20
0.305
 30
0.0
 11
10.75
 21
0.195
 31
0.0
  0
LINE
  5
77
100
AcDbEntity
 67
     1
  8
1
390
0
  6
Continuous
 62
     7
100
AcDbLine
 10
6.260935
 20
5.455972
 30
0.0
 11
7.850935
 21
5.455972
 31
0.0
  0
LINE
  5
78
100
AcDbEntity
 67
     1
  8
1
390
0
  6
Continuous
 62
     7
100
AcDbLine
 10
9.944098
 20
5.073215
 30
0.0
 11
9.944098
 21
5.019777
 31
0.0
  0
LINE
  5
79
100
AcDbEntity
 67
     1
  8
1
390
0
  6
Continuous
 62
     7
100
AcDbLine
 10
0.301655
 20
1.037558
 30
0.0
 11
10.75
 21
1.037558
 31
0.0
  0
LINE
  5
7A
100
AcDbEntity
 67
     1
  8
1
390
0
  6
Continuous
 62
     7
100
AcDbLine
 10
6.583903
 20
6.133182
 30
0.0
 11
6.534216
 21
6.133182
 31
0.0
  0
LINE
  5
7B
100
AcDbEntity
 67
     1
  8
1
390
0
  6
Continuous
 62
     7
100
AcDbLine
 10
6.385153
 20
5.711411
 30
0.0
 11
6.335466
 21
5.711411
 31
0.0
  0
LINE
  5
7C
100
AcDbEntity
 67
     1
  8
1
390
0
  6
Continuous
 62
     7
100
AcDbLine
 10
7.850935
 20
5.455972
 30
0.0
 11
7.850935
 21
6.276828
 31
0.0
  0
LINE
  5
7D
100
AcDbEntity
 67
     1
  8
1
390
0
  6
Continuous
 62
     7
100
AcDbLine
 10
7.677029
 20
5.653418
 30
0.0
 11
7.627341
 21
5.653418
 31
0.0
  0
LINE
  5
7E
100
AcDbEntity
 67
     1
  8
1
390
0
  6
Continuous
 62
     7
100
AcDbLine
 10
8.394395
 20
6.831555
 30
0.0
 11
8.169395
 21
6.831555
 31
0.0
  0
LINE
  5
7F
100
AcDbEntity
 67
     1
  8
1
390
0
  6
Continuous
 62
     7
100
AcDbLine
 10
7.478279
 20
6.133182
 30
0.0
 11
7.428591
 21
6.133182
 31
0.0
  0
LINE
  5
80
100
AcDbEntity
 67
     1
  8
1
390
0
  6
Continuous
 62
     7
100
AcDbLine
 10
9.150849
 20
4.513187
 30
0.0
 11
9.097412
 21
4.513187
 31
0.0
  0
LINE
  5
81
100
AcDbEntity
 67
     1
  8
1
390
0
  6
Continuous
 62
     7
100
AcDbLine
 10
10.75
 20
1.54347
 30
0.0
 11
6.585438
 21
1.54347
 31
0.0
  0
LINE
  5
82
100
AcDbEntity
 67
     1
  8
1
390
0
  6
Continuous
 62
     7
100
AcDbLine
 10
3.830676
 20
6.032418
 30
0.0
 11
3.700772
 21
5.807418
 31
0.0
  0
LINE
  5
83
100
AcDbEntity
 67
     1
  8
1
390
0
  6
Continuous
 62
     7
100
AcDbLine
 10
7.080779
 20
5.653418
 30
0.0
 11
7.031091
 21
5.653418
 31
0.0
  0
LINE
  5
84
100
AcDbEntity
 67
     1
  8
1
390
0
  6
Continuous
 62
     7
100
AcDbLine
 10
8.454395
 20
6.151828
 30
0.0
 11
8.454395
 21
6.417374
 31
0.0
  0
LINE
  5
85
100
AcDbEntity
 67
     1
  8
1
390
0
  6
Continuous
 62
     7
100
AcDbLine
 10
9.196988
 20
6.857805
 30
0.0
 11
9.196988
 21
6.804367
 31
0.0
  0
LINE
  5
86
100
AcDbEntity
 67
     1
  8
1
390
0
  6
Continuous
 62
     7
100
AcDbLine
 10
6.782653
 20
5.653418
 30
0.0
 11
6.732966
 21
5.653418
 31
0.0
  0
LINE
  5
87
100
AcDbEntity
 67
     1
  8
1
390
0
  6
Continuous
 62
     7
100
AcDbLine
 10
9.156445
 20
0.784601
 30
0.0
 11
10.75
 21
0.784601
 31
0.0
  0
LINE
  5
88
100
AcDbEntity
 67
     1
  8
1
390
0
  6
Continuous
 62
     7
100
AcDbLine
 10
5.450266
 20
0.25
 30
0.0
 11
5.450266
 21
2.573295
 31
0.0
  0
LINE
  5
89
100
AcDbEntity
 67
     1
  8
1
390
0
  6
Continuous
 62
     7
100
AcDbLine
 10
1.12633
 20
0.25
 30
0.0
 11
1.12633
 21
2.573295
 31
0.0
  0
LINE
  5
8A
100
AcDbEntity
 67
     1
  8
1
390
0
  6
Continuous
 62
     7
100
AcDbLine
 10
6.484529
 20
5.653418
 30
0.0
 11
6.434841
 21
5.653418
 31
0.0
  0
LINE
  5
8B
100
AcDbEntity
 67
     1
  8
1
390
0
  6
Continuous
 62
     7
100
AcDbLine
 10
8.807893
 20
6.327374
 30
0.0
 11
8.987893
 21
6.327374
 31
0.0
  0
LINE
  5
8C
100
AcDbEntity
 67
     1
  8
1
390
0
  6
Continuous
 62
     7
100
AcDbLine
 10
9.321863
 20
6.651555
 30
0.0
 11
9.268426
 21
6.651555
 31
0.0
  0
LINE
  5
8D
100
AcDbEntity
 67
     1
  8
1
390
0
  6
Continuous
 62
     7
100
AcDbLine
 10
6.260935
 20
5.627057
 30
0.0
 11
6.285779
 21
5.627057
 31
0.0
  0
LINE
  5
8E
100
AcDbEntity
 67
     1
  8
1
390
0
  6
Continuous
 62
     7
100
AcDbLine
 10
10.75
 20
8.20386
 30
0.0
 11
10.75
 21
0.25
 31
0.0
  0
LINE
  5
8F
100
AcDbEntity
 67
     1
  8
1
390
0
  6
Continuous
 62
     7
100
AcDbLine
 10
5.964486
 20
4.244728
 30
0.0
 11
3.168855
 21
4.244728
 31
0.0
  0
LINE
  5
90
100
AcDbEntity
 67
     1
  8
1
390
0
  6
Continuous
 62
     7
100
AcDbLine
 10
6.534216
 20
5.627057
 30
0.0
 11
6.583903
 21
5.627057
 31
0.0
  0
LINE
  5
91
100
AcDbEntity
 67
     1
  8
1
390
0
  6
Continuous
 62
     7
100
AcDbLine
 10
6.385153
 20
6.133182
 30
0.0
 11
6.335466
 21
6.133182
 31
0.0
  0
LINE
  5
92
100
AcDbEntity
 67
     1
  8
1
390
0
  6
Continuous
 62
     7
100
AcDbLine
 10
7.776403
 20
5.653418
 30
0.0
 11
7.726716
 21
5.653418
 31
0.0
  0
LINE
  5
93
100
AcDbEntity
 67
     1
  8
1
390
0
  6
Continuous
 62
     7
100
AcDbLine
 10
9.321863
 20
6.614992
 30
0.0
 11
9.268426
 21
6.614992
 31
0.0
  0
LINE
  5
94
100
AcDbEntity
 67
     1
  8
1
390
0
  6
Continuous
 62
     7
100
AcDbLine
 10
5.625626
 20
7.535234
 30
0.0
 11
5.495722
 21
7.760234
 31
0.0
  0
LINE
  5
95
100
AcDbEntity
 67
     1
  8
1
390
0
  6
Continuous
 62
     7
100
AcDbLine
 10
5.964486
 20
3.494728
 30
0.0
 11
3.168855
 21
3.494728
 31
0.0
  0
LINE
  5
96
100
AcDbEntity
 67
     1
  8
1
390
0
  6
Continuous
 62
     7
100
AcDbLine
 10
10.695
 20
0.25
 30
0.0
 11
10.805
 21
0.25
 31
0.0
  0
LINE
  5
97
100
AcDbEntity
 67
     1
  8
1
390
0
  6
Continuous
 62
     7
100
AcDbLine
 10
8.454395
 20
6.327374
 30
0.0
 11
8.807893
 21
6.327374
 31
0.0
  0
LINE
  5
98
100
AcDbEntity
 67
     1
  8
1
390
0
  6
Continuous
 62
     7
100
AcDbLine
 10
6.882029
 20
5.711411
 30
0.0
 11
6.832341
 21
5.711411
 31
0.0
  0
LINE
  5
99
100
AcDbEntity
 67
     1
  8
1
390
0
  6
Continuous
 62
     7
100
AcDbLine
 10
0.578499
 20
5.753089
 30
0.0
 11
5.964486
 21
5.753089
 31
0.0
  0
LINE
  5
9A
100
AcDbEntity
 67
     1
  8
1
390
0
  6
Continuous
 62
     7
100
AcDbLine
 10
1.965405
 20
3.744728
 30
0.0
 11
3.166857
 21
3.744728
 31
0.0
  0
LINE
  5
9B
100
AcDbEntity
 67
     1
  8
1
390
0
  6
Continuous
 62
     7
100
AcDbLine
 10
8.544395
 20
6.342374
 30
0.0
 11
8.454395
 21
6.327374
 31
0.0
  0
LINE
  5
9C
100
AcDbEntity
 67
     1
  8
1
390
0
  6
Continuous
 62
     7
100
AcDbLine
 10
6.585438
 20
1.799426
 30
0.0
 11
0.301655
 21
1.799426
 31
0.0
  0
LINE
  5
9D
100
AcDbEntity
 67
     1
  8
1
390
0
  6
Continuous
 62
     7
100
AcDbLine
 10
8.544395
 20
6.816555
 30
0.0
 11
8.544395
 21
6.846555
 31
0.0
  0
LINE
  5
9E
100
AcDbEntity
 67
     1
  8
1
390
0
  6
Continuous
 62
     7
100
AcDbLine
 10
7.850935
 20
6.133182
 30
0.0
 11
7.826091
 21
6.133182
 31
0.0
  0
LINE
  5
9F
100
AcDbEntity
 67
     1
  8
1
390
0
  6
Continuous
 62
     7
100
AcDbLine
 10
8.193539
 20
5.541664
 30
0.0
 11
8.193539
 21
4.585378
 31
0.0
  0
LINE
  5
A0
100
AcDbEntity
 67
     1
  8
1
390
0
  6
Continuous
 62
     7
100
AcDbLine
 10
7.577653
 20
6.133182
 30
0.0
 11
7.527966
 21
6.133182
 31
0.0
  0
LINE
  5
A1
100
AcDbEntity
 67
     1
  8
1
390
0
  6
Continuous
 62
     7
100
AcDbLine
 10
6.732966
 20
5.627057
 30
0.0
 11
6.782653
 21
5.627057
 31
0.0
  0
LINE
  5
A2
100
AcDbEntity
 67
     1
  8
1
390
0
  6
Continuous
 62
     7
100
AcDbLine
 10
7.279529
 20
6.133182
 30
0.0
 11
7.229841
 21
6.133182
 31
0.0
  0
LINE
  5
A3
100
AcDbEntity
 67
     1
  8
1
390
0
  6
Continuous
 62
     7
100
AcDbLine
 10
8.394395
 20
6.831555
 30
0.0
 11
8.304395
 21
6.846555
 31
0.0
  0
LINE
  5
A4
100
AcDbEntity
 67
     1
  8
1
390
0
  6
Continuous
 62
     7
100
AcDbLine
 10
7.031091
 20
5.627057
 30
0.0
 11
7.080779
 21
5.627057
 31
0.0
  0
LINE
  5
A5
100
AcDbEntity
 67
     1
  8
1
390
0
  6
Continuous
 62
     7
100
AcDbLine
 10
6.981403
 20
6.133182
 30
0.0
 11
6.931716
 21
6.133182
 31
0.0
  0
LINE
  5
A6
100
AcDbEntity
 67
     1
  8
1
390
0
  6
Continuous
 62
     7
100
AcDbLine
 10
9.150849
 20
4.476624
 30
0.0
 11
9.097412
 21
4.476624
 31
0.0
  0
LINE
  5
A7
100
AcDbEntity
 67
     1
  8
1
390
0
  6
Continuous
 62
     7
100
AcDbLine
 10
7.357996
 20
0.25
 30
0.0
 11
7.357996
 21
1.037558
 31
0.0
  0
LINE
  5
A8
100
AcDbEntity
 67
     1
  8
1
390
0
  6
Continuous
 62
     7
100
AcDbLine
 10
0.57862
 20
5.007532
 30
0.0
 11
0.448717
 21
5.232532
 31
0.0
  0
LINE
  5
A9
100
AcDbEntity
 67
     1
  8
1
390
0
  6
Continuous
 62
     7
100
AcDbLine
 10
8.454395
 20
6.151828
 30
0.0
 11
8.454395
 21
6.921555
 31
0.0
  0
LINE
  5
AA
100
AcDbEntity
 67
     1
  8
1
390
0
  6
Continuous
 62
     7
100
AcDbLine
 10
6.683279
 20
6.133182
 30
0.0
 11
6.633591
 21
6.133182
 31
0.0
  0
LINE
  5
AB
100
AcDbEntity
 67
     1
  8
1
390
0
  6
Continuous
 62
     7
100
AcDbLine
 10
8.304395
 20
6.816555
 30
0.0
 11
8.394395
 21
6.831555
 31
0.0
  0
LINE
  5
AC
100
AcDbEntity
 67
     1
  8
1
390
0
  6
Continuous
 62
     7
100
AcDbLine
 10
9.837235
 20
5.14989
 30
0.0
 11
9.707332
 21
5.37489
 31
0.0
  0
LINE
  5
AD
100
AcDbEntity
 67
     1
  8
1
390
0
  6
Continuous
 62
     7
100
AcDbLine
 10
1.430401
 20
0.25
 30
0.0
 11
1.430401
 21
2.573295
 31
0.0
  0
LINE
  5
AE
100
AcDbEntity
 67
     1
  8
1
390
0
  6
Continuous
 62
     7
100
AcDbLine
 10
8.193539
 20
4.675378
 30
0.0
 11
8.387167
 21
4.675378
 31
0.0
  0
LINE
  5
AF
100
AcDbEntity
 67
     1
  8
1
390
0
  6
Continuous
 62
     7
100
AcDbLine
 10
7.776403
 20
5.711411
 30
0.0
 11
7.726716
 21
5.711411
 31
0.0
  0
LINE
  5
B0
100
AcDbEntity
 67
     1
  8
1
390
0
  6
Continuous
 62
     7
100
AcDbLine
 10
8.436822
 20
5.656828
 30
0.0
 11
8.844395
 21
5.656828
 31
0.0
  0
LINE
  5
B1
100
AcDbEntity
 67
     1
  8
1
390
0
  6
Continuous
 62
     7
100
AcDbLine
 10
7.850935
 20
6.321828
 30
0.0
 11
7.850935
 21
6.644911
 31
0.0
  0
LINE
  5
B2
100
AcDbEntity
 67
     1
  8
1
390
0
  6
Continuous
 62
     7
100
AcDbLine
 10
0.301655
 20
0.25
 30
0.0
 11
10.75
 21
0.25
 31
0.0
  0
LINE
  5
B3
100
AcDbEntity
 67
     1
  8
1
390
0
  6
Continuous
 62
     7
100
AcDbLine
 10
7.527966
 20
5.627057
 30
0.0
 11
7.577653
 21
5.627057
 31
0.0
  0
LINE
  5
B4
100
AcDbEntity
 67
     1
  8
1
390
0
  6
Continuous
 62
     7
100
AcDbLine
 10
6.585438
 20
2.310338
 30
0.0
 11
0.301655
 21
2.310338
 31
0.0
  0
LINE
  5
B5
100
AcDbEntity
 67
     1
  8
1
390
0
  6
Continuous
 62
     7
100
AcDbLine
 10
1.965405
 20
3.244728
 30
0.0
 11
1.965405
 21
5.753089
 31
0.0
  0
LINE
  5
B6
100
AcDbEntity
 67
     1
  8
1
390
0
  6
Continuous
 62
     7
100
AcDbLine
 10
8.544395
 20
5.057286
 30
0.0
 11
8.544395
 21
5.087286
 31
0.0
  0
LINE
  5
B7
100
AcDbEntity
 67
     1
  8
1
390
0
  6
Continuous
 62
     7
100
AcDbLine
 10
7.478279
 20
5.711411
 30
0.0
 11
7.428591
 21
5.711411
 31
0.0
  0
LINE
  5
B8
100
AcDbEntity
 67
     1
  8
1
390
0
  6
Continuous
 62
     7
100
AcDbLine
 10
8.49274
 20
5.461654
 30
0.0
 11
8.990632
 21
5.567484
 31
0.0
  0
LINE
  5
B9
100
AcDbEntity
 67
     1
  8
1
390
0
  6
Continuous
 62
     7
100
AcDbLine
 10
7.826091
 20
5.627057
 30
0.0
 11
7.850935
 21
5.627057
 31
0.0
  0
LINE
  5
BA
100
AcDbEntity
 67
     1
  8
1
390
0
  6
Continuous
 62
     7
100
AcDbLine
 10
0.301655
 20
8.20386
 30
0.0
 11
0.301655
 21
0.25
 31
0.0
  0
LINE
  5
BB
100
AcDbEntity
 67
     1
  8
1
390
0
  6
Continuous
 62
     7
100
AcDbLine
 10
8.924396
 20
4.690378
 30
0.0
 11
8.924396
 21
4.660378
 31
0.0
  0
LINE
  5
BC
100
AcDbEntity
 67
     1
  8
1
390
0
  6
Continuous
 62
     7
100
AcDbLine
 10
7.180153
 20
5.711411
 30
0.0
 11
7.130466
 21
5.711411
 31
0.0
  0
LINE
  5
BD
100
AcDbEntity
 67
     1
  8
1
390
0
  6
Continuous
 62
     7
100
AcDbLine
 10
8.262263
 20
5.524696
 30
0.0
 11
8.269691
 21
5.517268
 31
0.0
  0
LINE
  5
BE
100
AcDbEntity
 67
     1
  8
1
390
0
  6
Continuous
 62
     7
100
AcDbLine
 10
7.850935
 20
6.554911
 30
0.0
 11
7.390622
 21
6.554911
 31
0.0
  0
LINE
  5
BF
100
AcDbEntity
 67
     1
  8
1
390
0
  6
Continuous
 62
     7
100
AcDbLine
 10
8.394395
 20
5.699255
 30
0.0
 11
8.394395
 21
6.106828
 31
0.0
  0
LINE
  5
C0
100
AcDbEntity
 67
     1
  8
1
390
0
  6
Continuous
 62
     7
100
AcDbLine
 10
7.850935
 20
5.653418
 30
0.0
 11
7.826091
 21
5.653418
 31
0.0
  0
LINE
  5
C1
100
AcDbEntity
 67
     1
  8
1
390
0
  6
Continuous
 62
     7
100
AcDbLine
 10
6.583903
 20
5.711411
 30
0.0
 11
6.534216
 21
5.711411
 31
0.0
  0
LINE
  5
C2
100
AcDbEntity
 67
     1
  8
1
390
0
  6
Continuous
 62
     7
100
AcDbLine
 10
6.260935
 20
6.276828
 30
0.0
 11
7.850935
 21
6.276828
 31
0.0
  0
LINE
  5
C3
100
AcDbEntity
 67
     1
  8
1
390
0
  6
Continuous
 62
     7
100
AcDbLine
 10
6.350935
 20
6.539911
 30
0.0
 11
6.350935
 21
6.569911
 31
0.0
  0
LINE
  5
C4
100
AcDbEntity
 67
     1
  8
1
390
0
  6
Continuous
 62
     7
100
AcDbLine
 10
9.746871
 20
4.574224
 30
0.0
 11
9.616967
 21
4.349224
 31
0.0
  0
LINE
  5
C5
100
AcDbEntity
 67
     1
  8
1
390
0
  6
Continuous
 62
     7
100
AcDbLine
 10
7.577653
 20
5.653418
 30
0.0
 11
7.527966
 21
5.653418
 31
0.0
  0
LINE
  5
C6
100
AcDbEntity
 67
     1
  8
1
390
0
  6
Continuous
 62
     7
100
AcDbLine
 10
8.283539
 20
4.690378
 30
0.0
 11
8.193539
 21
4.675378
 31
0.0
  0
LINE
  5
C7
100
AcDbEntity
 67
     1
  8
1
390
0
  6
Continuous
 62
     7
100
AcDbLine
 10
7.850935
 20
6.554911
 30
0.0
 11
7.760935
 21
6.569911
 31
0.0
  0
LINE
  5
C8
100
AcDbEntity
 67
     1
  8
1
390
0
  6
Continuous
 62
     7
100
AcDbLine
 10
7.279529
 20
5.653418
 30
0.0
 11
7.229841
 21
5.653418
 31
0.0
  0
LINE
  5
C9
100
AcDbEntity
 67
     1
  8
1
390
0
  6
Continuous
 62
     7
100
AcDbLine
 10
6.981403
 20
5.653418
 30
0.0
 11
6.931716
 21
5.653418
 31
0.0
  0
LINE
  5
CA
100
AcDbEntity
 67
     1
  8
1
390
0
  6
Continuous
 62
     7
100
AcDbLine
 10
8.454395
 20
5.691828
 30
0.0
 11
8.454395
 21
4.982286
 31
0.0
  0
LINE
  5
CB
100
AcDbEntity
 67
     1
  8
1
390
0
  6
Continuous
 62
     7
100
AcDbLine
 10
7.760935
 20
6.539911
 30
0.0
 11
7.850935
 21
6.554911
 31
0.0
  0
LINE
  5
CC
100
AcDbEntity
 67
     1
  8
1
390
0
  6
Continuous
 62
     7
100
AcDbLine
 10
6.683279
 20
5.653418
 30
0.0
 11
6.633591
 21
5.653418
 31
0.0
  0
LINE
  5
CD
100
AcDbEntity
 67
     1
  8
1
390
0
  6
Continuous
 62
     7
100
AcDbLine
 10
9.577428
 20
5.14989
 30
0.0
 11
9.837235
 21
5.14989
 31
0.0
  0
LINE
  5
CE
100
AcDbEntity
 67
     1
  8
1
390
0
  6
Continuous
 62
     7
100
AcDbLine
 10
6.385153
 20
5.653418
 30
0.0
 11
6.335466
 21
5.653418
 31
0.0
  0
LINE
  5
CF
100
AcDbEntity
 67
     1
  8
1
390
0
  6
Continuous
 62
     7
100
AcDbLine
 10
8.454395
 20
5.072286
 30
0.0
 11
8.979528
 21
5.072286
 31
0.0
  0
LINE
  5
D0
100
AcDbEntity
 67
     1
  8
1
390
0
  6
Continuous
 62
     7
100
AcDbLine
 10
0.318813
 20
5.007532
 30
0.0
 11
0.57862
 21
5.007532
 31
0.0
  0
LINE
  5
D1
100
AcDbEntity
 67
     1
  8
1
390
0
  6
Continuous
 62
     7
100
AcDbLine
 10
8.68541
 20
1.312059
 30
0.0
 11
8.555506
 21
1.087059
 31
0.0
  0
LINE
  5
D2
100
AcDbEntity
 67
     1
  8
1
390
0
  6
Continuous
 62
     7
100
AcDbLine
 10
6.335466
 20
5.627057
 30
0.0
 11
6.385153
 21
5.627057
 31
0.0
  0
LINE
  5
D3
100
AcDbEntity
 67
     1
  8
1
390
0
  6
Continuous
 62
     7
100
AcDbLine
 10
9.420205
 20
6.022152
 30
0.0
 11
9.420205
 21
5.968715
 31
0.0
  0
LINE
  5
D4
100
AcDbEntity
 67
     1
  8
1
390
0
  6
Continuous
 62
     7
100
AcDbLine
 10
5.495722
 20
7.760234
 30
0.0
 11
5.365818
 21
7.535234
 31
0.0
  0
LINE
  5
D5
100
AcDbEntity
 67
     1
  8
1
390
0
  6
Continuous
 62
     7
100
AcDbLine
 10
6.285779
 20
5.711411
 30
0.0
 11
6.260935
 21
5.711411
 31
0.0
  0
LINE
  5
D6
100
AcDbEntity
 67
     1
  8
1
390
0
  6
Continuous
 62
     7
100
AcDbLine
 10
5.964486
 20
3.994728
 30
0.0
 11
3.168855
 21
3.994728
 31
0.0
  0
LINE
  5
D7
100
AcDbEntity
 67
     1
  8
1
390
0
  6
Continuous
 62
     7
100
AcDbLine
 10
6.633591
 20
5.627057
 30
0.0
 11
6.683279
 21
5.627057
 31
0.0
  0
LINE
  5
D8
100
AcDbEntity
 67
     1
  8
1
390
0
  6
Continuous
 62
     7
100
AcDbLine
 10
10.352269
 20
3.102662
 30
0.0
 11
10.222365
 21
2.877662
 31
0.0
  0
LINE
  5
D9
100
AcDbEntity
 67
     1
  8
1
390
0
  6
Continuous
 62
     7
100
AcDbLine
 10
8.924396
 20
5.087286
 30
0.0
 11
8.924396
 21
5.057286
 31
0.0
  0
LINE
  5
DA
100
AcDbEntity
 67
     1
  8
1
390
0
  6
Continuous
 62
     7
100
AcDbLine
 10
10.015162
 20
6.217446
 30
0.0
 11
9.885258
 21
6.442446
 31
0.0
  0
LINE
  5
DB
100
AcDbEntity
 67
     1
  8
1
390
0
  6
Continuous
 62
     7
100
AcDbLine
 10
0.578499
 20
5.248909
 30
0.0
 11
5.964486
 21
5.248909
 31
0.0
  0
LINE
  5
DC
100
AcDbEntity
 67
     1
  8
1
390
0
  6
Continuous
 62
     7
100
AcDbLine
 10
0.301655
 20
0.784601
 30
0.0
 11
7.357996
 21
0.784601
 31
0.0
  0
LINE
  5
DD
100
AcDbEntity
 67
     1
  8
1
390
0
  6
Continuous
 62
     7
100
AcDbLine
 10
3.700772
 20
5.807418
 30
0.0
 11
3.960579
 21
5.807418
 31
0.0
  0
LINE
  5
DE
100
AcDbEntity
 67
     1
  8
1
390
0
  6
Continuous
 62
     7
100
AcDbLine
 10
8.454395
 20
5.072286
 30
0.0
 11
8.544395
 21
5.057286
 31
0.0
  0
LINE
  5
DF
100
AcDbEntity
 67
     1
  8
1
390
0
  6
Continuous
 62
     7
100
AcDbLine
 10
7.776403
 20
6.133182
 30
0.0
 11
7.726716
 21
6.133182
 31
0.0
  0
LINE
  5
E0
100
AcDbEntity
 67
     1
  8
1
390
0
  6
Continuous
 62
     7
100
AcDbLine
 10
8.454395
 20
6.831555
 30
0.0
 11
8.633223
 21
6.831555
 31
0.0
  0
LINE
  5
E1
100
AcDbEntity
 67
     1
  8
1
390
0
  6
Continuous
 62
     7
100
AcDbLine
 10
9.755354
 20
6.217446
 30
0.0
 11
10.015162
 21
6.217446
 31
0.0
  0
LINE
  5
E2
100
AcDbEntity
 67
     1
  8
1
390
0
  6
Continuous
 62
     7
100
AcDbLine
 10
5.506714
 20
5.797534
 30
0.0
 11
5.766521
 21
5.797534
 31
0.0
  0
LINE
  5
E3
100
AcDbEntity
 67
     1
  8
1
390
0
  6
Continuous
 62
     7
100
AcDbLine
 10
9.971285
 20
5.010402
 30
0.0
 11
9.917848
 21
5.010402
 31
0.0
  0
LINE
  5
E4
100
AcDbEntity
 67
     1
  8
1
390
0
  6
Continuous
 62
     7
100
AcDbLine
 10
6.585438
 20
1.291514
 30
0.0
 11
0.301655
 21
1.291514
 31
0.0
  0
LINE
  5
E5
100
AcDbEntity
 67
     1
  8
1
390
0
  6
Continuous
 62
     7
100
AcDbLine
 10
10.75
 20
2.573295
 30
0.0
 11
0.301655
 21
2.573295
 31
0.0
  0
LINE
  5
E6
100
AcDbEntity
 67
     1
  8
1
390
0
  6
Continuous
 62
     7
100
AcDbLine
 10
6.832341
 20
5.627057
 30
0.0
 11
6.882029
 21
5.627057
 31
0.0
  0
LINE
  5
E7
100
AcDbEntity
 67
     1
  8
1
390
0
  6
Continuous
 62
     7
100
AcDbLine
 10
8.544395
 20
5.087286
 30
0.0
 11
8.454395
 21
5.072286
 31
0.0
  0
LINE
  5
E8
100
AcDbEntity
 67
     1
  8
1
390
0
  6
Continuous
 62
     7
100
AcDbLine
 10
9.224175
 20
6.831555
 30
0.0
 11
9.170738
 21
6.831555
 31
0.0
  0
LINE
  5
E9
100
AcDbEntity
 67
     1
  8
1
390
0
  6
Continuous
 62
     7
100
AcDbLine
 10
1.965405
 20
3.994728
 30
0.0
 11
3.166857
 21
3.994728
 31
0.0
  0
LINE
  5
EA
100
AcDbEntity
 67
     1
  8
1
390
0
  6
Continuous
 62
     7
100
AcDbLine
 10
9.123662
 20
4.539437
 30
0.0
 11
9.123662
 21
4.485999
 31
0.0
  0
LINE
  5
EB
100
AcDbEntity
 67
     1
  8
1
390
0
  6
Continuous
 62
     7
100
AcDbLine
 10
7.130466
 20
5.627057
 30
0.0
 11
7.180153
 21
5.627057
 31
0.0
  0
LINE
  5
EC
100
AcDbEntity
 67
     1
  8
1
390
0
  6
Continuous
 62
     7
100
AcDbLine
 10
5.827307
 20
0.25
 30
0.0
 11
5.827307
 21
2.573295
 31
0.0
  0
LINE
  5
ED
100
AcDbEntity
 67
     1
  8
1
390
0
  6
Continuous
 62
     7
100
AcDbLine
 10
6.585438
 20
2.057382
 30
0.0
 11
10.75
 21
2.057382
 31
0.0
  0
LINE
  5
EE
100
AcDbEntity
 67
     1
  8
1
390
0
  6
Continuous
 62
     7
100
AcDbLine
 10
6.882029
 20
6.133182
 30
0.0
 11
6.832341
 21
6.133182
 31
0.0
  0
LINE
  5
EF
100
AcDbEntity
 67
     1
  8
1
390
0
  6
Continuous
 62
     7
100
AcDbLine
 10
0.578499
 20
4.998909
 30
0.0
 11
5.964486
 21
4.998909
 31
0.0
  0
LINE
  5
F0
100
AcDbEntity
 67
     1
  8
1
390
0
  6
Continuous
 62
     7
100
AcDbLine
 10
9.876775
 20
4.349224
 30
0.0
 11
9.746871
 21
4.574224
 31
0.0
  0
LINE
  5
F1
100
AcDbEntity
 67
     1
  8
1
390
0
  6
Continuous
 62
     7
100
AcDbLine
 10
0.448717
 20
5.232532
 30
0.0
 11
0.318813
 21
5.007532
 31
0.0
  0
LINE
  5
F2
100
AcDbEntity
 67
     1
  8
1
390
0
  6
Continuous
 62
     7
100
AcDbLine
 10
8.874395
 20
5.755567
 30
0.0
 11
8.874395
 21
6.417374
 31
0.0
  0
LINE
  5
F3
100
AcDbEntity
 67
     1
  8
1
390
0
  6
Continuous
 62
     7
100
AcDbLine
 10
9.224175
 20
6.794992
 30
0.0
 11
9.170738
 21
6.794992
 31
0.0
  0
LINE
  5
F4
100
AcDbEntity
 67
     1
  8
1
390
0
  6
Continuous
 62
     7
100
AcDbLine
 10
1.734424
 20
0.25
 30
0.0
 11
1.734424
 21
2.573295
 31
0.0
  0
LINE
  5
F5
100
AcDbEntity
 67
     1
  8
1
390
0
  6
Continuous
 62
     7
100
AcDbLine
 10
6.285779
 20
6.133182
 30
0.0
 11
6.260935
 21
6.133182
 31
0.0
  0
LINE
  5
F6
100
AcDbEntity
 67
     1
  8
1
390
0
  6
Continuous
 62
     7
100
AcDbLine
 10
10.347526
 20
0.784601
 30
0.0
 11
10.347526
 21
0.25
 31
0.0
  0
LINE
  5
F7
100
AcDbEntity
 67
     1
  8
1
390
0
  6
Continuous
 62
     7
100
AcDbLine
 10
5.636618
 20
6.022533
 30
0.0
 11
5.506714
 21
5.797534
 31
0.0
  0
LINE
  5
F8
100
AcDbEntity
 67
     1
  8
1
390
0
  6
Continuous
 62
     7
100
AcDbLine
 10
4.51667
 20
3.244728
 30
0.0
 11
4.51667
 21
5.753089
 31
0.0
  0
LINE
  5
F9
100
AcDbEntity
 67
     1
  8
1
390
0
  6
Continuous
 62
     7
100
AcDbLine
 10
7.677029
 20
5.711411
 30
0.0
 11
7.627341
 21
5.711411
 31
0.0
  0
LINE
  5
FA
100
AcDbEntity
 67
     1
  8
1
390
0
  6
Continuous
 62
     7
100
AcDbLine
 10
8.342536
 20
5.562542
 30
0.0
 11
8.436822
 21
5.656828
 31
0.0
  0
LINE
  5
FB
100
AcDbEntity
 67
     1
  8
1
390
0
  6
Continuous
 62
     7
100
AcDbLine
 10
9.294676
 20
6.677805
 30
0.0
 11
9.294676
 21
6.624367
 31
0.0
  0
LINE
  5
FC
100
AcDbEntity
 67
     1
  8
1
390
0
  6
Continuous
 62
     7
100
AcDbLine
 10
7.627341
 20
5.627057
 30
0.0
 11
7.677029
 21
5.627057
 31
0.0
  0
LINE
  5
FD
100
AcDbEntity
 67
     1
  8
1
390
0
  6
Continuous
 62
     7
100
AcDbLine
 10
7.378903
 20
5.711411
 30
0.0
 11
7.329216
 21
5.711411
 31
0.0
  0
LINE
  5
FE
100
AcDbEntity
 67
     1
  8
1
390
0
  6
Continuous
 62
     7
100
AcDbLine
 10
10.482173
 20
2.877662
 30
0.0
 11
10.352269
 21
3.102662
 31
0.0
  0
LINE
  5
FF
100
AcDbEntity
 67
     1
  8
1
390
0
  6
Continuous
 62
     7
100
AcDbLine
 10
8.480266
 20
5.520342
 30
0.0
 11
8.978157
 21
5.626173
 31
0.0
  0
LINE
  5
100
100
AcDbEntity
 67
     1
  8
1
390
0
  6
Continuous
 62
     7
100
AcDbLine
 10
0.646582
 20
0.25
 30
0.0
 11
0.646582
 21
2.573295
 31
0.0
  0
LINE
  5
101
100
AcDbEntity
 67
     1
  8
1
390
0
  6
Continuous
 62
     7
100
AcDbLine
 10
6.931716
 20
5.627057
 30
0.0
 11
6.981403
 21
5.627057
 31
0.0
  0
LINE
  5
102
100
AcDbEntity
 67
     1
  8
1
390
0
  6
Continuous
 62
     7
100
AcDbLine
 10
7.080779
 20
5.711411
 30
0.0
 11
7.031091
 21
5.711411
 31
0.0
  0
LINE
  5
103
100
AcDbEntity
 67
     1
  8
1
390
0
  6
Continuous
 62
     7
100
AcDbLine
 10
8.300109
 20
5.604969
 30
0.0
 11
8.394395
 21
5.699255
 31
0.0
  0
LINE
  5
104
100
AcDbEntity
 67
     1
  8
1
390
0
  6
Continuous
 62
     7
100
AcDbLine
 10
0.301655
 20
0.511645
 30
0.0
 11
7.357996
 21
0.511645
 31
0.0
  0
LINE
  5
105
100
AcDbEntity
 67
     1
  8
1
390
0
  6
Continuous
 62
     7
100
AcDbLine
 10
5.964486
 20
3.244728
 30
0.0
 11
0.578499
 21
3.244728
 31
0.0
  0
LINE
  5
106
100
AcDbEntity
 67
     1
  8
1
390
0
  6
Continuous
 62
     7
100
AcDbLine
 10
6.782653
 20
5.711411
 30
0.0
 11
6.732966
 21
5.711411
 31
0.0
  0
LINE
  5
107
100
AcDbEntity
 67
     1
  8
1
390
0
  6
Continuous
 62
     7
100
AcDbLine
 10
8.454395
 20
5.736828
 30
0.0
 11
8.454395
 21
6.106828
 31
0.0
  0
LINE
  5
108
100
AcDbEntity
 67
     1
  8
1
390
0
  6
Continuous
 62
     7
100
AcDbLine
 10
6.484529
 20
5.711411
 30
0.0
 11
6.434841
 21
5.711411
 31
0.0
  0
LINE
  5
109
100
AcDbEntity
 67
     1
  8
1
390
0
  6
Continuous
 62
     7
100
AcDbLine
 10
6.260935
 20
5.455972
 30
0.0
 11
6.260935
 21
6.276828
 31
0.0
  0
LINE
  5
10A
100
AcDbEntity
 67
     1
  8
1
390
0
  6
Continuous
 62
     7
100
AcDbLine
 10
8.874395
 20
6.327374
 30
0.0
 11
8.784395
 21
6.342374
 31
0.0
  0
LINE
  5
10B
100
AcDbEntity
 67
     1
  8
1
390
0
  6
Continuous
 62
     7
100
AcDbLine
 10
8.544395
 20
6.846555
 30
0.0
 11
8.454395
 21
6.831555
 31
0.0
  0
LINE
  5
10C
100
AcDbEntity
 67
     1
  8
1
390
0
  6
Continuous
 62
     7
100
AcDbLine
 10
1.965405
 20
3.494728
 30
0.0
 11
3.166857
 21
3.494728
 31
0.0
  0
LINE
  5
10D
100
AcDbEntity
 67
     1
  8
1
390
0
  6
Continuous
 62
     7
100
AcDbLine
 10
5.964486
 20
3.244728
 30
0.0
 11
5.964486
 21
5.753089
 31
0.0
  0
LINE
  5
10E
100
AcDbEntity
 67
     1
  8
1
390
0
  6
Continuous
 62
     7
100
AcDbLine
 10
9.014395
 20
5.52809
 30
0.0
 11
9.014395
 21
4.585378
 31
0.0
  0
LINE
  5
10F
100
AcDbEntity
 67
     1
  8
1
390
0
  6
Continuous
 62
     7
100
AcDbLine
 10
5.125768
 20
0.511645
 30
0.0
 11
5.125768
 21
2.573295
 31
0.0
  0
LINE
  5
110
100
AcDbEntity
 67
     1
  8
1
390
0
  6
Continuous
 62
     7
100
AcDbLine
 10
7.428591
 20
5.627057
 30
0.0
 11
7.478279
 21
5.627057
 31
0.0
  0
LINE
  5
111
100
AcDbEntity
 67
     1
  8
1
390
0
  6
Continuous
 62
     7
100
AcDbLine
 10
8.784395
 20
6.312374
 30
0.0
 11
8.874395
 21
6.327374
 31
0.0
  0
LINE
  5
112
100
AcDbEntity
 67
     1
  8
1
390
0
  6
Continuous
 62
     7
100
AcDbLine
 10
7.577653
 20
5.711411
 30
0.0
 11
7.527966
 21
5.711411
 31
0.0
  0
LINE
  5
113
100
AcDbEntity
 67
     1
  8
1
390
0
  6
Continuous
 62
     7
100
AcDbLine
 10
7.180153
 20
5.653418
 30
0.0
 11
7.130466
 21
5.653418
 31
0.0
  0
LINE
  5
114
100
AcDbEntity
 67
     1
  8
1
390
0
  6
Continuous
 62
     7
100
AcDbLine
 10
8.304395
 20
6.846555
 30
0.0
 11
8.304395
 21
6.816555
 31
0.0
  0
LINE
  5
115
100
AcDbEntity
 67
     1
  8
1
390
0
  6
Continuous
 62
     7
100
AcDbLine
 10
6.882029
 20
5.653418
 30
0.0
 11
6.832341
 21
5.653418
 31
0.0
  0
LINE
  5
116
100
AcDbEntity
 67
     1
  8
1
390
0
  6
Continuous
 62
     7
100
AcDbLine
 10
8.924396
 20
5.057286
 30
0.0
 11
9.014395
 21
5.072286
 31
0.0
  0
LINE
  5
117
100
AcDbEntity
 67
     1
  8
1
390
0
  6
Continuous
 62
     7
100
AcDbLine
 10
9.014395
 20
4.675378
 30
0.0
 11
8.762355
 21
4.675378
 31
0.0
  0
LINE
  5
118
100
AcDbEntity
 67
     1
  8
1
390
0
  6
Continuous
 62
     7
100
AcDbLine
 10
6.583903
 20
5.653418
 30
0.0
 11
6.534216
 21
5.653418
 31
0.0
  0
LINE
  5
119
100
AcDbEntity
 67
     1
  8
1
390
0
  6
Continuous
 62
     7
100
AcDbLine
 10
6.260935
 20
6.321828
 30
0.0
 11
6.260935
 21
6.644911
 31
0.0
  0
ARC
  5
11A
100
AcDbEntity
 67
     1
  8
1
390
0
  6
Continuous
 62
     7
100
AcDbCircle
 10
8.984395
 20
5.596828
 30
0.0
 40
0.03
100
AcDbArc
 50
281.999636
 51
461.999636
  0
ARC
  5
11B
100
AcDbEntity
 67
     1
  8
1
390
0
  6
Continuous
 62
     7
100
AcDbCircle
 10
8.353143
 20
5.551936
 30
0.0
 40
0.015
100
AcDbArc
 50
135.0
 51
242.45911
  0
ARC
  5
11C
100
AcDbEntity
 67
     1
  8
1
390
0
  6
Continuous
 62
     7
100
AcDbCircle
 10
8.453539
 20
5.701116
 30
0.0
 40
0.2
100
AcDbArc
 50
168.0
 51
207.540889
  0
ARC
  5
11D
100
AcDbEntity
 67
     1
  8
1
390
0
  6
Continuous
 62
     7
100
AcDbCircle
 10
8.844395
 20
5.686828
 30
0.0
 40
0.03
100
AcDbArc
 50
270.0
 51
450.0
  0
ARC
  5
11E
100
AcDbEntity
 67
     1
  8
1
390
0
  6
Continuous
 62
     7
100
AcDbCircle
 10
8.289503
 20
5.615576
 30
0.0
 40
0.015
100
AcDbArc
 50
207.54089
 51
315.0
  0
ARC
  5
11F
100
AcDbEntity
 67
     1
  8
1
390
0
  6
Continuous
 62
     7
100
AcDbCircle
 10
8.424396
 20
6.106828
 30
0.0
 40
0.03
100
AcDbArc
 50
0.0
 51
180.0
  0
ARC
  5
120
100
AcDbEntity
 67
     1
  8
1
390
0
  6
Continuous
 62
     7
100
AcDbCircle
 10
8.438683
 20
5.715972
 30
0.0
 40
0.2
100
AcDbArc
 50
242.459111
 51
282.0
  0
ARC
  5
121
100
AcDbEntity
 67
     1
  8
1
390
0
  6
Continuous
 62
     7
100
AcDbCircle
 10
8.334395
 20
6.246829
 30
0.0
 40
0.03
100
AcDbArc
 50
348.000364
 51
528.000364
  0
ARC
  5
122
100
AcDbEntity
 67
     1
  8
1
390
0
  6
Continuous
 62
     7
100
AcDbCircle
 10
8.474395
 20
5.736828
 30
0.0
 40
0.02
100
AcDbArc
 50
225.0
 51
270.0
  0
ARC
  5
123
100
AcDbEntity
 67
     1
  8
1
390
0
  6
Continuous
 62
     7
100
AcDbCircle
 10
8.453539
 20
5.701116
 30
0.0
 40
0.26
100
AcDbArc
 50
168.000001
 51
222.684477
  0
ARC
  5
124
100
AcDbEntity
 67
     1
  8
1
390
0
  6
Continuous
 62
     7
100
AcDbCircle
 10
8.438683
 20
5.715972
 30
0.0
 40
0.26
100
AcDbArc
 50
227.315523
 51
281.999999
  0
ARC
  5
125
100
AcDbEntity
 67
     1
  8
1
390
0
  6
Continuous
 62
     7
100
AcDbCircle
 10
8.474395
 20
5.736828
 30
0.0
 40
0.02
100
AcDbArc
 50
180.0
 51
225.0
  0
MTEXT
  5
126
100
AcDbEntity
 67
     1
  8
1
390
0
  6
Continuous
 62
     7
100
AcDbMText
 10
6.638441
 20
0.683858
 30
0.0
 40
0.037378
 41
0.0
 71
     7
 72
     5
  1
\W01.000;\fsimplex.shx;DATE
  7
blockfont
210
0.0
220
0.0
230
1.0
 73
     2
 44
0.903614
  0
MTEXT
  5
128
100
AcDbEntity
 67
     1
  8
1
390
0
  6
Continuous
 62
     7
100
AcDbMText
 10
1.13955
 20
1.335619
 30
0.0
 40
0.072
 41
0.0
 71
     7
 72
     5
  1
\W01.000;\fsimplex.shx;JCST
  7
blockfont
210
0.0
220
0.0
230
1.0
 73
     2
 44
0.903614
  0
MTEXT
  5
129
100
AcDbEntity
 67
     1
  8
1
390
0
  6
Continuous
 62
     7
100
AcDbMText
 10
5.484391
 20
0.818014
 30
0.0
 40
0.059805
 41
0.0
 71
     7
 72
     5
  1
\W01.000;\fsimplex.shx;CEF
  7
blockfont
210
0.0
220
0.0
230
1.0
 73
     2
 44
0.903614
  0
MTEXT
  5
12A
100
AcDbEntity
 67
     1
  8
1
390
0
  6
Continuous
 62
     7
100
AcDbMText
 10
10.497983
 20
0.386425
 30
0.0
 40
0.149512
 41
0.0
 71
     7
 72
     5
  1
\W01.000;\fsimplex.shx;A
  7
blockfont
210
0.0
220
0.0
230
1.0
 73
     2
 44
0.903614
  0
MTEXT
  5
12B
100
AcDbEntity
 67
     1
  8
1
390
0
  6
Continuous
 62
     7
100
AcDbMText
 10
1.181665
 20
0.314102
 30
0.0
 40
0.059805
 41
0.0
 71
     7
 72
     5
  1
\W01.000;\fsimplex.shx;BY
  7
blockfont
210
0.0
220
0.0
230
1.0
 73
     2
 44
0.903614
  0
MTEXT
  5
12C
100
AcDbEntity
 67
     1
  8
1
390
0
  6
Continuous
 62
     7
100
AcDbMText
 10
4.561866
 20
0.580688
 30
0.0
 40
0.066
 41
0.0
 71
     7
 72
     5
  1
\W01.000;\fsimplex.shx;34047-01
  7
blockfont
210
0.0
220
0.0
230
1.0
 73
     2
 44
0.903614
  0
MTEXT
  5
12D
100
AcDbEntity
 67
     1
  8
1
390
0
  6
Continuous
 62
     7
100
AcDbMText
 10
9.227591
 20
4.998224
 30
0.0
 40
0.09
 41
0.0
 71
     7
 72
     5
  1
\W01.000;\fsimplex.shx;.56
  7
blockfont
210
0.0
220
0.0
230
1.0
 73
     2
 44
0.903614
  0
MTEXT
  5
12E
100
AcDbEntity
 67
     1
  8
1
390
0
  6
Continuous
 62
     7
100
AcDbMText
 10
5.614586
 20
5.798471
 30
0.0
 40
0.09
 41
0.0
 71
     7
 72
     5
  1
\W01.000;\fsimplex.shx;E
  7
blockfont
210
0.0
220
0.0
230
1.0
 73
     2
 44
0.903614
  0
MTEXT
  5
12F
100
AcDbEntity
 67
     1
  8
1
390
0
  6
Continuous
 62
     7
100
AcDbMText
 10
9.187264
 20
2.11226
 30
0.0
 40
0.056067
 41
0.0
 71
     7
 72
     5
  1
\W01.000;\fsimplex.shx;TINLEY PARK, ILLINOIS
  7
blockfont
210
0.0
220
0.0
230
1.0
 73
     2
 44
0.903614
  0
MTEXT
  5
130
100
AcDbEntity
 67
     1
  8
1
390
0
  6
Continuous
 62
     7
100
AcDbMText
 10
9.863227
 20
6.218383
 30
0.0
 40
0.09
 41
0.0
 71
     7
 72
     5
  1
\W01.000;\fsimplex.shx;B
  7
blockfont
210
0.0
220
0.0
230
1.0
 73
     2
 44
0.903614
  0
MTEXT
  5
131
100
AcDbEntity
 67
     1
  8
1
390
0
  6
Continuous
 62
     7
100
AcDbMText
 10
5.484391
 20
1.069971
 30
0.0
 40
0.059805
 41
0.0
 71
     7
 72
     5
  1
\W01.000;\fsimplex.shx;JKG
  7
blockfont
210
0.0
220
0.0
230
1.0
 73
     2
 44
0.903614
  0
MTEXT
  5
132
100
AcDbEntity
 67
     1
  8
1
390
0
  6
Continuous
 62
     7
100
AcDbMText
 10
7.999933
 20
1.542152
 30
0.0
 40
0.093
 41
0.0
 71
     7
 72
     5
  1
\W01.000;\fsimplex.shx;CUSTOMER DRAWING
  7
blockfont
210
0.0
220
0.0
230
1.0
 73
     2
 44
0.903614
  0
MTEXT
  5
133
100
AcDbEntity
 67
     1
  8
1
390
0
  6
Continuous
 62
     7
100
AcDbMText
 10
9.055956
 20
6.253312
 30
0.0
 40
0.09
 41
0.0
 71
     7
 72
     5
  1
\W01.000;\fsimplex.shx;.42
  7
blockfont
210
0.0
220
0.0
230
1.0
 73
     2
 44
0.903614
  0
MTEXT
  5
134
100
AcDbEntity
 67
     1
  8
1
390
0
  6
Continuous
 62
     7
100
AcDbMText
 10
4.725964
 20
0.314102
 30
0.0
 40
0.059805
 41
0.0
 71
     7
 72
     5
  1
\W01.000;\fsimplex.shx;ECN
  7
blockfont
210
0.0
220
0.0
230
1.0
 73
     2
 44
0.903614
  0
MTEXT
  5
135
100
AcDbEntity
 67
     1
  8
1
390
0
  6
Continuous
 62
     7
100
AcDbMText
 10
0.737996
 20
0.314102
 30
0.0
 40
0.059805
 41
0.0
 71
     7
 72
     5
  1
\W01.000;\fsimplex.shx;DATE
  7
blockfont
210
0.0
220
0.0
230
1.0
 73
     2
 44
0.903614
  0
MTEXT
  5
136
100
AcDbEntity
 67
     1
  8
1
390
0
  6
Continuous
 62
     7
100
AcDbMText
 10
1.832922
 20
1.162482
 30
0.0
 40
0.06
 41
0.0
 71
     7
 72
     5
  1
\W01.000;\fsimplex.shx;D. CHANGED NOTES
  7
blockfont
210
0.0
220
0.0
230
1.0
 73
     2
 44
0.903614
  0
MTEXT
  5
137
100
AcDbEntity
 67
     1
  8
1
390
0
  6
Continuous
 62
     7
100
AcDbMText
 10
2.764402
 20
0.314102
 30
0.0
 40
0.059805
 41
0.0
 71
     7
 72
     5
  1
\W01.000;\fsimplex.shx;DESCRIPTION
  7
blockfont
210
0.0
220
0.0
230
1.0
 73
     2
 44
0.903614
  0
MTEXT
  5
138
100
AcDbEntity
 67
     1
  8
1
390
0
  6
Continuous
 62
     7
100
AcDbMText
 10
8.881238
 20
6.757492
 30
0.0
 40
0.09
 41
0.0
 71
     7
 72
     5
  1
\W01.000;\fsimplex.shx;.06
  7
blockfont
210
0.0
220
0.0
230
1.0
 73
     2
 44
0.903614
  0
MTEXT
  5
139
100
AcDbEntity
 67
     1
  8
1
390
0
  6
Continuous
 62
     7
100
AcDbMText
 10
5.484391
 20
0.314102
 30
0.0
 40
0.059805
 41
0.0
 71
     7
 72
     5
  1
\W01.000;\fsimplex.shx;CUST
  7
blockfont
210
0.0
220
0.0
230
1.0
 73
     2
 44
0.903614
  0
MTEXT
  5
13A
100
AcDbEntity
 67
     1
  8
1
390
0
  6
Continuous
 62
     7
100
AcDbMText
 10
1.832922
 20
1.369438
 30
0.0
 40
0.06
 41
0.0
 71
     7
 72
     5
  1
\W01.000;\fsimplex.shx;E. REV'D LENGTHS AND WEIGHTS.
  7
blockfont
210
0.0
220
0.0
230
1.0
 73
     2
 44
0.903614
  0
MTEXT
  5
13B
100
AcDbEntity
 67
     1
  8
1
390
0
  6
Continuous
 62
     7
100
AcDbMText
 10
1.471725
 20
1.065861
 30
0.0
 40
0.08
 41
0.0
 71
     7
 72
     5
  1
\W01.000;\fsimplex.shx;JKG
  7
blockfont
210
0.0
220
0.0
230
1.0
 73
     2
 44
0.903614
  0
MTEXT
  5
13C
100
AcDbEntity
 67
     1
  8
1
390
0
  6
Continuous
 62
     7
100
AcDbMText
 10
0.437562
 20
0.57575
 30
0.0
 40
0.072
 41
0.0
 71
     7
 72
     5
  1
\W01.000;\fsimplex.shx;R
  7
blockfont
210
0.0
220
0.0
230
1.0
 73
     2
 44
0.903614
  0
MTEXT
  5
13D
100
AcDbEntity
 67
     1
  8
1
390
0
  6
Continuous
 62
     7
100
AcDbMText
 10
0.437375
 20
1.335619
 30
0.0
 40
0.072
 41
0.0
 71
     7
 72
     5
  1
\W01.000;\fsimplex.shx;3
  7
blockfont
210
0.0
220
0.0
230
1.0
 73
     2
 44
0.903614
  0
MTEXT
  5
13E
100
AcDbEntity
 67
     1
  8
1
390
0
  6
Continuous
 62
     7
100
AcDbMText
 10
3.580939
 20
4.823847
 30
0.0
 40
0.09
 41
0.0
 71
     7
 72
     5
  1
\W01.000;\fsimplex.shx;LENGTH
  7
blockfont
210
0.0
220
0.0
230
1.0
 73
     2
 44
0.903614
  0
MTEXT
  5
13F
100
AcDbEntity
 67
     1
  8
1
390
0
  6
Continuous
 62
     7
100
AcDbMText
 10
4.772871
 20
3.294305
 30
0.0
 40
0.09
 41
0.0
 71
     7
 72
     5
  1
\W01.000;\fsimplex.shx;2.40/(1087)
  7
blockfont
210
0.0
220
0.0
230
1.0
 73
     2
 44
0.903614
  0
MTEXT
  5
140
100
AcDbEntity
 67
     1
  8
1
390
0
  6
Continuous
 62
     7
100
AcDbMText
 10
8.454667
 20
4.421316
 30
0.0
 40
0.09
 41
0.0
 71
     7
 72
     5
  1
\W01.000;\fsimplex.shx;(20.8)
  7
blockfont
210
0.0
220
0.0
230
1.0
 73
     2
 44
0.903614
  0
MTEXT
  5
141
100
AcDbEntity
 67
     1
  8
1
390
0
  6
Continuous
 62
     7
100
AcDbMText
 10
8.233554
 20
1.028733
 30
0.0
 40
0.06728
 41
0.0
 71
     7
 72
     5
  1
\W01.000;\fsimplex.shx;-
  7
blockfont
210
0.0
220
0.0
230
1.0
 73
     2
 44
0.903614
  0
MTEXT
  5
142
100
AcDbEntity
 67
     1
  8
1
390
0
  6
Continuous
 62
     7
100
AcDbMText
 10
5.028754
 20
4.688847
 30
0.0
 40
0.09
 41
0.0
 71
     7
 72
     5
  1
\W01.000;\fsimplex.shx;lb/(g)
  7
blockfont
210
0.0
220
0.0
230
1.0
 73
     2
 44
0.903614
  0
MTEXT
  5
143
100
AcDbEntity
 67
     1
  8
1
390
0
  6
Continuous
 62
     7
100
AcDbMText
 10
1.511725
 20
0.559948
 30
0.0
 40
0.08
 41
0.0
 71
     7
 72
     5
  1
\W01.000;\fsimplex.shx;WJB
  7
blockfont
210
0.0
220
0.0
230
1.0
 73
     2
 44
0.903614
  0
MTEXT
  5
144
100
AcDbEntity
 67
     1
  8
1
390
0
  6
Continuous
 62
     7
100
AcDbMText
 10
1.032529
 20
3.809213
 30
0.0
 40
0.09
 41
0.0
 71
     7
 72
     5
  1
\W01.000;\fsimplex.shx;STRIP
  7
blockfont
210
0.0
220
0.0
230
1.0
 73
     2
 44
0.903614
  0
MTEXT
  5
145
100
AcDbEntity
 67
     1
  8
1
390
0
  6
Continuous
 62
     7
100
AcDbMText
 10
2.249913
 20
4.823847
 30
0.0
 40
0.09
 41
0.0
 71
     7
 72
     5
  1
\W01.000;\fsimplex.shx;PANDUIT
  7
blockfont
210
0.0
220
0.0
230
1.0
 73
     2
 44
0.903614
  0
MTEXT
  5
146
100
AcDbEntity
 67
     1
  8
1
390
0
  6
Continuous
 62
     7
100
AcDbMText
 10
9.72484
 20
4.350162
 30
0.0
 40
0.09
 41
0.0
 71
     7
 72
     5
  1
\W01.000;\fsimplex.shx;B
  7
blockfont
210
0.0
220
0.0
230
1.0
 73
     2
 44
0.903614
  0
MTEXT
  5
147
100
AcDbEntity
 67
     1
  8
1
390
0
  6
Continuous
 62
     7
100
AcDbMText
 10
5.233606
 20
0.818014
 30
0.0
 40
0.059805
 41
0.0
 71
     7
 72
     5
  1
\W01.000;\fsimplex.shx;CEF
  7
blockfont
210
0.0
220
0.0
230
1.0
 73
     2
 44
0.903614
  0
MTEXT
  5
148
100
AcDbEntity
 67
     1
  8
1
390
0
  6
Continuous
 62
     7
100
AcDbMText
 10
7.780139
 20
1.173087
 30
0.0
 40
0.059805
 41
0.0
 71
     7
 72
     5
  1
\W01.000;\fsimplex.shx;(.XXX) +
  7
blockfont
210
0.0
220
0.0
230
1.0
 73
     2
 44
0.903614
  0
MTEXT
  5
149
100
AcDbEntity
 67
     1
  8
1
390
0
  6
Continuous
 62
     7
100
AcDbMText
 10
1.0921
 20
4.621347
 30
0.0
 40
0.09
 41
0.0
 71
     7
 72
     5
  1
\W01.000;\fsimplex.shx;NAME
  7
blockfont
210
0.0
220
0.0
230
1.0
 73
     2
 44
0.903614
  0
MTEXT
  5
14A
100
AcDbEntity
 67
     1
  8
1
390
0
  6
Continuous
 62
     7
100
AcDbMText
 10
1.768262
 20
0.57575
 30
0.0
 40
0.072
 41
0.0
 71
     7
 72
     5
  1
\W01.000;\fsimplex.shx; RELEASED TO PRODUCTION
  7
blockfont
210
0.0
220
0.0
230
1.0
 73
     2
 44
0.903614
  0
MTEXT
  5
14B
100
AcDbEntity
 67
     1
  8
1
390
0
  6
Continuous
 62
     7
100
AcDbMText
 10
3.77711
 20
4.688847
 30
0.0
 40
0.09
 41
0.0
 71
     7
 72
     5
  1
\W01.000;\fsimplex.shx;IN
  7
blockfont
210
0.0
220
0.0
230
1.0
 73
     2
 44
0.903614
  0
MTEXT
  5
14C
100
AcDbEntity
 67
     1
  8
1
390
0
  6
Continuous
 62
     7
100
AcDbMText
 10
5.376071
 20
7.454809
 30
0.0
 40
0.09
 41
0.0
 71
     7
 72
     5
  1
\W01.000;\fsimplex.shx;    2. DIMENSIONS ARE IN INCHES(MILLIMETERS).
  7
blockfont
210
0.0
220
0.0
230
1.0
 73
     2
 44
0.903614
  0
MTEXT
  5
14D
100
AcDbEntity
 67
     1
  8
1
390
0
  6
Continuous
 62
     7
100
AcDbMText
 10
1.832922
 20
0.818526
 30
0.0
 40
0.06
 41
0.0
 71
     7
 72
     5
  1
\W01.000;\fsimplex.shx;A. REV'D LENGTHS AND WEIGHTS.
  7
blockfont
210
0.0
220
0.0
230
1.0
 73
     2
 44
0.903614
  0
MTEXT
  5
14E
100
AcDbEntity
 67
     1
  8
1
390
0
  6
Continuous
 62
     7
100
AcDbMText
 10
6.821076
 20
1.066465
 30
0.0
 40
0.059805
 41
0.0
 71
     7
 72
     5
  1
\W01.000;\fsimplex.shx;(.XX) +
  7
blockfont
210
0.0
220
0.0
230
1.0
 73
     2
 44
0.903614
  0
MTEXT
  5
14F
100
AcDbEntity
 67
     1
  8
1
390
0
  6
Continuous
 62
     7
100
AcDbMText
 10
2.179755
 20
3.787758
 30
0.0
 40
0.09
 41
0.0
 71
     7
 72
     5
  1
\W01.000;\fsimplex.shx;CSP2LG-Q
  7
blockfont
210
0.0
220
0.0
230
1.0
 73
     2
 44
0.903614
  0
MTEXT
  5
150
100
AcDbEntity
 67
     1
  8
1
390
0
  6
Continuous
 62
     7
100
AcDbMText
 10
9.200162
 20
4.439124
 30
0.0
 40
0.09
 41
0.0
 71
     7
 72
     5
  1
\W01.000;\fsimplex.shx;.04
  7
blockfont
210
0.0
220
0.0
230
1.0
 73
     2
 44
0.903614
  0
MTEXT
  5
151
100
AcDbEntity
 67
     1
  8
1
390
0
  6
Continuous
 62
     7
100
AcDbMText
 10
0.699323
 20
1.353723
 30
0.0
 40
0.05
 41
0.0
 71
     7
 72
     5
  1
\W01.000;\fsimplex.shx;4-12-06
  7
blockfont
210
0.0
220
0.0
230
1.0
 73
     2
 44
0.903614
  0
MTEXT
  5
152
100
AcDbEntity
 67
     1
  8
1
390
0
  6
Continuous
 62
     7
100
AcDbMText
 10
10.464342
 20
0.308016
 30
0.0
 40
0.037378
 41
0.0
 71
     7
 72
     5
  1
\W01.000;\fsimplex.shx;SIZE
  7
blockfont
210
0.0
220
0.0
230
1.0
 73
     2
 44
0.903614
  0
MTEXT
  5
153
100
AcDbEntity
 67
     1
  8
1
390
0
  6
Continuous
 62
     7
100
AcDbMText
 10
8.227476
 20
0.433969
 30
0.0
 40
0.093
 41
0.0
 71
     7
 72
     5
  1
\W01.000;\fsimplex.shx; 
  7
blockfont
210
0.0
220
0.0
230
1.0
 73
     2
 44
0.903614
  0
MTEXT
  5
154
100
AcDbEntity
 67
     1
  8
1
390
0
  6
Continuous
 62
     7
100
AcDbMText
 10
4.561866
 20
1.0886
 30
0.0
 40
0.066
 41
0.0
 71
     7
 72
     5
  1
\W01.000;\fsimplex.shx;34047-01
  7
blockfont
210
0.0
220
0.0
230
1.0
 73
     2
 44
0.903614
  0
MTEXT
  5
155
100
AcDbEntity
 67
     1
  8
1
390
0
  6
Continuous
 62
     7
100
AcDbMText
 10
6.647437
 20
0.79075
 30
0.0
 40
0.072
 41
0.0
 71
     7
 72
     5
  1
\W01.000;\fsimplex.shx;L BENTZ
  7
blockfont
210
0.0
220
0.0
230
1.0
 73
     2
 44
0.903614
  0
MTEXT
  5
156
100
AcDbEntity
 67
     1
  8
1
390
0
  6
Continuous
 62
     7
100
AcDbMText
 10
4.561866
 20
1.340556
 30
0.0
 40
0.066
 41
0.0
 71
     7
 72
     5
  1
\W01.000;\fsimplex.shx;34047-01
  7
blockfont
210
0.0
220
0.0
230
1.0
 73
     2
 44
0.903614
  0
MTEXT
  5
157
100
AcDbEntity
 67
     1
  8
1
390
0
  6
Continuous
 62
     7
100
AcDbMText
 10
0.689637
 20
8.015177
 30
0.0
 40
0.070866
 41
0.0
 71
     7
 72
     5
  1
\W01.000;\fsimplex.shx;THIS COPY IS PROVIDED ON A RESTRICTED BASIS AND IS NOT TO BE USED IN ANY WAY DETRIMENTAL TO THE INTERESTS OF PANDUIT CORP.
  7
blockfont
210
0.0
220
0.0
230
1.0
 73
     2
 44
0.903614
  0
MTEXT
  5
158
100
AcDbEntity
 67
     1
  8
1
390
0
  6
Continuous
 62
     7
100
AcDbMText
 10
8.233554
 20
1.132022
 30
0.0
 40
0.06728
 41
0.0
 71
     7
 72
     5
  1
\W01.000;\fsimplex.shx;-
  7
blockfont
210
0.0
220
0.0
230
1.0
 73
     2
 44
0.903614
  0
MTEXT
  5
159
100
AcDbEntity
 67
     1
  8
1
390
0
  6
Continuous
 62
     7
100
AcDbMText
 10
8.45523
 20
4.601315
 30
0.0
 40
0.09
 41
0.0
 71
     7
 72
     5
  1
\W01.000;\fsimplex.shx;.82
  7
blockfont
210
0.0
220
0.0
230
1.0
 73
     2
 44
0.903614
  0
MTEXT
  5
15A
100
AcDbEntity
 67
     1
  8
1
390
0
  6
Continuous
 62
     7
100
AcDbMText
 10
10.020597
 20
4.972902
 30
0.0
 40
0.09
 41
0.0
 71
     7
 72
     5
  1
\W01.000;\fsimplex.shx;.04
  7
blockfont
210
0.0
220
0.0
230
1.0
 73
     2
 44
0.903614
  0
MTEXT
  5
15B
100
AcDbEntity
 67
     1
  8
1
390
0
  6
Continuous
 62
     7
100
AcDbMText
 10
6.991983
 20
2.049207
 30
0.0
 40
0.261645
 41
0.0
 71
     7
 72
     5
  1
\W01.000;\fsimplex.shx;ANDUIT
  7
blockfont
210
0.0
220
0.0
230
1.0
 73
     2
 44
0.903614
  0
MTEXT
  5
15C
100
AcDbEntity
 67
     1
  8
1
390
0
  6
Continuous
 62
     7
100
AcDbMText
 10
1.217738
 20
0.829706
 30
0.0
 40
0.072
 41
0.0
 71
     7
 72
     5
  1
\W01.000;\fsimplex.shx;DW
  7
blockfont
210
0.0
220
0.0
230
1.0
 73
     2
 44
0.903614
  0
MTEXT
  5
15D
100
AcDbEntity
 67
     1
  8
1
390
0
  6
Continuous
 62
     7
100
AcDbMText
 10
5.376071
 20
7.589809
 30
0.0
 40
0.09
 41
0.0
 71
     7
 72
     5
  1
\W01.000;\fsimplex.shx;       DESIGNATION FOR COLOR AND PACKAGE SIZE.
  7
blockfont
210
0.0
220
0.0
230
1.0
 73
     2
 44
0.903614
  0
MTEXT
  5
15E
100
AcDbEntity
 67
     1
  8
1
390
0
  6
Continuous
 62
     7
100
AcDbMText
 10
10.330238
 20
2.878599
 30
0.0
 40
0.09
 41
0.0
 71
     7
 72
     5
  1
\W01.000;\fsimplex.shx;C
  7
blockfont
210
0.0
220
0.0
230
1.0
 73
     2
 44
0.903614
  0
MTEXT
  5
15F
100
AcDbEntity
 67
     1
  8
1
390
0
  6
Continuous
 62
     7
100
AcDbMText
 10
7.822055
 20
0.712969
 30
0.0
 40
0.093
 41
0.0
 71
     7
 72
     5
  1
\W01.000;\fsimplex.shx;POLYVINYL
  7
blockfont
210
0.0
220
0.0
230
1.0
 73
     2
 44
0.903614
  0
MTEXT
  5
160
100
AcDbEntity
 67
     1
  8
1
390
0
  6
Continuous
 62
     7
100
AcDbMText
 10
5.028754
 20
5.578028
 30
0.0
 40
0.09
 41
0.0
 71
     7
 72
     5
  1
\W01.000;\fsimplex.shx;WEIGHT
  7
blockfont
210
0.0
220
0.0
230
1.0
 73
     2
 44
0.903614
  0
MTEXT
  5
161
100
AcDbEntity
 67
     1
  8
1
390
0
  6
Continuous
 62
     7
100
AcDbMText
 10
6.821076
 20
1.162425
 30
0.0
 40
0.059805
 41
0.0
 71
     7
 72
     5
  1
\W01.000;\fsimplex.shx;(.X)  +
  7
blockfont
210
0.0
220
0.0
230
1.0
 73
     2
 44
0.903614
  0
MTEXT
  5
162
100
AcDbEntity
 67
     1
  8
1
390
0
  6
Continuous
 62
     7
100
AcDbMText
 10
3.385001
 20
3.798485
 30
0.0
 40
0.09
 41
0.0
 71
     7
 72
     5
  1
\W01.000;\fsimplex.shx;1.23(31.2)
  7
blockfont
210
0.0
220
0.0
230
1.0
 73
     2
 44
0.903614
  0
MTEXT
  5
163
100
AcDbEntity
 67
     1
  8
1
390
0
  6
Continuous
 62
     7
100
AcDbMText
 10
0.430357
 20
5.020813
 30
0.0
 40
0.075
 41
0.0
 71
     7
 72
     5
  1
\W01.000;\fsimplex.shx;C
  7
blockfont
210
0.0
220
0.0
230
1.0
 73
     2
 44
0.903614
  0
MTEXT
  5
164
100
AcDbEntity
 67
     1
  8
1
390
0
  6
Continuous
 62
     7
100
AcDbMText
 10
2.082021
 20
4.055939
 30
0.0
 40
0.09
 41
0.0
 71
     7
 72
     5
  1
\W01.000;\fsimplex.shx;CSP1.5LG-Q
  7
blockfont
210
0.0
220
0.0
230
1.0
 73
     2
 44
0.903614
  0
MTEXT
  5
165
100
AcDbEntity
 67
     1
  8
1
390
0
  6
Continuous
 62
     7
100
AcDbMText
 10
10.484706
 20
0.649206
 30
0.0
 40
0.037378
 41
0.0
 71
     7
 72
     5
  1
\W01.000;\fsimplex.shx;DWG
  7
blockfont
210
0.0
220
0.0
230
1.0
 73
     2
 44
0.903614
  0
MTEXT
  5
166
100
AcDbEntity
 67
     1
  8
1
390
0
  6
Continuous
 62
     7
100
AcDbMText
 10
4.848963
 20
4.045212
 30
0.0
 40
0.09
 41
0.0
 71
     7
 72
     5
  1
\W01.000;\fsimplex.shx;.60/(272)
  7
blockfont
210
0.0
220
0.0
230
1.0
 73
     2
 44
0.903614
  0
MTEXT
  5
167
100
AcDbEntity
 67
     1
  8
1
390
0
  6
Continuous
 62
     7
100
AcDbMText
 10
9.219542
 20
1.254298
 30
0.0
 40
0.037378
 41
0.0
 71
     7
 72
     5
  1
\W01.000;\fsimplex.shx;ALL DIMENSIONS ARE GIVEN
  7
blockfont
210
0.0
220
0.0
230
1.0
 73
     2
 44
0.903614
  0
MTEXT
  5
168
100
AcDbEntity
 67
     1
  8
1
390
0
  6
Continuous
 62
     7
100
AcDbMText
 10
0.395758
 20
0.314102
 30
0.0
 40
0.059805
 41
0.0
 71
     7
 72
     5
  1
\W01.000;\fsimplex.shx;REV
  7
blockfont
210
0.0
220
0.0
230
1.0
 73
     2
 44
0.903614
  0
MTEXT
  5
169
100
AcDbEntity
 67
     1
  8
1
390
0
  6
Continuous
 62
     7
100
AcDbMText
 10
7.129479
 20
1.677008
 30
0.0
 40
0.115
 41
0.0
 71
     7
 72
     5
  1
\W01.000;\fsimplex.shx;6 FOOT LENGTHS AND PIECES
  7
blockfont
210
0.0
220
0.0
230
1.0
 73
     2
 44
0.903614
  0
MTEXT
  5
16A
100
AcDbEntity
 67
     1
  8
1
390
0
  6
Continuous
 62
     7
100
AcDbMText
 10
3.580939
 20
5.578028
 30
0.0
 40
0.09
 41
0.0
 71
     7
 72
     5
  1
\W01.000;\fsimplex.shx;LENGTH
  7
blockfont
210
0.0
220
0.0
230
1.0
 73
     2
 44
0.903614
  0
MTEXT
  5
16B
100
AcDbEntity
 67
     1
  8
1
390
0
  6
Continuous
 62
     7
100
AcDbMText
 10
1.0921
 20
4.756347
 30
0.0
 40
0.09
 41
0.0
 71
     7
 72
     5
  1
\W01.000;\fsimplex.shx;PART
  7
blockfont
210
0.0
220
0.0
230
1.0
 73
     2
 44
0.903614
  0
MTEXT
  5
16C
100
AcDbEntity
 67
     1
  8
1
390
0
  6
Continuous
 62
     7
100
AcDbMText
 10
8.880863
 20
6.577492
 30
0.0
 40
0.09
 41
0.0
 71
     7
 72
     5
  1
\W01.000;\fsimplex.shx;(1.5
  7
blockfont
210
0.0
220
0.0
230
1.0
 73
     2
 44
0.903614
  0
MTEXT
  5
16D
100
AcDbEntity
 67
     1
  8
1
390
0
  6
Continuous
 62
     7
100
AcDbMText
 10
5.028754
 20
4.823847
 30
0.0
 40
0.09
 41
0.0
 71
     7
 72
     5
  1
\W01.000;\fsimplex.shx;WEIGHT
  7
blockfont
210
0.0
220
0.0
230
1.0
 73
     2
 44
0.903614
  0
MTEXT
  5
16E
100
AcDbEntity
 67
     1
  8
1
390
0
  6
Continuous
 62
     7
100
AcDbMText
 10
0.98331
 20
3.944213
 30
0.0
 40
0.09
 41
0.0
 71
     7
 72
     5
  1
\W01.000;\fsimplex.shx;CORNER
  7
blockfont
210
0.0
220
0.0
230
1.0
 73
     2
 44
0.903614
  0
MTEXT
  5
16F
100
AcDbEntity
 67
     1
  8
1
390
0
  6
Continuous
 62
     7
100
AcDbMText
 10
0.437375
 20
0.829706
 30
0.0
 40
0.072
 41
0.0
 71
     7
 72
     5
  1
\W01.000;\fsimplex.shx;1
  7
blockfont
210
0.0
220
0.0
230
1.0
 73
     2
 44
0.903614
  0
MTEXT
  5
170
100
AcDbEntity
 67
     1
  8
1
390
0
  6
Continuous
 62
     7
100
AcDbMText
 10
1.179375
 20
0.57575
 30
0.0
 40
0.072
 41
0.0
 71
     7
 72
     5
  1
\W01.000;\fsimplex.shx;LDB
  7
blockfont
210
0.0
220
0.0
230
1.0
 73
     2
 44
0.903614
  0
MTEXT
  5
171
100
AcDbEntity
 67
     1
  8
1
390
0
  6
Continuous
 62
     7
100
AcDbMText
 10
5.901821
 20
0.314102
 30
0.0
 40
0.059805
 41
0.0
 71
     7
 72
     5
  1
\W01.000;\fsimplex.shx;SUP
  7
blockfont
210
0.0
220
0.0
230
1.0
 73
     2
 44
0.903614
  0
MTEXT
  5
172
100
AcDbEntity
 67
     1
  8
1
390
0
  6
Continuous
 62
     7
100
AcDbMText
 10
7.780139
 20
1.066465
 30
0.0
 40
0.059805
 41
0.0
 71
     7
 72
     5
  1
\W01.000;\fsimplex.shx;ANGLES +
  7
blockfont
210
0.0
220
0.0
230
1.0
 73
     2
 44
0.903614
  0
MTEXT
  5
173
100
AcDbEntity
 67
     1
  8
1
390
0
  6
Continuous
 62
     7
100
AcDbMText
 10
5.233606
 20
1.069971
 30
0.0
 40
0.059805
 41
0.0
 71
     7
 72
     5
  1
\W01.000;\fsimplex.shx;JKG
  7
blockfont
210
0.0
220
0.0
230
1.0
 73
     2
 44
0.903614
  0
MTEXT
  5
174
100
AcDbEntity
 67
     1
  8
1
390
0
  6
Continuous
 62
     7
100
AcDbMText
 10
1.0921
 20
5.375527
 30
0.0
 40
0.09
 41
0.0
 71
     7
 72
     5
  1
\W01.000;\fsimplex.shx;NAME
  7
blockfont
210
0.0
220
0.0
230
1.0
 73
     2
 44
0.903614
  0
MTEXT
  5
175
100
AcDbEntity
 67
     1
  8
1
390
0
  6
Continuous
 62
     7
100
AcDbMText
 10
2.249913
 20
4.553847
 30
0.0
 40
0.09
 41
0.0
 71
     7
 72
     5
  1
\W01.000;\fsimplex.shx;NUMBER
  7
blockfont
210
0.0
220
0.0
230
1.0
 73
     2
 44
0.903614
  0
MTEXT
  5
176
100
AcDbEntity
 67
     1
  8
1
390
0
  6
Continuous
 62
     7
100
AcDbMText
 10
2.179755
 20
3.294305
 30
0.0
 40
0.09
 41
0.0
 71
     7
 72
     5
  1
\W01.000;\fsimplex.shx;CSP4LG-Q
  7
blockfont
210
0.0
220
0.0
230
1.0
 73
     2
 44
0.903614
  0
MTEXT
  5
177
100
AcDbEntity
 67
     1
  8
1
390
0
  6
Continuous
 62
     7
100
AcDbMText
 10
8.26604
 20
2.602752
 30
0.0
 40
0.09
 41
0.0
 71
     7
 72
     5
  1
\W01.000;\fsimplex.shx;D34047BA_CSP_C_02A.PRT
  7
blockfont
210
0.0
220
0.0
230
1.0
 73
     2
 44
0.903614
  0
MTEXT
  5
178
100
AcDbEntity
 67
     1
  8
1
390
0
  6
Continuous
 62
     7
100
AcDbMText
 10
6.690143
 20
1.849508
 30
0.0
 40
0.115
 41
0.0
 71
     7
 72
     5
  1
\W01.000;\fsimplex.shx;CORNER STRIP (CS1**6 & CSP*LG-Q)
  7
blockfont
210
0.0
220
0.0
230
1.0
 73
     2
 44
0.903614
  0
MTEXT
  5
179
100
AcDbEntity
 67
     1
  8
1
390
0
  6
Continuous
 62
     7
100
AcDbMText
 10
2.249913
 20
5.308028
 30
0.0
 40
0.09
 41
0.0
 71
     7
 72
     5
  1
\W01.000;\fsimplex.shx;NUMBER
  7
blockfont
210
0.0
220
0.0
230
1.0
 73
     2
 44
0.903614
  0
MTEXT
  5
17A
100
AcDbEntity
 67
     1
  8
1
390
0
  6
Continuous
 62
     7
100
AcDbMText
 10
7.872914
 20
0.573469
 30
0.0
 40
0.093
 41
0.0
 71
     7
 72
     5
  1
\W01.000;\fsimplex.shx;CHLORIDE
  7
blockfont
210
0.0
220
0.0
230
1.0
 73
     2
 44
0.903614
  0
MTEXT
  5
17B
100
AcDbEntity
 67
     1
  8
1
390
0
  6
Continuous
 62
     7
100
AcDbMText
 10
8.66705
 20
1.100341
 30
0.0
 40
0.075
 41
0.0
 71
     7
 72
     5
  1
\W01.000;\fsimplex.shx;B
  7
blockfont
210
0.0
220
0.0
230
1.0
 73
     2
 44
0.903614
  0
MTEXT
  5
17C
100
AcDbEntity
 67
     1
  8
1
390
0
  6
Continuous
 62
     7
100
AcDbMText
 10
9.273488
 20
6.757492
 30
0.0
 40
0.09
 41
0.0
 71
     7
 72
     5
  1
\W01.000;\fsimplex.shx;.03
  7
blockfont
210
0.0
220
0.0
230
1.0
 73
     2
 44
0.903614
  0
MTEXT
  5
17D
100
AcDbEntity
 67
     1
  8
1
390
0
  6
Continuous
 62
     7
100
AcDbMText
 10
3.679376
 20
4.553847
 30
0.0
 40
0.09
 41
0.0
 71
     7
 72
     5
  1
\W01.000;\fsimplex.shx;(mm)
  7
blockfont
210
0.0
220
0.0
230
1.0
 73
     2
 44
0.903614
  0
MTEXT
  5
17E
100
AcDbEntity
 67
     1
  8
1
390
0
  6
Continuous
 62
     7
100
AcDbMText
 10
6.918695
 20
0.312829
 30
0.0
 40
0.08
 41
0.0
 71
     7
 72
     5
  1
\W01.000;\fsimplex.shx;WJB
  7
blockfont
210
0.0
220
0.0
230
1.0
 73
     2
 44
0.903614
  0
MTEXT
  5
17F
100
AcDbEntity
 67
     1
  8
1
390
0
  6
Continuous
 62
     7
100
AcDbMText
 10
9.223091
 20
1.409566
 30
0.0
 40
0.037378
 41
0.0
 71
     7
 72
     5
  1
\W01.000;\fsimplex.shx;UNLESS OTHERWISE SPECIFIED,
  7
blockfont
210
0.0
220
0.0
230
1.0
 73
     2
 44
0.903614
  0
MTEXT
  5
180
100
AcDbEntity
 67
     1
  8
1
390
0
  6
Continuous
 62
     7
100
AcDbMText
 10
5.028754
 20
5.443027
 30
0.0
 40
0.09
 41
0.0
 71
     7
 72
     5
  1
\W01.000;\fsimplex.shx;lb/(g)
  7
blockfont
210
0.0
220
0.0
230
1.0
 73
     2
 44
0.903614
  0
MTEXT
  5
181
100
AcDbEntity
 67
     1
  8
1
390
0
  6
Continuous
 62
     7
100
AcDbMText
 10
6.814517
 20
1.290371
 30
0.0
 40
0.059805
 41
0.0
 71
     7
 72
     5
  1
\W01.000;\fsimplex.shx;DIMENSIONAL TOLERANCES ARE:
  7
blockfont
210
0.0
220
0.0
230
1.0
 73
     2
 44
0.903614
  0
MTEXT
  5
182
100
AcDbEntity
 67
     1
  8
1
390
0
  6
Continuous
 62
     7
100
AcDbMText
 10
9.223454
 20
0.927089
 30
0.0
 40
0.037378
 41
0.0
 71
     7
 72
     5
  1
\W01.000;\fsimplex.shx;SCALE
  7
blockfont
210
0.0
220
0.0
230
1.0
 73
     2
 44
0.903614
  0
MTEXT
  5
183
100
AcDbEntity
 67
     1
  8
1
390
0
  6
Continuous
 62
     7
100
AcDbMText
 10
3.679376
 20
5.308028
 30
0.0
 40
0.09
 41
0.0
 71
     7
 72
     5
  1
\W01.000;\fsimplex.shx;(mm)
  7
blockfont
210
0.0
220
0.0
230
1.0
 73
     2
 44
0.903614
  0
MTEXT
  5
184
100
AcDbEntity
 67
     1
  8
1
390
0
  6
Continuous
 62
     7
100
AcDbMText
 10
0.699609
 20
0.593854
 30
0.0
 40
0.05
 41
0.0
 71
     7
 72
     5
  1
\W01.000;\fsimplex.shx;10-3-86
  7
blockfont
210
0.0
220
0.0
230
1.0
 73
     2
 44
0.903614
  0
MTEXT
  5
185
100
AcDbEntity
 67
     1
  8
1
390
0
  6
Continuous
 62
     7
100
AcDbMText
 10
6.697438
 20
0.54075
 30
0.0
 40
0.072
 41
0.0
 71
     7
 72
     5
  1
\W01.000;\fsimplex.shx;10-3-86
  7
blockfont
210
0.0
220
0.0
230
1.0
 73
     2
 44
0.903614
  0
MTEXT
  5
186
100
AcDbEntity
 67
     1
  8
1
390
0
  6
Continuous
 62
     7
100
AcDbMText
 10
9.223891
 20
0.683192
 30
0.0
 40
0.037378
 41
0.0
 71
     7
 72
     5
  1
\W01.000;\fsimplex.shx;DRAWING NO.
  7
blockfont
210
0.0
220
0.0
230
1.0
 73
     2
 44
0.903614
  0
MTEXT
  5
187
100
AcDbEntity
 67
     1
  8
1
390
0
  6
Continuous
 62
     7
100
AcDbMText
 10
6.636288
 20
0.931754
 30
0.0
 40
0.037378
 41
0.0
 71
     7
 72
     5
  1
\W01.000;\fsimplex.shx;DRAWN BY
  7
blockfont
210
0.0
220
0.0
230
1.0
 73
     2
 44
0.903614
  0
MTEXT
  5
188
100
AcDbEntity
 67
     1
  8
1
390
0
  6
Continuous
 62
     7
100
AcDbMText
 10
5.564608
 20
1.317817
 30
0.0
 40
0.08
 41
0.0
 71
     7
 72
     5
  1
\W01.000;\fsimplex.shx;JKG
  7
blockfont
210
0.0
220
0.0
230
1.0
 73
     2
 44
0.903614
  0
MTEXT
  5
189
100
AcDbEntity
 67
     1
  8
1
390
0
  6
Continuous
 62
     7
100
AcDbMText
 10
2.249913
 20
4.688847
 30
0.0
 40
0.09
 41
0.0
 71
     7
 72
     5
  1
\W01.000;\fsimplex.shx;PART 
  7
blockfont
210
0.0
220
0.0
230
1.0
 73
     2
 44
0.903614
  0
MTEXT
  5
18A
100
AcDbEntity
 67
     1
  8
1
390
0
  6
Continuous
 62
     7
100
AcDbMText
 10
6.622451
 20
2.722241
 30
0.0
 40
0.037378
 41
0.0
 71
     7
 72
     5
  1
\W01.000;\fsimplex.shx;CAD FILENAME/LAYERS
  7
blockfont
210
0.0
220
0.0
230
1.0
 73
     2
 44
0.903614
  0
MTEXT
  5
18B
100
AcDbEntity
 67
     1
  8
1
390
0
  6
Continuous
 62
     7
100
AcDbMText
 10
9.371176
 20
6.577492
 30
0.0
 40
0.09
 41
0.0
 71
     7
 72
     5
  1
\W01.000;\fsimplex.shx;.08)
  7
blockfont
210
0.0
220
0.0
230
1.0
 73
     2
 44
0.903614
  0
MTEXT
  5
18C
100
AcDbEntity
 67
     1
  8
1
390
0
  6
Continuous
 62
     7
100
AcDbMText
 10
0.712121
 20
5.060041
 30
0.0
 40
0.09
 41
0.0
 71
     7
 72
     5
  1
\W01.000;\fsimplex.shx;CORNER STRIP
  7
blockfont
210
0.0
220
0.0
230
1.0
 73
     2
 44
0.903614
  0
MTEXT
  5
18D
100
AcDbEntity
 67
     1
  8
1
390
0
  6
Continuous
 62
     7
100
AcDbMText
 10
2.249913
 20
5.443027
 30
0.0
 40
0.09
 41
0.0
 71
     7
 72
     5
  1
\W01.000;\fsimplex.shx;PART 
  7
blockfont
210
0.0
220
0.0
230
1.0
 73
     2
 44
0.903614
  0
MTEXT
  5
18E
100
AcDbEntity
 67
     1
  8
1
390
0
  6
Continuous
 62
     7
100
AcDbMText
 10
4.653306
 20
5.056847
 30
0.0
 40
0.09
 41
0.0
 71
     7
 72
     5
  1
\W01.000;\fsimplex.shx;0.728/(330.2)
  7
blockfont
210
0.0
220
0.0
230
1.0
 73
     2
 44
0.903614
  0
MTEXT
  5
18F
100
AcDbEntity
 67
     1
  8
1
390
0
  6
Continuous
 62
     7
100
AcDbMText
 10
5.47369
 20
7.536171
 30
0.0
 40
0.09
 41
0.0
 71
     7
 72
     5
  1
\W01.000;\fsimplex.shx;D
  7
blockfont
210
0.0
220
0.0
230
1.0
 73
     2
 44
0.903614
  0
MTEXT
  5
190
100
AcDbEntity
 67
     1
  8
1
390
0
  6
Continuous
 62
     7
100
AcDbMText
 10
3.384532
 20
4.034485
 30
0.0
 40
0.09
 41
0.0
 71
     7
 72
     5
  1
\W01.000;\fsimplex.shx;1.04(26.4)
  7
blockfont
210
0.0
220
0.0
230
1.0
 73
     2
 44
0.903614
  0
MTEXT
  5
191
100
AcDbEntity
 67
     1
  8
1
390
0
  6
Continuous
 62
     7
100
AcDbMText
 10
3.385001
 20
3.305032
 30
0.0
 40
0.09
 41
0.0
 71
     7
 72
     5
  1
\W01.000;\fsimplex.shx;3.25(82.6)
  7
blockfont
210
0.0
220
0.0
230
1.0
 73
     2
 44
0.903614
  0
MTEXT
  5
192
100
AcDbEntity
 67
     1
  8
1
390
0
  6
Continuous
 62
     7
100
AcDbMText
 10
6.788747
 20
6.480848
 30
0.0
 40
0.09
 41
0.0
 71
     7
 72
     5
  1
\W01.000;\fsimplex.shx;LENGTH
  7
blockfont
210
0.0
220
0.0
230
1.0
 73
     2
 44
0.903614
  0
MTEXT
  5
193
100
AcDbEntity
 67
     1
  8
1
390
0
  6
Continuous
 62
     7
100
AcDbMText
 10
2.179755
 20
3.551759
 30
0.0
 40
0.09
 41
0.0
 71
     7
 72
     5
  1
\W01.000;\fsimplex.shx;CSP3LG-Q
  7
blockfont
210
0.0
220
0.0
230
1.0
 73
     2
 44
0.903614
  0
MTEXT
  5
194
100
AcDbEntity
 67
     1
  8
1
390
0
  6
Continuous
 62
     7
100
AcDbMText
 10
3.77711
 20
5.443027
 30
0.0
 40
0.09
 41
0.0
 71
     7
 72
     5
  1
\W01.000;\fsimplex.shx;IN
  7
blockfont
210
0.0
220
0.0
230
1.0
 73
     2
 44
0.903614
  0
MTEXT
  5
195
100
AcDbEntity
 67
     1
  8
1
390
0
  6
Continuous
 62
     7
100
AcDbMText
 10
4.822089
 20
3.541031
 30
0.0
 40
0.09
 41
0.0
 71
     7
 72
     5
  1
\W01.000;\fsimplex.shx;1.60/(725)
  7
blockfont
210
0.0
220
0.0
230
1.0
 73
     2
 44
0.903614
  0
MTEXT
  5
196
100
AcDbEntity
 67
     1
  8
1
390
0
  6
Continuous
 62
     7
100
AcDbMText
 10
0.699323
 20
0.84781
 30
0.0
 40
0.05
 41
0.0
 71
     7
 72
     5
  1
\W01.000;\fsimplex.shx;8-18-94
  7
blockfont
210
0.0
220
0.0
230
1.0
 73
     2
 44
0.903614
  0
MTEXT
  5
197
100
AcDbEntity
 67
     1
  8
1
390
0
  6
Continuous
 62
     7
100
AcDbMText
 10
6.758117
 20
2.025067
 30
0.0
 40
0.336401
 41
0.0
 71
     7
 72
     5
  1
\W01.000;\fsimplex.shx;P
  7
blockfont
210
0.0
220
0.0
230
1.0
 73
     2
 44
0.903614
  0
MTEXT
  5
198
100
AcDbEntity
 67
     1
  8
1
390
0
  6
Continuous
 62
     7
100
AcDbMText
 10
9.496705
 20
5.92184
 30
0.0
 40
0.09
 41
0.0
 71
     7
 72
     5
  1
\W01.000;\fsimplex.shx;.04
  7
blockfont
210
0.0
220
0.0
230
1.0
 73
     2
 44
0.903614
  0
MTEXT
  5
199
100
AcDbEntity
 67
     1
  8
1
390
0
  6
Continuous
 62
     7
100
AcDbMText
 10
9.922535
 20
4.837902
 30
0.0
 40
0.09
 41
0.0
 71
     7
 72
     5
  1
\W01.000;\fsimplex.shx;(1.0)
  7
blockfont
210
0.0
220
0.0
230
1.0
 73
     2
 44
0.903614
  0
MTEXT
  5
19A
100
AcDbEntity
 67
     1
  8
1
390
0
  6
Continuous
 62
     7
100
AcDbMText
 10
1.13955
 20
1.083662
 30
0.0
 40
0.072
 41
0.0
 71
     7
 72
     5
  1
\W01.000;\fsimplex.shx;JCST
  7
blockfont
210
0.0
220
0.0
230
1.0
 73
     2
 44
0.903614
  0
MTEXT
  5
19B
100
AcDbEntity
 67
     1
  8
1
390
0
  6
Continuous
 62
     7
100
AcDbMText
 10
7.211317
 20
1.028733
 30
0.0
 40
0.06728
 41
0.0
 71
     7
 72
     5
  1
\W01.000;\fsimplex.shx;-
  7
blockfont
210
0.0
220
0.0
230
1.0
 73
     2
 44
0.903614
  0
MTEXT
  5
19C
100
AcDbEntity
 67
     1
  8
1
390
0
  6
Continuous
 62
     7
100
AcDbMText
 10
1.0921
 20
5.510528
 30
0.0
 40
0.09
 41
0.0
 71
     7
 72
     5
  1
\W01.000;\fsimplex.shx;PART
  7
blockfont
210
0.0
220
0.0
230
1.0
 73
     2
 44
0.903614
  0
MTEXT
  5
19D
100
AcDbEntity
 67
     1
  8
1
390
0
  6
Continuous
 62
     7
100
AcDbMText
 10
1.832922
 20
1.072482
 30
0.0
 40
0.06
 41
0.0
 71
     7
 72
     5
  1
\W01.000;\fsimplex.shx;C. ADDED CS1**6 - CHANGED TITLE BLOCK
  7
blockfont
210
0.0
220
0.0
230
1.0
 73
     2
 44
0.903614
  0
MTEXT
  5
19E
100
AcDbEntity
 67
     1
  8
1
390
0
  6
Continuous
 62
     7
100
AcDbMText
 10
9.055393
 20
6.073312
 30
0.0
 40
0.09
 41
0.0
 71
     7
 72
     5
  1
\W01.000;\fsimplex.shx;(10.6)
  7
blockfont
210
0.0
220
0.0
230
1.0
 73
     2
 44
0.903614
  0
MTEXT
  5
19F
100
AcDbEntity
 67
     1
  8
1
390
0
  6
Continuous
 62
     7
100
AcDbMText
 10
5.233606
 20
0.314102
 30
0.0
 40
0.059805
 41
0.0
 71
     7
 72
     5
  1
\W01.000;\fsimplex.shx;R
  7
blockfont
210
0.0
220
0.0
230
1.0
 73
     2
 44
0.903614
  0
MTEXT
  5
1A0
100
AcDbEntity
 67
     1
  8
1
390
0
  6
Continuous
 62
     7
100
AcDbMText
 10
7.211317
 20
1.124026
 30
0.0
 40
0.06728
 41
0.0
 71
     7
 72
     5
  1
\W01.000;\fsimplex.shx;-
  7
blockfont
210
0.0
220
0.0
230
1.0
 73
     2
 44
0.903614
  0
MTEXT
  5
1A1
100
AcDbEntity
 67
     1
  8
1
390
0
  6
Continuous
 62
     7
100
AcDbMText
 10
7.422528
 20
0.885736
 30
0.0
 40
0.056067
 41
0.0
 71
     7
 72
     5
  1
\W01.000;\fsimplex.shx;MAT'L:
  7
blockfont
210
0.0
220
0.0
230
1.0
 73
     2
 44
0.903614
  0
MTEXT
  5
1A2
100
AcDbEntity
 67
     1
  8
1
390
0
  6
Continuous
 62
     7
100
AcDbMText
 10
3.385001
 20
3.541031
 30
0.0
 40
0.09
 41
0.0
 71
     7
 72
     5
  1
\W01.000;\fsimplex.shx;2.27(57.7)
  7
blockfont
210
0.0
220
0.0
230
1.0
 73
     2
 44
0.903614
  0
MTEXT
  5
1A3
100
AcDbEntity
 67
     1
  8
1
390
0
  6
Continuous
 62
     7
100
AcDbMText
 10
1.466725
 20
0.839363
 30
0.0
 40
0.06
 41
0.0
 71
     7
 72
     5
  1
\W01.000;\fsimplex.shx;KRKI
  7
blockfont
210
0.0
220
0.0
230
1.0
 73
     2
 44
0.903614
  0
MTEXT
  5
1A4
100
AcDbEntity
 67
     1
  8
1
390
0
  6
Continuous
 62
     7
100
AcDbMText
 10
0.726276
 20
1.101767
 30
0.0
 40
0.05
 41
0.0
 71
     7
 72
     5
  1
\W01.000;\fsimplex.shx;9-7-01
  7
blockfont
210
0.0
220
0.0
230
1.0
 73
     2
 44
0.903614
  0
MTEXT
  5
1A5
100
AcDbEntity
 67
     1
  8
1
390
0
  6
Continuous
 62
     7
100
AcDbMText
 10
5.314587
 20
5.798471
 30
0.0
 40
0.09
 41
0.0
 71
     7
 72
     5
  1
\W01.000;\fsimplex.shx;A
  7
blockfont
210
0.0
220
0.0
230
1.0
 73
     2
 44
0.903614
  0
MTEXT
  5
1A6
100
AcDbEntity
 67
     1
  8
1
390
0
  6
Continuous
 62
     7
100
AcDbMText
 10
1.832922
 20
0.908526
 30
0.0
 40
0.06
 41
0.0
 71
     7
 72
     5
  1
\W01.000;\fsimplex.shx;B. ADDED TOLERANCES.
  7
blockfont
210
0.0
220
0.0
230
1.0
 73
     2
 44
0.903614
  0
MTEXT
  5
1A7
100
AcDbEntity
 67
     1
  8
1
390
0
  6
Continuous
 62
     7
100
AcDbMText
 10
3.237673
 20
5.046119
 30
0.0
 40
0.09
 41
0.0
 71
     7
 72
     5
  1
\W01.000;\fsimplex.shx;72.00(1828.7)
  7
blockfont
210
0.0
220
0.0
230
1.0
 73
     2
 44
0.903614
  0
MTEXT
  5
1A8
100
AcDbEntity
 67
     1
  8
1
390
0
  6
Continuous
 62
     7
100
AcDbMText
 10
4.870418
 20
3.798485
 30
0.0
 40
0.09
 41
0.0
 71
     7
 72
     5
  1
\W01.000;\fsimplex.shx;.80/(362)
  7
blockfont
210
0.0
220
0.0
230
1.0
 73
     2
 44
0.903614
  0
MTEXT
  5
1A9
100
AcDbEntity
 67
     1
  8
1
390
0
  6
Continuous
 62
     7
100
AcDbMText
 10
9.204498
 20
1.095031
 30
0.0
 40
0.037378
 41
0.0
 71
     7
 72
     5
  1
\W01.000;\fsimplex.shx;IN INCHES, THIRD ANGLE PROJECTION.
  7
blockfont
210
0.0
220
0.0
230
1.0
 73
     2
 44
0.903614
  0
MTEXT
  5
1AA
100
AcDbEntity
 67
     1
  8
1
390
0
  6
Continuous
 62
     7
100
AcDbMText
 10
4.561866
 20
0.834644
 30
0.0
 40
0.066
 41
0.0
 71
     7
 72
     5
  1
\W01.000;\fsimplex.shx;34047-01
  7
blockfont
210
0.0
220
0.0
230
1.0
 73
     2
 44
0.903614
  0
MTEXT
  5
1AB
100
AcDbEntity
 67
     1
  8
1
390
0
  6
Continuous
 62
     7
100
AcDbMText
 10
5.376071
 20
7.724809
 30
0.0
 40
0.09
 41
0.0
 71
     7
 72
     5
  1
\W01.000;\fsimplex.shx;    1. SEE CURRENT CATALOG FOR PART NUMBER SUFFIX 
  7
blockfont
210
0.0
220
0.0
230
1.0
 73
     2
 44
0.903614
  0
MTEXT
  5
1AC
100
AcDbEntity
 67
     1
  8
1
390
0
  6
Continuous
 62
     7
100
AcDbMText
 10
9.227029
 20
4.818223
 30
0.0
 40
0.09
 41
0.0
 71
     7
 72
     5
  1
\W01.000;\fsimplex.shx;(14.2)
  7
blockfont
210
0.0
220
0.0
230
1.0
 73
     2
 44
0.903614
  0
MTEXT
  5
1AD
100
AcDbEntity
 67
     1
  8
1
390
0
  6
Continuous
 62
     7
100
AcDbMText
 10
5.049683
 20
0.314102
 30
0.0
 40
0.059805
 41
0.0
 71
     7
 72
     5
  1
\W01.000;\fsimplex.shx;-
  7
blockfont
210
0.0
220
0.0
230
1.0
 73
     2
 44
0.903614
  0
MTEXT
  5
1AE
100
AcDbEntity
 67
     1
  8
1
390
0
  6
Continuous
 62
     7
100
AcDbMText
 10
2.147573
 20
4.302666
 30
0.0
 40
0.09
 41
0.0
 71
     7
 72
     5
  1
\W01.000;\fsimplex.shx;CSP1LG-Q
  7
blockfont
210
0.0
220
0.0
230
1.0
 73
     2
 44
0.903614
  0
MTEXT
  5
1AF
100
AcDbEntity
 67
     1
  8
1
390
0
  6
Continuous
 62
     7
100
AcDbMText
 10
9.343958
 20
0.387708
 30
0.0
 40
0.1
 41
0.0
 71
     7
 72
     5
  1
\W01.000;\fsimplex.shx;34047-01
  7
blockfont
210
0.0
220
0.0
230
1.0
 73
     2
 44
0.903614
  0
MTEXT
  5
1B0
100
AcDbEntity
 67
     1
  8
1
390
0
  6
Continuous
 62
     7
100
AcDbMText
 10
4.849479
 20
4.302666
 30
0.0
 40
0.09
 41
0.0
 71
     7
 72
     5
  1
\W01.000;\fsimplex.shx;.49/(222)
  7
blockfont
210
0.0
220
0.0
230
1.0
 73
     2
 44
0.903614
  0
MTEXT
  5
1B1
100
AcDbEntity
 67
     1
  8
1
390
0
  6
Continuous
 62
     7
100
AcDbMText
 10
6.637402
 20
0.440627
 30
0.0
 40
0.037378
 41
0.0
 71
     7
 72
     5
  1
\W01.000;\fsimplex.shx;CHK'D
  7
blockfont
210
0.0
220
0.0
230
1.0
 73
     2
 44
0.903614
  0
MTEXT
  5
1B2
100
AcDbEntity
 67
     1
  8
1
390
0
  6
Continuous
 62
     7
100
AcDbMText
 10
2.249913
 20
5.578028
 30
0.0
 40
0.09
 41
0.0
 71
     7
 72
     5
  1
\W01.000;\fsimplex.shx;PANDUIT
  7
blockfont
210
0.0
220
0.0
230
1.0
 73
     2
 44
0.903614
  0
MTEXT
  5
1B3
100
AcDbEntity
 67
     1
  8
1
390
0
  6
Continuous
 62
     7
100
AcDbMText
 10
4.980238
 20
5.308028
 30
0.0
 40
0.09
 41
0.0
 71
     7
 72
     5
  1
\W01.000;\fsimplex.shx;PER pcs
  7
blockfont
210
0.0
220
0.0
230
1.0
 73
     2
 44
0.903614
  0
MTEXT
  5
1B4
100
AcDbEntity
 67
     1
  8
1
390
0
  6
Continuous
 62
     7
100
AcDbMText
 10
5.212562
 20
0.57575
 30
0.0
 40
0.072
 41
0.0
 71
     7
 72
     5
  1
\W01.000;\fsimplex.shx;R
  7
blockfont
210
0.0
220
0.0
230
1.0
 73
     2
 44
0.903614
  0
MTEXT
  5
1B5
100
AcDbEntity
 67
     1
  8
1
390
0
  6
Continuous
 62
     7
100
AcDbMText
 10
0.437375
 20
1.083662
 30
0.0
 40
0.072
 41
0.0
 71
     7
 72
     5
  1
\W01.000;\fsimplex.shx;2
  7
blockfont
210
0.0
220
0.0
230
1.0
 73
     2
 44
0.903614
  0
MTEXT
  5
1B6
100
AcDbEntity
 67
     1
  8
1
390
0
  6
Continuous
 62
     7
100
AcDbMText
 10
1.490291
 20
0.314102
 30
0.0
 40
0.059805
 41
0.0
 71
     7
 72
     5
  1
\W01.000;\fsimplex.shx;CHK
  7
blockfont
210
0.0
220
0.0
230
1.0
 73
     2
 44
0.903614
  0
MTEXT
  5
1B7
100
AcDbEntity
 67
     1
  8
1
390
0
  6
Continuous
 62
     7
100
AcDbMText
 10
9.398643
 20
5.78684
 30
0.0
 40
0.09
 41
0.0
 71
     7
 72
     5
  1
\W01.000;\fsimplex.shx;(1.0)
  7
blockfont
210
0.0
220
0.0
230
1.0
 73
     2
 44
0.903614
  0
MTEXT
  5
1B8
100
AcDbEntity
 67
     1
  8
1
390
0
  6
Continuous
 62
     7
100
AcDbMText
 10
6.814517
 20
1.394327
 30
0.0
 40
0.059805
 41
0.0
 71
     7
 72
     5
  1
\W01.000;\fsimplex.shx;UNLESS OTHERWISE SPECIFIED,
  7
blockfont
210
0.0
220
0.0
230
1.0
 73
     2
 44
0.903614
  0
MTEXT
  5
1B9
100
AcDbEntity
 67
     1
  8
1
390
0
  6
Continuous
 62
     7
100
AcDbMText
 10
9.685301
 20
5.150828
 30
0.0
 40
0.09
 41
0.0
 71
     7
 72
     5
  1
\W01.000;\fsimplex.shx;B
  7
blockfont
210
0.0
220
0.0
230
1.0
 73
     2
 44
0.903614
  0
MTEXT
  5
1BA
100
AcDbEntity
 67
     1
  8
1
390
0
  6
Continuous
 62
     7
100
AcDbMText
 10
1.471725
 20
1.317817
 30
0.0
 40
0.08
 41
0.0
 71
     7
 72
     5
  1
\W01.000;\fsimplex.shx;JKG
  7
blockfont
210
0.0
220
0.0
230
1.0
 73
     2
 44
0.903614
  0
MTEXT
  5
1BB
100
AcDbEntity
 67
     1
  8
1
390
0
  6
Continuous
 62
     7
100
AcDbMText
 10
5.187567
 20
1.317817
 30
0.0
 40
0.08
 41
0.0
 71
     7
 72
     5
  1
\W01.000;\fsimplex.shx;JKG
  7
blockfont
210
0.0
220
0.0
230
1.0
 73
     2
 44
0.903614
  0
MTEXT
  5
1BC
100
AcDbEntity
 67
     1
  8
1
390
0
  6
Continuous
 62
     7
100
AcDbMText
 10
3.808644
 20
5.808356
 30
0.0
 40
0.09
 41
0.0
 71
     7
 72
     5
  1
\W01.000;\fsimplex.shx;A
  7
blockfont
210
0.0
220
0.0
230
1.0
 73
     2
 44
0.903614
  0
MTEXT
  5
1BD
100
AcDbEntity
 67
     1
  8
1
390
0
  6
Continuous
 62
     7
100
AcDbMText
 10
5.376071
 20
7.859809
 30
0.0
 40
0.09
 41
0.0
 71
     7
 72
     5
  1
\W01.000;\fsimplex.shx;NOTE:
  7
blockfont
210
0.0
220
0.0
230
1.0
 73
     2
 44
0.903614
  0
MTEXT
  5
1BE
100
AcDbEntity
 67
     1
  8
1
390
0
  6
Continuous
 62
     7
100
AcDbMText
 10
2.245308
 20
5.056847
 30
0.0
 40
0.09
 41
0.0
 71
     7
 72
     5
  1
\W01.000;\fsimplex.shx;CS1**6
  7
blockfont
210
0.0
220
0.0
230
1.0
 73
     2
 44
0.903614
  0
MTEXT
  5
1BF
100
AcDbEntity
 67
     1
  8
1
390
0
  6
Continuous
 62
     7
100
AcDbMText
 10
8.663751
 20
2.106225
 30
0.0
 40
0.074756
 41
0.0
 71
     7
 72
     5
  1
\W01.000;\fsimplex.shx;CORP.
  7
blockfont
210
0.0
220
0.0
230
1.0
 73
     2
 44
0.903614
  0
MTEXT
  5
1C0
100
AcDbEntity
 67
     1
  8
1
390
0
  6
Continuous
 62
     7
100
AcDbMText
 10
9.102099
 20
4.304124
 30
0.0
 40
0.09
 41
0.0
 71
     7
 72
     5
  1
\W01.000;\fsimplex.shx;(1.0)
  7
blockfont
210
0.0
220
0.0
230
1.0
 73
     2
 44
0.903614
  0
MTEXT
  5
1C1
100
AcDbEntity
 67
     1
  8
1
390
0
  6
Continuous
 62
     7
100
AcDbMText
 10
3.433845
 20
4.291939
 30
0.0
 40
0.09
 41
0.0
 71
     7
 72
     5
  1
\W01.000;\fsimplex.shx;.47(11.9)
  7
blockfont
210
0.0
220
0.0
230
1.0
 73
     2
 44
0.903614
  0
MTEXT
  5
1C2
100
AcDbEntity
 67
     1
  8
1
390
0
  6
Continuous
 62
     7
100
AcDbMText
 10
4.980238
 20
4.553847
 30
0.0
 40
0.09
 41
0.0
 71
     7
 72
     5
  1
\W01.000;\fsimplex.shx;100 pcs
  7
blockfont
210
0.0
220
0.0
230
1.0
 73
     2
 44
0.903614
  0
MTEXT
  5
1C3
100
AcDbEntity
 67
     1
  8
1
390
0
  6
Continuous
 62
     7
100
AcDbMText
 10
7.248527
 20
1.06749
 30
0.0
 40
0.055
 41
0.0
 71
     7
 72
     5
  1
\W01.000;\fsimplex.shx;.060(1.5)
  7
blockfont
210
0.0
220
0.0
230
1.0
 73
     2
 44
0.903614
  0
MTEXT
  5
1C4
100
AcDbEntity
 67
     1
  8
1
390
0
  6
Continuous
 62
     7
100
AcDbMText
 10
9.715625
 20
0.772135
 30
0.0
 40
0.125
 41
0.0
 71
     7
 72
     5
  1
\W01.000;\fsimplex.shx;FULL
  7
blockfont
210
0.0
220
0.0
230
1.0
 73
     2
 44
0.903614
  0
MTEXT
  5
1C5
100
AcDbEntity
 67
     1
  8
1
390
0
  6
Continuous
 62
     7
100
AcDbMText
 10
1.032529
 20
3.674213
 30
0.0
 40
0.09
 41
0.0
 71
     7
 72
     5
  1
\W01.000;\fsimplex.shx;PIECE
  7
blockfont
210
0.0
220
0.0
230
1.0
 73
     2
 44
0.903614
  0
ENDSEC
  0
SECTION
  2
OBJECTS
  0
DICTIONARY
  5
19
100
AcDbDictionary
280
     0
281
     1
  3
ACAD_GROUP
350
1A
  3
ACAD_MLINESTYLE
350
1B
  3
ACAD_LAYOUT
350
1E
  3
ACAD_PLOTSETTINGS
350
22
  3
ACAD_PLOTSTYLENAME
350
1F
  3
ACAD_WIPEOUT_VARS
350
23
  0
DICTIONARY
  5
1A
102
{ACAD_REACTORS
330
19
102
}
100
AcDbDictionary
280
     0
281
     1
  0
DICTIONARY
  5
1B
102
{ACAD_REACTORS
330
19
102
}
100
AcDbDictionary
280
     0
281
     1
  3
Standard
350
1C
  0
MLINESTYLE
  5
1C
102
{ACAD_REACTORS
330
1B
102
}
100
AcDbMlineStyle
  2
Standard
 70
     0
  3

 62
     0
 51
90.0
 52
90.0
 71
     2
 49
0.5
 62
   256
  6
ByLayer
 49
-0.5
 62
   256
  6
ByLayer
  0
ACDBDICTIONARYWDFLT
  5
1F
102
{ACAD_REACTORS
330
19
102
}
100
AcDbDictionary
281
     1
  3
Normal
350
1D
100
AcDbDictionaryWithDefault
340
1D
  0
ACDBPLACEHOLDER
  5
1D
102
{ACAD_REACTORS
330
1F
102
}
  0
LAYOUT
  5
20
102
{ACAD_REACTORS
330
1E
102
}
100
AcDbPlotSettings
  1

  2

  4

  6

 40
0.0
 41
0.0
 42
0.0
 43
0.0
 44
0.0
 45
0.0
 46
0.0
 47
0.0
 48
0.0
 49
0.0
140
0.0
141
0.0
142
1.0
143
1.0
 70
  1024
 72
     0
 73
     0
 74
     0
  7

 75
     0
147
1.0
148
0.0
149
0.0
100
AcDbLayout
  1
Model
 70
     0
 71
     0
 10
0.0
 20
0.0
 11
0.0
 21
0.0
 12
0.0
 22
0.0
 32
0.0
 14
0.0
 24
0.0
 34
0.0
 15
0.0
 25
0.0
 35
0.0
146
0.0
 13
0.0
 23
0.0
 33
0.0
 16
0.0
 26
0.0
 36
0.0
 17
0.0
 27
0.0
 37
0.0
 76
     0
330
A
331
0
345
0
346
0
  0
LAYOUT
  5
21
102
{ACAD_REACTORS
330
1E
102
}
100
AcDbPlotSettings
  1

  2

  4

  6

 40
0.0
 41
0.0
 42
0.0
 43
0.0
 44
0.0
 45
0.0
 46
0.0
 47
0.0
 48
0.0
 49
0.0
140
0.0
141
0.0
142
1.0
143
1.0
 70
     0
 72
     0
 73
     0
 74
     0
  7

 75
     0
147
1.0
148
0.0
149
0.0
100
AcDbLayout
  1
Layout1
 70
     0
 71
     0
 10
0.0
 20
0.0
 11
0.0
 21
0.0
 12
0.0
 22
0.0
 32
0.0
 14
0.0
 24
0.0
 34
0.0
 15
0.0
 25
0.0
 35
0.0
146
0.0
 13
0.0
 23
0.0
 33
0.0
 16
0.0
 26
0.0
 36
0.0
 17
0.0
 27
0.0
 37
0.0
 76
     0
330
B
331
0
345
0
346
0
  0
DICTIONARY
  5
1E
102
{ACAD_REACTORS
330
19
102
}
100
AcDbDictionary
280
     0
281
     1
  3
Layout1
350
21
  3
Model
350
20
  3
DRAWING1
350
1C6
  0
DICTIONARY
  5
22
102
{ACAD_REACTORS
330
19
102
}
100
AcDbDictionary
280
     0
281
     1
  0
WIPEOUTVARIABLES
  5
23
100
AcDbWipeoutVariables
 70
     1
  0
LAYOUT
  5
1C6
102
{ACAD_REACTORS
330
1E
102
}
100
AcDbPlotSettings
  1

  2

  4

  6

 40
20.0
 41
20.0
 42
20.0
 43
20.0
 44
319.4
 45
255.9
 46
0.0
 47
0.0
 48
0.0
 49
0.0
140
319.4
141
255.9
142
1.0
143
1.0
 70
     0
 72
     0
 73
     0
 74
     1
  7

 75
     0
147
1.0
148
0.0
149
0.0
100
AcDbLayout
  1
DRAWING1
 70
     0
 71
     1
 10
0.0
 20
0.0
 11
11.0
 21
8.5
 12
0.0
 22
0.0
 32
0.0
 14
0.0
 24
0.0
 34
0.0
 15
11.0
 25
8.5
 35
0.0
146
0.0
 13
0.0
 23
0.0
 33
0.0
 16
0.0
 26
0.0
 36
0.0
 17
0.0
 27
0.0
 37
0.0
 76
     0
330
B
331
32
345
0
346
0
  0
ENDSEC
  0
EOF
