  0
SECTION
  2
HEADER
  9
$ACADVER
  1
AC1015
  9
$ACADMAINTVER
 70
     6
  9
$DWGCODEPAGE
  3
ANSI_1252
  9
$INSBASE
 10
0.0
 20
0.0
 30
0.0
  9
$EXTMIN
 10
0.0
 20
0.0
 30
0.0
  9
$EXTMAX
 10
34.0
 20
22.0
 30
0.0
  9
$LIMMIN
 10
0.0
 20
0.0
  9
$LIMMAX
 10
12.0
 20
9.0
  9
$ORTHOMODE
 70
     0
  9
$REGENMODE
 70
     1
  9
$FILLMODE
 70
     1
  9
$QTEXTMODE
 70
     0
  9
$MIRRTEXT
 70
     1
  9
$LTSCALE
 40
1.0
  9
$ATTMODE
 70
     1
  9
$TEXTSIZE
 40
0.1388888889
  9
$TRACEWID
 40
0.05
  9
$TEXTSTYLE
  7
Standard
  9
$CLAYER
  8
0
  9
$CELTYPE
  6
ByLayer
  9
$CECOLOR
 62
   256
  9
$CELTSCALE
 40
1.0
  9
$DISPSILH
 70
     0
  9
$DIMSCALE
 40
1.0
  9
$DIMASZ
 40
0.13
  9
$DIMEXO
 40
0.05
  9
$DIMDLI
 40
0.38
  9
$DIMRND
 40
0.0
  9
$DIMDLE
 40
0.0
  9
$DIMEXE
 40
0.125
  9
$DIMTP
 40
0.0
  9
$DIMTM
 40
0.0
  9
$DIMTXT
 40
0.5
  9
$DIMCEN
 40
0.09
  9
$DIMTSZ
 40
0.0
  9
$DIMTOL
 70
     0
  9
$DIMLIM
 70
     0
  9
$DIMTIH
 70
     1
  9
$DIMTOH
 70
     1
  9
$DIMSE1
 70
     0
  9
$DIMSE2
 70
     0
  9
$DIMTAD
 70
     0
  9
$DIMZIN
 70
     0
  9
$DIMBLK
  1

  9
$DIMASO
 70
     1
  9
$DIMSHO
 70
     1
  9
$DIMPOST
  1

  9
$DIMAPOST
  1

  9
$DIMALT
 70
     0
  9
$DIMALTD
 70
     2
  9
$DIMALTF
 40
25.4
  9
$DIMLFAC
 40
1.0
  9
$DIMTOFL
 70
     0
  9
$DIMTVP
 40
0.0
  9
$DIMTIX
 70
     0
  9
$DIMSOXD
 70
     0
  9
$DIMSAH
 70
     0
  9
$DIMBLK1
  1

  9
$DIMBLK2
  1

  9
$DIMSTYLE
  2
Standard
  9
$DIMCLRD
 70
     0
  9
$DIMCLRE
 70
     0
  9
$DIMCLRT
 70
     0
  9
$DIMTFAC
 40
1.0
  9
$DIMGAP
 40
0.06
  9
$DIMJUST
 70
     0
  9
$DIMSD1
 70
     0
  9
$DIMSD2
 70
     0
  9
$DIMTOLJ
 70
     1
  9
$DIMTZIN
 70
     0
  9
$DIMALTZ
 70
     0
  9
$DIMALTTZ
 70
     0
  9
$DIMUPT
 70
     0
  9
$DIMDEC
 70
     3
  9
$DIMTDEC
 70
     3
  9
$DIMALTU
 70
     2
  9
$DIMALTTD
 70
     2
  9
$DIMTXSTY
  7
Standard
  9
$DIMAUNIT
 70
     0
  9
$DIMADEC
 70
     0
  9
$DIMALTRND
 40
0.0
  9
$DIMAZIN
 70
     0
  9
$DIMDSEP
 70
    46
  9
$DIMATFIT
 70
     3
  9
$DIMFRAC
 70
     0
  9
$DIMLDRBLK
  1

  9
$DIMLUNIT
 70
     2
  9
$DIMLWD
 70
    -2
  9
$DIMLWE
 70
    -2
  9
$DIMTMOVE
 70
     0
  9
$LUNITS
 70
     2
  9
$LUPREC
 70
     3
  9
$SKETCHINC
 40
0.1
  9
$FILLETRAD
 40
0.5
  9
$AUNITS
 70
     0
  9
$AUPREC
 70
     0
  9
$MENU
  1
.
  9
$ELEVATION
 40
0.0
  9
$PELEVATION
 40
0.0
  9
$THICKNESS
 40
0.0
  9
$LIMCHECK
 70
     0
  9
$CHAMFERA
 40
0.0
  9
$CHAMFERB
 40
0.0
  9
$CHAMFERC
 40
0.0
  9
$CHAMFERD
 40
0.0
  9
$SKPOLY
 70
     0
  9
$TDCREATE
 40
2459458.578058044
  9
$TDUCREATE
 40
2459458.74472471
  9
$TDUPDATE
 40
2459458.578058924
  9
$TDUUPDATE
 40
2459458.74472559
  9
$TDINDWG
 40
0.0000000116
  9
$TDUSRTIMER
 40
0.0000000116
  9
$USRTIMER
 70
     1
  9
$ANGBASE
 50
0.0
  9
$ANGDIR
 70
     0
  9
$PDMODE
 70
     0
  9
$PDSIZE
 40
-1.0
  9
$PLINEWID
 40
0.0
  9
$SPLFRAME
 70
     0
  9
$SPLINETYPE
 70
     6
  9
$SPLINESEGS
 70
     8
  9
$HANDSEED
  5
389
  9
$SURFTAB1
 70
     6
  9
$SURFTAB2
 70
     6
  9
$SURFTYPE
 70
     6
  9
$SURFU
 70
     6
  9
$SURFV
 70
     6
  9
$UCSBASE
  2

  9
$UCSNAME
  2

  9
$UCSORG
 10
0.0
 20
0.0
 30
0.0
  9
$UCSXDIR
 10
1.0
 20
0.0
 30
0.0
  9
$UCSYDIR
 10
0.0
 20
1.0
 30
0.0
  9
$UCSORTHOREF
  2

  9
$UCSORTHOVIEW
 70
     0
  9
$UCSORGTOP
 10
0.0
 20
0.0
 30
0.0
  9
$UCSORGBOTTOM
 10
0.0
 20
0.0
 30
0.0
  9
$UCSORGLEFT
 10
0.0
 20
0.0
 30
0.0
  9
$UCSORGRIGHT
 10
0.0
 20
0.0
 30
0.0
  9
$UCSORGFRONT
 10
0.0
 20
0.0
 30
0.0
  9
$UCSORGBACK
 10
0.0
 20
0.0
 30
0.0
  9
$PUCSBASE
  2

  9
$PUCSNAME
  2

  9
$PUCSORG
 10
0.0
 20
0.0
 30
0.0
  9
$PUCSXDIR
 10
1.0
 20
0.0
 30
0.0
  9
$PUCSYDIR
 10
0.0
 20
1.0
 30
0.0
  9
$PUCSORTHOREF
  2

  9
$PUCSORTHOVIEW
 70
     0
  9
$PUCSORGTOP
 10
0.0
 20
0.0
 30
0.0
  9
$PUCSORGBOTTOM
 10
0.0
 20
0.0
 30
0.0
  9
$PUCSORGLEFT
 10
0.0
 20
0.0
 30
0.0
  9
$PUCSORGRIGHT
 10
0.0
 20
0.0
 30
0.0
  9
$PUCSORGFRONT
 10
0.0
 20
0.0
 30
0.0
  9
$PUCSORGBACK
 10
0.0
 20
0.0
 30
0.0
  9
$USERI1
 70
     0
  9
$USERI2
 70
     0
  9
$USERI3
 70
     0
  9
$USERI4
 70
     0
  9
$USERI5
 70
     0
  9
$USERR1
 40
0.0
  9
$USERR2
 40
0.0
  9
$USERR3
 40
0.0
  9
$USERR4
 40
0.0
  9
$USERR5
 40
0.0
  9
$WORLDVIEW
 70
     1
  9
$SHADEDGE
 70
     3
  9
$SHADEDIF
 70
    70
  9
$TILEMODE
 70
     0
  9
$MAXACTVP
 70
    64
  9
$PINSBASE
 10
0.0
 20
0.0
 30
0.0
  9
$PLIMCHECK
 70
     0
  9
$PEXTMIN
 10
0.0
 20
0.0
 30
0.0
  9
$PEXTMAX
 10
34.0
 20
22.0
 30
0.0
  9
$PLIMMIN
 10
0.0
 20
0.0
  9
$PLIMMAX
 10
34.0
 20
22.0
  9
$UNITMODE
 70
     0
  9
$VISRETAIN
 70
     1
  9
$PLINEGEN
 70
     0
  9
$PSLTSCALE
 70
     1
  9
$TREEDEPTH
 70
  3020
  9
$CMLSTYLE
  2
Standard
  9
$CMLJUST
 70
     0
  9
$CMLSCALE
 40
1.0
  9
$PROXYGRAPHICS
 70
     1
  9
$MEASUREMENT
 70
     0
  9
$CELWEIGHT
370
    -1
  9
$ENDCAPS
280
     0
  9
$JOINSTYLE
280
     0
  9
$LWDISPLAY
290
     1
  9
$INSUNITS
 70
     1
  9
$HYPERLINKBASE
  1

  9
$STYLESHEET
  1

  9
$XEDIT
290
     1
  9
$CEPSNTYPE
380
     0
  9
$PSTYLEMODE
290
     1
  9
$FINGERPRINTGUID
  2
{c442488c-ba8c-4df9-8898-2d316a7a51c5}
  9
$VERSIONGUID
  2
{FAEB1C32-E019-11D5-929B-00C0DF256EC4}
  9
$EXTNAMES
290
     1
  9
$PSVPSCALE
 40
0.0
  9
$OLESTARTUP
290
     0
  0
ENDSEC
  0
SECTION
  2
CLASSES
  0
CLASS
  1
ACDBDICTIONARYWDFLT
  2
AcDbDictionaryWithDefault
  3
ObjectDBX Classes
 90
        0
280
     0
281
     0
  0
CLASS
  1
VISUALSTYLE
  2
AcDbVisualStyle
  3
ObjectDBX Classes
 90
     4095
280
     0
281
     0
  0
CLASS
  1
MATERIAL
  2
AcDbMaterial
  3
ObjectDBX Classes
 90
     1153
280
     0
281
     0
  0
CLASS
  1
SCALE
  2
AcDbScale
  3
ObjectDBX Classes
 90
     1153
280
     0
281
     0
  0
CLASS
  1
TABLESTYLE
  2
AcDbTableStyle
  3
ObjectDBX Classes
 90
     4095
280
     0
281
     0
  0
CLASS
  1
MLEADERSTYLE
  2
AcDbMLeaderStyle
  3
ACDB_MLEADERSTYLE_CLASS
 90
     4095
280
     0
281
     0
  0
CLASS
  1
SUN
  2
AcDbSun
  3
SCENEOE
 90
     1153
280
     0
281
     0
  0
CLASS
  1
ACDBPLACEHOLDER
  2
AcDbPlaceHolder
  3
ObjectDBX Classes
 90
        0
280
     0
281
     0
  0
CLASS
  1
LAYOUT
  2
AcDbLayout
  3
ObjectDBX Classes
 90
        0
280
     0
281
     0
  0
ENDSEC
  0
SECTION
  2
TABLES
  0
TABLE
  2
VPORT
  5
8
330
0
100
AcDbSymbolTable
 70
     1
  0
VPORT
  5
29
330
8
100
AcDbSymbolTableRecord
100
AcDbViewportTableRecord
  2
*Active
 70
     0
 10
0.0
 20
0.0
 11
1.0
 21
1.0
 12
17.0
 22
11.0
 13
0.0
 23
0.0
 14
0.5
 24
0.5
 15
0.5
 25
0.5
 16
0.0
 26
0.0
 36
1.0
 17
0.0
 27
0.0
 37
0.0
 40
22.0
 41
1.5454545455
 42
50.0
 43
0.0
 44
0.0
 50
0.0
 51
0.0
 71
     0
 72
  2000
 73
     1
 74
     3
 75
     0
 76
     0
 77
     0
 78
     0
281
     0
 65
     1
110
0.0
120
0.0
130
0.0
111
1.0
121
0.0
131
0.0
112
0.0
122
1.0
132
0.0
 79
     0
146
0.0
  0
ENDTAB
  0
TABLE
  2
LTYPE
  5
5
330
0
100
AcDbSymbolTable
 70
     6
  0
LTYPE
  5
14
330
5
100
AcDbSymbolTableRecord
100
AcDbLinetypeTableRecord
  2
ByBlock
 70
     0
  3

 72
    65
 73
     0
 40
0.0
  0
LTYPE
  5
15
330
5
100
AcDbSymbolTableRecord
100
AcDbLinetypeTableRecord
  2
ByLayer
 70
     0
  3

 72
    65
 73
     0
 40
0.0
  0
LTYPE
  5
16
330
5
100
AcDbSymbolTableRecord
100
AcDbLinetypeTableRecord
  2
Continuous
 70
     0
  3
Solid line
 72
    65
 73
     0
 40
0.0
  0
LTYPE
  5
6E
330
5
100
AcDbSymbolTableRecord
100
AcDbLinetypeTableRecord
  2
HIDDEN
 70
     0
  3
Hidden __ __ __ __ __ __ __ __ __ __ __ __ __ __
 72
    65
 73
     2
 40
0.075
 49
0.05
 74
     0
 49
-0.025
 74
     0
  0
LTYPE
  5
6F
330
5
100
AcDbSymbolTableRecord
100
AcDbLinetypeTableRecord
  2
PHANTOM
 70
     0
  3
Phantom ______  __  __  ______  __  __  ______
 72
    65
 73
     6
 40
0.5
 49
0.25
 74
     0
 49
-0.05
 74
     0
 49
0.05
 74
     0
 49
-0.05
 74
     0
 49
0.05
 74
     0
 49
-0.05
 74
     0
  0
LTYPE
  5
70
330
5
100
AcDbSymbolTableRecord
100
AcDbLinetypeTableRecord
  2
CENTER
 70
     0
  3
Center ____ _ ____ _ ____ _ ____ _ ____ _ ____
 72
    65
 73
     4
 40
0.4
 49
0.25
 74
     0
 49
-0.05
 74
     0
 49
0.05
 74
     0
 49
-0.05
 74
     0
  0
LTYPE
  5
71
330
5
100
AcDbSymbolTableRecord
100
AcDbLinetypeTableRecord
  2
CENTERX2
 70
     0
  3
Center (2x) ________  __  ________  __  _____
 72
    65
 73
     4
 40
0.8
 49
0.5
 74
     0
 49
-0.1
 74
     0
 49
0.1
 74
     0
 49
-0.1
 74
     0
  0
LTYPE
  5
72
330
5
100
AcDbSymbolTableRecord
100
AcDbLinetypeTableRecord
  2
DOT2
 70
     0
  3
Dot (.5x) ........................................
 72
    65
 73
     2
 40
0.025
 49
0.0
 74
     0
 49
-0.025
 74
     0
  0
ENDTAB
  0
TABLE
  2
LAYER
  5
2
330
0
100
AcDbSymbolTable
 70
     7
  0
LAYER
  5
10
330
2
100
AcDbSymbolTableRecord
100
AcDbLayerTableRecord
  2
0
 70
     0
 62
     7
  6
Continuous
370
    -3
390
F
  0
LAYER
  5
73
330
2
100
AcDbSymbolTableRecord
100
AcDbLayerTableRecord
  2
FORMAT
 70
     0
 62
     7
  6
Continuous
370
    -3
390
F
  0
LAYER
  5
74
330
2
100
AcDbSymbolTableRecord
100
AcDbLayerTableRecord
  2
DEFAULT
 70
     0
 62
   179
  6
Continuous
370
    -3
390
F
  0
LAYER
  5
75
330
2
100
AcDbSymbolTableRecord
100
AcDbLayerTableRecord
  2
INSPECTION_TAGS
 70
     0
 62
     7
  6
Continuous
370
    -3
390
F
  0
LAYER
  5
76
330
2
100
AcDbSymbolTableRecord
100
AcDbLayerTableRecord
  2
REVISIONS
 70
     0
 62
     7
  6
Continuous
370
    -3
390
F
  0
LAYER
  5
77
330
2
100
AcDbSymbolTableRecord
100
AcDbLayerTableRecord
  2
DIMENSIONS_&_ANNOTATIONS
 70
     0
 62
     7
  6
Continuous
370
    -3
390
F
  0
LAYER
  5
78
330
2
100
AcDbSymbolTableRecord
100
AcDbLayerTableRecord
  2
DIMENSION_&_ANNOTATIONS
 70
     0
 62
     7
  6
Continuous
370
    -3
390
F
  0
ENDTAB
  0
TABLE
  2
STYLE
  5
3
330
0
100
AcDbSymbolTable
 70
     1
  0
STYLE
  5
11
330
3
100
AcDbSymbolTableRecord
100
AcDbTextStyleTableRecord
  2
Standard
 70
     0
 40
0.0
 41
1.0
 50
0.0
 71
     0
 42
0.1388888889
  3
txt
  4

  0
ENDTAB
  0
TABLE
  2
VIEW
  5
6
330
0
100
AcDbSymbolTable
 70
     0
  0
ENDTAB
  0
TABLE
  2
UCS
  5
7
330
0
100
AcDbSymbolTable
 70
     0
  0
ENDTAB
  0
TABLE
  2
APPID
  5
9
330
0
100
AcDbSymbolTable
 70
     1
  0
APPID
  5
12
330
9
100
AcDbSymbolTableRecord
100
AcDbRegAppTableRecord
  2
ACAD
 70
     0
  0
ENDTAB
  0
TABLE
  2
DIMSTYLE
  5
A
330
0
100
AcDbSymbolTable
 70
     1
100
AcDbDimStyleTable
  0
DIMSTYLE
105
27
330
A
100
AcDbSymbolTableRecord
100
AcDbDimStyleTableRecord
  2
Standard
 70
     0
178
     0
340
11
  0
ENDTAB
  0
TABLE
  2
BLOCK_RECORD
  5
1
330
0
100
AcDbSymbolTable
 70
     0
  0
BLOCK_RECORD
  5
1F
330
1
100
AcDbSymbolTableRecord
100
AcDbBlockTableRecord
  2
*Model_Space
340
22
  0
BLOCK_RECORD
  5
1B
330
1
100
AcDbSymbolTableRecord
100
AcDbBlockTableRecord
  2
*Paper_Space
340
1E
  0
ENDTAB
  0
ENDSEC
  0
SECTION
  2
BLOCKS
  0
BLOCK
  5
20
330
1F
100
AcDbEntity
  8
0
100
AcDbBlockBegin
  2
*Model_Space
 70
     0
 10
0.0
 20
0.0
 30
0.0
  3
*Model_Space
  1

  0
ENDBLK
  5
21
330
1F
100
AcDbEntity
  8
0
100
AcDbBlockEnd
  0
BLOCK
  5
1C
330
1B
100
AcDbEntity
 67
     1
  8
0
100
AcDbBlockBegin
  2
*Paper_Space
 70
     0
 10
0.0
 20
0.0
 30
0.0
  3
*Paper_Space
  1

  0
ENDBLK
  5
1D
330
1B
100
AcDbEntity
 67
     1
  8
0
100
AcDbBlockEnd
  0
ENDSEC
  0
SECTION
  2
ENTITIES
  0
VIEWPORT
  5
79
330
1B
100
AcDbEntity
 67
     1
  8
0
100
AcDbViewport
 10
17.0
 20
11.0
 30
0.0
 40
35.972
 41
23.276
 68
     1
 69
     1
 12
17.0
 22
11.0
 13
0.0
 23
0.0
 14
0.5
 24
0.5
 15
0.5
 25
0.5
 16
0.0
 26
0.0
 36
1.0
 17
0.0
 27
0.0
 37
0.0
 42
50.0
 43
0.0
 44
0.0
 45
23.276
 50
0.0
 51
0.0
 72
   100
 90
   557152
  1

281
     0
 71
     1
 74
     0
110
0.0
120
0.0
130
0.0
111
1.0
121
0.0
131
0.0
112
0.0
122
1.0
132
0.0
 79
     0
146
0.0
  0
SPLINE
  5
7B
330
1B
100
AcDbEntity
 67
     1
  8
0
  6
Continuous
 62
     7
370
    25
100
AcDbSpline
210
0.0
220
0.0
230
1.0
 70
     8
 71
     3
 72
    22
 73
    18
 74
     0
 42
0.000000001
 43
0.00000001
 40
0.0
 40
0.0
 40
0.0
 40
0.0
 40
0.0379669264599108
 40
0.1099509406821151
 40
0.1819110736321252
 40
0.2538221628007393
 40
0.3256859293247821
 40
0.3975127149318071
 40
0.4693151407285492
 40
0.5411085926808111
 40
0.6129088157563245
 40
0.6847261596359487
 40
0.7565777624085266
 40
0.8284792552975326
 40
0.9004454613733851
 40
0.9724878194236937
 40
1.0
 40
1.0
 40
1.0
 40
1.0
 10
17.11613961249188
 20
6.3033264766927
 30
0.0
 10
17.13042681596634
 20
6.295371390623705
 30
0.0
 10
17.17180207617848
 20
6.272333729215513
 30
0.0
 10
17.24660513460506
 20
6.238484597294742
 30
0.0
 10
17.34198947268583
 20
6.204147247367785
 30
0.0
 10
17.44334726364312
 20
6.176375315745642
 30
0.0
 10
17.54925855937614
 20
6.155391296092191
 30
0.0
 10
17.65846023763414
 20
6.141453990146421
 30
0.0
 10
17.7696010774098
 20
6.134711674004139
 30
0.0
 10
17.88132331229221
 20
6.135240191098773
 30
0.0
 10
17.99225662983559
 20
6.143032641875473
 30
0.0
 10
18.1010455537658
 20
6.158000074225109
 30
0.0
 10
18.2063498973237
 20
6.179979579743047
 30
0.0
 10
18.3069177847755
 20
6.208710365114895
 30
0.0
 10
18.40139091900112
 20
6.243949792716932
 30
0.0
 10
18.47098450553355
 20
6.276573078288046
 30
0.0
 10
18.50827940174558
 20
6.297533895184686
 30
0.0
 10
18.51858595264034
 20
6.303326476692698
 30
0.0
  0
LINE
  5
7C
330
1B
100
AcDbEntity
 67
     1
  8
0
  6
Continuous
 62
     7
370
    25
100
AcDbLine
 10
18.5185859526
 20
6.3033264767
 30
0.0
 11
25.9135085489
 21
10.5712704838
 31
0.0
  0
LINE
  5
7D
330
1B
100
AcDbEntity
 67
     1
  8
0
  6
Continuous
 62
     7
370
    25
100
AcDbLine
 10
6.5491356819
 20
12.4020219683
 30
0.0
 11
17.1161396125
 21
6.3033264767
 31
0.0
  0
SPLINE
  5
7E
330
1B
100
AcDbEntity
 67
     1
  8
0
  6
Continuous
 62
     7
370
    25
100
AcDbSpline
210
0.0
220
0.0
230
1.0
 70
     8
 71
     3
 72
    15
 73
    11
 74
     0
 42
0.000000001
 43
0.00000001
 40
0.0
 40
0.0
 40
0.0
 40
0.0
 40
0.067854472973827
 40
0.1986764609264633
 40
0.3318349340442903
 40
0.4670521182082052
 40
0.6032869293239138
 40
0.7392732468466444
 40
0.8735681092725086
 40
1.0
 40
1.0
 40
1.0
 40
1.0
 10
17.9834226101926
 20
7.072848287386954
 30
0.0
 10
17.97787599540705
 20
7.069846693184237
 30
0.0
 10
17.9616356246928
 20
7.061058088878613
 30
0.0
 10
17.92761319743198
 20
7.048474881580946
 30
0.0
 10
17.88095176686939
 20
7.038083118677954
 30
0.0
 10
17.8299386195731
 20
7.033431267865845
 30
0.0
 10
17.77783911496087
 20
7.035068738102322
 30
0.0
 10
17.72828422164724
 20
7.042953416550665
 30
0.0
 10
17.68424555754765
 20
7.055915807373917
 30
0.0
 10
17.66206052794351
 20
7.067318595827119
 30
0.0
 10
17.65130254010845
 20
7.072848047969131
 30
0.0
  0
LINE
  5
7F
330
1B
100
AcDbEntity
 67
     1
  8
0
  6
Continuous
 62
     7
370
    25
100
AcDbLine
 10
24.7999319793
 20
11.0069638826
 30
0.0
 11
17.9834226102
 21
7.0728482874
 31
0.0
  0
LINE
  5
80
330
1B
100
AcDbEntity
 67
     1
  8
0
  6
Continuous
 62
     7
370
    25
100
AcDbLine
 10
17.6513025401
 20
7.072848048
 30
0.0
 11
7.6627118366
 21
12.8377151278
 31
0.0
  0
ARC
  5
81
330
1B
100
AcDbEntity
 67
     1
  8
0
  6
Continuous
 62
     7
370
    25
100
AcDbCircle
 10
18.2350080523
 20
7.1999722531
 30
0.0
 40
0.0300000000000018
100
AcDbArc
 50
119.99118659
 51
176.5393205017
  0
LINE
  5
82
330
1B
100
AcDbEntity
 67
     1
  8
0
  6
Continuous
 62
     7
370
    25
100
AcDbLine
 10
18.205062972
 20
7.2017831456
 30
0.0
 11
18.204999088
 21
7.2007298494
 31
0.0
  0
LINE
  5
83
330
1B
100
AcDbEntity
 67
     1
  8
0
  6
Continuous
 62
     7
370
    25
100
AcDbLine
 10
18.2761281174
 20
7.2583425067
 30
0.0
 11
18.2200120361
 21
7.2259553803
 31
0.0
  0
ARC
  5
84
330
1B
100
AcDbEntity
 67
     1
  8
0
  6
Continuous
 62
     7
370
    25
100
AcDbCircle
 10
18.291124169
 20
7.2323594
 30
0.0
 40
0.0300000000000005
100
AcDbArc
 50
61.4502115373
 51
119.99118659
  0
ARC
  5
85
330
1B
100
AcDbEntity
 67
     1
  8
0
  6
Continuous
 62
     7
370
    25
100
AcDbCircle
 10
16.7991288607
 20
6.5117620575
 30
0.0
 40
0.0299999999999998
100
AcDbArc
 50
239.2047944625
 51
282.6636735722
  0
LINE
  5
86
330
1B
100
AcDbEntity
 67
     1
  8
0
  6
Continuous
 62
     7
370
    25
100
AcDbLine
 10
7.8339134968
 20
11.6513551112
 30
0.0
 11
16.7841327913
 21
6.4857790956
 31
0.0
  0
SPLINE
  5
87
330
1B
100
AcDbEntity
 67
     1
  8
0
  6
Continuous
 62
     7
370
    25
100
AcDbSpline
210
0.0
220
0.0
230
1.0
 70
     8
 71
     3
 72
    11
 73
     7
 74
     0
 42
0.000000001
 43
0.00000001
 40
0.0
 40
0.0
 40
0.0
 40
0.0
 40
0.253781676216827
 40
0.5359672625221401
 40
0.8194884925866223
 40
1.0
 40
1.0
 40
1.0
 40
1.0
 10
26.13344996960514
 20
11.24924384961695
 30
0.0
 10
26.11967753297647
 20
11.26742461784374
 30
0.0
 10
26.09059121252904
 20
11.30582099350931
 30
0.0
 10
26.03259111991492
 20
11.35980001755143
 30
0.0
 10
25.97225869596769
 20
11.40554100414275
 30
0.0
 10
25.92967903243294
 20
11.43116961375828
 30
0.0
 10
25.91311528891005
 20
11.44113929602629
 30
0.0
  0
LINE
  5
88
330
1B
100
AcDbEntity
 67
     1
  8
0
  6
Continuous
 62
     7
370
    25
100
AcDbLine
 10
26.2126765037
 20
11.0008569881
 30
0.0
 11
26.2121202151
 21
11.0268771402
 31
0.0
  0
SPLINE
  5
89
330
1B
100
AcDbEntity
 67
     1
  8
0
  6
Continuous
 62
     7
370
    25
100
AcDbSpline
210
0.0
220
0.0
230
1.0
 70
     8
 71
     3
 72
    12
 73
     8
 74
     0
 42
0.000000001
 43
0.00000001
 40
0.0
 40
0.0
 40
0.0
 40
0.0
 40
0.1387942892844169
 40
0.4023285450694796
 40
0.6660086303000887
 40
0.9292180841636646
 40
1.0
 40
1.0
 40
1.0
 40
1.0
 10
25.91350854887449
 20
10.57127048380688
 30
0.0
 10
25.92731466119239
 20
10.57953389948504
 30
0.0
 10
25.96733498991458
 20
10.60348739227093
 30
0.0
 10
26.02682811301619
 20
10.64708178256605
 30
0.0
 10
26.08680171588826
 20
10.70340277066262
 30
0.0
 10
26.12641602099264
 20
10.74843071321582
 30
0.0
 10
26.14199440322846
 20
10.77540444559727
 30
0.0
 10
26.14529588895629
 20
10.78112091802268
 30
0.0
  0
ARC
  5
8A
330
1B
100
AcDbEntity
 67
     1
  8
0
  6
Continuous
 62
     7
370
    25
100
AcDbCircle
 10
24.2878420992
 20
10.6933363094
 30
0.0
 40
0.0300000000000018
100
AcDbArc
 50
119.99118659
 51
176.5393205017
  0
LINE
  5
8B
330
1B
100
AcDbEntity
 67
     1
  8
0
  6
Continuous
 62
     7
370
    25
100
AcDbLine
 10
24.2578969583
 20
10.6951471668
 30
0.0
 11
24.2578330743
 21
10.6940938706
 31
0.0
  0
LINE
  5
8C
330
1B
100
AcDbEntity
 67
     1
  8
0
  6
Continuous
 62
     7
370
    25
100
AcDbLine
 10
24.3289621036
 20
10.751706528
 30
0.0
 11
24.2728460223
 21
10.7193194016
 31
0.0
  0
ARC
  5
8D
330
1B
100
AcDbEntity
 67
     1
  8
0
  6
Continuous
 62
     7
370
    25
100
AcDbCircle
 10
24.3439582159
 20
10.7257234563
 30
0.0
 40
0.03
100
AcDbArc
 50
61.4502115373
 51
119.99118659
  0
SPLINE
  5
8E
330
1B
100
AcDbEntity
 67
     1
  8
0
  6
Continuous
 62
     7
370
    25
100
AcDbSpline
210
0.0
220
0.0
230
1.0
 70
     8
 71
     3
 72
    11
 73
     7
 74
     0
 42
0.000000001
 43
0.00000001
 40
0.0
 40
0.0
 40
0.0
 40
0.0
 40
0.2636638094548207
 40
0.5319085306137004
 40
0.7895000679736536
 40
1.0
 40
1.0
 40
1.0
 40
1.0
 10
24.8447847716822
 20
11.05551677481655
 30
0.0
 10
24.84476030697978
 20
11.05359147999968
 30
0.0
 10
24.84471095252366
 20
11.04970744017202
 30
0.0
 10
24.83786412813078
 20
11.03731244349296
 30
0.0
 10
24.82311146278778
 20
11.02170136459838
 30
0.0
 10
24.80712228514399
 20
11.01153546863769
 30
0.0
 10
24.79993197934417
 20
11.00696388263652
 30
0.0
  0
LINE
  5
8F
330
1B
100
AcDbEntity
 67
     1
  8
0
  6
Continuous
 62
     7
370
    25
100
AcDbLine
 10
25.9131152889
 20
11.441139296
 30
0.0
 11
15.3461113583
 21
17.5398347877
 31
0.0
  0
SPLINE
  5
90
330
1B
100
AcDbEntity
 67
     1
  8
0
  6
Continuous
 62
     7
370
    25
100
AcDbSpline
210
0.0
220
0.0
230
1.0
 70
     8
 71
     3
 72
    10
 73
     6
 74
     0
 42
0.000000001
 43
0.00000001
 40
0.0
 40
0.0
 40
0.0
 40
0.0
 40
0.3729261800230115
 40
0.718645913782345
 40
1.0
 40
1.0
 40
1.0
 40
1.0
 10
23.65124243889499
 20
11.8904776263688
 30
0.0
 10
23.64394646592653
 20
11.88549222598941
 30
0.0
 10
23.62988679020054
 20
11.87588512999258
 30
0.0
 10
23.61700301388746
 20
11.85509113630622
 30
0.0
 10
23.61471913473135
 20
11.84041135682457
 30
0.0
 10
23.61369440891355
 20
11.83382486603137
 30
0.0
  0
LINE
  5
91
330
1B
100
AcDbEntity
 67
     1
  8
0
  6
Continuous
 62
     7
370
    25
100
AcDbLine
 10
23.8329472099
 20
11.9955847197
 30
0.0
 11
23.6510180152
 21
11.8905851601
 31
0.0
  0
LINE
  5
92
330
1B
100
AcDbEntity
 67
     1
  8
0
  6
Continuous
 62
     7
370
    25
100
AcDbLine
 10
23.6136944089
 20
11.833824866
 30
0.0
 11
23.6131252605
 21
11.824412258
 31
0.0
  0
SPLINE
  5
93
330
1B
100
AcDbEntity
 67
     1
  8
0
  6
Continuous
 62
     7
370
    25
100
AcDbSpline
210
0.0
220
0.0
230
1.0
 70
     8
 71
     3
 72
     9
 73
     5
 74
     0
 42
0.000000001
 43
0.00000001
 40
0.0
 40
0.0
 40
0.0
 40
0.0
 40
0.2449695515560968
 40
1.0
 40
1.0
 40
1.0
 40
1.0
 10
23.836554996701
 20
11.99784321773435
 30
0.0
 10
23.83671367730388
 20
11.99802454527441
 30
0.0
 10
23.83736143373678
 20
11.99876474967491
 30
0.0
 10
23.83484625010252
 20
11.9969527982337
 30
0.0
 10
23.83294720987521
 20
11.99558471972449
 30
0.0
  0
SPLINE
  5
94
330
1B
100
AcDbEntity
 67
     1
  8
0
  6
Continuous
 62
     7
370
    25
100
AcDbSpline
210
0.0
220
0.0
230
1.0
 70
     8
 71
     3
 72
    12
 73
     8
 74
     0
 42
0.000000001
 43
0.00000001
 40
0.0
 40
0.0
 40
0.0
 40
0.0
 40
0.147238968192033
 40
0.426809635826868
 40
0.706532127224607
 40
0.9857571981232759
 40
1.0
 40
1.0
 40
1.0
 40
1.0
 10
6.549528941859197
 20
13.27189078056082
 30
0.0
 10
6.535728682950866
 20
13.26362904471185
 30
0.0
 10
6.495725119007805
 20
13.2396802999448
 30
0.0
 10
6.436171532767144
 20
13.19611794526926
 30
0.0
 10
6.376551088336708
 20
13.13971774020141
 30
0.0
 10
6.339915058263976
 20
13.09925104174841
 30
0.0
 10
6.326725239552039
 20
13.07699527753049
 30
0.0
 10
6.326085101424049
 20
13.07591514416743
 30
0.0
  0
LINE
  5
95
330
1B
100
AcDbEntity
 67
     1
  8
0
  6
Continuous
 62
     7
370
    25
100
AcDbLine
 10
6.2505240157
 20
12.8576286247
 30
0.0
 11
6.2499681419
 21
12.8316082332
 31
0.0
  0
SPLINE
  5
96
330
1B
100
AcDbEntity
 67
     1
  8
0
  6
Continuous
 62
     7
370
    25
100
AcDbSpline
210
0.0
220
0.0
230
1.0
 70
     8
 71
     3
 72
    12
 73
     8
 74
     0
 42
0.000000001
 43
0.00000001
 40
0.0
 40
0.0
 40
0.0
 40
0.0
 40
0.0522893380031314
 40
0.3106972456828326
 40
0.5709735105688118
 40
0.8324813345602297
 40
1.0
 40
1.0
 40
1.0
 40
1.0
 10
6.316669677992437
 20
12.61248636861875
 30
0.0
 10
6.319074344682438
 20
12.60824165531659
 30
0.0
 10
6.333362598194539
 20
12.58302005599904
 30
0.0
 10
6.370784626970098
 20
12.53968658865379
 30
0.0
 10
6.429030217699757
 20
12.4834966910251
 30
0.0
 10
6.489831332486665
 20
12.43777049005378
 30
0.0
 10
6.532482147143021
 20
12.41206067974457
 30
0.0
 10
6.54913568189474
 20
12.40202196834141
 30
0.0
  0
SPLINE
  5
97
330
1B
100
AcDbEntity
 67
     1
  8
0
  6
Continuous
 62
     7
370
    25
100
AcDbSpline
210
0.0
220
0.0
230
1.0
 70
     8
 71
     3
 72
    11
 73
     7
 74
     0
 42
0.000000001
 43
0.00000001
 40
0.0
 40
0.0
 40
0.0
 40
0.0
 40
0.0222295159430117
 40
0.4684176717804877
 40
0.9078613125975493
 40
1.0
 40
1.0
 40
1.0
 40
1.0
 10
7.817421882967817
 20
11.67003667358511
 30
0.0
 10
7.81746179755635
 20
11.66984799699928
 30
0.0
 10
7.818302872939126
 20
11.66587222679905
 30
0.0
 10
7.823625553238634
 20
11.6595666421966
 30
0.0
 10
7.829590852270738
 20
11.65339811798333
 30
0.0
 10
7.833849810821532
 20
11.65159684056536
 30
0.0
 10
7.834588012281097
 20
11.65128462676869
 30
0.0
  0
SPLINE
  5
98
330
1B
100
AcDbEntity
 67
     1
  8
0
  6
Continuous
 62
     7
370
    25
100
AcDbSpline
210
0.0
220
0.0
230
1.0
 70
     8
 71
     3
 72
    12
 73
     8
 74
     0
 42
0.000000001
 43
0.00000001
 40
0.0
 40
0.0
 40
0.0
 40
0.0
 40
0.1423243060527258
 40
0.4113187277223795
 40
0.6822937820951551
 40
0.9691207248301682
 40
1.0
 40
1.0
 40
1.0
 40
1.0
 10
7.662711836593878
 20
12.83771512775322
 30
0.0
 10
7.657734222784334
 20
12.84078594101686
 30
0.0
 10
7.643348867000655
 20
12.8496606233512
 30
0.0
 10
7.627270591729456
 20
12.86461749942373
 30
0.0
 10
7.618800140016531
 20
12.87887631841249
 30
0.0
 10
7.616991213643532
 20
12.88372482105848
 30
0.0
 10
7.617519399825875
 20
12.88649435301614
 30
0.0
 10
7.617570736581492
 20
12.88676353609974
 30
0.0
  0
LINE
  5
99
330
1B
100
AcDbEntity
 67
     1
  8
0
  6
Continuous
 62
     7
370
    25
100
AcDbLine
 10
13.9444515381
 20
17.5398347877
 30
0.0
 11
6.5495289419
 21
13.2718907806
 31
0.0
  0
SPLINE
  5
9A
330
1B
100
AcDbEntity
 67
     1
  8
0
  6
Continuous
 62
     7
370
    25
100
AcDbSpline
210
0.0
220
0.0
230
1.0
 70
     8
 71
     3
 72
    16
 73
    12
 74
     0
 42
0.000000001
 43
0.00000001
 40
0.0
 40
0.0
 40
0.0
 40
0.0
 40
0.0273500162337053
 40
0.1590052749576304
 40
0.2906721152632074
 40
0.4223716693964117
 40
0.5541334841589971
 40
0.6859872958966226
 40
0.8179605796104563
 40
0.9500723976069531
 40
0.9999999999999999
 40
0.9999999999999999
 40
0.9999999999999999
 40
0.9999999999999999
 10
14.71573513236203
 20
17.70575588098574
 30
0.0
 10
14.70806307391225
 20
17.70625898545594
 30
0.0
 10
14.66345989149094
 20
17.70918389284656
 30
0.0
 10
14.58105684282115
 20
17.70743019720997
 30
0.0
 10
14.47023453894297
 20
17.70011590138439
 30
0.0
 10
14.36146233967484
 20
17.68500264665162
 30
0.0
 10
14.25620435318742
 20
17.66304472440336
 30
0.0
 10
14.15567921921357
 20
17.63429170588237
 30
0.0
 10
14.061254801958
 20
17.59904286840297
 30
0.0
 10
13.99181997093426
 20
17.56646409110986
 30
0.0
 10
13.95464691954237
 20
17.54556636649147
 30
0.0
 10
13.94445153809334
 20
17.539834787675
 30
0.0
  0
SPLINE
  5
9B
330
1B
100
AcDbEntity
 67
     1
  8
0
  6
Continuous
 62
     7
370
    25
100
AcDbSpline
210
0.0
220
0.0
230
1.0
 70
     8
 71
     3
 72
    14
 73
    10
 74
     0
 42
0.000000001
 43
0.00000001
 40
0.0
 40
0.0
 40
0.0
 40
0.0
 40
0.0835546380473726
 40
0.2419693323185166
 40
0.4003315413973194
 40
0.5585864709861801
 40
0.7167374040378225
 40
0.8748057987849267
 40
1.0
 40
1.0
 40
1.0
 40
1.0
 10
15.3461113583129
 20
17.539834787675
 30
0.0
 10
15.33182771577399
 20
17.54778758668927
 30
0.0
 10
15.2904631245438
 20
17.57081842629934
 30
0.0
 10
15.21567937500299
 20
17.60466013707532
 30
0.0
 10
15.12031584146626
 20
17.63897171967909
 30
0.0
 10
15.01898777003196
 20
17.66677718860129
 30
0.0
 10
14.91307707800147
 20
17.68757222034323
 30
0.0
 10
14.81154148016369
 20
17.7011401438468
 30
0.0
 10
14.74510029231836
 20
17.70434113277216
 30
0.0
 10
14.71573513236203
 20
17.70575588098574
 30
0.0
  0
SPLINE
  5
9C
330
1B
100
AcDbEntity
 67
     1
  8
0
  6
Continuous
 62
     7
370
    25
100
AcDbSpline
210
0.0
220
0.0
230
1.0
 70
     8
 71
     3
 72
    13
 73
     9
 74
     0
 42
0.000000001
 43
0.00000001
 40
0.0
 40
0.0
 40
0.0
 40
0.0
 40
0.0535900576395093
 40
0.2358722930700494
 40
0.4363118778215902
 40
0.6472559768748505
 40
0.8356320472386446
 40
1.0
 40
1.0
 40
1.0
 40
1.0
 10
18.00589754161039
 20
7.085819529881195
 30
0.0
 10
18.00597246484305
 20
7.086521422723045
 30
0.0
 10
18.00630223337608
 20
7.089610747149808
 30
0.0
 10
18.00878774002443
 20
7.097415990867113
 30
0.0
 10
18.01382958351786
 20
7.107864021366903
 30
0.0
 10
18.02072285601548
 20
7.117607042872777
 30
0.0
 10
18.02795181824395
 20
7.124873930957
 30
0.0
 10
18.03172401345247
 20
7.127329468194883
 30
0.0
 10
18.03348174133216
 20
7.128473673630724
 30
0.0
  0
LINE
  5
9D
330
1B
100
AcDbEntity
 67
     1
  8
0
  6
Continuous
 62
     7
370
    25
100
AcDbLine
 10
18.0334817413
 20
7.1284736736
 30
0.0
 11
18.4473111101
 21
7.3673133033
 31
0.0
  0
SPLINE
  5
9E
330
1B
100
AcDbEntity
 67
     1
  8
0
  6
Continuous
 62
     7
370
    25
100
AcDbSpline
210
0.0
220
0.0
230
1.0
 70
     8
 71
     3
 72
     9
 73
     5
 74
     0
 42
0.000000001
 43
0.00000001
 40
0.0
 40
0.0
 40
0.0
 40
0.0
 40
0.5987937250642985
 40
1.0
 40
1.0
 40
1.0
 40
1.0
 10
18.4473111101485
 20
7.36731330333922
 30
0.0
 10
18.44881873389143
 20
7.368009412402407
 30
0.0
 10
18.45133650199726
 20
7.3691719313702
 30
0.0
 10
18.451208403854
 20
7.369090182875873
 30
0.0
 10
18.45115701007512
 20
7.369057384866982
 30
0.0
  0
LINE
  5
9F
330
1B
100
AcDbEntity
 67
     1
  8
0
  6
Continuous
 62
     7
370
    25
100
AcDbLine
 10
19.1523946992
 20
7.747514857
 30
0.0
 11
19.8974232129
 21
8.2217706287
 31
0.0
  0
LINE
  5
A0
330
1B
100
AcDbEntity
 67
     1
  8
0
  6
Continuous
 62
     7
370
    25
100
AcDbLine
 10
18.416728718
 20
7.3496627274
 30
0.0
 11
18.4398895728
 21
7.3362955514
 31
0.0
  0
ARC
  5
A1
330
1B
100
AcDbEntity
 67
     1
  8
0
  6
Continuous
 62
     7
370
    25
100
AcDbCircle
 10
19.8813674082
 20
8.2488672766
 30
0.0
 40
0.0300000000000011
100
AcDbArc
 50
358.2686080171
 51
0.0
  0
ARC
  5
A2
330
1B
100
AcDbEntity
 67
     1
  8
0
  6
Continuous
 62
     7
370
    25
100
AcDbCircle
 10
19.8813674082
 20
8.2488672766
 30
0.0
 40
0.0300000000000011
100
AcDbArc
 50
0.0
 51
60.00881341
  0
LINE
  5
A3
330
1B
100
AcDbEntity
 67
     1
  8
0
  6
Continuous
 62
     7
370
    25
100
AcDbLine
 10
19.8963635266
 20
8.2748502704
 30
0.0
 11
19.0769615889
 21
8.7477641575
 31
0.0
  0
LINE
  5
A4
330
1B
100
AcDbEntity
 67
     1
  8
0
  6
Continuous
 62
     7
370
    25
100
AcDbLine
 10
19.9112997309
 20
8.246171847
 30
0.0
 11
19.911353659
 21
8.2479608396
 31
0.0
  0
ARC
  5
A5
330
1B
100
AcDbEntity
 67
     1
  8
0
  6
Continuous
 62
     7
370
    25
100
AcDbCircle
 10
19.8813133311
 20
8.2470782835
 30
0.0
 40
0.0299999999999997
100
AcDbArc
 50
302.4792382547
 51
358.268608017
  0
SPLINE
  5
A6
330
1B
100
AcDbEntity
 67
     1
  8
0
  6
Continuous
 62
     7
370
    25
100
AcDbSpline
210
0.0
220
0.0
230
1.0
 70
     8
 71
     3
 72
     9
 73
     5
 74
     0
 42
0.000000001
 43
0.00000001
 40
0.0
 40
0.0
 40
0.0
 40
0.0
 40
0.5972919665160601
 40
1.0
 40
1.0
 40
1.0
 40
1.0
 10
19.07696158893924
 20
8.747764157483013
 30
0.0
 10
19.07563464396215
 20
8.74870290006129
 30
0.0
 10
19.07341304204635
 20
8.750274564558554
 30
0.0
 10
19.07355017335017
 20
8.750201491624791
 30
0.0
 10
19.07360539722785
 20
8.750172064567337
 30
0.0
  0
SPLINE
  5
A7
330
1B
100
AcDbEntity
 67
     1
  8
0
  6
Continuous
 62
     7
370
    25
100
AcDbSpline
210
0.0
220
0.0
230
1.0
 70
     8
 71
     3
 72
    13
 73
     9
 74
     0
 42
0.000000001
 43
0.00000001
 40
0.0
 40
0.0
 40
0.0
 40
0.0
 40
0.1464343080608455
 40
0.3087057026000933
 40
0.4865685883829003
 40
0.6738125561685302
 40
0.8598436270213043
 40
1.0
 40
1.0
 40
1.0
 40
1.0
 10
14.39095290742153
 20
9.28548611510215
 30
0.0
 10
14.389115852932
 20
9.284554810933928
 30
0.0
 10
14.38524306379936
 20
9.282591480677564
 30
0.0
 10
14.37577923451217
 20
9.28010774185836
 30
0.0
 10
14.36424337388704
 20
9.279033242452574
 30
0.0
 10
14.35206470196814
 20
9.27990997600251
 30
0.0
 10
14.34191939824465
 20
9.28252323244511
 30
0.0
 10
14.33785259737782
 20
9.284595641439148
 30
0.0
 10
14.33610517248486
 20
9.28548611510215
 30
0.0
  0
LINE
  5
A8
330
1B
100
AcDbEntity
 67
     1
  8
0
  6
Continuous
 62
     7
370
    25
100
AcDbLine
 10
15.1329560572
 20
9.713729664
 30
0.0
 11
14.3909529074
 21
9.2854861151
 31
0.0
  0
LINE
  5
A9
330
1B
100
AcDbEntity
 67
     1
  8
0
  6
Continuous
 62
     7
370
    25
100
AcDbLine
 10
14.3361051725
 20
9.2854861151
 30
0.0
 11
11.4757667781
 21
10.9363166613
 31
0.0
  0
SPLINE
  5
AA
330
1B
100
AcDbEntity
 67
     1
  8
0
  6
Continuous
 62
     7
370
    25
100
AcDbSpline
210
0.0
220
0.0
230
1.0
 70
     8
 71
     3
 72
     9
 73
     5
 74
     0
 42
0.000000001
 43
0.00000001
 40
0.0
 40
0.0
 40
0.0
 40
0.0
 40
0.5439533287772451
 40
1.0
 40
1.0
 40
1.0
 40
1.0
 10
15.13639085946952
 20
9.716271780613848
 30
0.0
 10
15.13635418089202
 20
9.716160041827948
 30
0.0
 10
15.13628675125135
 20
9.715954622024471
 30
0.0
 10
15.13399926001304
 20
9.714426540506711
 30
0.0
 10
15.13295605724835
 20
9.71372966401718
 30
0.0
  0
ARC
  5
AB
330
1B
100
AcDbEntity
 67
     1
  8
0
  6
Continuous
 62
     7
370
    25
100
AcDbCircle
 10
22.7529679583
 20
9.904439939
 30
0.0
 40
0.0299999999999997
100
AcDbArc
 50
240.00881341
 51
297.3670159567
  0
LINE
  5
AC
330
1B
100
AcDbEntity
 67
     1
  8
0
  6
Continuous
 62
     7
370
    25
100
AcDbLine
 10
22.7667585698
 20
9.877797519
 30
0.0
 11
23.510486484
 21
10.2627666234
 31
0.0
  0
LINE
  5
AD
330
1B
100
AcDbEntity
 67
     1
  8
0
  6
Continuous
 62
     7
370
    25
100
AcDbLine
 10
21.9180591795
 20
10.3516656268
 30
0.0
 11
22.7379721893
 21
9.878456777
 31
0.0
  0
ARC
  5
AE
330
1B
100
AcDbEntity
 67
     1
  8
0
  6
Continuous
 62
     7
370
    25
100
AcDbCircle
 10
14.4488214375
 20
10.1402113052
 30
0.0
 40
0.0300000000000005
100
AcDbArc
 50
119.99118659
 51
178.2686080171
  0
LINE
  5
AF
330
1B
100
AcDbEntity
 67
     1
  8
0
  6
Continuous
 62
     7
370
    25
100
AcDbLine
 10
14.4188351634
 20
10.1411177607
 30
0.0
 11
14.4185386628
 21
10.1313097774
 31
0.0
  0
LINE
  5
B0
330
1B
100
AcDbEntity
 67
     1
  8
0
  6
Continuous
 62
     7
370
    25
100
AcDbLine
 10
14.5194021693
 20
10.2155845572
 30
0.0
 11
14.4338253994
 21
10.1661943361
 31
0.0
  0
SPLINE
  5
B1
330
1B
100
AcDbEntity
 67
     1
  8
0
  6
Continuous
 62
     7
370
    25
100
AcDbSpline
210
0.0
220
0.0
230
1.0
 70
     8
 71
     3
 72
     9
 73
     5
 74
     0
 42
0.000000001
 43
0.00000001
 40
0.0
 40
0.0
 40
0.0
 40
0.0
 40
0.5016817224866225
 40
1.0
 40
1.0
 40
1.0
 40
1.0
 10
14.52631818294653
 20
10.22112220665609
 30
0.0
 10
14.52612723057685
 20
10.22072765359221
 30
0.0
 10
14.52574660604714
 20
10.21994119268243
 30
0.0
 10
14.52150039820827
 20
10.21702834958451
 30
0.0
 10
14.51938443523205
 20
10.21557682662928
 30
0.0
  0
LWPOLYLINE
  5
B2
330
1B
100
AcDbEntity
 67
     1
  8
0
  6
Continuous
 62
     7
370
    25
100
AcDbPolyline
 90
        5
 70
   128
 43
0.0
 10
21.9140029602
 20
10.3529750596
 10
21.9142204355
 20
10.3529353494
 10
21.9180083627
 20
10.3516946728
 10
21.9180154149
 20
10.3516878897
 10
21.9180154149
 20
10.3516878897
  0
SPLINE
  5
B3
330
1B
100
AcDbEntity
 67
     1
  8
0
  6
Continuous
 62
     7
370
    25
100
AcDbSpline
210
0.0
220
0.0
230
1.0
 70
     8
 71
     3
 72
    13
 73
     9
 74
     0
 42
0.000000001
 43
0.00000001
 40
0.0
 40
0.0
 40
0.0
 40
0.0
 40
0.0535898651253043
 40
0.2358714457343871
 40
0.4363131256669867
 40
0.6472523848005154
 40
0.8356277784516686
 40
1.0
 40
1.0
 40
1.0
 40
1.0
 10
24.18883918108058
 20
10.65427455738234
 30
0.0
 10
24.1889141048311
 20
10.65497645006391
 30
0.0
 10
24.18924387564343
 20
10.6580657737852
 30
0.0
 10
24.1917293468733
 20
10.66587108379096
 30
0.0
 10
24.19677143989553
 20
10.67631901394471
 30
0.0
 10
24.20366451494331
 20
10.68606215701385
 30
0.0
 10
24.21089351033622
 20
10.6933290050023
 30
0.0
 10
24.21466579220596
 20
10.69578457982644
 30
0.0
 10
24.21642358821795
 20
10.69692882084078
 30
0.0
  0
LINE
  5
B4
330
1B
100
AcDbEntity
 67
     1
  8
0
  6
Continuous
 62
     7
370
    25
100
AcDbLine
 10
24.2164235882
 20
10.6969288208
 30
0.0
 11
24.630252957
 21
10.9357684505
 31
0.0
  0
SPLINE
  5
B5
330
1B
100
AcDbEntity
 67
     1
  8
0
  6
Continuous
 62
     7
370
    25
100
AcDbSpline
210
0.0
220
0.0
230
1.0
 70
     8
 71
     3
 72
     9
 73
     5
 74
     0
 42
0.000000001
 43
0.00000001
 40
0.0
 40
0.0
 40
0.0
 40
0.0
 40
0.5972931497460395
 40
1.0
 40
1.0
 40
1.0
 40
1.0
 10
11.47576677809647
 20
10.93631666130225
 30
0.0
 10
11.47443990823947
 20
10.9372554300483
 30
0.0
 10
11.47221843649221
 20
10.93882713524273
 30
0.0
 10
11.47235534762588
 20
10.9387540572495
 30
0.0
 10
11.47241048267728
 20
10.93872462824102
 30
0.0
  0
SPLINE
  5
B6
330
1B
100
AcDbEntity
 67
     1
  8
0
  6
Continuous
 62
     7
370
    25
100
AcDbSpline
210
0.0
220
0.0
230
1.0
 70
     8
 71
     3
 72
     9
 73
     5
 74
     0
 42
0.000000001
 43
0.00000001
 40
0.0
 40
0.0
 40
0.0
 40
0.0
 40
0.5987875463924545
 40
0.9999999999999999
 40
0.9999999999999999
 40
0.9999999999999999
 40
0.9999999999999999
 10
24.63025295703429
 20
10.93576845054928
 30
0.0
 10
24.63176048871688
 20
10.93646450661861
 30
0.0
 10
24.63427812905805
 20
10.93762694908009
 30
0.0
 10
24.63415004033584
 20
10.93754520793394
 30
0.0
 10
24.63409864954532
 20
10.93751241236813
 30
0.0
  0
SPLINE
  5
B7
330
1B
100
AcDbEntity
 67
     1
  8
0
  6
Continuous
 62
     7
370
    25
100
AcDbSpline
210
0.0
220
0.0
230
1.0
 70
     8
 71
     3
 72
    11
 73
     7
 74
     0
 42
0.000000001
 43
0.00000001
 40
0.0
 40
0.0
 40
0.0
 40
0.0
 40
0.209606919610307
 40
0.5117151413532801
 40
0.8173808017379001
 40
1.0
 40
1.0
 40
1.0
 40
1.0
 10
24.7912242579161
 20
11.09214208440208
 30
0.0
 10
24.79165513191898
 20
11.09901442227113
 30
0.0
 10
24.79270702825761
 20
11.11579191869456
 30
0.0
 10
24.77998037758776
 20
11.14059556621775
 30
0.0
 10
24.76172460244906
 20
11.16037327577891
 30
0.0
 10
24.74673255605033
 20
11.16984855360389
 30
0.0
 10
24.74112551039827
 20
11.17339232033977
 30
0.0
  0
LINE
  5
B8
330
1B
100
AcDbEntity
 67
     1
  8
0
  6
Continuous
 62
     7
370
    25
100
AcDbLine
 10
24.7908762146
 20
11.001737393
 30
0.0
 11
24.7928628411
 21
11.0946695206
 31
0.0
  0
LINE
  5
B9
330
1B
100
AcDbEntity
 67
     1
  8
0
  6
Continuous
 62
     7
370
    25
100
AcDbLine
 10
24.5415560344
 20
10.8845771534
 30
0.0
 11
24.5647164743
 21
10.8712102169
 31
0.0
  0
LINE
  5
BA
330
1B
100
AcDbEntity
 67
     1
  8
0
  6
Continuous
 62
     7
370
    25
100
AcDbLine
 10
24.7411255104
 20
11.1733923203
 30
0.0
 11
23.5616911714
 21
11.854097176
 31
0.0
  0
SPLINE
  5
BB
330
1B
100
AcDbEntity
 67
     1
  8
0
  6
Continuous
 62
     7
370
    25
100
AcDbSpline
210
0.0
220
0.0
230
1.0
 70
     8
 71
     3
 72
    13
 73
     9
 74
     0
 42
0.000000001
 43
0.00000001
 40
0.0
 40
0.0
 40
0.0
 40
0.0
 40
0.146437578530665
 40
0.3087039140718192
 40
0.4865665932317353
 40
0.6738102945955448
 40
0.8598464642176114
 40
1.0
 40
1.0
 40
1.0
 40
1.0
 10
23.33723866895596
 20
11.74186492367836
 30
0.0
 10
23.33540137338782
 20
11.74093366791134
 30
0.0
 10
23.33152818496936
 20
11.73897049491188
 30
0.0
 10
23.3220646066964
 20
11.7364867868122
 30
0.0
 10
23.31052897346791
 20
11.73541184545198
 30
0.0
 10
23.29835004157209
 20
11.73628861044652
 30
0.0
 10
23.28820509685105
 20
11.7389022717197
 30
0.0
 10
23.28413801662469
 20
11.74097453627563
 30
0.0
 10
23.28239051918811
 20
11.74186492367836
 30
0.0
  0
LINE
  5
BC
330
1B
100
AcDbEntity
 67
     1
  8
0
  6
Continuous
 62
     7
370
    25
100
AcDbLine
 10
23.2823905192
 20
11.7418649237
 30
0.0
 11
15.7318514704
 21
16.0996222179
 31
0.0
  0
LINE
  5
BD
330
1B
100
AcDbEntity
 67
     1
  8
0
  6
Continuous
 62
     7
370
    25
100
AcDbLine
 10
23.5316992915
 20
11.8540969366
 30
0.0
 11
23.337238669
 21
11.7418649237
 31
0.0
  0
ARC
  5
BE
330
1B
100
AcDbEntity
 67
     1
  8
0
  6
Continuous
 62
     7
370
    25
100
AcDbCircle
 10
23.5466953202
 20
11.828114038
 30
0.0
 40
0.0300000000000002
100
AcDbArc
 50
60.00881341
 51
119.99118659
  0
SPLINE
  5
BF
330
1B
100
AcDbEntity
 67
     1
  8
0
  6
Continuous
 62
     7
370
    25
100
AcDbSpline
210
0.0
220
0.0
230
1.0
 70
     8
 71
     3
 72
    11
 73
     7
 74
     0
 42
0.000000001
 43
0.00000001
 40
0.0
 40
0.0
 40
0.0
 40
0.0
 40
0.1945705510940712
 40
0.5168478959174728
 40
0.8175025916451355
 40
1.0
 40
1.0
 40
1.0
 40
1.0
 10
7.721518927786566
 20
13.00659221124891
 30
0.0
 10
7.715635062160136
 20
13.00285865545464
 30
0.0
 10
7.700005443228691
 20
12.99294101660483
 30
0.0
 10
7.681794831400178
 20
12.97250102536054
 30
0.0
 10
7.669802344631195
 20
12.94817617896563
 30
0.0
 10
7.671029771324945
 20
12.93258525025248
 30
0.0
 10
7.671493397973082
 20
12.92669620607788
 30
0.0
  0
LINE
  5
C0
330
1B
100
AcDbEntity
 67
     1
  8
0
  6
Continuous
 62
     7
370
    25
100
AcDbLine
 10
7.6697813897
 20
12.9278692918
 30
0.0
 11
7.6718211146
 21
12.8324580635
 31
0.0
  0
LINE
  5
C1
330
1B
100
AcDbEntity
 67
     1
  8
0
  6
Continuous
 62
     7
370
    25
100
AcDbLine
 10
9.694680369
 20
14.1453928462
 30
0.0
 11
7.7215189278
 21
13.0065922112
 31
0.0
  0
SPLINE
  5
C2
330
1B
100
AcDbEntity
 67
     1
  8
0
  6
Continuous
 62
     7
370
    25
100
AcDbSpline
210
0.0
220
0.0
230
1.0
 70
     8
 71
     3
 72
    13
 73
     9
 74
     0
 42
0.000000001
 43
0.00000001
 40
0.0
 40
0.0
 40
0.0
 40
0.0
 40
0.146437580319055
 40
0.3087060732050488
 40
0.4865650357994483
 40
0.6738087394499983
 40
0.8598459966496016
 40
1.0
 40
1.0
 40
1.0
 40
1.0
 10
10.59892212897104
 20
13.6724790788616
 30
0.0
 10
10.59708482944704
 20
13.67154782832467
 30
0.0
 10
10.59321160564672
 20
13.66958465264397
 30
0.0
 10
10.58374810431289
 20
13.66710086426203
 30
0.0
 10
10.57221242137216
 20
13.66602608682637
 30
0.0
 10
10.56003366587811
 20
13.66690288133298
 30
0.0
 10
10.54988834043009
 20
13.66951629086185
 30
0.0
 10
10.54582148238278
 20
13.67158869333099
 30
0.0
 10
10.54407408291099
 20
13.67247913871605
 30
0.0
  0
LINE
  5
C3
330
1B
100
AcDbEntity
 67
     1
  8
0
  6
Continuous
 62
     7
370
    25
100
AcDbLine
 10
13.3856827455
 20
15.2808445645
 30
0.0
 11
10.598922129
 21
13.6724790789
 31
0.0
  0
LINE
  5
C4
330
1B
100
AcDbEntity
 67
     1
  8
0
  6
Continuous
 62
     7
370
    25
100
AcDbLine
 10
10.5440740829
 20
13.6724791387
 30
0.0
 11
9.7246721452
 21
14.1453930258
 31
0.0
  0
ARC
  5
C5
330
1B
100
AcDbEntity
 67
     1
  8
0
  6
Continuous
 62
     7
370
    25
100
AcDbCircle
 10
9.7096762725
 20
14.1194098901
 30
0.0
 40
0.0299999999999993
100
AcDbArc
 50
60.00881341
 51
119.99118659
  0
SPLINE
  5
C6
330
1B
100
AcDbEntity
 67
     1
  8
0
  6
Continuous
 62
     7
370
    25
100
AcDbSpline
210
0.0
220
0.0
230
1.0
 70
     8
 71
     3
 72
     9
 73
     5
 74
     0
 42
0.000000001
 43
0.00000001
 40
0.0
 40
0.0
 40
0.0
 40
0.0
 40
0.543954795738712
 40
0.9999999999999999
 40
0.9999999999999999
 40
0.9999999999999999
 40
0.9999999999999999
 10
13.38911775517455
 20
15.28338680080387
 30
0.0
 10
13.38908093576514
 20
15.28327504462528
 30
0.0
 10
13.38901324740261
 20
15.28306959340125
 30
0.0
 10
13.38672588581859
 20
15.28154146165339
 30
0.0
 10
13.38568274553779
 20
15.28084456449829
 30
0.0
  0
LINE
  5
C7
330
1B
100
AcDbEntity
 67
     1
  8
0
  6
Continuous
 62
     7
370
    25
100
AcDbLine
 10
12.5663347359
 20
15.748968408
 30
0.0
 11
13.3815597384
 21
15.278465219
 31
0.0
  0
ARC
  5
C8
330
1B
100
AcDbEntity
 67
     1
  8
0
  6
Continuous
 62
     7
370
    25
100
AcDbCircle
 10
12.5812768225
 20
15.7767403353
 30
0.0
 40
0.0299999999999993
100
AcDbArc
 50
119.99118659
 51
181.731391983
  0
LINE
  5
C9
330
1B
100
AcDbEntity
 67
     1
  8
0
  6
Continuous
 62
     7
370
    25
100
AcDbLine
 10
14.5394424565
 20
16.9415239819
 30
0.0
 11
12.5662810152
 21
15.8027233469
 31
0.0
  0
LINE
  5
CA
330
1B
100
AcDbEntity
 67
     1
  8
0
  6
Continuous
 62
     7
370
    25
100
AcDbLine
 10
12.5512904681
 20
15.7758339161
 30
0.0
 11
12.5513444999
 21
15.7740449833
 31
0.0
  0
ARC
  5
CB
330
1B
100
AcDbEntity
 67
     1
  8
0
  6
Continuous
 62
     7
370
    25
100
AcDbCircle
 10
12.5813308997
 20
15.7749513422
 30
0.0
 40
0.0299999999999975
100
AcDbArc
 50
181.731391983
 51
240.00881341
  0
SPLINE
  5
CC
330
1B
100
AcDbEntity
 67
     1
  8
0
  6
Continuous
 62
     7
370
    25
100
AcDbSpline
210
0.0
220
0.0
230
1.0
 70
     8
 71
     3
 72
     9
 73
     5
 74
     0
 42
0.000000001
 43
0.00000001
 40
0.0
 40
0.0
 40
0.0
 40
0.0
 40
0.5972964424260604
 40
1.0
 40
1.0
 40
1.0
 40
1.0
 10
15.73185147043836
 20
16.09962221785261
 30
0.0
 10
15.73052458416122
 20
16.10056099615394
 30
0.0
 10
15.72830309716935
 20
16.10213270868168
 30
0.0
 10
15.72844010513271
 20
16.10205957580611
 30
0.0
 10
15.72849527872696
 20
16.10203012493694
 30
0.0
  0
ARC
  5
CD
330
1B
100
AcDbEntity
 67
     1
  8
0
  6
Continuous
 62
     7
370
    25
100
AcDbCircle
 10
15.9113163853
 20
16.2348362644
 30
0.0
 40
0.0300000000000004
100
AcDbArc
 50
358.2686080171
 51
0.0
  0
ARC
  5
CE
330
1B
100
AcDbEntity
 67
     1
  8
0
  6
Continuous
 62
     7
370
    25
100
AcDbCircle
 10
15.9113163853
 20
16.2348362644
 30
0.0
 40
0.0300000000000015
100
AcDbArc
 50
0.0
 51
60.00881341
  0
LINE
  5
CF
330
1B
100
AcDbEntity
 67
     1
  8
0
  6
Continuous
 62
     7
370
    25
100
AcDbLine
 10
15.9403308981
 20
16.2017831563
 30
0.0
 11
15.9413028475
 21
16.2339299347
 31
0.0
  0
LINE
  5
D0
330
1B
100
AcDbEntity
 67
     1
  8
0
  6
Continuous
 62
     7
370
    25
100
AcDbLine
 10
15.9263125078
 20
16.2608192459
 30
0.0
 11
14.7468781688
 21
16.9415241016
 31
0.0
  0
SPLINE
  5
D1
330
1B
100
AcDbEntity
 67
     1
  8
0
  6
Continuous
 62
     7
370
    25
100
AcDbSpline
210
0.0
220
0.0
230
1.0
 70
     8
 71
     3
 72
    13
 73
     9
 74
     0
 42
0.000000001
 43
0.00000001
 40
0.0
 40
0.0
 40
0.0
 40
0.0
 40
0.1058093906629263
 40
0.3007548849262458
 40
0.4951123344670146
 40
0.6896013389879925
 40
0.8858636388549832
 40
1.0
 40
1.0
 40
1.0
 40
1.0
 10
14.74687816882961
 20
16.94152410156856
 30
0.0
 10
14.74063267648732
 20
16.94479063259571
 30
0.0
 10
14.72288035489332
 20
16.95407549055609
 30
0.0
 10
14.68827368566261
 20
16.96385615959146
 30
0.0
 10
14.64427377448171
 20
16.96809545192683
 30
0.0
 10
14.60008770761485
 20
16.96423763524123
 30
0.0
 10
14.56457354714137
 20
16.9545717992317
 30
0.0
 10
14.54619895731313
 20
16.94503189126171
 30
0.0
 10
14.53944245645166
 20
16.94152398185965
 30
0.0
  0
ARC
  5
D2
330
1B
100
AcDbEntity
 67
     1
  8
0
  6
Continuous
 62
     7
370
    25
100
AcDbCircle
 10
11.1664775042
 20
14.97118416
 30
0.0
 40
0.0300000000000013
100
AcDbArc
 50
119.9006002291
 51
166.3071000704
  0
LINE
  5
D3
330
1B
100
AcDbEntity
 67
     1
  8
0
  6
Continuous
 62
     7
370
    25
100
AcDbLine
 10
11.2742018474
 20
15.0677364306
 30
0.0
 11
11.1515227043
 21
14.9971908456
 31
0.0
  0
LINE
  5
D4
330
1B
100
AcDbEntity
 67
     1
  8
0
  6
Continuous
 62
     7
370
    25
100
AcDbLine
 10
12.5788412739
 20
15.7417502311
 30
0.0
 11
11.2746170805
 21
15.0679630307
 31
0.0
  0
LINE
  5
D5
330
1B
100
AcDbEntity
 67
     1
  8
0
  6
Continuous
 62
     7
370
    25
100
AcDbLine
 10
21.249859722
 20
8.958056506
 30
0.0
 11
21.314256772
 21
8.9991206571
 31
0.0
  0
LINE
  5
D6
330
1B
100
AcDbEntity
 67
     1
  8
0
  6
Continuous
 62
     7
370
    25
100
AcDbLine
 10
19.4430181687
 20
7.9325140591
 30
0.0
 11
19.4579773961
 21
7.923880413
 31
0.0
  0
LINE
  5
D7
330
1B
100
AcDbEntity
 67
     1
  8
0
  6
Continuous
 62
     7
370
    25
100
AcDbLine
 10
19.7837304297
 20
8.1184980819
 30
0.0
 11
19.7894575891
 21
8.1151926795
 31
0.0
  0
SPLINE
  5
D8
330
1B
100
AcDbEntity
 67
     1
  8
0
  6
Continuous
 62
     7
370
    25
100
AcDbSpline
210
0.0
220
0.0
230
1.0
 70
     8
 71
     3
 72
     9
 73
     5
 74
     0
 42
0.000000001
 43
0.00000001
 40
0.0
 40
0.0
 40
0.0
 40
0.0
 40
0.6829133835356748
 40
1.0
 40
1.0
 40
1.0
 40
1.0
 10
19.78387862816651
 20
8.118529965573599
 30
0.0
 10
19.7837966243078
 20
8.11849388696196
 30
0.0
 10
19.7836765448648
 20
8.118441056526205
 30
0.0
 10
19.78362966159084
 20
8.118625837044142
 30
0.0
 10
19.78361479553213
 20
8.118684428473363
 30
0.0
  0
LINE
  5
D9
330
1B
100
AcDbEntity
 67
     1
  8
0
  6
Continuous
 62
     7
370
    25
100
AcDbLine
 10
20.3549908912
 20
9.5002219636
 30
0.0
 11
19.1284136195
 21
8.7180689304
 31
0.0
  0
ARC
  5
DA
330
1B
100
AcDbEntity
 67
     1
  8
0
  6
Continuous
 62
     7
370
    25
100
AcDbCircle
 10
21.2961667266
 20
9.0815047691
 30
0.0
 40
0.0300000000000029
100
AcDbArc
 50
6.2174945416
 51
60.00881341
  0
LINE
  5
DB
330
1B
100
AcDbEntity
 67
     1
  8
0
  6
Continuous
 62
     7
370
    25
100
AcDbLine
 10
21.3301080501
 20
9.0469547455
 30
0.0
 11
21.3259902354
 21
9.0847538734
 31
0.0
  0
LINE
  5
DC
330
1B
100
AcDbEntity
 67
     1
  8
0
  6
Continuous
 62
     7
370
    25
100
AcDbLine
 10
21.3111628687
 20
9.1074877582
 30
0.0
 11
20.5076012598
 21
9.5712594757
 31
0.0
  0
SPLINE
  5
DD
330
1B
100
AcDbEntity
 67
     1
  8
0
  6
Continuous
 62
     7
370
    25
100
AcDbSpline
210
0.0
220
0.0
230
1.0
 70
     8
 71
     3
 72
    11
 73
     7
 74
     0
 42
0.000000001
 43
0.00000001
 40
0.0
 40
0.0
 40
0.0
 40
0.0
 40
0.0502794848777347
 40
0.3655331039141658
 40
0.6713895165367291
 40
1.0
 40
1.0
 40
1.0
 40
1.0
 10
21.31348163076663
 20
8.998996442452972
 30
0.0
 10
21.31411699263108
 20
8.999269561453074
 30
0.0
 10
21.31873608916689
 20
9.001255143367604
 30
0.0
 10
21.32507626913332
 20
9.008452677614889
 30
0.0
 10
21.3315154880803
 20
9.020074267391895
 30
0.0
 10
21.33155157358749
 20
9.02894121665215
 30
0.0
 10
21.33157026341359
 20
9.033533690272495
 30
0.0
  0
LINE
  5
DE
330
1B
100
AcDbEntity
 67
     1
  8
0
  6
Continuous
 62
     7
370
    25
100
AcDbLine
 10
20.4775679875
 20
9.5712357649
 30
0.0
 11
20.3553371975
 21
9.5004322811
 31
0.0
  0
ARC
  5
DF
330
1B
100
AcDbEntity
 67
     1
  8
0
  6
Continuous
 62
     7
370
    25
100
AcDbCircle
 10
20.4926053053
 20
9.5452763783
 30
0.0
 40
0.03
100
AcDbArc
 50
60.00881341
 51
120.0819387472
  0
LINE
  5
E0
330
1B
100
AcDbEntity
 67
     1
  8
0
  6
Continuous
 62
     7
370
    25
100
AcDbLine
 10
23.4552367776
 20
11.8099669266
 30
0.0
 11
23.4447120956
 21
11.8160411962
 31
0.0
  0
LINE
  5
E1
330
1B
100
AcDbEntity
 67
     1
  8
0
  6
Continuous
 62
     7
370
    25
100
AcDbLine
 10
23.3978141855
 20
11.8113838103
 30
0.0
 11
23.394280446
 21
11.8093422387
 31
0.0
  0
LINE
  5
E2
330
1B
100
AcDbEntity
 67
     1
  8
0
  6
Continuous
 62
     7
370
    25
100
AcDbLine
 10
23.7367470281
 20
11.9519397808
 30
0.0
 11
23.7084630082
 21
11.9682637668
 31
0.0
  0
LINE
  5
E3
330
1B
100
AcDbEntity
 67
     1
  8
0
  6
Continuous
 62
     7
370
    25
100
AcDbLine
 10
23.6615650981
 20
11.9636063809
 30
0.0
 11
23.6580311513
 21
11.9615646896
 31
0.0
  0
LINE
  5
E4
330
1B
100
AcDbEntity
 67
     1
  8
0
  6
Continuous
 62
     7
370
    25
100
AcDbLine
 10
23.5953090907
 20
11.8528880275
 30
0.0
 11
23.5953090907
 21
11.8488069113
 31
0.0
  0
LINE
  5
E5
330
1B
100
AcDbEntity
 67
     1
  8
0
  6
Continuous
 62
     7
370
    25
100
AcDbLine
 10
16.1195641049
 20
16.3164359774
 30
0.0
 11
16.116030158
 21
16.3143942861
 31
0.0
  0
LINE
  5
E6
330
1B
100
AcDbEntity
 67
     1
  8
0
  6
Continuous
 62
     7
370
    25
100
AcDbLine
 10
15.8558131922
 20
16.1642134068
 30
0.0
 11
15.8522794528
 21
16.1621718353
 31
0.0
  0
LINE
  5
E7
330
1B
100
AcDbEntity
 67
     1
  8
0
  6
Continuous
 62
     7
370
    25
100
AcDbLine
 10
23.7484655943
 20
12.0314100117
 30
0.0
 11
16.2418198334
 21
16.363834506
 31
0.0
  0
SPLINE
  5
E8
330
1B
100
AcDbEntity
 67
     1
  8
0
  6
Continuous
 62
     7
370
    25
100
AcDbSpline
210
0.0
220
0.0
230
1.0
 70
     8
 71
     3
 72
    10
 73
     6
 74
     0
 42
0.000000001
 43
0.00000001
 40
0.0
 40
0.0
 40
0.0
 40
0.0
 40
0.2949455080379402
 40
0.8784020033844623
 40
0.9999999999999999
 40
0.9999999999999999
 40
0.9999999999999999
 40
0.9999999999999999
 10
21.32741016957689
 20
9.01413566861875
 30
0.0
 10
21.32917984302822
 20
9.01382867691874
 30
0.0
 10
21.33445025624903
 20
9.012914399138738
 30
0.0
 10
21.34078004250383
 20
9.014368888926036
 30
0.0
 10
21.34437744030366
 20
9.01670274798974
 30
0.0
 10
21.34499786946264
 20
9.017105259554116
 30
0.0
  0
LINE
  5
E9
330
1B
100
AcDbEntity
 67
     1
  8
0
  6
Continuous
 62
     7
370
    25
100
AcDbLine
 10
21.3448422948
 20
9.0167620201
 30
0.0
 11
21.4090592983
 21
9.0499377582
 31
0.0
  0
ARC
  5
EA
330
1B
100
AcDbEntity
 67
     1
  8
0
  6
Continuous
 62
     7
370
    25
100
AcDbCircle
 10
20.5301850862
 20
9.5669653681
 30
0.0
 40
0.0300000000000027
100
AcDbArc
 50
119.9006002291
 51
166.3071000704
  0
LINE
  5
EB
330
1B
100
AcDbEntity
 67
     1
  8
0
  6
Continuous
 62
     7
370
    25
100
AcDbLine
 10
20.6379095195
 20
9.6635175867
 30
0.0
 11
20.5152303764
 21
9.5929720018
 31
0.0
  0
LINE
  5
EC
330
1B
100
AcDbEntity
 67
     1
  8
0
  6
Continuous
 62
     7
370
    25
100
AcDbLine
 10
21.942548946
 20
10.3375313872
 30
0.0
 11
20.6383247526
 21
9.6637441868
 31
0.0
  0
SPLINE
  5
ED
330
1B
100
AcDbEntity
 67
     1
  8
0
  6
Continuous
 62
     7
370
    25
100
AcDbSpline
210
0.0
220
0.0
230
1.0
 70
     8
 71
     3
 72
    11
 73
     7
 74
     0
 42
0.000000001
 43
0.00000001
 40
0.0
 40
0.0
 40
0.0
 40
0.0
 40
0.3023721281383821
 40
0.6058462891570138
 40
0.8962809803747501
 40
1.0
 40
1.0
 40
1.0
 40
1.0
 10
22.79659924372789
 20
9.854272859043162
 30
0.0
 10
22.79627272704025
 20
9.857898805984002
 30
0.0
 10
22.79561850363425
 20
9.865163915080911
 30
0.0
 10
22.78997773690722
 20
9.874538996963592
 30
0.0
 10
22.78396450007403
 20
9.880319180542404
 30
0.0
 10
22.77998868345793
 20
9.882764127325872
 30
0.0
 10
22.77894247282921
 20
9.883407499382109
 30
0.0
  0
LINE
  5
EE
330
1B
100
AcDbEntity
 67
     1
  8
0
  6
Continuous
 62
     7
370
    25
100
AcDbLine
 10
22.7969181452
 20
9.8509339241
 30
0.0
 11
22.796873862
 21
9.8539545135
 31
0.0
  0
LINE
  5
EF
330
1B
100
AcDbEntity
 67
     1
  8
0
  6
Continuous
 62
     7
370
    25
100
AcDbLine
 10
22.7789424728
 20
9.8834074994
 30
0.0
 11
22.7783061218
 21
9.8837747663
 31
0.0
  0
LINE
  5
F0
330
1B
100
AcDbEntity
 67
     1
  8
0
  6
Continuous
 62
     7
370
    25
100
AcDbLine
 10
22.9476458122
 20
9.9379254712
 30
0.0
 11
22.9513027565
 21
9.973321463
 31
0.0
  0
LINE
  5
F1
330
1B
100
AcDbEntity
 67
     1
  8
0
  6
Continuous
 62
     7
370
    25
100
AcDbLine
 10
10.9912836339
 20
14.904440568
 30
0.0
 11
9.7647063622
 21
14.1222875348
 31
0.0
  0
ARC
  5
F2
330
1B
100
AcDbEntity
 67
     1
  8
0
  6
Continuous
 62
     7
370
    25
100
AcDbCircle
 10
11.9324591445
 20
14.485723561
 30
0.0
 40
0.0300000000000008
100
AcDbArc
 50
6.2174945416
 51
60.00881341
  0
LINE
  5
F3
330
1B
100
AcDbEntity
 67
     1
  8
0
  6
Continuous
 62
     7
370
    25
100
AcDbLine
 10
11.9653203451
 20
14.4610894522
 30
0.0
 11
11.9622825633
 21
14.4889727173
 31
0.0
  0
LINE
  5
F4
330
1B
100
AcDbEntity
 67
     1
  8
0
  6
Continuous
 62
     7
370
    25
100
AcDbLine
 10
11.9474551965
 20
14.5117066021
 30
0.0
 11
11.1438935877
 21
14.9754783196
 31
0.0
  0
LINE
  5
F5
330
1B
100
AcDbEntity
 67
     1
  8
0
  6
Continuous
 62
     7
370
    25
100
AcDbLine
 10
11.1138607302
 20
14.9754543693
 30
0.0
 11
10.9916295253
 21
14.904651125
 31
0.0
  0
ARC
  5
F6
330
1B
100
AcDbEntity
 67
     1
  8
0
  6
Continuous
 62
     7
370
    25
100
AcDbCircle
 10
11.1288977233
 20
14.9494951702
 30
0.0
 40
0.0299999999999993
100
AcDbArc
 50
60.00881341
 51
120.0819387472
  0
ARC
  5
F7
330
1B
100
AcDbEntity
 67
     1
  8
0
  6
Continuous
 62
     7
370
    25
100
AcDbCircle
 10
15.0766572532
 20
9.716841877
 30
0.0
 40
0.0300000000000011
100
AcDbArc
 50
0.0
 51
60.00881341
  0
LINE
  5
F8
330
1B
100
AcDbEntity
 67
     1
  8
0
  6
Continuous
 62
     7
370
    25
100
AcDbLine
 10
15.1061053828
 20
9.6982328502
 30
0.0
 11
15.1066509895
 21
9.7162860974
 31
0.0
  0
LINE
  5
F9
330
1B
100
AcDbEntity
 67
     1
  8
0
  6
Continuous
 62
     7
370
    25
100
AcDbLine
 10
15.0916532865
 20
9.7428249749
 30
0.0
 11
12.2681823915
 21
11.3723776211
 31
0.0
  0
LINE
  5
FA
330
1B
100
AcDbEntity
 67
     1
  8
0
  6
Continuous
 62
     7
370
    25
100
AcDbLine
 10
13.5180097456
 20
10.1468315936
 30
0.0
 11
13.5173830135
 21
10.1615251109
 31
0.0
  0
LINE
  5
FB
330
1B
100
AcDbEntity
 67
     1
  8
0
  6
Continuous
 62
     7
370
    25
100
AcDbLine
 10
13.4755312396
 20
10.1615377252
 30
0.0
 11
13.4749041444
 21
10.146844567
 31
0.0
  0
LINE
  5
FC
330
1B
100
AcDbEntity
 67
     1
  8
0
  6
Continuous
 62
     7
370
    25
100
AcDbLine
 10
13.4335072848
 20
10.1993740496
 30
0.0
 11
13.4328792952
 21
10.2140594342
 31
0.0
  0
LINE
  5
FD
330
1B
100
AcDbEntity
 67
     1
  8
0
  6
Continuous
 62
     7
370
    25
100
AcDbLine
 10
13.3107434723
 20
10.2476700941
 30
0.0
 11
13.3101429782
 21
10.2328665344
 31
0.0
  0
LINE
  5
FE
330
1B
100
AcDbEntity
 67
     1
  8
0
  6
Continuous
 62
     7
370
    25
100
AcDbLine
 10
13.3379527035
 20
10.2378005392
 30
0.0
 11
13.3373563643
 21
10.2523879308
 31
0.0
  0
LINE
  5
FF
330
1B
100
AcDbEntity
 67
     1
  8
0
  6
Continuous
 62
     7
370
    25
100
AcDbLine
 10
13.3611839889
 20
10.2483766345
 30
0.0
 11
13.3605555909
 21
10.2630672826
 31
0.0
  0
LINE
  5
100
330
1B
100
AcDbEntity
 67
     1
  8
0
  6
Continuous
 62
     7
370
    25
100
AcDbLine
 10
13.1483968732
 20
10.3081352619
 30
0.0
 11
13.1477767589
 21
10.2933954584
 31
0.0
  0
LINE
  5
101
330
1B
100
AcDbEntity
 67
     1
  8
0
  6
Continuous
 62
     7
370
    25
100
AcDbLine
 10
13.2259797051
 20
10.3161991635
 30
0.0
 11
13.2253513623
 21
10.3308926527
 31
0.0
  0
LINE
  5
102
330
1B
100
AcDbEntity
 67
     1
  8
0
  6
Continuous
 62
     7
370
    25
100
AcDbLine
 10
13.1834209827
 20
10.3308931737
 30
0.0
 11
13.1827924681
 21
10.3161998771
 31
0.0
  0
LINE
  5
103
330
1B
100
AcDbEntity
 67
     1
  8
0
  6
Continuous
 62
     7
370
    25
100
AcDbLine
 10
13.0922129249
 20
10.3779452141
 30
0.0
 11
13.0915915596
 21
10.3632576075
 31
0.0
  0
LINE
  5
104
330
1B
100
AcDbEntity
 67
     1
  8
0
  6
Continuous
 62
     7
370
    25
100
AcDbLine
 10
13.1432812884
 20
10.3719443445
 30
0.0
 11
13.1426533118
 21
10.386632834
 31
0.0
  0
SPLINE
  5
105
330
1B
100
AcDbEntity
 67
     1
  8
0
  6
Continuous
 62
     7
370
    25
100
AcDbSpline
210
0.0
220
0.0
230
1.0
 70
     8
 71
     3
 72
    11
 73
     7
 74
     0
 42
0.000000001
 43
0.00000001
 40
0.0
 40
0.0
 40
0.0
 40
0.0
 40
0.1633514805294937
 40
0.4685819293273887
 40
0.7732017825167552
 40
1.0
 40
1.0
 40
1.0
 40
1.0
 10
11.71330118943092
 20
11.06944039326137
 30
0.0
 10
11.70598038938591
 20
11.06489558099399
 30
0.0
 10
11.68498030663067
 20
11.05185855865557
 30
0.0
 10
11.65198980273847
 20
11.02271958659395
 30
0.0
 10
11.61940738166069
 20
10.98466113296651
 30
0.0
 10
11.60231314346446
 20
10.95702464890152
 30
0.0
 10
11.59501767692672
 20
10.94522997034361
 30
0.0
  0
LINE
  5
106
330
1B
100
AcDbEntity
 67
     1
  8
0
  6
Continuous
 62
     7
370
    25
100
AcDbLine
 10
11.5950176769
 20
10.9452299703
 30
0.0
 11
11.5634542091
 21
10.8905829853
 31
0.0
  0
LINE
  5
107
330
1B
100
AcDbEntity
 67
     1
  8
0
  6
Continuous
 62
     7
370
    25
100
AcDbLine
 10
12.2381904079
 20
11.372377681
 30
0.0
 11
11.7133011894
 21
11.0694403933
 31
0.0
  0
ARC
  5
108
330
1B
100
AcDbEntity
 67
     1
  8
0
  6
Continuous
 62
     7
370
    25
100
AcDbCircle
 10
12.2531863386
 20
11.3463945346
 30
0.0
 40
0.0300000000000024
100
AcDbArc
 50
60.00881341
 51
119.99118659
  0
ARC
  5
109
330
1B
100
AcDbEntity
 67
     1
  8
0
  6
Continuous
 62
     7
370
    25
100
AcDbCircle
 10
17.8173627826
 20
7.2113430941
 30
0.0
 40
0.5814869123486646
100
AcDbArc
 50
242.6160689461
 51
297.3839310539
  0
LINE
  5
10A
330
1B
100
AcDbEntity
 67
     1
  8
0
  6
Continuous
 62
     7
370
    25
100
AcDbLine
 10
18.506374567
 20
6.3779494214
 30
0.0
 11
18.0848181377
 21
6.6950150373
 31
0.0
  0
ARC
  5
10B
330
1B
100
AcDbEntity
 67
     1
  8
0
  6
Continuous
 62
     7
370
    25
100
AcDbCircle
 10
17.8173627826
 20
7.7032614534
 30
0.0
 40
1.493716580023474
100
AcDbArc
 50
242.5306892057
 51
297.4693107943
  0
LINE
  5
10C
330
1B
100
AcDbEntity
 67
     1
  8
0
  6
Continuous
 62
     7
370
    25
100
AcDbLine
 10
17.1283509981
 20
6.3779494214
 30
0.0
 11
17.5499074274
 21
6.6950150373
 31
0.0
  0
ARC
  5
10D
330
1B
100
AcDbEntity
 67
     1
  8
0
  6
Continuous
 62
     7
370
    25
100
AcDbCircle
 10
17.8173623449
 20
7.7037443746
 30
0.0
 40
1.532809087795929
100
AcDbArc
 50
242.5307092746
 51
297.4693101268
  0
ARC
  5
10E
330
1B
100
AcDbEntity
 67
     1
  8
0
  6
Continuous
 62
     7
370
    25
100
AcDbCircle
 10
17.1572521423
 20
6.3408573529
 30
0.0
 40
0.0470223104231272
100
AcDbArc
 50
127.9247646842
 51
176.4768576731
  0
ARC
  5
10F
330
1B
100
AcDbEntity
 67
     1
  8
0
  6
Continuous
 62
     7
370
    25
100
AcDbCircle
 10
18.4774749616
 20
6.3408587132
 30
0.0
 40
0.0470202916796783
100
AcDbArc
 50
3.5219254125
 51
52.0756955977
  0
LINE
  5
110
330
1B
100
AcDbEntity
 67
     1
  8
0
  6
Continuous
 62
     7
370
    25
100
AcDbLine
 10
18.524406449
 20
6.3437471928
 30
0.0
 11
18.524799709
 21
6.3174960026
 31
0.0
  0
ARC
  5
111
330
1B
100
AcDbEntity
 67
     1
  8
0
  6
Continuous
 62
     7
370
    25
100
AcDbCircle
 10
17.8173623449
 20
7.6782476155
 30
0.0
 40
1.533659863272993
100
AcDbArc
 50
242.5306747435
 51
297.4693446471
  0
LINE
  5
112
330
1B
100
AcDbEntity
 67
     1
  8
0
  6
Continuous
 62
     7
370
    25
100
AcDbLine
 10
17.1099254413
 20
6.3174957631
 30
0.0
 11
17.1103187013
 21
6.3437469534
 31
0.0
  0
LINE
  5
113
330
1B
100
AcDbEntity
 67
     1
  8
0
  6
Continuous
 62
     7
370
    25
100
AcDbLine
 10
25.4797407339
 20
10.9629590445
 30
0.0
 11
18.0848181377
 21
6.6950150373
 31
0.0
  0
LINE
  5
114
330
1B
100
AcDbEntity
 67
     1
  8
0
  6
Continuous
 62
     7
370
    25
100
AcDbLine
 10
25.9012971632
 20
10.6458934285
 30
0.0
 11
25.4797407339
 21
10.9629590445
 31
0.0
  0
LINE
  5
115
330
1B
100
AcDbEntity
 67
     1
  8
0
  6
Continuous
 62
     7
370
    25
100
AcDbLine
 10
18.506374567
 20
6.3779494214
 30
0.0
 11
25.9012971632
 21
10.6458934285
 31
0.0
  0
LINE
  5
116
330
1B
100
AcDbEntity
 67
     1
  8
0
  6
Continuous
 62
     7
370
    25
100
AcDbLine
 10
17.5499074274
 20
6.6950150373
 30
0.0
 11
6.9829034968
 21
12.793710529
 31
0.0
  0
LINE
  5
117
330
1B
100
AcDbEntity
 67
     1
  8
0
  6
Continuous
 62
     7
370
    25
100
AcDbLine
 10
6.5613470675
 20
12.476644913
 30
0.0
 11
17.1283509981
 21
6.3779494214
 31
0.0
  0
LINE
  5
118
330
1B
100
AcDbEntity
 67
     1
  8
0
  6
Continuous
 62
     7
370
    25
100
AcDbLine
 10
6.9829034968
 20
12.793710529
 30
0.0
 11
6.5613470675
 21
12.476644913
 31
0.0
  0
LINE
  5
119
330
1B
100
AcDbEntity
 67
     1
  8
0
  6
Continuous
 62
     7
370
    25
100
AcDbLine
 10
17.1103187013
 20
6.3437469534
 30
0.0
 11
6.5433147707
 21
12.442442445
 31
0.0
  0
ARC
  5
11A
330
1B
100
AcDbEntity
 67
     1
  8
0
  6
Continuous
 62
     7
370
    25
100
AcDbCircle
 10
6.5902482117
 20
12.4395528446
 30
0.0
 40
0.0470223104231158
100
AcDbArc
 50
127.9247646842
 51
176.4768576731
  0
LINE
  5
11B
330
1B
100
AcDbEntity
 67
     1
  8
0
  6
Continuous
 62
     7
370
    25
100
AcDbLine
 10
25.9193290452
 20
10.6116911999
 30
0.0
 11
18.524406449
 21
6.3437471928
 31
0.0
  0
ARC
  5
11C
330
1B
100
AcDbEntity
 67
     1
  8
0
  6
Continuous
 62
     7
370
    25
100
AcDbCircle
 10
25.8723975578
 20
10.6088027203
 30
0.0
 40
0.0470202916796675
100
AcDbArc
 50
3.5219254125
 51
52.0756955977
  0
LINE
  5
11D
330
1B
100
AcDbEntity
 67
     1
  8
0
  6
Continuous
 62
     7
370
    25
100
AcDbLine
 10
6.5429215107
 20
12.4161912548
 30
0.0
 11
17.1099254413
 21
6.3174957631
 31
0.0
  0
LINE
  5
11E
330
1B
100
AcDbEntity
 67
     1
  8
0
  6
Continuous
 62
     7
370
    25
100
AcDbLine
 10
6.5433147707
 20
12.442442445
 30
0.0
 11
6.5429215107
 21
12.4161912548
 31
0.0
  0
LINE
  5
11F
330
1B
100
AcDbEntity
 67
     1
  8
0
  6
Continuous
 62
     7
370
    25
100
AcDbLine
 10
25.9197223052
 20
10.5854400097
 30
0.0
 11
25.9193290452
 21
10.6116911999
 31
0.0
  0
LINE
  5
120
330
1B
100
AcDbEntity
 67
     1
  8
0
  6
Continuous
 62
     7
370
    25
100
AcDbLine
 10
18.524799709
 20
6.3174960026
 30
0.0
 11
25.9197223052
 21
10.5854400097
 31
0.0
  0
ARC
  5
121
330
1B
100
AcDbEntity
 67
     1
  8
0
  6
Continuous
 62
     7
370
    25
100
AcDbCircle
 10
17.8661353923
 20
6.2763316609
 30
0.0
 40
0.5246864734673131
100
AcDbArc
 50
120.11611508
 51
127.0634382553
  0
ARC
  5
122
330
1B
100
AcDbEntity
 67
     1
  8
0
  6
Continuous
 62
     7
370
    25
100
AcDbCircle
 10
17.8173627826
 20
7.1442689455
 30
0.0
 40
0.4663335853095734
100
AcDbArc
 50
242.6160052278
 51
297.3839947722
  0
ARC
  5
123
330
1B
100
AcDbEntity
 67
     1
  8
0
  6
Continuous
 62
     7
370
    25
100
AcDbCircle
 10
17.7685882099
 20
6.2763287053
 30
0.0
 40
0.5246900150715543
100
AcDbArc
 50
52.9365852203
 51
59.8838614443
  0
LINE
  5
124
330
1B
100
AcDbEntity
 67
     1
  8
0
  6
Continuous
 62
     7
370
    25
100
AcDbLine
 10
25.4267763326
 20
11.2457197326
 30
0.0
 11
14.859772402
 21
17.3444152242
 31
0.0
  0
ARC
  5
125
330
1B
100
AcDbEntity
 67
     1
  8
0
  6
Continuous
 62
     7
370
    25
100
AcDbCircle
 10
25.3798229031
 20
11.1219273103
 30
0.0
 40
0.1323978411988169
100
AcDbArc
 50
290.7713172096
 51
69.2286827904
  0
LINE
  5
126
330
1B
100
AcDbEntity
 67
     1
  8
0
  6
Continuous
 62
     7
370
    25
100
AcDbLine
 10
18.0318537363
 20
6.7301908809
 30
0.0
 11
25.4267763326
 21
10.998134888
 31
0.0
  0
LINE
  5
127
330
1B
100
AcDbEntity
 67
     1
  8
0
  6
Continuous
 62
     7
370
    25
100
AcDbLine
 10
7.0358678982
 20
12.8288863726
 30
0.0
 11
17.6028718288
 21
6.7301908809
 31
0.0
  0
ARC
  5
128
330
1B
100
AcDbEntity
 67
     1
  8
0
  6
Continuous
 62
     7
370
    25
100
AcDbCircle
 10
7.0828213277
 20
12.9526787948
 30
0.0
 40
0.1323978411988163
100
AcDbArc
 50
110.7713172096
 51
249.2286827904
  0
LINE
  5
129
330
1B
100
AcDbEntity
 67
     1
  8
0
  6
Continuous
 62
     7
370
    25
100
AcDbLine
 10
14.4307904944
 20
17.3444152242
 30
0.0
 11
7.0358678982
 21
13.0764712171
 31
0.0
  0
ARC
  5
12A
330
1B
100
AcDbEntity
 67
     1
  8
0
  6
Continuous
 62
     7
370
    25
100
AcDbCircle
 10
14.6452814482
 20
16.9303371597
 30
0.0
 40
0.4663335853095568
100
AcDbArc
 50
62.6160052278
 51
117.3839947722
  0
LINE
  5
12B
330
1B
100
AcDbEntity
 67
     1
  8
0
  6
Continuous
 62
     7
370
    25
100
AcDbLine
 10
7.6227225251
 20
13.0715993038
 30
0.0
 11
14.4392318942
 21
17.0057148991
 31
0.0
  0
ARC
  5
12C
330
1B
100
AcDbEntity
 67
     1
  8
0
  6
Continuous
 62
     7
370
    25
100
AcDbCircle
 10
7.6678287053
 20
12.9526787948
 30
0.0
 40
0.1271874795381462
100
AcDbArc
 50
110.7715811642
 51
249.2284188358
  0
LINE
  5
12D
330
1B
100
AcDbEntity
 67
     1
  8
0
  6
Continuous
 62
     7
370
    25
100
AcDbLine
 10
17.6113132286
 20
7.0688912061
 30
0.0
 11
7.6227225251
 21
12.8337582859
 31
0.0
  0
ARC
  5
12E
330
1B
100
AcDbEntity
 67
     1
  8
0
  6
Continuous
 62
     7
370
    25
100
AcDbCircle
 10
17.8173627826
 20
7.4666754377
 30
0.0
 40
0.4479829389983441
100
AcDbArc
 50
242.6161474965
 51
297.3838525035
  0
LINE
  5
12F
330
1B
100
AcDbEntity
 67
     1
  8
0
  6
Continuous
 62
     7
370
    25
100
AcDbLine
 10
24.8399217057
 20
11.0030068013
 30
0.0
 11
18.0234123365
 21
7.0688912061
 31
0.0
  0
ARC
  5
130
330
1B
100
AcDbEntity
 67
     1
  8
0
  6
Continuous
 62
     7
370
    25
100
AcDbCircle
 10
24.7948155255
 20
11.1219273103
 30
0.0
 40
0.1271874795381463
100
AcDbArc
 50
290.7715811642
 51
69.2284188358
  0
LINE
  5
131
330
1B
100
AcDbEntity
 67
     1
  8
0
  6
Continuous
 62
     7
370
    25
100
AcDbLine
 10
23.7060038889
 20
11.8952830331
 30
0.0
 11
24.8399217057
 21
11.2408478193
 31
0.0
  0
LINE
  5
132
330
1B
100
AcDbEntity
 67
     1
  8
0
  6
Continuous
 62
     7
370
    25
100
AcDbLine
 10
23.8729369362
 20
11.9916276384
 30
0.0
 11
23.7060038889
 21
11.8952830331
 31
0.0
  0
ELLIPSE
  5
133
330
1B
100
AcDbEntity
 67
     1
  8
0
  6
Continuous
 62
     7
370
    25
100
AcDbEllipse
 10
23.7808449242
 20
12.0446489116
 30
0.0
 11
0.1301584332757422
 21
0.0
 31
0.0
210
0.0
220
0.0
230
1.0
 40
0.5764426693
 41
5.498396131367753
 42
7.067974482991453
  0
LINE
  5
134
330
1B
100
AcDbEntity
 67
     1
  8
0
  6
Continuous
 62
     7
370
    25
100
AcDbLine
 10
16.3359180655
 20
16.4476242905
 30
0.0
 11
23.8729369362
 21
12.0976701021
 31
0.0
  0
ELLIPSE
  5
135
330
1B
100
AcDbEntity
 67
     1
  8
0
  6
Continuous
 62
     7
370
    25
100
AcDbEllipse
 10
16.2440500374
 20
16.3944738288
 30
0.0
 11
0.129999999999999
 21
0.0
 31
0.0
210
0.0
220
0.0
230
1.0
 40
0.577848567
 41
0.7860071509830584
 42
2.355585502606735
  0
LINE
  5
136
330
1B
100
AcDbEntity
 67
     1
  8
0
  6
Continuous
 62
     7
370
    25
100
AcDbLine
 10
15.9852488189
 20
16.3512796852
 30
0.0
 11
16.1521818662
 21
16.4476242905
 31
0.0
  0
LINE
  5
137
330
1B
100
AcDbEntity
 67
     1
  8
0
  6
Continuous
 62
     7
370
    25
100
AcDbLine
 10
14.8513310022
 20
17.0057148991
 30
0.0
 11
15.9852488189
 21
16.3512796852
 31
0.0
  0
ARC
  5
138
330
1B
100
AcDbEntity
 67
     1
  8
0
  6
Continuous
 62
     7
370
    25
100
AcDbCircle
 10
14.6452814482
 20
16.6079306674
 30
0.0
 40
0.4479829389983599
100
AcDbArc
 50
62.6161474965
 51
117.3838525035
  0
ARC
  5
139
330
1B
100
AcDbEntity
 67
     1
  8
0
  6
Continuous
 62
     7
370
    25
100
AcDbCircle
 10
7.2991314617
 20
12.3750271526
 30
0.0
 40
0.52468647346672
100
AcDbArc
 50
120.11611508
 51
127.0634382553
  0
ARC
  5
13A
330
1B
100
AcDbEntity
 67
     1
  8
0
  6
Continuous
 62
     7
370
    25
100
AcDbCircle
 10
25.1635108061
 20
10.5442727124
 30
0.0
 40
0.5246900150732076
100
AcDbArc
 50
52.9365852203
 51
59.8838614443
  0
LINE
  5
13B
330
1B
100
AcDbEntity
 67
     1
  8
0
  6
Continuous
 62
     7
370
    25
100
AcDbLine
 10
18.2911242648
 20
7.2568585992
 30
0.0
 11
18.2350081835
 21
7.2244714728
 31
0.0
  0
LINE
  5
13C
330
1B
100
AcDbEntity
 67
     1
  8
0
  6
Continuous
 62
     7
370
    25
100
AcDbLine
 10
21.3082145046
 20
8.995267883
 30
0.0
 11
21.3112747143
 21
8.9935016977
 31
0.0
  0
LWPOLYLINE
  5
13D
330
1B
100
AcDbEntity
 67
     1
  8
0
  6
Continuous
 62
     7
370
    25
100
AcDbPolyline
 90
        9
 70
   128
 43
0.0
 10
25.4797407339
 20
11.271680188
 10
25.5267796866
 20
11.2386000667
 10
25.5617325327
 20
11.2008591986
 10
25.5832564636
 20
11.1599077375
 10
25.590524306
 20
11.1173196162
 10
25.5832560488
 20
11.0747317343
 10
25.5617325327
 20
11.0337805126
 10
25.5267792718
 20
10.9960394052
 10
25.4797407339
 20
10.9629590445
  0
LINE
  5
13E
330
1B
100
AcDbEntity
 67
     1
  8
0
  6
Continuous
 62
     7
370
    25
100
AcDbLine
 10
25.9012971632
 20
11.441213103
 30
0.0
 11
25.4797407339
 21
11.271680188
 31
0.0
  0
LWPOLYLINE
  5
13F
330
1B
100
AcDbEntity
 67
     1
  8
0
  6
Continuous
 62
     7
370
    25
100
AcDbPolyline
 90
       14
 70
   128
 43
0.0
 10
25.9012971632
 20
10.6458934285
 10
25.9793244204
 20
10.6967256631
 10
26.0461669991
 20
10.7526148811
 10
26.1008492163
 20
10.8127470617
 10
26.1425745964
 20
10.8762449781
 10
26.170734167
 20
10.9421820832
 10
26.1849172452
 20
11.0095978329
 10
26.1849172452
 20
11.0775086986
 10
26.170734167
 20
11.1449244482
 10
26.1425745964
 20
11.2108620323
 10
26.1008496312
 20
11.2743597092
 10
26.0461669991
 20
11.3344916504
 10
25.9793248352
 20
11.3903811078
 10
25.9012971632
 20
11.441213103
  0
ARC
  5
140
330
1B
100
AcDbEntity
 67
     1
  8
0
  6
Continuous
 62
     7
370
    25
100
AcDbCircle
 10
25.8493386214
 20
11.0202268835
 30
0.0
 40
0.3615841343578834
100
AcDbArc
 50
326.0820888275
 51
37.2397073616
  0
ARC
  5
141
330
1B
100
AcDbEntity
 67
     1
  8
0
  6
Continuous
 62
     7
370
    25
100
AcDbCircle
 10
25.8420471425
 20
10.9986564516
 30
0.0
 40
0.3706358937257434
100
AcDbArc
 50
325.9942299699
 51
0.3401780454
  0
LINE
  5
142
330
1B
100
AcDbEntity
 67
     1
  8
0
  6
Continuous
 62
     7
370
    25
100
AcDbLine
 10
24.343958251
 20
10.7502226204
 30
0.0
 11
24.2878421697
 21
10.717835494
 31
0.0
  0
ARC
  5
143
330
1B
100
AcDbEntity
 67
     1
  8
0
  6
Continuous
 62
     7
370
    25
100
AcDbCircle
 10
25.6372293932
 20
10.8833634603
 30
0.0
 40
0.4190376579520572
100
AcDbArc
 50
112.0758773794
 51
120.1476104529
  0
ARC
  5
144
330
1B
100
AcDbEntity
 67
     1
  8
0
  6
Continuous
 62
     7
370
    25
100
AcDbCircle
 10
24.9066465118
 20
11.1368803872
 30
0.0
 40
0.1235371469569993
100
AcDbArc
 50
122.691765321
 51
176.1532816871
  0
ELLIPSE
  5
145
330
1B
100
AcDbEntity
 67
     1
  8
0
  6
Continuous
 62
     7
370
    25
100
AcDbEllipse
 10
23.7060036688
 20
11.8299517876
 30
0.0
 11
0.07035139336000283
 21
0.04632189252161288
 31
0.0
210
0.0
220
0.0
230
1.0
 40
0.7162168423
 41
1.130139663328547
 42
2.666029405083563
  0
ARC
  5
146
330
1B
100
AcDbEntity
 67
     1
  8
0
  6
Continuous
 62
     7
370
    25
100
AcDbCircle
 10
15.0702254626
 20
16.982058952
 30
0.0
 40
0.4190376579514251
100
AcDbArc
 50
112.0758773794
 51
120.1476104529
  0
LINE
  5
147
330
1B
100
AcDbEntity
 67
     1
  8
0
  6
Continuous
 62
     7
370
    25
100
AcDbLine
 10
14.9127368033
 20
17.3703756796
 30
0.0
 11
25.4797407339
 21
11.271680188
 31
0.0
  0
LINE
  5
148
330
1B
100
AcDbEntity
 67
     1
  8
0
  6
Continuous
 62
     7
370
    25
100
AcDbLine
 10
14.9127368033
 20
17.3703756796
 30
0.0
 11
15.3342932327
 21
17.5399085947
 31
0.0
  0
LINE
  5
149
330
1B
100
AcDbEntity
 67
     1
  8
0
  6
Continuous
 62
     7
370
    25
100
AcDbLine
 10
25.9012971632
 20
11.441213103
 30
0.0
 11
15.3342932327
 21
17.5399085947
 31
0.0
  0
ARC
  5
14A
330
1B
100
AcDbEntity
 67
     1
  8
0
  6
Continuous
 62
     7
370
    25
100
AcDbCircle
 10
23.9396612869
 20
11.9937029391
 30
0.0
 40
0.1235366745407424
100
AcDbArc
 50
122.6916549754
 51
176.1533920327
  0
LINE
  5
14B
330
1B
100
AcDbEntity
 67
     1
  8
0
  6
Continuous
 62
     7
370
    25
100
AcDbLine
 10
23.8164029125
 20
12.0019904652
 30
0.0
 11
16.2793840418
 21
16.3519446536
 31
0.0
  0
ARC
  5
14C
330
1B
100
AcDbEntity
 67
     1
  8
0
  6
Continuous
 62
     7
370
    25
100
AcDbCircle
 10
16.4026424162
 20
16.3436571276
 30
0.0
 40
0.1235366745407674
100
AcDbArc
 50
122.6916549754
 51
176.1533920327
  0
LWPOLYLINE
  5
14D
330
1B
100
AcDbEntity
 67
     1
  8
0
  6
Continuous
 62
     7
370
    25
100
AcDbPolyline
 90
        9
 70
   128
 43
0.0
 10
6.9829034968
 20
12.793710529
 10
6.9358645442
 20
12.8267906503
 10
6.9009116981
 20
12.8645315183
 10
6.8793877671
 20
12.9054829794
 10
6.8721199248
 20
12.9480711008
 10
6.879388182
 20
12.9906589827
 10
6.9009116981
 20
13.0316102043
 10
6.935864959
 20
13.0693513118
 10
6.9829034968
 20
13.1024316725
  0
LWPOLYLINE
  5
14E
330
1B
100
AcDbEntity
 67
     1
  8
0
  6
Continuous
 62
     7
370
    25
100
AcDbPolyline
 90
       14
 70
   128
 43
0.0
 10
6.5613470675
 20
13.2719645876
 10
6.4833198104
 20
13.2211323529
 10
6.4164772317
 20
13.1652431349
 10
6.3617950144
 20
13.1051109543
 10
6.3200696344
 20
13.0416130379
 10
6.2919100638
 20
12.9756759328
 10
6.2777269856
 20
12.9082601831
 10
6.2777269856
 20
12.8403493174
 10
6.2919100638
 20
12.7729335678
 10
6.3200696344
 20
12.7069959838
 10
6.3617945996
 20
12.6434983068
 10
6.4164772317
 20
12.5833663656
 10
6.4833193956
 20
12.5274769083
 10
6.5613470675
 20
12.476644913
  0
LINE
  5
14F
330
1B
100
AcDbEntity
 67
     1
  8
0
  6
Continuous
 62
     7
370
    25
100
AcDbLine
 10
6.9829034968
 20
13.1024316725
 30
0.0
 11
6.5613470675
 21
13.2719645876
 31
0.0
  0
ARC
  5
150
330
1B
100
AcDbEntity
 67
     1
  8
0
  6
Continuous
 62
     7
370
    25
100
AcDbCircle
 10
6.6134070344
 20
12.850827626
 30
0.0
 40
0.3616007022703817
100
AcDbArc
 50
143.5767079222
 51
214.0250318947
  0
ARC
  5
151
330
1B
100
AcDbEntity
 67
     1
  8
0
  6
Continuous
 62
     7
370
    25
100
AcDbCircle
 10
6.6203482635
 20
12.8293663233
 30
0.0
 40
0.3703869067057045
100
AcDbArc
 50
179.6531930281
 51
213.8532393716
  0
ARC
  5
152
330
1B
100
AcDbEntity
 67
     1
  8
0
  6
Continuous
 62
     7
370
    25
100
AcDbCircle
 10
6.8254135184
 20
12.7141122535
 30
0.0
 40
0.4190406478248056
100
AcDbArc
 50
59.8524183909
 51
67.9240937768
  0
ARC
  5
153
330
1B
100
AcDbEntity
 67
     1
  8
0
  6
Continuous
 62
     7
370
    25
100
AcDbCircle
 10
7.5559970456
 20
12.9676309603
 30
0.0
 40
0.1235382777607951
100
AcDbArc
 50
3.8469954664
 51
57.3082002006
  0
LINE
  5
154
330
1B
100
AcDbEntity
 67
     1
  8
0
  6
Continuous
 62
     7
370
    25
100
AcDbLine
 10
6.9829034968
 20
13.1024316725
 30
0.0
 11
14.3778260931
 21
17.3703756796
 31
0.0
  0
ARC
  5
155
330
1B
100
AcDbEntity
 67
     1
  8
0
  6
Continuous
 62
     7
370
    25
100
AcDbCircle
 10
14.2203361146
 20
16.9820562606
 30
0.0
 40
0.4190406478228237
100
AcDbArc
 50
59.8524183909
 51
67.9240937769
  0
LINE
  5
156
330
1B
100
AcDbEntity
 67
     1
  8
0
  6
Continuous
 62
     7
370
    25
100
AcDbLine
 10
13.9562696638
 20
17.5399085947
 30
0.0
 11
6.5613470675
 21
13.2719645876
 31
0.0
  0
LINE
  5
157
330
1B
100
AcDbEntity
 67
     1
  8
0
  6
Continuous
 62
     7
370
    25
100
AcDbLine
 10
14.3778260931
 20
17.3703756796
 30
0.0
 11
13.9562696638
 21
17.5399085947
 31
0.0
  0
ELLIPSE
  5
158
330
1B
100
AcDbEntity
 67
     1
  8
0
  6
Continuous
 62
     7
370
    25
100
AcDbEllipse
 10
15.9852489555
 20
16.2859482338
 30
0.0
 11
0.02279608881186412
 21
0.07888233298735514
 31
0.0
210
0.0
220
0.0
230
1.0
 40
0.3425960109
 41
0.700723339650464
 42
2.23661308140534
  0
ELLIPSE
  5
159
330
1B
100
AcDbEntity
 67
     1
  8
0
  6
Continuous
 62
     7
370
    25
100
AcDbEllipse
 10
15.9852489555
 20
16.2859482338
 30
0.0
 11
-0.02279608881186235
 21
0.07888233298735514
 31
0.0
210
0.0
220
0.0
230
1.0
 40
0.3425960109
 41
4.046572225774259
 42
5.582461967529219
  0
SPLINE
  5
15A
330
1B
100
AcDbEntity
 67
     1
  8
0
  6
Continuous
 62
     7
370
    25
100
AcDbSpline
210
0.0
220
0.0
230
1.0
 70
     8
 71
     3
 72
    10
 73
     6
 74
     0
 42
0.000000001
 43
0.00000001
 40
0.0
 40
0.0
 40
0.0
 40
0.0
 40
0.1263993792910769
 40
0.5817099465504776
 40
0.9999999999999999
 40
0.9999999999999999
 40
0.9999999999999999
 40
0.9999999999999999
 10
16.10608955826596
 20
16.30638809744834
 30
0.0
 10
16.10466649959437
 20
16.30605795144585
 30
0.0
 10
16.0981173583847
 20
16.30453856729586
 30
0.0
 10
16.08719661125598
 20
16.29550400876515
 30
0.0
 10
16.07944192610806
 20
16.28497082175496
 30
0.0
 10
16.07572889341542
 20
16.27992741032297
 30
0.0
  0
ARC
  5
15B
330
1B
100
AcDbEntity
 67
     1
  8
0
  6
Continuous
 62
     7
370
    25
100
AcDbCircle
 10
14.6452814482
 20
16.8540476228
 30
0.0
 40
0.5814869123486678
100
AcDbArc
 50
62.6160689461
 51
117.3839310539
  0
ARC
  5
15C
330
1B
100
AcDbEntity
 67
     1
  8
0
  6
Continuous
 62
     7
370
    25
100
AcDbCircle
 10
14.6452814482
 20
16.2145965626
 30
0.0
 40
1.493716580023495
100
AcDbArc
 50
62.5306892057
 51
117.4693107943
  0
ARC
  5
15D
330
1B
100
AcDbEntity
 67
     1
  8
0
  6
Continuous
 62
     7
370
    25
100
AcDbCircle
 10
17.8194838026
 20
7.3096242643
 30
0.0
 40
0.239008697696934
100
AcDbArc
 50
242.6161563038
 51
297.3839060876
  0
ARC
  5
15E
330
1B
100
AcDbEntity
 67
     1
  8
0
  6
Continuous
 62
     7
370
    25
100
AcDbCircle
 10
17.7554989457
 20
7.0958136876
 30
0.0
 40
0.0459743495364559
100
AcDbArc
 50
122.5513435495
 51
178.0255773647
  0
ARC
  5
15F
330
1B
100
AcDbEntity
 67
     1
  8
0
  6
Continuous
 62
     7
370
    25
100
AcDbCircle
 10
17.8194842411
 20
7.305845958
 30
0.0
 40
0.1928949299316426
100
AcDbArc
 50
242.6161159301
 51
297.383806763
  0
ARC
  5
160
330
1B
100
AcDbEntity
 67
     1
  8
0
  6
Continuous
 62
     7
370
    25
100
AcDbCircle
 10
17.8834687786
 20
7.0958137698
 30
0.0
 40
0.045974462713456
100
AcDbArc
 50
1.9744644353
 51
57.4479676239
  0
LINE
  5
161
330
1B
100
AcDbEntity
 67
     1
  8
0
  6
Continuous
 62
     7
370
    25
100
AcDbLine
 10
7.7365148677
 20
12.9026976905
 30
0.0
 11
17.7307622093
 21
7.1345659093
 31
0.0
  0
ARC
  5
162
330
1B
100
AcDbEntity
 67
     1
  8
0
  6
Continuous
 62
     7
370
    25
100
AcDbCircle
 10
7.755936833
 20
12.9539031571
 30
0.0
 40
0.0547650667551502
100
AcDbArc
 50
110.7717062216
 51
249.2285258639
  0
LINE
  5
163
330
1B
100
AcDbEntity
 67
     1
  8
0
  6
Continuous
 62
     7
370
    25
100
AcDbLine
 10
9.7096761015
 20
14.1439091799
 30
0.0
 11
7.7365146603
 21
13.0051085449
 31
0.0
  0
LINE
  5
164
330
1B
100
AcDbEntity
 67
     1
  8
0
  6
Continuous
 62
     7
370
    25
100
AcDbLine
 10
10.5290780392
 20
13.6709952928
 30
0.0
 11
9.7096761015
 21
14.1439091799
 31
0.0
  0
ELLIPSE
  5
165
330
1B
100
AcDbEntity
 67
     1
  8
0
  6
Continuous
 62
     7
370
    25
100
AcDbEllipse
 10
10.5714980174
 20
13.6954927152
 30
0.0
 11
0.0600000000000005
 21
0.0
 31
0.0
210
0.0
220
0.0
230
1.0
 40
0.5773210074
 41
3.927143110234857
 42
5.497634850534576
  0
LINE
  5
166
330
1B
100
AcDbEntity
 67
     1
  8
0
  6
Continuous
 62
     7
370
    25
100
AcDbLine
 10
13.4006784781
 20
15.2793608982
 30
0.0
 11
10.6139178615
 21
13.6709954126
 31
0.0
  0
ELLIPSE
  5
167
330
1B
100
AcDbEntity
 67
     1
  8
0
  6
Continuous
 62
     7
370
    25
100
AcDbEllipse
 10
13.3582328282
 20
15.3038433072
 30
0.0
 11
0.06001827797346414
 21
0.0
 31
0.0
210
0.0
220
0.0
230
1.0
 40
0.5769694262
 41
5.497939437029732
 42
7.06843117732942
  0
LINE
  5
168
330
1B
100
AcDbEntity
 67
     1
  8
0
  6
Continuous
 62
     7
370
    25
100
AcDbLine
 10
12.5812767478
 20
15.8012396806
 30
0.0
 11
13.4006786855
 21
15.3283257935
 31
0.0
  0
LINE
  5
169
330
1B
100
AcDbEntity
 67
     1
  8
0
  6
Continuous
 62
     7
370
    25
100
AcDbLine
 10
14.554438189
 20
16.9400403156
 30
0.0
 11
12.5812767478
 21
15.8012396806
 31
0.0
  0
ARC
  5
16A
330
1B
100
AcDbEntity
 67
     1
  8
0
  6
Continuous
 62
     7
370
    25
100
AcDbCircle
 10
14.6431599897
 20
16.7687601472
 30
0.0
 40
0.1928949299316654
100
AcDbArc
 50
62.6161159301
 51
117.383806763
  0
LINE
  5
16B
330
1B
100
AcDbEntity
 67
     1
  8
0
  6
Continuous
 62
     7
370
    25
100
AcDbLine
 10
15.9113163604
 20
16.2593353401
 30
0.0
 11
14.7318820215
 21
16.9400401958
 31
0.0
  0
LINE
  5
16C
330
1B
100
AcDbEntity
 67
     1
  8
0
  6
Continuous
 62
     7
370
    25
100
AcDbLine
 10
15.7168557379
 20
16.1471033272
 30
0.0
 11
15.9113163604
 21
16.2593353401
 31
0.0
  0
ELLIPSE
  5
16D
330
1B
100
AcDbEntity
 67
     1
  8
0
  6
Continuous
 62
     7
370
    25
100
AcDbEllipse
 10
15.7593013528
 20
16.122620913
 30
0.0
 11
0.06001827797346238
 21
0.0
 31
0.0
210
0.0
220
0.0
230
1.0
 40
0.5769694262
 41
2.356346783439974
 42
3.92683852373968
  0
LINE
  5
16E
330
1B
100
AcDbEntity
 67
     1
  8
0
  6
Continuous
 62
     7
370
    25
100
AcDbLine
 10
23.2673945792
 20
11.7403811377
 30
0.0
 11
15.7168555305
 21
16.0981384318
 31
0.0
  0
ELLIPSE
  5
16F
330
1B
100
AcDbEntity
 67
     1
  8
0
  6
Continuous
 62
     7
370
    25
100
AcDbEllipse
 10
23.3098145485
 20
11.7648785398
 30
0.0
 11
0.05999999999999872
 21
0.0
 31
0.0
210
0.0
220
0.0
230
1.0
 40
0.5773210074
 41
3.927143110234774
 42
5.497634850534637
  0
LINE
  5
170
330
1B
100
AcDbEntity
 67
     1
  8
0
  6
Continuous
 62
     7
370
    25
100
AcDbLine
 10
23.546695024
 20
11.8526132703
 30
0.0
 11
23.3522344015
 21
11.7403812574
 31
0.0
  0
LINE
  5
171
330
1B
100
AcDbEntity
 67
     1
  8
0
  6
Continuous
 62
     7
370
    25
100
AcDbLine
 10
24.726129363
 20
11.1719084146
 30
0.0
 11
23.546695024
 21
11.8526132703
 31
0.0
  0
ARC
  5
172
330
1B
100
AcDbEntity
 67
     1
  8
0
  6
Continuous
 62
     7
370
    25
100
AcDbCircle
 10
24.7067073978
 20
11.1207029481
 30
0.0
 40
0.0547650667551514
100
AcDbArc
 50
290.7717062216
 51
69.2285258639
  0
LINE
  5
173
330
1B
100
AcDbEntity
 67
     1
  8
0
  6
Continuous
 62
     7
370
    25
100
AcDbLine
 10
22.7529681292
 20
9.9306969253
 30
0.0
 11
24.7261295704
 21
11.0694975602
 31
0.0
  0
LINE
  5
174
330
1B
100
AcDbEntity
 67
     1
  8
0
  6
Continuous
 62
     7
370
    25
100
AcDbLine
 10
21.9335661915
 20
10.4036108123
 30
0.0
 11
22.7529681292
 21
9.9306969253
 31
0.0
  0
ELLIPSE
  5
175
330
1B
100
AcDbEntity
 67
     1
  8
0
  6
Continuous
 62
     7
370
    25
100
AcDbEllipse
 10
21.8911462134
 20
10.37911339
 30
0.0
 11
0.05999999999999872
 21
0.0
 31
0.0
210
0.0
220
0.0
230
1.0
 40
0.5773210074
 41
0.7855504566450072
 42
2.356042196944714
  0
LINE
  5
176
330
1B
100
AcDbEntity
 67
     1
  8
0
  6
Continuous
 62
     7
370
    25
100
AcDbLine
 10
19.0619657527
 20
8.795245207
 30
0.0
 11
21.8487263693
 21
10.4036106926
 31
0.0
  0
ELLIPSE
  5
177
330
1B
100
AcDbEntity
 67
     1
  8
0
  6
Continuous
 62
     7
370
    25
100
AcDbEllipse
 10
19.1044114025
 20
8.770762798
 30
0.0
 11
0.06001827797346238
 21
0.0
 31
0.0
210
0.0
220
0.0
230
1.0
 40
0.5769694262
 41
2.356346783439871
 42
3.92683852373969
  0
LINE
  5
178
330
1B
100
AcDbEntity
 67
     1
  8
0
  6
Continuous
 62
     7
370
    25
100
AcDbLine
 10
19.881367483
 20
8.2733664246
 30
0.0
 11
19.0619655453
 21
8.7462803116
 31
0.0
  0
LINE
  5
179
330
1B
100
AcDbEntity
 67
     1
  8
0
  6
Continuous
 62
     7
370
    25
100
AcDbLine
 10
17.9082060418
 20
7.1345657896
 30
0.0
 11
19.881367483
 21
8.2733664246
 31
0.0
  0
SPLINE
  5
17A
330
1B
100
AcDbEntity
 67
     1
  8
0
  6
Continuous
 62
     7
370
    25
100
AcDbSpline
210
0.0
220
0.0
230
1.0
 70
     8
 71
     3
 72
    12
 73
     8
 74
     0
 42
0.000000001
 43
0.00000001
 40
0.0
 40
0.0
 40
0.0
 40
0.0
 40
0.2515348744164865
 40
0.5039447032465563
 40
0.7320959165147697
 40
0.9350121982309816
 40
1.0
 40
1.0
 40
1.0
 40
1.0
 10
13.07232097871318
 20
11.05793155449326
 30
0.0
 10
13.07875370128074
 20
11.06101791810348
 30
0.0
 10
13.0916415223946
 20
11.06720138112136
 30
0.0
 10
13.11573977753449
 20
11.07092771548558
 30
0.0
 10
13.13856972450839
 20
11.0695700844641
 30
0.0
 10
13.15354517846509
 20
11.06514197385465
 30
0.0
 10
13.16001501343937
 20
11.0616697740562
 30
0.0
 10
13.16158445705261
 20
11.06082749263492
 30
0.0
  0
LINE
  5
17B
330
1B
100
AcDbEntity
 67
     1
  8
0
  6
Continuous
 62
     7
370
    25
100
AcDbLine
 10
12.9867442088
 20
11.0085413334
 30
0.0
 11
13.0723209787
 21
11.0579315545
 31
0.0
  0
LINE
  5
17C
330
1B
100
AcDbEntity
 67
     1
  8
0
  6
Continuous
 62
     7
370
    25
100
AcDbLine
 10
12.2876136028
 20
11.4120411998
 30
0.0
 11
12.9867442088
 21
11.0085413334
 31
0.0
  0
ELLIPSE
  5
17D
330
1B
100
AcDbEntity
 67
     1
  8
0
  6
Continuous
 62
     7
370
    25
100
AcDbEllipse
 10
12.2451937435
 20
11.3875438229
 30
0.0
 11
0.0600000000000005
 21
0.0
 31
0.0
210
0.0
220
0.0
230
1.0
 40
0.5773210074
 41
0.785550456645001
 42
2.356042196944792
  0
LINE
  5
17E
330
1B
100
AcDbEntity
 67
     1
  8
0
  6
Continuous
 62
     7
370
    25
100
AcDbLine
 10
11.4607707344
 20
10.9837977108
 30
0.0
 11
12.2027738843
 21
11.4120412597
 31
0.0
  0
ELLIPSE
  5
17F
330
1B
100
AcDbEntity
 67
     1
  8
0
  6
Continuous
 62
     7
370
    25
100
AcDbEllipse
 10
11.5032166206
 20
10.9593152953
 30
0.0
 11
0.06001827797346238
 21
0.0
 31
0.0
210
0.0
220
0.0
230
1.0
 40
0.5769694262
 41
2.356346783439912
 42
3.92683852373969
  0
LINE
  5
180
330
1B
100
AcDbEntity
 67
     1
  8
0
  6
Continuous
 62
     7
370
    25
100
AcDbLine
 10
14.3211092325
 20
9.2840023291
 30
0.0
 11
11.4607708381
 21
10.9348328753
 31
0.0
  0
ELLIPSE
  5
181
330
1B
100
AcDbEntity
 67
     1
  8
0
  6
Continuous
 62
     7
370
    25
100
AcDbEllipse
 10
14.3635290958
 20
9.3084997082
 30
0.0
 11
0.0600000000000005
 21
0.0
 31
0.0
210
0.0
220
0.0
230
1.0
 40
0.5773210074
 41
3.927143110234868
 42
5.497634850534565
  0
LINE
  5
182
330
1B
100
AcDbEntity
 67
     1
  8
0
  6
Continuous
 62
     7
370
    25
100
AcDbLine
 10
15.1479521009
 20
9.7122458181
 30
0.0
 11
14.4059489511
 21
9.2840022692
 31
0.0
  0
ELLIPSE
  5
183
330
1B
100
AcDbEntity
 67
     1
  8
0
  6
Continuous
 62
     7
370
    25
100
AcDbEllipse
 10
15.1055062187
 20
9.7367282359
 30
0.0
 11
0.06001827797346238
 21
0.0
 31
0.0
210
0.0
220
0.0
230
1.0
 40
0.5769694262
 41
5.497939437029705
 42
7.068431177329483
  0
LINE
  5
184
330
1B
100
AcDbEntity
 67
     1
  8
0
  6
Continuous
 62
     7
370
    25
100
AcDbLine
 10
14.4488213912
 20
10.1647105201
 30
0.0
 11
15.1479519972
 21
9.7612106536
 31
0.0
  0
LINE
  5
185
330
1B
100
AcDbEntity
 67
     1
  8
0
  6
Continuous
 62
     7
370
    25
100
AcDbLine
 10
14.5343981611
 20
10.2141007412
 30
0.0
 11
14.4488213912
 21
10.1647105201
 31
0.0
  0
SPLINE
  5
186
330
1B
100
AcDbEntity
 67
     1
  8
0
  6
Continuous
 62
     7
370
    25
100
AcDbSpline
210
0.0
220
0.0
230
1.0
 70
     8
 71
     3
 72
    12
 73
     8
 74
     0
 42
0.000000001
 43
0.00000001
 40
0.0
 40
0.0
 40
0.0
 40
0.0
 40
0.1884462778508424
 40
0.3766881035814665
 40
0.570628919032022
 40
0.7809063815863909
 40
1.0
 40
1.0
 40
1.0
 40
1.0
 10
14.53941585540183
 20
10.26561872839538
 30
0.0
 10
14.54338727385108
 20
10.2628127194847
 30
0.0
 10
14.55132580201537
 20
10.25720374600295
 30
0.0
 10
14.55627269235144
 20
10.24639539155514
 30
0.0
 10
14.55538483151767
 20
10.23501807713302
 30
0.0
 10
14.54836378406037
 20
10.22356435632329
 30
0.0
 10
14.53911665828737
 20
10.21729816689439
 30
0.0
 10
14.53439816108219
 20
10.21410074122579
 30
0.0
  0
LINE
  5
187
330
1B
100
AcDbEntity
 67
     1
  8
0
  6
Continuous
 62
     7
370
    25
100
AcDbLine
 10
13.1615844571
 20
11.0608274926
 30
0.0
 11
14.5394158554
 21
10.2656187284
 31
0.0
  0
ARC
  5
188
330
1B
100
AcDbEntity
 67
     1
  8
0
  6
Continuous
 62
     7
370
    25
100
AcDbCircle
 10
19.8566302199
 20
8.2346144048
 30
0.0
 40
0.0459744627134823
100
AcDbArc
 50
1.9744644353
 51
57.4479676239
  0
LINE
  5
189
330
1B
100
AcDbEntity
 67
     1
  8
0
  6
Continuous
 62
     7
370
    25
100
AcDbLine
 10
19.9025773867
 20
8.2361984129
 30
0.0
 11
17.9294159455
 21
7.0973977779
 31
0.0
  0
LINE
  5
18A
330
1B
100
AcDbEntity
 67
     1
  8
0
  6
Continuous
 62
     7
370
    25
100
AcDbLine
 10
17.7095518908
 20
7.0973976582
 30
0.0
 11
7.7153045492
 21
12.8655294394
 31
0.0
  0
ARC
  5
18B
330
1B
100
AcDbEntity
 67
     1
  8
0
  6
Continuous
 62
     7
370
    25
100
AcDbCircle
 10
7.7612516041
 20
12.8639454688
 30
0.0
 40
0.0459743495364578
100
AcDbArc
 50
122.5513435495
 51
178.0255773647
  0
LINE
  5
18C
330
1B
100
AcDbEntity
 67
     1
  8
0
  6
Continuous
 62
     7
370
    25
100
AcDbLine
 10
18.0396959125
 20
7.1417878204
 30
0.0
 11
18.4535252813
 21
7.3806274501
 31
0.0
  0
LINE
  5
18D
330
1B
100
AcDbEntity
 67
     1
  8
0
  6
Continuous
 62
     7
370
    25
100
AcDbLine
 10
19.9025234586
 20
8.2344094203
 30
0.0
 11
19.9025773867
 21
8.2361984129
 31
0.0
  0
LINE
  5
18E
330
1B
100
AcDbEntity
 67
     1
  8
0
  6
Continuous
 62
     7
370
    25
100
AcDbLine
 10
19.0831756564
 20
8.7580771953
 30
0.0
 11
19.0831216246
 21
8.7562881428
 31
0.0
  0
LINE
  5
18F
330
1B
100
AcDbEntity
 67
     1
  8
0
  6
Continuous
 62
     7
370
    25
100
AcDbLine
 10
21.8699363767
 20
10.3646848725
 30
0.0
 11
21.869936273
 21
10.3664426809
 31
0.0
  0
ELLIPSE
  5
190
330
1B
100
AcDbEntity
 67
     1
  8
0
  6
Continuous
 62
     7
370
    25
100
AcDbEllipse
 10
21.9123691104
 20
10.3900150916
 30
0.0
 11
0.03076331917855413
 21
0.05151851644671802
 31
0.0
210
0.0
220
0.0
230
1.0
 40
0.567293684
 41
2.381813226868539
 42
3.882796383583611
  0
ARC
  5
191
330
1B
100
AcDbEntity
 67
     1
  8
0
  6
Continuous
 62
     7
370
    25
100
AcDbCircle
 10
19.0372284896
 20
8.7564931872
 30
0.0
 40
0.0459744627134778
100
AcDbArc
 50
1.9744644353
 51
57.4479676239
  0
ARC
  5
192
330
1B
100
AcDbEntity
 67
     1
  8
0
  6
Continuous
 62
     7
370
    25
100
AcDbCircle
 10
21.8239891061
 20
10.3648586728
 30
0.0
 40
0.0459744627135248
100
AcDbArc
 50
1.9744644354
 51
57.4479676238
  0
LWPOLYLINE
  5
193
330
1B
100
AcDbEntity
 67
     1
  8
0
  6
Continuous
 62
     7
370
    25
100
AcDbPolyline
 90
        3
 70
   128
 43
0.0
 10
15.1329560572
 20
9.713729664
 10
15.1330836178
 20
9.7138019435
 10
15.1334613216
 20
9.7140021849
  0
LWPOLYLINE
  5
194
330
1B
100
AcDbEntity
 67
     1
  8
0
  6
Continuous
 62
     7
370
    25
100
AcDbPolyline
 90
        3
 70
   128
 43
0.0
 10
11.4757667781
 20
10.9363166613
 10
11.4756394249
 20
10.9363890605
 10
11.4752615137
 20
10.9365891822
  0
ARC
  5
195
330
1B
100
AcDbEntity
 67
     1
  8
0
  6
Continuous
 62
     7
370
    25
100
AcDbCircle
 10
15.1728856852
 20
9.7222965333
 30
0.0
 40
0.0462168535795617
100
AcDbArc
 50
122.6491597513
 51
176.7734830743
  0
LINE
  5
196
330
1B
100
AcDbEntity
 67
     1
  8
0
  6
Continuous
 62
     7
370
    25
100
AcDbLine
 10
15.1267420935
 20
9.7248977835
 30
0.0
 11
14.4276114875
 21
10.12839765
 31
0.0
  0
ARC
  5
197
330
1B
100
AcDbEntity
 67
     1
  8
0
  6
Continuous
 62
     7
370
    25
100
AcDbCircle
 10
14.4737550792
 20
10.1257963998
 30
0.0
 40
0.0462168535795763
100
AcDbArc
 50
122.6491597513
 51
176.7734830743
  0
ARC
  5
198
330
1B
100
AcDbEntity
 67
     1
  8
0
  6
Continuous
 62
     7
370
    25
100
AcDbCircle
 10
22.7777048111
 20
9.8919451116
 30
0.0
 40
0.0459739762594547
100
AcDbArc
 50
122.5515599245
 51
178.0258462584
  0
ARC
  5
199
330
1B
100
AcDbEntity
 67
     1
  8
0
  6
Continuous
 62
     7
370
    25
100
AcDbCircle
 10
22.7282308661
 20
9.8919449055
 30
0.0
 40
0.0459744627134668
100
AcDbArc
 50
1.9744644353
 51
57.4479676239
  0
ARC
  5
19A
330
1B
100
AcDbEntity
 67
     1
  8
0
  6
Continuous
 62
     7
370
    25
100
AcDbCircle
 10
22.7529680217
 20
9.9329736146
 30
0.0
 40
0.0447855894262493
100
AcDbArc
 50
241.732571272
 51
298.2675904166
  0
LINE
  5
19B
330
1B
100
AcDbEntity
 67
     1
  8
0
  6
Continuous
 62
     7
370
    25
100
AcDbLine
 10
22.7317581218
 20
9.8935288537
 30
0.0
 11
21.9123561841
 21
10.3664427407
 31
0.0
  0
ARC
  5
19C
330
1B
100
AcDbEntity
 67
     1
  8
0
  6
Continuous
 62
     7
370
    25
100
AcDbCircle
 10
21.9583028734
 20
10.3648589986
 30
0.0
 40
0.0459739762594513
100
AcDbArc
 50
122.5515599245
 51
178.0258462584
  0
LINE
  5
19D
330
1B
100
AcDbEntity
 67
     1
  8
0
  6
Continuous
 62
     7
370
    25
100
AcDbLine
 10
24.7473394742
 20
11.0323295485
 30
0.0
 11
22.7741780329
 21
9.8935289136
 31
0.0
  0
ARC
  5
19E
330
1B
100
AcDbEntity
 67
     1
  8
0
  6
Continuous
 62
     7
370
    25
100
AcDbCircle
 10
24.7013923073
 20
11.0307455405
 30
0.0
 40
0.0459744627134921
100
AcDbArc
 50
1.9744644353
 51
57.4479676239
  0
LINE
  5
19F
330
1B
100
AcDbEntity
 67
     1
  8
0
  6
Continuous
 62
     7
370
    25
100
AcDbLine
 10
22.7317582255
 20
9.8917710453
 30
0.0
 11
22.7317581218
 21
9.8935288537
 31
0.0
  0
LINE
  5
1A0
330
1B
100
AcDbEntity
 67
     1
  8
0
  6
Continuous
 62
     7
370
    25
100
AcDbLine
 10
22.7741780329
 20
9.8935289136
 30
0.0
 11
22.7741780329
 21
9.8917710453
 31
0.0
  0
ARC
  5
1A1
330
1B
100
AcDbEntity
 67
     1
  8
0
  6
Continuous
 62
     7
370
    25
100
AcDbCircle
 10
22.7529681292
 20
9.9312154881
 30
0.0
 40
0.0447853109959073
100
AcDbArc
 50
241.7323742112
 51
298.2676257888
  0
LINE
  5
1A2
330
1B
100
AcDbEntity
 67
     1
  8
0
  6
Continuous
 62
     7
370
    25
100
AcDbLine
 10
21.9123561841
 20
10.3664427407
 30
0.0
 11
21.9123562878
 21
10.3646849323
 31
0.0
  0
LINE
  5
1A3
330
1B
100
AcDbEntity
 67
     1
  8
0
  6
Continuous
 62
     7
370
    25
100
AcDbLine
 10
21.9123562878
 20
10.3646849323
 30
0.0
 11
22.7317582255
 21
9.8917710453
 31
0.0
  0
LINE
  5
1A4
330
1B
100
AcDbEntity
 67
     1
  8
0
  6
Continuous
 62
     7
370
    25
100
AcDbLine
 10
24.7473394742
 20
11.0323295485
 30
0.0
 11
24.7469632223
 21
11.0076520042
 31
0.0
  0
ELLIPSE
  5
1A5
330
1B
100
AcDbEntity
 67
     1
  8
0
  6
Continuous
 62
     7
370
    25
100
AcDbEllipse
 10
24.7468804704
 20
10.9562573223
 30
0.0
 11
0.03281420712379557
 21
0.05495308420983136
 31
0.0
210
0.0
220
0.0
230
1.0
 40
0.567293684
 41
0.8091892434063093
 42
2.00077155369349
  0
LINE
  5
1A6
330
1B
100
AcDbEntity
 67
     1
  8
0
  6
Continuous
 62
     7
370
    25
100
AcDbLine
 10
24.2226377594
 20
10.7102429676
 30
0.0
 11
24.6364671282
 21
10.9490825973
 31
0.0
  0
LINE
  5
1A7
330
1B
100
AcDbEntity
 67
     1
  8
0
  6
Continuous
 62
     7
370
    25
100
AcDbLine
 10
14.5201506803
 20
10.2402561773
 30
0.0
 11
13.1423192819
 21
11.0354649416
 31
0.0
  0
ARC
  5
1A8
330
1B
100
AcDbEntity
 67
     1
  8
0
  6
Continuous
 62
     7
370
    25
100
AcDbCircle
 10
14.5646487442
 20
10.2264539376
 30
0.0
 40
0.0465894785558917
100
AcDbArc
 50
122.7926641349
 51
162.7673546514
  0
ARC
  5
1A9
330
1B
100
AcDbEntity
 67
     1
  8
0
  6
Continuous
 62
     7
370
    25
100
AcDbCircle
 10
13.1868173458
 20
11.0216627019
 30
0.0
 40
0.0465894785559015
100
AcDbArc
 50
122.7926641349
 51
162.7673546514
  0
ELLIPSE
  5
1AA
330
1B
100
AcDbEntity
 67
     1
  8
0
  6
Continuous
 62
     7
370
    25
100
AcDbEllipse
 10
21.8911462134
 20
10.3546141433
 30
0.0
 11
0.03000000000000114
 21
0.0
 31
0.0
210
0.0
220
0.0
230
1.0
 40
0.5575197763
 41
0.7855504566450391
 42
2.35604219694467
  0
ARC
  5
1AB
330
1B
100
AcDbEntity
 67
     1
  8
0
  6
Continuous
 62
     7
370
    25
100
AcDbCircle
 10
21.8911463879
 20
10.3252417629
 30
0.0
 40
0.0447841877174605
100
AcDbArc
 50
61.7316069802
 51
118.2685547084
  0
LINE
  5
1AC
330
1B
100
AcDbEntity
 67
     1
  8
0
  6
Continuous
 62
     7
370
    25
100
AcDbLine
 10
13.0935309343
 20
11.0216186545
 30
0.0
 11
13.0079541644
 21
10.9722284333
 31
0.0
  0
SPLINE
  5
1AD
330
1B
100
AcDbEntity
 67
     1
  8
0
  6
Continuous
 62
     7
370
    25
100
AcDbSpline
210
0.0
220
0.0
230
1.0
 70
     8
 71
     3
 72
    14
 73
    10
 74
     0
 42
0.000000001
 43
0.00000001
 40
0.0
 40
0.0
 40
0.0
 40
0.0
 40
0.0572222146713319
 40
0.2140485678603619
 40
0.2389925528649292
 40
0.4238629187692995
 40
0.4565931444573832
 40
0.7185700003552401
 40
1.0
 40
1.0
 40
1.0
 40
1.0
 10
13.14231928193751
 20
11.03546494157724
 30
0.0
 10
13.14153490748374
 20
11.03588729801829
 30
0.0
 10
13.13860083320054
 20
11.03746718778406
 30
0.0
 10
13.13445385877181
 20
11.03832485423375
 30
0.0
 10
13.1279059376002
 20
11.03863945144819
 30
0.0
 10
13.12331860666058
 20
11.03806880818394
 30
0.0
 10
13.11465544837031
 20
11.03576405517776
 30
0.0
 10
13.1045763052452
 20
11.03125592300738
 30
0.0
 10
13.09729955680064
 20
11.02490683983504
 30
0.0
 10
13.09353093428276
 20
11.02161865446029
 30
0.0
  0
ARC
  5
1AE
330
1B
100
AcDbEntity
 67
     1
  8
0
  6
Continuous
 62
     7
370
    25
100
AcDbCircle
 10
11.435837067
 20
10.944883475
 30
0.0
 40
0.0462169397376772
100
AcDbArc
 50
3.2265799904
 51
57.3509389428
  0
ARC
  5
1AF
330
1B
100
AcDbEntity
 67
     1
  8
0
  6
Continuous
 62
     7
370
    25
100
AcDbCircle
 10
12.1778402168
 20
11.3731270239
 30
0.0
 40
0.0462169397376919
100
AcDbArc
 50
3.2265799904
 51
57.3509389428
  0
LINE
  5
1B0
330
1B
100
AcDbEntity
 67
     1
  8
0
  6
Continuous
 62
     7
370
    25
100
AcDbLine
 10
12.2239838917
 20
11.3757283297
 30
0.0
 11
11.4819807418
 21
10.9474847808
 31
0.0
  0
ARC
  5
1B1
330
1B
100
AcDbEntity
 67
     1
  8
0
  6
Continuous
 62
     7
370
    25
100
AcDbCircle
 10
12.9618108419
 20
10.9696273368
 30
0.0
 40
0.0462165761479533
100
AcDbArc
 50
3.2263454573
 51
57.3510925966
  0
ARC
  5
1B2
330
1B
100
AcDbEntity
 67
     1
  8
0
  6
Continuous
 62
     7
370
    25
100
AcDbCircle
 10
12.9867442648
 20
11.0148306533
 30
0.0
 40
0.047590009302562
100
AcDbArc
 50
243.5330871714
 51
296.4668319842
  0
ARC
  5
1B3
330
1B
100
AcDbEntity
 67
     1
  8
0
  6
Continuous
 62
     7
370
    25
100
AcDbCircle
 10
13.0116778968
 20
10.9696272131
 30
0.0
 40
0.0462168535795755
100
AcDbArc
 50
122.6491597513
 51
176.7734830743
  0
LINE
  5
1B4
330
1B
100
AcDbEntity
 67
     1
  8
0
  6
Continuous
 62
     7
370
    25
100
AcDbLine
 10
12.9655343051
 20
10.9722284633
 30
0.0
 11
12.2664036991
 21
11.3757283297
 31
0.0
  0
ARC
  5
1B5
330
1B
100
AcDbEntity
 67
     1
  8
0
  6
Continuous
 62
     7
370
    25
100
AcDbCircle
 10
12.3125472908
 20
11.3731270795
 30
0.0
 40
0.0462168535795616
100
AcDbArc
 50
122.6491597513
 51
176.7734830743
  0
ARC
  5
1B6
330
1B
100
AcDbEntity
 67
     1
  8
0
  6
Continuous
 62
     7
370
    25
100
AcDbCircle
 10
13.0473876118
 20
11.019017558
 30
0.0
 40
0.0462165761479635
100
AcDbArc
 50
3.2263454573
 51
57.3510925966
  0
SPLINE
  5
1B7
330
1B
100
AcDbEntity
 67
     1
  8
0
  6
Continuous
 62
     7
370
    25
100
AcDbSpline
210
0.0
220
0.0
230
1.0
 70
     8
 71
     3
 72
    12
 73
     8
 74
     0
 42
0.000000001
 43
0.00000001
 40
0.0
 40
0.0
 40
0.0
 40
0.0
 40
0.2241237751760977
 40
0.447843210822935
 40
0.6822389402405394
 40
0.9302688803459835
 40
1.0
 40
1.0
 40
1.0
 40
1.0
 10
24.74696322226509
 20
11.00765200422305
 30
0.0
 10
24.75160346117887
 20
11.0101179373988
 30
0.0
 10
24.76087556759641
 20
11.01504535498416
 30
0.0
 10
24.77114495961507
 20
11.01645271300575
 30
0.0
 10
24.77799351364687
 20
11.01226251405967
 30
0.0
 10
24.78124695143807
 20
11.00526950462914
 30
0.0
 10
24.78138880186168
 20
10.99789742438357
 30
0.0
 10
24.78141993024749
 20
10.99627965721571
 30
0.0
  0
LINE
  5
1B8
330
1B
100
AcDbEntity
 67
     1
  8
0
  6
Continuous
 62
     7
370
    25
100
AcDbLine
 10
24.7928628411
 20
11.0946695206
 30
0.0
 11
24.7927811194
 21
11.092662481
 31
0.0
  0
ELLIPSE
  5
1B9
330
1B
100
AcDbEntity
 67
     1
  8
0
  6
Continuous
 62
     7
370
    25
100
AcDbEllipse
 10
12.2451937435
 20
11.3630445763
 30
0.0
 11
0.03000000000000114
 21
0.0
 31
0.0
210
0.0
220
0.0
230
1.0
 40
0.5978254011
 41
0.7855504566450819
 42
2.356042196944669
  0
ARC
  5
1BA
330
1B
100
AcDbEntity
 67
     1
  8
0
  6
Continuous
 62
     7
370
    25
100
AcDbCircle
 10
13.4254153673
 20
15.2895739798
 30
0.0
 40
0.0459739762594586
100
AcDbArc
 50
122.5515599245
 51
178.0258462584
  0
LINE
  5
1BB
330
1B
100
AcDbEntity
 67
     1
  8
0
  6
Continuous
 62
     7
370
    25
100
AcDbLine
 10
13.3795227098
 20
15.2893687893
 30
0.0
 11
13.3794686781
 21
15.291157722
 31
0.0
  0
LINE
  5
1BC
330
1B
100
AcDbEntity
 67
     1
  8
0
  6
Continuous
 62
     7
370
    25
100
AcDbLine
 10
13.3794686781
 20
15.291157722
 30
0.0
 11
12.5600667404
 21
15.764071609
 31
0.0
  0
ARC
  5
1BD
330
1B
100
AcDbEntity
 67
     1
  8
0
  6
Continuous
 62
     7
370
    25
100
AcDbCircle
 10
12.6060134296
 20
15.7624878669
 30
0.0
 40
0.0459739762594308
100
AcDbArc
 50
122.5515599245
 51
178.0258462584
  0
LINE
  5
1BE
330
1B
100
AcDbEntity
 67
     1
  8
0
  6
Continuous
 62
     7
370
    25
100
AcDbLine
 10
12.5601207721
 20
15.7622826763
 30
0.0
 11
13.3795227098
 21
15.2893687893
 31
0.0
  0
LINE
  5
1BF
330
1B
100
AcDbEntity
 67
     1
  8
0
  6
Continuous
 62
     7
370
    25
100
AcDbLine
 10
12.5600667404
 20
15.764071609
 30
0.0
 11
12.5601207721
 21
15.7622826763
 31
0.0
  0
ARC
  5
1C0
330
1B
100
AcDbEntity
 67
     1
  8
0
  6
Continuous
 62
     7
370
    25
100
AcDbCircle
 10
15.6921184748
 20
16.1083513074
 30
0.0
 40
0.0459744627134842
100
AcDbArc
 50
1.9744644353
 51
57.4479676239
  0
LINE
  5
1C1
330
1B
100
AcDbEntity
 67
     1
  8
0
  6
Continuous
 62
     7
370
    25
100
AcDbLine
 10
15.9325262641
 20
16.2221673284
 30
0.0
 11
15.7380656416
 21
16.1099353155
 31
0.0
  0
ARC
  5
1C2
330
1B
100
AcDbEntity
 67
     1
  8
0
  6
Continuous
 62
     7
370
    25
100
AcDbCircle
 10
15.8865790973
 20
16.2205833204
 30
0.0
 40
0.0459744627134687
100
AcDbArc
 50
1.9744644353
 51
57.4479676239
  0
ARC
  5
1C3
330
1B
100
AcDbEntity
 67
     1
  8
0
  6
Continuous
 62
     7
370
    25
100
AcDbCircle
 10
11.9451278792
 20
14.4929376178
 30
0.0
 40
0.0462552390460134
100
AcDbArc
 50
3.8619543441
 51
57.414520682
  0
LINE
  5
1C4
330
1B
100
AcDbEntity
 67
     1
  8
0
  6
Continuous
 62
     7
370
    25
100
AcDbLine
 10
12.092446432
 20
14.6028172161
 30
0.0
 11
11.9700389741
 21
14.5319117693
 31
0.0
  0
LINE
  5
1C5
330
1B
100
AcDbEntity
 67
     1
  8
0
  6
Continuous
 62
     7
370
    25
100
AcDbLine
 10
12.0924472617
 20
14.6028167373
 30
0.0
 11
12.092446432
 21
14.6028172161
 31
0.0
  0
ELLIPSE
  5
1C6
330
1B
100
AcDbEntity
 67
     1
  8
0
  6
Continuous
 62
     7
370
    25
100
AcDbEllipse
 10
12.0918917964
 20
14.57799688
 30
0.0
 11
-0.01441026101058895
 21
0.02631887294435486
 31
0.0
210
0.0
220
0.0
230
1.0
 40
0.5928707992
 41
3.975482894914029
 42
5.511372657975149
  0
LINE
  5
1C7
330
1B
100
AcDbEntity
 67
     1
  8
0
  6
Continuous
 62
     7
370
    25
100
AcDbLine
 10
11.9912780829
 20
14.4960530372
 30
0.0
 11
12.1131308872
 21
14.5666374107
 31
0.0
  0
LINE
  5
1C8
330
1B
100
AcDbEntity
 67
     1
  8
0
  6
Continuous
 62
     7
370
    25
100
AcDbLine
 10
11.9700389741
 20
14.5319117693
 30
0.0
 11
11.1664773653
 21
14.9956834868
 31
0.0
  0
LINE
  5
1C9
330
1B
100
AcDbEntity
 67
     1
  8
0
  6
Continuous
 62
     7
370
    25
100
AcDbLine
 10
11.1664773653
 20
14.9956834868
 30
0.0
 11
11.2893332557
 21
15.0663301229
 31
0.0
  0
LINE
  5
1CA
330
1B
100
AcDbEntity
 67
     1
  8
0
  6
Continuous
 62
     7
370
    25
100
AcDbLine
 10
12.092446432
 20
14.6028172161
 30
0.0
 11
11.2893332557
 21
15.0663301229
 31
0.0
  0
LINE
  5
1CB
330
1B
100
AcDbEntity
 67
     1
  8
0
  6
Continuous
 62
     7
370
    25
100
AcDbLine
 10
11.2893332557
 20
15.0663301229
 30
0.0
 11
11.2893320112
 21
15.0663308412
 31
0.0
  0
ELLIPSE
  5
1CC
330
1B
100
AcDbEntity
 67
     1
  8
0
  6
Continuous
 62
     7
370
    25
100
AcDbEllipse
 10
11.2887765902
 20
15.0415109584
 30
0.0
 11
-0.01436825489394522
 21
0.02634102226590862
 31
0.0
210
0.0
220
0.0
230
1.0
 40
0.591843047
 41
5.512334300623729
 42
6.296506064954119
  0
SPLINE
  5
1CD
330
1B
100
AcDbEntity
 67
     1
  8
0
  6
Continuous
 62
     7
370
    25
100
AcDbSpline
210
0.0
220
0.0
230
1.0
 70
     8
 71
     3
 72
    10
 73
     6
 74
     0
 42
0.000000001
 43
0.00000001
 40
0.0
 40
0.0
 40
0.0
 40
0.0
 40
0.0202072100689448
 40
0.9242832753941035
 40
1.0
 40
1.0
 40
1.0
 40
1.0
 10
19.74768118481931
 20
8.122291399433315
 30
0.0
 10
19.74771226173475
 20
8.122274662809252
 30
0.0
 10
19.74913372828538
 20
8.121509125080058
 30
0.0
 10
19.75067744146486
 20
8.120676834152693
 30
0.0
 10
19.75213799254802
 20
8.119777913883787
 30
0.0
 10
19.75225086145793
 20
8.119708446850407
 30
0.0
  0
SPLINE
  5
1CE
330
1B
100
AcDbEntity
 67
     1
  8
0
  6
Continuous
 62
     7
370
    25
100
AcDbSpline
210
0.0
220
0.0
230
1.0
 70
     8
 71
     3
 72
     9
 73
     5
 74
     0
 42
0.000000001
 43
0.00000001
 40
0.0
 40
0.0
 40
0.0
 40
0.0
 40
0.6633761204210403
 40
1.0
 40
1.0
 40
1.0
 40
1.0
 10
19.75225086145793
 20
8.119708446850407
 30
0.0
 10
19.75202681675252
 20
8.119718000670789
 30
0.0
 10
19.75168908270013
 20
8.119732402486118
 30
0.0
 10
19.75131765764511
 20
8.11955942683504
 30
0.0
 10
19.75119262710211
 20
8.119501199100302
 30
0.0
  0
LINE
  5
1CF
330
1B
100
AcDbEntity
 67
     1
  8
0
  6
Continuous
 62
     7
370
    25
100
AcDbLine
 10
19.5966081709
 20
8.0302835237
 30
0.0
 11
19.7511926271
 21
8.1195011991
 31
0.0
  0
LINE
  5
1D0
330
1B
100
AcDbEntity
 67
     1
  8
0
  6
Continuous
 62
     7
370
    25
100
AcDbLine
 10
20.3701969691
 20
9.4988706852
 30
0.0
 11
20.3701977987
 21
9.4988702064
 31
0.0
  0
LINE
  5
1D1
330
1B
100
AcDbEntity
 67
     1
  8
0
  6
Continuous
 62
     7
370
    25
100
AcDbLine
 10
20.3701977987
 20
9.4988702064
 30
0.0
 11
21.1733109751
 21
9.0353572996
 31
0.0
  0
LINE
  5
1D2
330
1B
100
AcDbEntity
 67
     1
  8
0
  6
Continuous
 62
     7
370
    25
100
AcDbLine
 10
21.1733109751
 20
9.0353572996
 30
0.0
 11
21.1733122196
 21
9.0353565814
 31
0.0
  0
LINE
  5
1D3
330
1B
100
AcDbEntity
 67
     1
  8
0
  6
Continuous
 62
     7
370
    25
100
AcDbLine
 10
21.1733122196
 20
9.0353565814
 30
0.0
 11
19.8644008875
 21
8.2007014893
 31
0.0
  0
ELLIPSE
  5
1D4
330
1B
100
AcDbEntity
 67
     1
  8
0
  6
Continuous
 62
     7
370
    25
100
AcDbEllipse
 10
21.1738676406
 20
9.0111779707
 30
0.0
 11
-0.01554921784404328
 21
0.02566213020837615
 31
0.0
210
0.0
220
0.0
230
1.0
 40
0.5616100288
 41
3.950166957809922
 42
5.486056677074686
  0
LINE
  5
1D5
330
1B
100
AcDbEntity
 67
     1
  8
0
  6
Continuous
 62
     7
370
    25
100
AcDbLine
 10
21.3173280671
 20
9.0701007187
 30
0.0
 11
21.3229085107
 21
9.0188802985
 31
0.0
  0
LINE
  5
1D6
330
1B
100
AcDbEntity
 67
     1
  8
0
  6
Continuous
 62
     7
370
    25
100
AcDbLine
 10
21.1950293192
 20
8.9997737194
 30
0.0
 11
21.3173280671
 21
9.0701007187
 31
0.0
  0
SPLINE
  5
1D7
330
1B
100
AcDbEntity
 67
     1
  8
0
  6
Continuous
 62
     7
370
    25
100
AcDbSpline
210
0.0
220
0.0
230
1.0
 70
     8
 71
     3
 72
     9
 73
     5
 74
     0
 42
0.000000001
 43
0.00000001
 40
0.0
 40
0.0
 40
0.0
 40
0.0
 40
0.0474616139270541
 40
1.0
 40
1.0
 40
1.0
 40
1.0
 10
19.77646891351984
 20
8.135659524061666
 30
0.0
 10
19.77643378698606
 20
8.135626327010819
 30
0.0
 10
19.775693682913
 20
8.134926876484348
 30
0.0
 10
19.77495911912234
 20
8.134219068354454
 30
0.0
 10
19.77425941891471
 20
8.133544853940755
 30
0.0
  0
SPLINE
  5
1D8
330
1B
100
AcDbEntity
 67
     1
  8
0
  6
Continuous
 62
     7
370
    25
100
AcDbSpline
210
0.0
220
0.0
230
1.0
 70
     8
 71
     3
 72
    18
 73
    14
 74
     0
 42
0.000000001
 43
0.00000001
 40
0.0
 40
0.0
 40
0.0
 40
0.0
 40
0.0783283993506772
 40
0.2175536086638468
 40
0.4104051633366939
 40
0.6037643233016656
 40
0.7069450115059283
 40
0.7673663193679959
 40
0.8035984387272791
 40
0.8315624184815844
 40
0.8596182898445959
 40
0.8980036736642526
 40
1.0
 40
1.0
 40
1.0
 40
1.0
 10
19.77425941891471
 20
8.133544853940755
 30
0.0
 10
19.77377665629888
 20
8.133273791811801
 30
0.0
 10
19.77243580483157
 20
8.132520928931742
 30
0.0
 10
19.76843498401936
 20
8.132308204833402
 30
0.0
 10
19.76266317065841
 20
8.13124856151171
 30
0.0
 10
19.75714014198975
 20
8.129188072542783
 30
0.0
 10
19.753590393472
 20
8.126877706753243
 30
0.0
 10
19.75188429288397
 20
8.125219308047189
 30
0.0
 10
19.75105335964078
 20
8.123988500898013
 30
0.0
 10
19.75067800056614
 20
8.123008260576455
 30
0.0
 10
19.75060576081781
 20
8.122079886349505
 30
0.0
 10
19.75101156079443
 20
8.12080018844355
 30
0.0
 10
19.75172934508321
 20
8.120167868147075
 30
0.0
 10
19.75225086145793
 20
8.119708446850407
 30
0.0
  0
ELLIPSE
  5
1D9
330
1B
100
AcDbEntity
 67
     1
  8
0
  6
Continuous
 62
     7
370
    25
100
AcDbEllipse
 10
20.3707524343
 20
9.474692049
 30
0.0
 11
-0.01558943041679229
 21
0.02563687071888054
 31
0.0
210
0.0
220
0.0
230
1.0
 40
0.5626929951
 41
5.485190750893556
 42
6.295180486509915
  0
ARC
  5
1DA
330
1B
100
AcDbEntity
 67
     1
  8
0
  6
Continuous
 62
     7
370
    25
100
AcDbCircle
 10
21.2710329549
 20
9.067002348
 30
0.0
 40
0.0463986779254886
100
AcDbArc
 50
3.8288971774
 51
57.2009316224
  0
LINE
  5
1DB
330
1B
100
AcDbEntity
 67
     1
  8
0
  6
Continuous
 62
     7
370
    25
100
AcDbLine
 10
21.2961668655
 20
9.1060039357
 30
0.0
 11
21.1733109751
 21
9.0353572996
 31
0.0
  0
LINE
  5
1DC
330
1B
100
AcDbEntity
 67
     1
  8
0
  6
Continuous
 62
     7
370
    25
100
AcDbLine
 10
20.3701977987
 20
9.4988702064
 30
0.0
 11
20.4926052566
 21
9.5697756532
 31
0.0
  0
LINE
  5
1DD
330
1B
100
AcDbEntity
 67
     1
  8
0
  6
Continuous
 62
     7
370
    25
100
AcDbLine
 10
20.4926052566
 20
9.5697756532
 30
0.0
 11
21.2961668655
 21
9.1060039357
 31
0.0
  0
LWPOLYLINE
  5
1DE
330
1B
100
AcDbEntity
 67
     1
  8
0
  6
Continuous
 62
     7
370
    25
100
AcDbPolyline
 90
        3
 70
   128
 43
0.0
 10
23.4114191965
 20
11.7846781215
 10
23.4261334661
 20
11.795080186
 10
23.4408477357
 20
11.8016626613
  0
LWPOLYLINE
  5
1DF
330
1B
100
AcDbEntity
 67
     1
  8
0
  6
Continuous
 62
     7
370
    25
100
AcDbPolyline
 90
        6
 70
   128
 43
0.0
 10
23.4447120956
 20
11.8160411962
 10
23.4232180325
 20
11.8202177357
 10
23.3978494461
 20
11.811404172
 10
23.3724808598
 20
11.7909350205
 10
23.3509745592
 20
11.7619266103
 10
23.3424250959
 20
11.744858219
  0
ARC
  5
1E0
330
1B
100
AcDbEntity
 67
     1
  8
0
  6
Continuous
 62
     7
370
    25
100
AcDbCircle
 10
23.4688699996
 20
11.6938477911
 30
0.0
 40
0.1374866136768082
100
AcDbArc
 50
122.8555082344
 51
158.6330316346
  0
LWPOLYLINE
  5
1E1
330
1B
100
AcDbEntity
 67
     1
  8
0
  6
Continuous
 62
     7
370
    25
100
AcDbPolyline
 90
        3
 70
   128
 43
0.0
 10
23.6776248727
 20
11.9059409654
 10
23.6934199849
 20
11.918517186
 10
23.7092150972
 20
11.9241731115
  0
LWPOLYLINE
  5
1E2
330
1B
100
AcDbEntity
 67
     1
  8
0
  6
Continuous
 62
     7
370
    25
100
AcDbPolyline
 90
        7
 70
   128
 43
0.0
 10
23.7416615332
 20
11.942899416
 10
23.7377948917
 20
11.9455617491
 10
23.7174353919
 20
11.94952239
 10
23.6934199849
 20
11.9411789895
 10
23.6694045779
 20
11.9218016367
 10
23.6490450781
 20
11.8943402211
 10
23.6439712779
 20
11.8847896086
  0
LWPOLYLINE
  5
1E3
330
1B
100
AcDbEntity
 67
     1
  8
0
  6
Continuous
 62
     7
370
    25
100
AcDbPolyline
 90
        7
 70
   128
 43
0.0
 10
23.6328210304
 20
11.8767741389
 10
23.6430092843
 20
11.8978250752
 10
23.6645157924
 20
11.9268336051
 10
23.6898843787
 20
11.9473027566
 10
23.7152529651
 20
11.9561163203
 10
23.7367594731
 20
11.9519325457
 10
23.7451535821
 20
11.9449149209
  0
LWPOLYLINE
  5
1E4
330
1B
100
AcDbEntity
 67
     1
  8
0
  6
Continuous
 62
     7
370
    25
100
AcDbPolyline
 90
        8
 70
   128
 43
0.0
 10
23.7084630082
 20
11.9682637668
 10
23.6869689451
 20
11.9724403063
 10
23.6616003588
 20
11.9636267426
 10
23.6362317724
 20
11.9431575911
 10
23.6147252644
 20
11.9141490612
 10
23.6003550973
 20
11.8810174887
 10
23.5953090907
 20
11.8488069113
 10
23.5967265689
 20
11.8338765149
  0
ARC
  5
1E5
330
1B
100
AcDbEntity
 67
     1
  8
0
  6
Continuous
 62
     7
370
    25
100
AcDbCircle
 10
23.7315541765
 20
11.8466931774
 30
0.0
 40
0.1363858481438248
100
AcDbArc
 50
122.6211033625
 51
177.3966439224
  0
ARC
  5
1E6
330
1B
100
AcDbEntity
 67
     1
  8
0
  6
Continuous
 62
     7
370
    25
100
AcDbCircle
 10
16.1572952621
 20
16.2399326854
 30
0.0
 40
0.0853043120260254
100
AcDbArc
 50
92.1240275116
 51
147.8583456684
  0
LWPOLYLINE
  5
1E7
330
1B
100
AcDbEntity
 67
     1
  8
0
  6
Continuous
 62
     7
370
    25
100
AcDbPolyline
 90
        3
 70
   128
 43
0.0
 10
16.0825408363
 20
16.2838590238
 10
16.0920483523
 20
16.2950363355
 10
16.116030158
 20
16.3143942861
  0
ARC
  5
1E8
330
1B
100
AcDbEntity
 67
     1
  8
0
  6
Continuous
 62
     7
370
    25
100
AcDbCircle
 10
15.8935473618
 20
16.0876974156
 30
0.0
 40
0.0853171141206061
100
AcDbArc
 50
92.1257330227
 51
147.8756984036
  0
LWPOLYLINE
  5
1E9
330
1B
100
AcDbEntity
 67
     1
  8
0
  6
Continuous
 62
     7
370
    25
100
AcDbPolyline
 90
        3
 70
   128
 43
0.0
 10
15.8184694666
 20
16.131216056
 10
15.8282972322
 20
16.1428136452
 10
15.8522794528
 20
16.1621718353
  0
ARC
  5
1EA
330
1B
100
AcDbEntity
 67
     1
  8
0
  6
Continuous
 62
     7
370
    25
100
AcDbCircle
 10
23.3703039638
 20
11.736489547
 30
0.0
 40
0.0768320609879952
100
AcDbArc
 50
122.602227852
 51
177.3976765661
  0
LINE
  5
1EB
330
1B
100
AcDbEntity
 67
     1
  8
0
  6
Continuous
 62
     7
370
    25
100
AcDbLine
 10
23.7234720154
 20
12.0289368361
 30
0.0
 11
23.3289065772
 21
11.8012152913
 31
0.0
  0
ARC
  5
1EC
330
1B
100
AcDbEntity
 67
     1
  8
0
  6
Continuous
 62
     7
370
    25
100
AcDbCircle
 10
23.7372706521
 20
12.0120095684
 30
0.0
 40
0.0218388362695825
100
AcDbArc
 50
350.7785010102
 51
129.1859592914
  0
LINE
  5
1ED
330
1B
100
AcDbEntity
 67
     1
  8
0
  6
Continuous
 62
     7
370
    25
100
AcDbLine
 10
23.7588272477
 20
11.9528064058
 30
0.0
 11
23.7588272477
 21
12.0085098604
 31
0.0
  0
LINE
  5
1EE
330
1B
100
AcDbEntity
 67
     1
  8
0
  6
Continuous
 62
     7
370
    25
100
AcDbLine
 10
15.8222608162
 20
16.1336397856
 30
0.0
 11
23.3289065772
 21
11.8012152913
 31
0.0
  0
LINE
  5
1EF
330
1B
100
AcDbEntity
 67
     1
  8
0
  6
Continuous
 62
     7
370
    25
100
AcDbLine
 10
23.2935511374
 20
11.7399779913
 30
0.0
 11
15.7869053765
 21
16.0724024856
 31
0.0
  0
ARC
  5
1F0
330
1B
100
AcDbEntity
 67
     1
  8
0
  6
Continuous
 62
     7
370
    25
100
AcDbCircle
 10
15.8636582028
 20
16.0689140413
 30
0.0
 40
0.0768320609879933
100
AcDbArc
 50
122.602227852
 51
177.3976765661
  0
LINE
  5
1F1
330
1B
100
AcDbEntity
 67
     1
  8
0
  6
Continuous
 62
     7
370
    25
100
AcDbLine
 10
15.7869053765
 20
16.0724024856
 30
0.0
 11
15.7869053765
 21
16.0678481769
 31
0.0
  0
LINE
  5
1F2
330
1B
100
AcDbEntity
 67
     1
  8
0
  6
Continuous
 62
     7
370
    25
100
AcDbLine
 10
16.2168262544
 20
16.3613613304
 30
0.0
 11
15.8222608162
 21
16.1336397856
 31
0.0
  0
LINE
  5
1F3
330
1B
100
AcDbEntity
 67
     1
  8
0
  6
Continuous
 62
     7
370
    25
100
AcDbLine
 10
23.7234720154
 20
12.0289368361
 30
0.0
 11
16.2168262544
 21
16.3613613304
 31
0.0
  0
ARC
  5
1F4
330
1B
100
AcDbEntity
 67
     1
  8
0
  6
Continuous
 62
     7
370
    25
100
AcDbCircle
 10
16.2314685888
 20
16.3409153307
 30
0.0
 40
0.0251482973780787
100
AcDbArc
 50
65.6941025837
 51
125.6082182255
  0
LINE
  5
1F5
330
1B
100
AcDbEntity
 67
     1
  8
0
  6
Continuous
 62
     7
370
    25
100
AcDbLine
 10
18.0539356152
 20
7.1402782296
 30
0.0
 11
18.0770960552
 21
7.1269112931
 31
0.0
  0
LINE
  5
1F6
330
1B
100
AcDbEntity
 67
     1
  8
0
  6
Continuous
 62
     7
370
    25
100
AcDbLine
 10
18.2008397832
 20
7.1983293905
 30
0.0
 11
18.1776793432
 21
7.211696327
 31
0.0
  0
LINE
  5
1F7
330
1B
100
AcDbEntity
 67
     1
  8
0
  6
Continuous
 62
     7
370
    25
100
AcDbLine
 10
18.3281189099
 20
7.2717879263
 30
0.0
 11
18.30495847
 21
7.2851548628
 31
0.0
  0
LINE
  5
1F8
330
1B
100
AcDbEntity
 67
     1
  8
0
  6
Continuous
 62
     7
370
    25
100
AcDbLine
 10
18.1923498481
 20
7.1934296173
 30
0.0
 11
18.1691894081
 21
7.2067965538
 31
0.0
  0
LINE
  5
1F9
330
1B
100
AcDbEntity
 67
     1
  8
0
  6
Continuous
 62
     7
370
    25
100
AcDbLine
 10
24.3624900046
 20
10.7812300515
 30
0.0
 11
24.3856504445
 21
10.767863115
 31
0.0
  0
LINE
  5
1FA
330
1B
100
AcDbEntity
 67
     1
  8
0
  6
Continuous
 62
     7
370
    25
100
AcDbLine
 10
24.2582947814
 20
10.6985296286
 30
0.0
 11
24.2387462766
 21
10.7098119541
 31
0.0
  0
LINE
  5
1FB
330
1B
100
AcDbEntity
 67
     1
  8
0
  6
Continuous
 62
     7
370
    25
100
AcDbLine
 10
24.4862337326
 20
10.8526481489
 30
0.0
 11
24.5093941725
 21
10.8392812124
 31
0.0
  0
LINE
  5
1FC
330
1B
100
AcDbEntity
 67
     1
  8
0
  6
Continuous
 62
     7
370
    25
100
AcDbLine
 10
24.3540000695
 20
10.7763302783
 30
0.0
 11
24.3771605095
 21
10.7629633418
 31
0.0
  0
ARC
  5
1FD
330
1B
100
AcDbEntity
 67
     1
  8
0
  6
Continuous
 62
     7
370
    25
100
AcDbCircle
 10
21.308836872
 20
9.0887200692
 30
0.0
 40
0.04625343645426
100
AcDbArc
 50
3.860794188
 51
57.415034937
  0
LINE
  5
1FE
330
1B
100
AcDbEntity
 67
     1
  8
0
  6
Continuous
 62
     7
370
    25
100
AcDbLine
 10
21.3549853402
 20
9.0918344328
 30
0.0
 11
21.3525966078
 21
9.0360146409
 31
0.0
  0
LINE
  5
1FF
330
1B
100
AcDbEntity
 67
     1
  8
0
  6
Continuous
 62
     7
370
    25
100
AcDbLine
 10
21.4561536893
 20
9.1985986117
 30
0.0
 11
21.4561549338
 21
9.1985978934
 31
0.0
  0
ELLIPSE
  5
200
330
1B
100
AcDbEntity
 67
     1
  8
0
  6
Continuous
 62
     7
370
    25
100
AcDbEllipse
 10
21.4555993785
 20
9.1737780881
 30
0.0
 11
-0.01441026101058895
 21
0.02631887294435486
 31
0.0
210
0.0
220
0.0
230
1.0
 40
0.5928707992
 41
3.975482894914791
 42
5.511372657974281
  0
LINE
  5
201
330
1B
100
AcDbEntity
 67
     1
  8
0
  6
Continuous
 62
     7
370
    25
100
AcDbLine
 10
21.4768385594
 20
9.1624185668
 30
0.0
 11
21.3549853402
 21
9.0918344328
 31
0.0
  0
LINE
  5
202
330
1B
100
AcDbEntity
 67
     1
  8
0
  6
Continuous
 62
     7
370
    25
100
AcDbLine
 10
21.3337466463
 20
9.1276929255
 30
0.0
 11
21.4561536893
 21
9.1985986117
 31
0.0
  0
LINE
  5
203
330
1B
100
AcDbEntity
 67
     1
  8
0
  6
Continuous
 62
     7
370
    25
100
AcDbLine
 10
20.5301850374
 20
9.5914646429
 30
0.0
 11
21.3337466463
 21
9.1276929255
 31
0.0
  0
LINE
  5
204
330
1B
100
AcDbEntity
 67
     1
  8
0
  6
Continuous
 62
     7
370
    25
100
AcDbLine
 10
20.653040513
 20
9.6621115185
 30
0.0
 11
20.5301850374
 21
9.5914646429
 31
0.0
  0
LINE
  5
205
330
1B
100
AcDbEntity
 67
     1
  8
0
  6
Continuous
 62
     7
370
    25
100
AcDbLine
 10
20.653040513
 20
9.6621115185
 30
0.0
 11
21.4561536893
 21
9.1985986117
 31
0.0
  0
LINE
  5
206
330
1B
100
AcDbEntity
 67
     1
  8
0
  6
Continuous
 62
     7
370
    25
100
AcDbLine
 10
21.4561549338
 20
9.1985978934
 30
0.0
 11
22.7650662659
 21
9.8748065604
 31
0.0
  0
LINE
  5
207
330
1B
100
AcDbEntity
 67
     1
  8
0
  6
Continuous
 62
     7
370
    25
100
AcDbLine
 10
20.6530396833
 20
9.6621119973
 30
0.0
 11
20.653040513
 21
9.6621115185
 31
0.0
  0
LINE
  5
208
330
1B
100
AcDbEntity
 67
     1
  8
0
  6
Continuous
 62
     7
370
    25
100
AcDbLine
 10
22.9424564815
 20
9.9613237828
 30
0.0
 11
22.7900751937
 21
9.8733776555
 31
0.0
  0
ELLIPSE
  5
209
330
1B
100
AcDbEntity
 67
     1
  8
0
  6
Continuous
 62
     7
370
    25
100
AcDbEllipse
 10
20.6524841723
 20
9.6372921664
 30
0.0
 11
-0.01436825489395233
 21
0.02634102226590862
 31
0.0
210
0.0
220
0.0
230
1.0
 40
0.591843047
 41
5.512334300623478
 42
6.296506064953943
  0
ELLIPSE
  5
20A
330
1B
100
AcDbEntity
 67
     1
  8
0
  6
Continuous
 62
     7
370
    25
100
AcDbEllipse
 10
22.958331441
 20
10.3332527271
 30
0.0
 11
0.0166211899761457
 21
0.3721307305380996
 31
0.0
210
0.0
220
0.0
230
1.0
 40
0.0556712289
 41
3.17711061590911
 42
3.375973577248518
  0
ELLIPSE
  5
20B
330
1B
100
AcDbEntity
 67
     1
  8
0
  6
Continuous
 62
     7
370
    25
100
AcDbEllipse
 10
11.8101600585
 20
14.4153967626
 30
0.0
 11
-0.01554921784403973
 21
0.02566213020837615
 31
0.0
210
0.0
220
0.0
230
1.0
 40
0.5616100288
 41
3.950166957811138
 42
5.48605667707371
  0
LINE
  5
20C
330
1B
100
AcDbEntity
 67
     1
  8
0
  6
Continuous
 62
     7
370
    25
100
AcDbLine
 10
11.9536208098
 20
14.4743193232
 30
0.0
 11
11.8313216471
 21
14.4039925633
 31
0.0
  0
LINE
  5
20D
330
1B
100
AcDbEntity
 67
     1
  8
0
  6
Continuous
 62
     7
370
    25
100
AcDbLine
 10
11.0064905414
 20
14.9030888109
 30
0.0
 11
11.0064892969
 21
14.9030895291
 31
0.0
  0
LINE
  5
20E
330
1B
100
AcDbEntity
 67
     1
  8
0
  6
Continuous
 62
     7
370
    25
100
AcDbLine
 10
11.8096037178
 20
14.4395759041
 30
0.0
 11
11.0064905414
 21
14.9030888109
 31
0.0
  0
LINE
  5
20F
330
1B
100
AcDbEntity
 67
     1
  8
0
  6
Continuous
 62
     7
370
    25
100
AcDbLine
 10
11.8096045475
 20
14.4395754252
 30
0.0
 11
11.8096037178
 21
14.4395759041
 31
0.0
  0
ELLIPSE
  5
210
330
1B
100
AcDbEntity
 67
     1
  8
0
  6
Continuous
 62
     7
370
    25
100
AcDbEllipse
 10
11.0070448523
 20
14.8789108409
 30
0.0
 11
-0.01558943041679406
 21
0.02563687071888055
 31
0.0
210
0.0
220
0.0
230
1.0
 40
0.5626929951
 41
5.485190750893334
 42
6.295180486509738
  0
LINE
  5
211
330
1B
100
AcDbEntity
 67
     1
  8
0
  6
Continuous
 62
     7
370
    25
100
AcDbLine
 10
11.8096037178
 20
14.4395759041
 30
0.0
 11
11.9324591934
 21
14.5102227796
 31
0.0
  0
ARC
  5
212
330
1B
100
AcDbEntity
 67
     1
  8
0
  6
Continuous
 62
     7
370
    25
100
AcDbCircle
 10
11.9073239537
 20
14.4712198943
 30
0.0
 40
0.0464004885522217
100
AcDbArc
 50
3.8300570812
 51
57.2004200961
  0
LINE
  5
213
330
1B
100
AcDbEntity
 67
     1
  8
0
  6
Continuous
 62
     7
370
    25
100
AcDbLine
 10
11.1288975845
 20
14.9739944971
 30
0.0
 11
11.0064905414
 21
14.9030888109
 31
0.0
  0
LINE
  5
214
330
1B
100
AcDbEntity
 67
     1
  8
0
  6
Continuous
 62
     7
370
    25
100
AcDbLine
 10
11.9324591934
 20
14.5102227796
 30
0.0
 11
11.1288975845
 21
14.9739944971
 31
0.0
  0
LINE
  5
215
330
1B
100
AcDbEntity
 67
     1
  8
0
  6
Continuous
 62
     7
370
    25
100
AcDbLine
 10
15.0978640353
 20
9.704171202
 30
0.0
 11
14.5729781355
 21
9.4012358296
 31
0.0
  0
ELLIPSE
  5
216
330
1B
100
AcDbEntity
 67
     1
  8
0
  6
Continuous
 62
     7
370
    25
100
AcDbEllipse
 10
14.5490526897
 20
9.2358106253
 30
0.0
 11
0.1278010938595742
 21
0.2148817033011828
 31
0.0
210
0.0
220
0.0
230
1.0
 40
0.5685214734
 41
0.7925830897062023
 42
1.560527960583713
  0
ARC
  5
217
330
1B
100
AcDbEntity
 67
     1
  8
0
  6
Continuous
 62
     7
370
    25
100
AcDbCircle
 10
14.5270314462
 20
9.3996520875
 30
0.0
 40
0.045973976259442
100
AcDbArc
 50
1.9741537416
 51
57.4484400755
  0
LINE
  5
218
330
1B
100
AcDbEntity
 67
     1
  8
0
  6
Continuous
 62
     7
370
    25
100
AcDbLine
 10
14.428206511
 20
9.3106708338
 30
0.0
 11
11.6062597058
 21
10.939343859
 31
0.0
  0
ELLIPSE
  5
219
330
1B
100
AcDbEntity
 67
     1
  8
0
  6
Continuous
 62
     7
370
    25
100
AcDbEllipse
 10
11.7310125169
 20
10.8622289564
 30
0.0
 11
0.1220363833281848
 21
0.2182077308959887
 31
0.0
210
0.0
220
0.0
230
1.0
 40
0.5862477144
 41
0.7772084132013747
 42
1.545153284078883
  0
LINE
  5
21A
330
1B
100
AcDbEntity
 67
     1
  8
0
  6
Continuous
 62
     7
370
    25
100
AcDbLine
 10
11.7282972331
 20
11.0679565474
 30
0.0
 11
14.5517681281
 21
9.4384039012
 31
0.0
  0
LINE
  5
21B
330
1B
100
AcDbEntity
 67
     1
  8
0
  6
Continuous
 62
     7
370
    25
100
AcDbLine
 10
11.6062597058
 20
10.939343859
 30
0.0
 11
11.5746963416
 21
10.8846968103
 31
0.0
  0
LINE
  5
21C
330
1B
100
AcDbEntity
 67
     1
  8
0
  6
Continuous
 62
     7
370
    25
100
AcDbLine
 10
14.5517681281
 20
9.4384039012
 30
0.0
 11
15.0766573465
 21
9.7413411889
 31
0.0
  0
ARC
  5
21D
330
1B
100
AcDbEntity
 67
     1
  8
0
  6
Continuous
 62
     7
370
    25
100
AcDbCircle
 10
15.0519201031
 20
9.7025888982
 30
0.0
 40
0.0459746804923528
100
AcDbArc
 50
1.9792923015
 51
57.4481699929
  0
LINE
  5
21E
330
1B
100
AcDbEntity
 67
     1
  8
0
  6
Continuous
 62
     7
370
    25
100
AcDbLine
 10
15.0978639943
 20
9.7041712076
 30
0.0
 11
15.0978672809
 21
9.7041767075
 31
0.0
  0
LINE
  5
21F
330
1B
100
AcDbEntity
 67
     1
  8
0
  6
Continuous
 62
     7
370
    25
100
AcDbLine
 10
13.0027162855
 20
10.4028746698
 30
0.0
 11
13.0255614667
 21
10.3896896834
 31
0.0
  0
LINE
  5
220
330
1B
100
AcDbEntity
 67
     1
  8
0
  6
Continuous
 62
     7
370
    25
100
AcDbLine
 10
13.0255614667
 20
10.3896896834
 30
0.0
 11
13.13040756
 21
10.4502011018
 31
0.0
  0
LINE
  5
221
330
1B
100
AcDbEntity
 67
     1
  8
0
  6
Continuous
 62
     7
370
    25
100
AcDbLine
 10
13.13040756
 20
10.4502011018
 30
0.0
 11
13.1075623788
 21
10.4633860883
 31
0.0
  0
LINE
  5
222
330
1B
100
AcDbEntity
 67
     1
  8
0
  6
Continuous
 62
     7
370
    25
100
AcDbLine
 10
13.1075623788
 20
10.4633860883
 30
0.0
 11
13.0027162855
 21
10.4028746698
 31
0.0
  0
LINE
  5
223
330
1B
100
AcDbEntity
 67
     1
  8
0
  6
Continuous
 62
     7
370
    25
100
AcDbLine
 10
13.2994517869
 20
10.3201737007
 30
0.0
 11
13.2227306257
 21
10.2758944516
 31
0.0
  0
LINE
  5
224
330
1B
100
AcDbEntity
 67
     1
  8
0
  6
Continuous
 62
     7
370
    25
100
AcDbLine
 10
13.2227306257
 20
10.2758944516
 30
0.0
 11
13.2472158258
 21
10.2617629361
 31
0.0
  0
LINE
  5
225
330
1B
100
AcDbEntity
 67
     1
  8
0
  6
Continuous
 62
     7
370
    25
100
AcDbLine
 10
13.2472158258
 20
10.2617629361
 30
0.0
 11
13.286346022
 21
10.2843467406
 31
0.0
  0
SPLINE
  5
226
330
1B
100
AcDbEntity
 67
     1
  8
0
  6
Continuous
 62
     7
370
    25
100
AcDbSpline
210
0.0
220
0.0
230
1.0
 70
     8
 71
     3
 72
    12
 73
     8
 74
     0
 42
0.000000001
 43
0.00000001
 40
0.0
 40
0.0
 40
0.0
 40
0.0
 40
0.2297782640419408
 40
0.3963665825857807
 40
0.5634897862156422
 40
0.7731764495320291
 40
1.0
 40
1.0
 40
1.0
 40
1.0
 10
13.28634602197245
 20
10.28434674062049
 30
0.0
 10
13.28912099138987
 20
10.28573406802722
 30
0.0
 10
13.29390780248946
 20
10.28812720223176
 30
0.0
 10
13.30259036412434
 20
10.28977944914416
 30
0.0
 10
13.31134626427699
 20
10.28957196891425
 30
0.0
 10
13.32035960910314
 20
10.28740483450879
 30
0.0
 10
13.3257241836792
 20
10.28487338000757
 30
0.0
 10
13.32851177447013
 20
10.28355796176607
 30
0.0
  0
LINE
  5
227
330
1B
100
AcDbEntity
 67
     1
  8
0
  6
Continuous
 62
     7
370
    25
100
AcDbLine
 10
13.3285117745
 20
10.2835579618
 30
0.0
 11
13.3470267274
 21
10.2942437778
 31
0.0
  0
SPLINE
  5
228
330
1B
100
AcDbEntity
 67
     1
  8
0
  6
Continuous
 62
     7
370
    25
100
AcDbSpline
210
0.0
220
0.0
230
1.0
 70
     8
 71
     3
 72
    10
 73
     6
 74
     0
 42
0.000000001
 43
0.00000001
 40
0.0
 40
0.0
 40
0.0
 40
0.0
 40
0.4096743211217516
 40
0.8174172987453893
 40
1.0
 40
1.0
 40
1.0
 40
1.0
 10
13.34702672738512
 20
10.29424377778471
 30
0.0
 10
13.34338237994956
 20
10.29597513891176
 30
0.0
 10
13.33611086576652
 20
10.29942969894313
 30
0.0
 10
13.32476682036848
 20
10.30120431016413
 30
0.0
 10
13.31805142413397
 20
10.30145913948435
 30
0.0
 10
13.31597440931255
 20
10.30153795602124
 30
0.0
  0
LINE
  5
229
330
1B
100
AcDbEntity
 67
     1
  8
0
  6
Continuous
 62
     7
370
    25
100
AcDbLine
 10
13.3159744093
 20
10.301537956
 30
0.0
 11
13.3238578612
 21
10.3060878523
 31
0.0
  0
LINE
  5
22A
330
1B
100
AcDbEntity
 67
     1
  8
0
  6
Continuous
 62
     7
370
    25
100
AcDbLine
 10
13.3238578612
 20
10.3060878523
 30
0.0
 11
13.2994517869
 21
10.3201737007
 31
0.0
  0
LINE
  5
22B
330
1B
100
AcDbEntity
 67
     1
  8
0
  6
Continuous
 62
     7
370
    25
100
AcDbLine
 10
13.4196552548
 20
10.2508156067
 30
0.0
 11
13.3429195746
 21
10.2065279779
 31
0.0
  0
LINE
  5
22C
330
1B
100
AcDbEntity
 67
     1
  8
0
  6
Continuous
 62
     7
370
    25
100
AcDbLine
 10
13.3429195746
 20
10.2065279779
 30
0.0
 11
13.3664337099
 21
10.1929569078
 31
0.0
  0
LINE
  5
22D
330
1B
100
AcDbEntity
 67
     1
  8
0
  6
Continuous
 62
     7
370
    25
100
AcDbLine
 10
13.3664337099
 20
10.1929569078
 30
0.0
 11
13.4116781029
 21
10.2190694915
 31
0.0
  0
SPLINE
  5
22E
330
1B
100
AcDbEntity
 67
     1
  8
0
  6
Continuous
 62
     7
370
    25
100
AcDbSpline
210
0.0
220
0.0
230
1.0
 70
     8
 71
     3
 72
    17
 73
    13
 74
     0
 42
0.000000001
 43
0.00000001
 40
0.0
 40
0.0
 40
0.0
 40
0.0
 40
0.1070384332787293
 40
0.2146784283852416
 40
0.3104371367174947
 40
0.411700323831549
 40
0.5272847276653906
 40
0.6521384673000107
 40
0.7491499064147836
 40
0.8464142467025663
 40
0.938653468229672
 40
0.9999999999999999
 40
0.9999999999999999
 40
0.9999999999999999
 40
0.9999999999999999
 10
13.41167810292624
 20
10.21906949154924
 30
0.0
 10
13.41273378580886
 20
10.21958562705453
 30
0.0
 10
13.41485108456944
 20
10.22062079877477
 30
0.0
 10
13.41882752371713
 20
10.22122502321005
 30
0.0
 10
13.42276535806731
 20
10.22102390601077
 30
0.0
 10
13.42651300745605
 20
10.22011978529184
 30
0.0
 10
13.42993727877108
 20
10.21848957784513
 30
0.0
 10
13.43227177708055
 20
10.21632440811259
 30
0.0
 10
13.43311217777447
 20
10.21397087952201
 30
0.0
 10
13.43252275826059
 20
10.21183671282853
 30
0.0
 10
13.43099304627691
 20
10.21016897554457
 30
0.0
 10
13.42966068029591
 20
10.20933228113816
 30
0.0
 10
13.42912849530982
 20
10.20899808152079
 30
0.0
  0
LINE
  5
22F
330
1B
100
AcDbEntity
 67
     1
  8
0
  6
Continuous
 62
     7
370
    25
100
AcDbLine
 10
13.4291284953
 20
10.2089980815
 30
0.0
 11
13.3838841023
 21
10.1828854977
 31
0.0
  0
LINE
  5
230
330
1B
100
AcDbEntity
 67
     1
  8
0
  6
Continuous
 62
     7
370
    25
100
AcDbLine
 10
13.3838841023
 20
10.1828854977
 30
0.0
 11
13.4069810342
 21
10.1695552146
 31
0.0
  0
LINE
  5
231
330
1B
100
AcDbEntity
 67
     1
  8
0
  6
Continuous
 62
     7
370
    25
100
AcDbLine
 10
13.4069810342
 20
10.1695552146
 30
0.0
 11
13.4644247827
 21
10.2027085977
 31
0.0
  0
SPLINE
  5
232
330
1B
100
AcDbEntity
 67
     1
  8
0
  6
Continuous
 62
     7
370
    25
100
AcDbSpline
210
0.0
220
0.0
230
1.0
 70
     8
 71
     3
 72
    14
 73
    10
 74
     0
 42
0.000000001
 43
0.00000001
 40
0.0
 40
0.0
 40
0.0
 40
0.0
 40
0.1251499763128756
 40
0.2565326655179107
 40
0.3884151993346689
 40
0.5203348929873467
 40
0.6533678471555956
 40
0.8628403127609262
 40
0.9999999999999999
 40
0.9999999999999999
 40
0.9999999999999999
 40
0.9999999999999999
 10
13.46442478272252
 20
10.20270859773623
 30
0.0
 10
13.46629757099683
 20
10.20413952695943
 30
0.0
 10
13.47013641605387
 20
10.2070726484718
 30
0.0
 10
13.47200129568314
 20
10.21264528396271
 30
0.0
 10
13.47092680722035
 20
10.21828868103877
 30
0.0
 10
13.46650649589335
 20
10.22343751378371
 30
0.0
 10
13.45818809392718
 20
10.22826361686188
 30
0.0
 10
13.44748165738117
 20
10.23142798176173
 30
0.0
 10
13.43921761307438
 20
10.23260913738716
 30
0.0
 10
13.43594759405523
 20
10.23307651161899
 30
0.0
  0
LINE
  5
233
330
1B
100
AcDbEntity
 67
     1
  8
0
  6
Continuous
 62
     7
370
    25
100
AcDbLine
 10
13.4359475941
 20
10.2330765116
 30
0.0
 11
13.4431693902
 21
10.2372445365
 31
0.0
  0
LINE
  5
234
330
1B
100
AcDbEntity
 67
     1
  8
0
  6
Continuous
 62
     7
370
    25
100
AcDbLine
 10
13.4431693902
 20
10.2372445365
 30
0.0
 11
13.4196552548
 21
10.2508156067
 31
0.0
  0
SPLINE
  5
235
330
1B
100
AcDbEntity
 67
     1
  8
0
  6
Continuous
 62
     7
370
    25
100
AcDbSpline
210
0.0
220
0.0
230
1.0
 70
     8
 71
     3
 72
    12
 73
     8
 74
     0
 42
0.000000001
 43
0.00000001
 40
0.0
 40
0.0
 40
0.0
 40
0.0
 40
0.2281470784383574
 40
0.4089989359968763
 40
0.5896219483730571
 40
0.7829021346086008
 40
1.0
 40
1.0
 40
1.0
 40
1.0
 10
13.53347110022858
 20
10.18232088317287
 30
0.0
 10
13.52886110961946
 20
10.18466895348372
 30
0.0
 10
13.52059678615325
 20
10.18887833571802
 30
0.0
 10
13.50502192535329
 20
10.19136198334189
 30
0.0
 10
13.49012203096529
 20
10.19084455868984
 30
0.0
 10
13.47500174858152
 20
10.18773854132432
 30
0.0
 10
13.46656476769658
 20
10.18366858276627
 30
0.0
 10
13.46210144288375
 20
10.18151549657738
 30
0.0
  0
SPLINE
  5
236
330
1B
100
AcDbEntity
 67
     1
  8
0
  6
Continuous
 62
     7
370
    25
100
AcDbSpline
210
0.0
220
0.0
230
1.0
 70
     8
 71
     3
 72
    12
 73
     8
 74
     0
 42
0.000000001
 43
0.00000001
 40
0.0
 40
0.0
 40
0.0
 40
0.0
 40
0.2702865920389444
 40
0.4788362364690124
 40
0.6886075159379392
 40
0.8691749348387601
 40
1.0
 40
1.0
 40
1.0
 40
1.0
 10
13.46210144288375
 20
10.18151549657738
 30
0.0
 10
13.45733660532887
 20
10.1782591922373
 30
0.0
 10
13.44889528064107
 20
10.17249036551438
 30
0.0
 10
13.44365357865042
 20
10.16189089134055
 30
0.0
 10
13.44485094955119
 20
10.15237443275399
 30
0.0
 10
13.45120391911312
 20
10.1448565973171
 30
0.0
 10
13.45728214888962
 20
10.14146972645233
 30
0.0
 10
13.4598357905068
 20
10.14004680321476
 30
0.0
  0
SPLINE
  5
237
330
1B
100
AcDbEntity
 67
     1
  8
0
  6
Continuous
 62
     7
370
    25
100
AcDbSpline
210
0.0
220
0.0
230
1.0
 70
     8
 71
     3
 72
    10
 73
     6
 74
     0
 42
0.000000001
 43
0.00000001
 40
0.0
 40
0.0
 40
0.0
 40
0.0
 40
0.265366391314644
 40
0.5308494635844785
 40
1.0
 40
1.0
 40
1.0
 40
1.0
 10
13.4598357905068
 20
10.14004680321476
 30
0.0
 10
13.46129984277084
 20
10.1394335608178
 30
0.0
 10
13.46422859103914
 20
10.1382068063827
 30
0.0
 10
13.47046765815831
 20
10.13654829277124
 30
0.0
 10
13.47541884702495
 20
10.13605350339962
 30
0.0
 10
13.47858076731449
 20
10.13573752180503
 30
0.0
  0
LINE
  5
238
330
1B
100
AcDbEntity
 67
     1
  8
0
  6
Continuous
 62
     7
370
    25
100
AcDbLine
 10
13.4785807673
 20
10.1357375218
 30
0.0
 11
13.4720782885
 21
10.1319846474
 31
0.0
  0
LINE
  5
239
330
1B
100
AcDbEntity
 67
     1
  8
0
  6
Continuous
 62
     7
370
    25
100
AcDbLine
 10
13.4720782885
 20
10.1319846474
 30
0.0
 11
13.4958010321
 21
10.11829318
 31
0.0
  0
LINE
  5
23A
330
1B
100
AcDbEntity
 67
     1
  8
0
  6
Continuous
 62
     7
370
    25
100
AcDbLine
 10
13.4958010321
 20
10.11829318
 30
0.0
 11
13.6006471254
 21
10.1788045985
 31
0.0
  0
LINE
  5
23B
330
1B
100
AcDbEntity
 67
     1
  8
0
  6
Continuous
 62
     7
370
    25
100
AcDbLine
 10
13.6006471254
 20
10.1788045985
 30
0.0
 11
13.5769243818
 21
10.1924960659
 31
0.0
  0
LINE
  5
23C
330
1B
100
AcDbEntity
 67
     1
  8
0
  6
Continuous
 62
     7
370
    25
100
AcDbLine
 10
13.5769243818
 20
10.1924960659
 30
0.0
 11
13.542124401
 21
10.1724114243
 31
0.0
  0
SPLINE
  5
23D
330
1B
100
AcDbEntity
 67
     1
  8
0
  6
Continuous
 62
     7
370
    25
100
AcDbSpline
210
0.0
220
0.0
230
1.0
 70
     8
 71
     3
 72
    10
 73
     6
 74
     0
 42
0.000000001
 43
0.00000001
 40
0.0
 40
0.0
 40
0.0
 40
0.0
 40
0.2793982361517272
 40
0.558283338946367
 40
1.0
 40
1.0
 40
1.0
 40
1.0
 10
13.54212440099042
 20
10.17241142433858
 30
0.0
 10
13.54173285010457
 20
10.17343484529455
 30
0.0
 10
13.54095046744199
 20
10.17547980762616
 30
0.0
 10
13.53809540451552
 20
10.1788769397986
 30
0.0
 10
13.53522847772992
 20
10.18101207903147
 30
0.0
 10
13.53347110022858
 20
10.18232088317287
 30
0.0
  0
SPLINE
  5
23E
330
1B
100
AcDbEntity
 67
     1
  8
0
  6
Continuous
 62
     7
370
    25
100
AcDbSpline
210
0.0
220
0.0
230
1.0
 70
     8
 71
     3
 72
    12
 73
     8
 74
     0
 42
0.000000001
 43
0.00000001
 40
0.0
 40
0.0
 40
0.0
 40
0.0
 40
0.37175716071497
 40
0.512069305749203
 40
0.6535271918607586
 40
0.7795845519922319
 40
1.0
 40
1.0
 40
1.0
 40
1.0
 10
13.35505428771137
 20
10.26923553489985
 30
0.0
 10
13.35690557211604
 20
10.26797210847683
 30
0.0
 10
13.35945558599613
 20
10.26623182756319
 30
0.0
 10
13.36072217672257
 20
10.26341481975826
 30
0.0
 10
13.3603943392946
 20
10.26160014065617
 30
0.0
 10
13.35869744139362
 20
10.25965529824853
 30
0.0
 10
13.35665984591634
 20
10.2586725735946
 30
0.0
 10
13.35536358973279
 20
10.25804739410064
 30
0.0
  0
SPLINE
  5
23F
330
1B
100
AcDbEntity
 67
     1
  8
0
  6
Continuous
 62
     7
370
    25
100
AcDbSpline
210
0.0
220
0.0
230
1.0
 70
     8
 71
     3
 72
    10
 73
     6
 74
     0
 42
0.000000001
 43
0.00000001
 40
0.0
 40
0.0
 40
0.0
 40
0.0
 40
0.2770186601427634
 40
0.5537458915000611
 40
1.0
 40
1.0
 40
1.0
 40
1.0
 10
13.35536358973279
 20
10.25804739410064
 30
0.0
 10
13.35482928025276
 20
10.25904698155496
 30
0.0
 10
13.35376122339622
 20
10.261045104879
 30
0.0
 10
13.35054613008258
 20
10.26436071706099
 30
0.0
 10
13.34742263524726
 20
10.26641237004022
 30
0.0
 10
13.34549468451563
 20
10.26767873546451
 30
0.0
  0
SPLINE
  5
240
330
1B
100
AcDbEntity
 67
     1
  8
0
  6
Continuous
 62
     7
370
    25
100
AcDbSpline
210
0.0
220
0.0
230
1.0
 70
     8
 71
     3
 72
    23
 73
    19
 74
     0
 42
0.000000001
 43
0.00000001
 40
0.0
 40
0.0
 40
0.0
 40
0.0
 40
0.0895008986258139
 40
0.1788982528658496
 40
0.2235163649504259
 40
0.2681330841820886
 40
0.312753266414992
 40
0.402199465096935
 40
0.4468279824279219
 40
0.4914540031553242
 40
0.5809476773884088
 40
0.6255748147129486
 40
0.7150175165691671
 40
0.8044046366631463
 40
0.8490162688053935
 40
0.893625220578928
 40
0.9382269569707198
 40
0.9999999999999999
 40
0.9999999999999999
 40
0.9999999999999999
 40
0.9999999999999999
 10
13.34549468451563
 20
10.26767873546451
 30
0.0
 10
13.34417043300005
 20
10.26839170242666
 30
0.0
 10
13.34152346200724
 20
10.26981681151315
 30
0.0
 10
13.33768064348648
 20
10.27121218931788
 30
0.0
 10
13.33446610399054
 20
10.27215795928773
 30
0.0
 10
13.33197295714925
 20
10.27276585147821
 30
0.0
 10
13.32855457219354
 20
10.27343725023542
 30
0.0
 10
13.32501165458779
 20
10.2738844219781
 30
0.0
 10
13.32141515499676
 20
10.27408103608948
 30
0.0
 10
13.31780194444587
 20
10.27410760607419
 30
0.0
 10
13.31419493768579
 20
10.27387148077864
 30
0.0
 10
13.30980146612353
 20
10.27326250797754
 30
0.0
 10
13.30555047995226
 20
10.27235494913964
 30
0.0
 10
13.30157270873542
 20
10.27110835644142
 30
0.0
 10
13.29857312392401
 20
10.26995005607364
 30
0.0
 10
13.29641623094102
 20
10.26900888396366
 30
0.0
 10
13.2940747987835
 20
10.26787960590347
 30
0.0
 10
13.2925300705004
 20
10.26701717208427
 30
0.0
 10
13.29163302923535
 20
10.26651634696657
 30
0.0
  0
SPLINE
  5
241
330
1B
100
AcDbEntity
 67
     1
  8
0
  6
Continuous
 62
     7
370
    25
100
AcDbSpline
210
0.0
220
0.0
230
1.0
 70
     8
 71
     3
 72
    12
 73
     8
 74
     0
 42
0.000000001
 43
0.00000001
 40
0.0
 40
0.0
 40
0.0
 40
0.0
 40
0.2599008903258633
 40
0.445603148035649
 40
0.6313912552519533
 40
0.8212748274656033
 40
1.0
 40
1.0
 40
1.0
 40
1.0
 10
13.29163302923535
 20
10.26651634696657
 30
0.0
 10
13.28834702094042
 20
10.26429103192496
 30
0.0
 10
13.28271312088393
 20
10.26047570298679
 30
0.0
 10
13.2795471386303
 20
10.25350021428235
 30
0.0
 10
13.28050503958575
 20
10.24720606064533
 30
0.0
 10
13.28453136549308
 20
10.2413742969713
 30
0.0
 10
13.2891347716564
 20
10.23823514659474
 30
0.0
 10
13.29136679835817
 20
10.23671308505752
 30
0.0
  0
SPLINE
  5
242
330
1B
100
AcDbEntity
 67
     1
  8
0
  6
Continuous
 62
     7
370
    25
100
AcDbSpline
210
0.0
220
0.0
230
1.0
 70
     8
 71
     3
 72
    10
 73
     6
 74
     0
 42
0.000000001
 43
0.00000001
 40
0.0
 40
0.0
 40
0.0
 40
0.0
 40
0.3093280027506487
 40
0.5570950963775209
 40
0.9999999999999999
 40
0.9999999999999999
 40
0.9999999999999999
 40
0.9999999999999999
 10
13.29136679835817
 20
10.23671308505752
 30
0.0
 10
13.29302222339745
 20
10.23582900758602
 30
0.0
 10
13.29600361907971
 20
10.23423679731147
 30
0.0
 10
13.3021835785414
 20
10.23191276966152
 30
0.0
 10
13.3071588453181
 20
10.23128876889266
 30
0.0
 10
13.31034931787383
 20
10.23088861802295
 30
0.0
  0
LINE
  5
243
330
1B
100
AcDbEntity
 67
     1
  8
0
  6
Continuous
 62
     7
370
    25
100
AcDbLine
 10
13.3103493179
 20
10.230888618
 30
0.0
 11
13.3055300166
 21
10.2281071815
 31
0.0
  0
LINE
  5
244
330
1B
100
AcDbEntity
 67
     1
  8
0
  6
Continuous
 62
     7
370
    25
100
AcDbLine
 10
13.3055300166
 20
10.2281071815
 30
0.0
 11
13.327735016
 21
10.2152916728
 31
0.0
  0
LINE
  5
245
330
1B
100
AcDbEntity
 67
     1
  8
0
  6
Continuous
 62
     7
370
    25
100
AcDbLine
 10
13.327735016
 20
10.2152916728
 30
0.0
 11
13.3799566622
 21
10.2454311447
 31
0.0
  0
SPLINE
  5
246
330
1B
100
AcDbEntity
 67
     1
  8
0
  6
Continuous
 62
     7
370
    25
100
AcDbSpline
210
0.0
220
0.0
230
1.0
 70
     8
 71
     3
 72
    10
 73
     6
 74
     0
 42
0.000000001
 43
0.00000001
 40
0.0
 40
0.0
 40
0.0
 40
0.0
 40
0.3456068141799095
 40
0.6388045530459475
 40
1.0
 40
1.0
 40
1.0
 40
1.0
 10
13.37995666215044
 20
10.24543114468726
 30
0.0
 10
13.3822098977828
 20
10.24676679850923
 30
0.0
 10
13.38637468019444
 20
10.24923556274582
 30
0.0
 10
13.39101848619471
 20
10.25407357529049
 30
0.0
 10
13.39134365974719
 20
10.25764256817649
 30
0.0
 10
13.39152314084384
 20
10.25961249085993
 30
0.0
  0
SPLINE
  5
247
330
1B
100
AcDbEntity
 67
     1
  8
0
  6
Continuous
 62
     7
370
    25
100
AcDbSpline
210
0.0
220
0.0
230
1.0
 70
     8
 71
     3
 72
    10
 73
     6
 74
     0
 42
0.000000001
 43
0.00000001
 40
0.0
 40
0.0
 40
0.0
 40
0.0
 40
0.3304598571902869
 40
0.7617298026504302
 40
1.0
 40
1.0
 40
1.0
 40
1.0
 10
13.39152314084384
 20
10.25961249085993
 30
0.0
 10
13.39118195469485
 20
10.26175412817712
 30
0.0
 10
13.39039550014589
 20
10.26669073071893
 30
0.0
 10
13.38412866219859
 20
10.27228608958208
 30
0.0
 10
13.37922665310558
 20
10.27551683623082
 30
0.0
 10
13.37748216819822
 20
10.27666656660897
 30
0.0
  0
LINE
  5
248
330
1B
100
AcDbEntity
 67
     1
  8
0
  6
Continuous
 62
     7
370
    25
100
AcDbLine
 10
13.3774821682
 20
10.2766665666
 30
0.0
 11
13.3617581282
 21
10.2857416207
 31
0.0
  0
LINE
  5
249
330
1B
100
AcDbEntity
 67
     1
  8
0
  6
Continuous
 62
     7
370
    25
100
AcDbLine
 10
13.3617581282
 20
10.2857416207
 30
0.0
 11
13.3438762077
 21
10.2754211562
 31
0.0
  0
SPLINE
  5
24A
330
1B
100
AcDbEntity
 67
     1
  8
0
  6
Continuous
 62
     7
370
    25
100
AcDbSpline
210
0.0
220
0.0
230
1.0
 70
     8
 71
     3
 72
    10
 73
     6
 74
     0
 42
0.000000001
 43
0.00000001
 40
0.0
 40
0.0
 40
0.0
 40
0.0
 40
0.2469435075230332
 40
0.6231213786288112
 40
0.9999999999999999
 40
0.9999999999999999
 40
0.9999999999999999
 40
0.9999999999999999
 10
13.34387620767947
 20
10.27542115623975
 30
0.0
 10
13.3448881801308
 20
10.27497087138398
 30
0.0
 10
13.34744172638653
 20
10.27383465151365
 30
0.0
 10
13.35104071237532
 20
10.27168224300211
 30
0.0
 10
13.35371559956823
 20
10.27005161005777
 30
0.0
 10
13.35505428771137
 20
10.26923553489985
 30
0.0
  0
SPLINE
  5
24B
330
1B
100
AcDbEntity
 67
     1
  8
0
  6
Continuous
 62
     7
370
    25
100
AcDbSpline
210
0.0
220
0.0
230
1.0
 70
     8
 71
     3
 72
    11
 73
     7
 74
     0
 42
0.000000001
 43
0.00000001
 40
0.0
 40
0.0
 40
0.0
 40
0.0
 40
0.40365220723329
 40
0.6307372341637385
 40
0.8601162146662189
 40
1.0
 40
1.0
 40
1.0
 40
1.0
 10
13.15547549420308
 20
10.3005457505756
 30
0.0
 10
13.15349999411994
 20
10.30191887242997
 30
0.0
 10
13.15041312518623
 20
10.30406447962616
 30
0.0
 10
13.14820423107973
 20
10.30766745858158
 30
0.0
 10
13.14822644260499
 20
10.31037369331323
 30
0.0
 10
13.14933119009165
 20
10.31186897447499
 30
0.0
 10
13.14974968953045
 20
10.31243541552563
 30
0.0
  0
LINE
  5
24C
330
1B
100
AcDbEntity
 67
     1
  8
0
  6
Continuous
 62
     7
370
    25
100
AcDbLine
 10
13.1497496895
 20
10.3124354155
 30
0.0
 11
13.1223297208
 21
10.3282607186
 31
0.0
  0
SPLINE
  5
24D
330
1B
100
AcDbEntity
 67
     1
  8
0
  6
Continuous
 62
     7
370
    25
100
AcDbSpline
210
0.0
220
0.0
230
1.0
 70
     8
 71
     3
 72
    16
 73
    12
 74
     0
 42
0.000000001
 43
0.00000001
 40
0.0
 40
0.0
 40
0.0
 40
0.0
 40
0.1037223094592045
 40
0.2062118473007435
 40
0.3095545664435268
 40
0.4616657654900797
 40
0.6157560066616637
 40
0.7384795094132292
 40
0.8327633778953566
 40
0.9276256240199301
 40
1.0
 40
1.0
 40
1.0
 40
1.0
 10
13.1223297208271
 20
10.32826071857375
 30
0.0
 10
13.11968358124944
 20
10.32573375649143
 30
0.0
 10
13.1144227522786
 20
10.32070986605002
 30
0.0
 10
13.11281894596052
 20
10.31178241403928
 30
0.0
 10
13.11615119042882
 20
10.30179257761887
 30
0.0
 10
13.12594093563338
 20
10.29146918850218
 30
0.0
 10
13.14119961940366
 20
10.28293960579338
 30
0.0
 10
13.15766303663369
 20
10.27815152570717
 30
0.0
 10
13.17295767849148
 20
10.27691234361632
 30
0.0
 10
13.18585977824546
 20
10.27855457096524
 30
0.0
 10
13.19251131033416
 20
10.28133687743223
 30
0.0
 10
13.19538986933741
 20
10.28254096593747
 30
0.0
  0
LINE
  5
24E
330
1B
100
AcDbEntity
 67
     1
  8
0
  6
Continuous
 62
     7
370
    25
100
AcDbLine
 10
13.1953898693
 20
10.2825409659
 30
0.0
 11
13.2800809746
 21
10.33142003
 31
0.0
  0
LINE
  5
24F
330
1B
100
AcDbEntity
 67
     1
  8
0
  6
Continuous
 62
     7
370
    25
100
AcDbLine
 10
13.2800809746
 20
10.33142003
 30
0.0
 11
13.2571278978
 21
10.3446672879
 31
0.0
  0
LINE
  5
250
330
1B
100
AcDbEntity
 67
     1
  8
0
  6
Continuous
 62
     7
370
    25
100
AcDbLine
 10
13.2571278978
 20
10.3446672879
 30
0.0
 11
13.2491148112
 21
10.3400425735
 31
0.0
  0
SPLINE
  5
251
330
1B
100
AcDbEntity
 67
     1
  8
0
  6
Continuous
 62
     7
370
    25
100
AcDbSpline
210
0.0
220
0.0
230
1.0
 70
     8
 71
     3
 72
    15
 73
    11
 74
     0
 42
0.000000001
 43
0.00000001
 40
0.0
 40
0.0
 40
0.0
 40
0.0
 40
0.1012407973283807
 40
0.1999727979513972
 40
0.31202199423174
 40
0.4420870025404255
 40
0.5852300547851211
 40
0.7309760288983944
 40
0.8787730651649657
 40
0.9999999999999999
 40
0.9999999999999999
 40
0.9999999999999999
 40
0.9999999999999999
 10
13.24911481120724
 20
10.3400425734907
 30
0.0
 10
13.2487532531799
 20
10.34216494222408
 30
0.0
 10
13.24803909671079
 20
10.34635708635074
 30
0.0
 10
13.24234898600593
 20
10.35215717714275
 30
0.0
 10
13.23356455213522
 20
10.35723895580676
 30
0.0
 10
13.22107627718525
 20
10.36108311155406
 30
0.0
 10
13.20589254492248
 20
10.36265286972156
 30
0.0
 10
13.19004892132914
 20
10.36115499229462
 30
0.0
 10
13.17646092435561
 20
10.35711951776394
 30
0.0
 10
13.16945211013642
 20
10.35320594770446
 30
0.0
 10
13.16629381512968
 20
10.35144242417669
 30
0.0
  0
SPLINE
  5
252
330
1B
100
AcDbEntity
 67
     1
  8
0
  6
Continuous
 62
     7
370
    25
100
AcDbSpline
210
0.0
220
0.0
230
1.0
 70
     8
 71
     3
 72
    14
 73
    10
 74
     0
 42
0.000000001
 43
0.00000001
 40
0.0
 40
0.0
 40
0.0
 40
0.0
 40
0.2031871603857046
 40
0.3940618699360146
 40
0.5561530921159535
 40
0.7198989031650037
 40
0.851586387830618
 40
0.9500291259349143
 40
1.0
 40
1.0
 40
1.0
 40
1.0
 10
13.16629381512968
 20
10.35144242417669
 30
0.0
 10
13.16195588665131
 20
10.34821694346451
 30
0.0
 10
13.15354289340611
 20
10.34196143520075
 30
0.0
 10
13.15000137975123
 20
10.33067630792266
 30
0.0
 10
13.15320899779724
 20
10.32043953302015
 30
0.0
 10
13.16101605033436
 20
10.31233039092906
 30
0.0
 10
13.17115472480585
 20
10.30698371764892
 30
0.0
 10
13.18009484021695
 20
10.30457891576398
 30
0.0
 10
13.18518188730448
 20
10.3042449723094
 30
0.0
 10
13.18689469643066
 20
10.30413253352383
 30
0.0
  0
LINE
  5
253
330
1B
100
AcDbEntity
 67
     1
  8
0
  6
Continuous
 62
     7
370
    25
100
AcDbLine
 10
13.1868946964
 20
10.3041325335
 30
0.0
 11
13.177817153
 21
10.298893473
 31
0.0
  0
SPLINE
  5
254
330
1B
100
AcDbEntity
 67
     1
  8
0
  6
Continuous
 62
     7
370
    25
100
AcDbSpline
210
0.0
220
0.0
230
1.0
 70
     8
 71
     3
 72
    12
 73
     8
 74
     0
 42
0.000000001
 43
0.00000001
 40
0.0
 40
0.0
 40
0.0
 40
0.0
 40
0.2055488336315656
 40
0.3503861336856108
 40
0.495692329481957
 40
0.6780077730125067
 40
1.0
 40
1.0
 40
1.0
 40
1.0
 10
13.17781715300016
 20
10.29889347299556
 30
0.0
 10
13.17647111199942
 20
10.29821617805331
 30
0.0
 10
13.174176600794
 20
10.29706163607908
 30
0.0
 10
13.17002230014242
 20
10.29627841292305
 30
0.0
 10
13.16588486219704
 20
10.29638148473946
 30
0.0
 10
13.16062434304983
 20
10.29766541279072
 30
0.0
 10
13.15748189564593
 20
10.29942334165285
 30
0.0
 10
13.15547549420308
 20
10.3005457505756
 30
0.0
  0
SPLINE
  5
255
330
1B
100
AcDbEntity
 67
     1
  8
0
  6
Continuous
 62
     7
370
    25
100
AcDbSpline
210
0.0
220
0.0
230
1.0
 70
     8
 71
     3
 72
    12
 73
     8
 74
     0
 42
0.000000001
 43
0.00000001
 40
0.0
 40
0.0
 40
0.0
 40
0.0
 40
0.1956720274447512
 40
0.3930883006338039
 40
0.5996630160217822
 40
0.8095034588964343
 40
1.0
 40
1.0
 40
1.0
 40
1.0
 10
13.15752543760411
 20
10.40535721569807
 30
0.0
 10
13.15320277522115
 20
10.40739665512241
 30
0.0
 10
13.14451891768401
 20
10.41149371379772
 30
0.0
 10
13.12773553581927
 20
10.41419508965471
 30
0.0
 10
13.11017679049932
 20
10.41382671177553
 30
0.0
 10
13.09369180431797
 20
10.41026266373943
 30
0.0
 10
13.08510564417915
 20
10.4059486865088
 30
0.0
 10
13.08102000164981
 20
10.40389592152899
 30
0.0
  0
SPLINE
  5
256
330
1B
100
AcDbEntity
 67
     1
  8
0
  6
Continuous
 62
     7
370
    25
100
AcDbSpline
210
0.0
220
0.0
230
1.0
 70
     8
 71
     3
 72
    12
 73
     8
 74
     0
 42
0.000000001
 43
0.00000001
 40
0.0
 40
0.0
 40
0.0
 40
0.0
 40
0.2366943063822599
 40
0.4376308926764201
 40
0.6397139111984781
 40
0.8189628256776631
 40
1.0
 40
1.0
 40
1.0
 40
1.0
 10
13.08102000164981
 20
10.40389592152899
 30
0.0
 10
13.07620530256897
 20
10.4007119341909
 30
0.0
 10
13.06730326732814
 20
10.39482496866844
 30
0.0
 10
13.06041932455836
 20
10.38391092903014
 30
0.0
 10
13.06054524808808
 20
10.37337333865586
 30
0.0
 10
13.06688207905811
 20
10.36382262716598
 30
0.0
 10
13.07441516769216
 20
10.35908361730187
 30
0.0
 10
13.07820040704116
 20
10.35670235146466
 30
0.0
  0
SPLINE
  5
257
330
1B
100
AcDbEntity
 67
     1
  8
0
  6
Continuous
 62
     7
370
    25
100
AcDbSpline
210
0.0
220
0.0
230
1.0
 70
     8
 71
     3
 72
    11
 73
     7
 74
     0
 42
0.000000001
 43
0.00000001
 40
0.0
 40
0.0
 40
0.0
 40
0.0
 40
0.288284268041521
 40
0.5642274706883165
 40
0.8074656068457635
 40
1.0
 40
1.0
 40
1.0
 40
1.0
 10
13.07820040704116
 20
10.35670235146466
 30
0.0
 10
13.08316122673584
 20
10.3544654595702
 30
0.0
 10
13.09287050004406
 20
10.35008743414277
 30
0.0
 10
13.11055157563815
 20
10.34811030693888
 30
0.0
 10
13.12602868109475
 20
10.3493527692258
 30
0.0
 10
13.13451867110865
 20
10.3517350241625
 30
0.0
 10
13.13826974527066
 20
10.35278755955131
 30
0.0
  0
LINE
  5
258
330
1B
100
AcDbEntity
 67
     1
  8
0
  6
Continuous
 62
     7
370
    25
100
AcDbLine
 10
13.1382697453
 20
10.3527875596
 30
0.0
 11
13.1148275377
 21
10.3663171169
 31
0.0
  0
SPLINE
  5
259
330
1B
100
AcDbEntity
 67
     1
  8
0
  6
Continuous
 62
     7
370
    25
100
AcDbSpline
210
0.0
220
0.0
230
1.0
 70
     8
 71
     3
 72
    11
 73
     7
 74
     0
 42
0.000000001
 43
0.00000001
 40
0.0
 40
0.0
 40
0.0
 40
0.0
 40
0.1940669676353299
 40
0.4363853396735996
 40
0.7882829876664554
 40
1.0
 40
1.0
 40
1.0
 40
1.0
 10
13.11482753771634
 20
10.36631711688514
 30
0.0
 10
13.1136352865366
 20
10.36616750954954
 30
0.0
 10
13.11095435148418
 20
10.36583109759466
 30
0.0
 10
13.10603659301843
 20
10.36649525540445
 30
0.0
 10
13.10164284767542
 20
10.36797452923009
 30
0.0
 10
13.09908045717182
 20
10.36936195758354
 30
0.0
 10
13.09811791715993
 20
10.36988313314283
 30
0.0
  0
SPLINE
  5
25A
330
1B
100
AcDbEntity
 67
     1
  8
0
  6
Continuous
 62
     7
370
    25
100
AcDbSpline
210
0.0
220
0.0
230
1.0
 70
     8
 71
     3
 72
    12
 73
     8
 74
     0
 42
0.000000001
 43
0.00000001
 40
0.0
 40
0.0
 40
0.0
 40
0.0
 40
0.2380807690079013
 40
0.438493918948064
 40
0.6392005795028913
 40
0.8357546799244299
 40
1.0
 40
1.0
 40
1.0
 40
1.0
 10
13.09811791715992
 20
10.36988313314283
 30
0.0
 10
13.09660161351392
 20
10.37090997156182
 30
0.0
 10
13.0938089061028
 20
10.37280118858176
 30
0.0
 10
13.09199074518828
 20
10.37633556027209
 30
0.0
 10
13.09230314260262
 20
10.37973433333456
 30
0.0
 10
13.09432628582721
 20
10.38274168082553
 30
0.0
 10
13.096630305476
 20
10.38428114093028
 30
0.0
 10
13.09767915539975
 20
10.38498194337974
 30
0.0
  0
LINE
  5
25B
330
1B
100
AcDbEntity
 67
     1
  8
0
  6
Continuous
 62
     7
370
    25
100
AcDbLine
 10
13.0976791554
 20
10.3849819434
 30
0.0
 11
13.147268218
 21
10.3563951335
 31
0.0
  0
SPLINE
  5
25C
330
1B
100
AcDbEntity
 67
     1
  8
0
  6
Continuous
 62
     7
370
    25
100
AcDbSpline
210
0.0
220
0.0
230
1.0
 70
     8
 71
     3
 72
    12
 73
     8
 74
     0
 42
0.000000001
 43
0.00000001
 40
0.0
 40
0.0
 40
0.0
 40
0.0
 40
0.2265140198113659
 40
0.4369728426108882
 40
0.6484034683434163
 40
0.8367483903523847
 40
1.0
 40
1.0
 40
1.0
 40
1.0
 10
13.14726821798805
 20
10.35639513350594
 30
0.0
 10
13.15257599304998
 20
10.35931171331814
 30
0.0
 10
13.1628153308123
 20
10.36493814726823
 30
0.0
 10
13.17174652285659
 20
10.37614245852435
 30
0.0
 10
13.17338421137764
 20
10.38762619629297
 30
0.0
 10
13.16822590877745
 20
10.39798108231688
 30
0.0
 10
13.16091841701472
 20
10.40301834030774
 30
0.0
 10
13.15752543760411
 20
10.40535721569807
 30
0.0
  0
LINE
  5
25D
330
1B
100
AcDbEntity
 67
     1
  8
0
  6
Continuous
 62
     7
370
    25
100
AcDbLine
 10
12.2531864516
 20
11.3708938351
 30
0.0
 11
11.7282972331
 21
11.0679565474
 31
0.0
  0
LINE
  5
25E
330
1B
100
AcDbEntity
 67
     1
  8
0
  6
Continuous
 62
     7
370
    25
100
AcDbLine
 10
15.0766573465
 20
9.7413411889
 30
0.0
 11
12.2531864516
 21
11.3708938351
 31
0.0
  0
LWPOLYLINE
  5
25F
330
1B
100
AcDbEntity
 67
     1
  8
0
  6
Continuous
 62
     7
370
    25
100
AcDbPolyline
 90
       14
 70
   128
 43
0.0
 10
15.1062672706
 20
9.7164721526
 10
15.1058862482
 20
9.7126685289
 10
15.102003532
 20
9.7072712836
 10
15.100373764
 20
9.7059149416
 10
15.0992816172
 20
9.7051303039
 10
15.098627221
 20
9.7046932393
 10
15.0982627918
 20
9.7044555227
 10
15.09806751
 20
9.7043267763
 10
15.0979651504
 20
9.7042566699
 10
15.0979123631
 20
9.7042179285
 10
15.0978860214
 20
9.7041964112
 10
15.0978732653
 20
9.7041842638
 10
15.097867354
 20
9.7041767854
 10
15.097867354
 20
9.7041767854
  0
LINE
  5
260
330
1B
100
AcDbEntity
 67
     1
  8
0
  6
Continuous
 62
     7
370
    25
100
AcDbLine
 10
13.5769243559
 20
10.1772834608
 30
0.0
 11
13.5416910839
 21
10.1569487474
 31
0.0
  0
LINE
  5
261
330
1B
100
AcDbEntity
 67
     1
  8
0
  6
Continuous
 62
     7
370
    25
100
AcDbLine
 10
13.5874679127
 20
10.1711982977
 30
0.0
 11
13.5769243559
 21
10.1772834608
 31
0.0
  0
SPLINE
  5
262
330
1B
100
AcDbEntity
 67
     1
  8
0
  6
Continuous
 62
     7
370
    25
100
AcDbSpline
210
0.0
220
0.0
230
1.0
 70
     8
 71
     3
 72
    10
 73
     6
 74
     0
 42
0.000000001
 43
0.00000001
 40
0.0
 40
0.0
 40
0.0
 40
0.0
 40
0.4901000957060218
 40
0.8655328391141692
 40
1.0
 40
1.0
 40
1.0
 40
1.0
 10
13.46254424924799
 20
10.16655847003594
 30
0.0
 10
13.45793223333214
 20
10.16333224876141
 30
0.0
 10
13.4497872619994
 20
10.15763463620468
 30
0.0
 10
13.4445875999925
 20
10.14916887266497
 30
0.0
 10
13.44552471682609
 20
10.14482914312396
 30
0.0
 10
13.44577184658425
 20
10.14368470064519
 30
0.0
  0
SPLINE
  5
263
330
1B
100
AcDbEntity
 67
     1
  8
0
  6
Continuous
 62
     7
370
    25
100
AcDbSpline
210
0.0
220
0.0
230
1.0
 70
     8
 71
     3
 72
    12
 73
     8
 74
     0
 42
0.000000001
 43
0.00000001
 40
0.0
 40
0.0
 40
0.0
 40
0.0
 40
0.2284553918400595
 40
0.4086725818153153
 40
0.5886421004669982
 40
0.7819088163587586
 40
1.0
 40
1.0
 40
1.0
 40
1.0
 10
13.53300322250452
 20
10.16737877535457
 30
0.0
 10
13.52844583374032
 20
10.16970098737305
 30
0.0
 10
13.52029334577495
 20
10.17385507790893
 30
0.0
 10
13.50493853112432
 20
10.17629658964763
 30
0.0
 10
13.49026350349953
 20
10.17578416552714
 30
0.0
 10
13.47532536270712
 20
10.17271939890536
 30
0.0
 10
13.46697264264321
 20
10.16869310539466
 30
0.0
 10
13.46254424924799
 20
10.16655847003594
 30
0.0
  0
SPLINE
  5
264
330
1B
100
AcDbEntity
 67
     1
  8
0
  6
Continuous
 62
     7
370
    25
100
AcDbSpline
210
0.0
220
0.0
230
1.0
 70
     8
 71
     3
 72
    10
 73
     6
 74
     0
 42
0.000000001
 43
0.00000001
 40
0.0
 40
0.0
 40
0.0
 40
0.0
 40
0.2665193488026368
 40
0.5208674292091381
 40
1.0
 40
1.0
 40
1.0
 40
1.0
 10
13.54169108388956
 20
10.15694874735338
 30
0.0
 10
13.54137438162216
 20
10.15797722141173
 30
0.0
 10
13.54075544008345
 20
10.15998720170468
 30
0.0
 10
13.53801741653813
 20
10.16360318129338
 30
0.0
 10
13.53498445084197
 20
10.16588694757635
 30
0.0
 10
13.53300322250452
 20
10.16737877535457
 30
0.0
  0
SPLINE
  5
265
330
1B
100
AcDbEntity
 67
     1
  8
0
  6
Continuous
 62
     7
370
    25
100
AcDbSpline
210
0.0
220
0.0
230
1.0
 70
     8
 71
     3
 72
    15
 73
    11
 74
     0
 42
0.000000001
 43
0.00000001
 40
0.0
 40
0.0
 40
0.0
 40
0.0
 40
0.1420713005162162
 40
0.2841869380856412
 40
0.4260900494718119
 40
0.56895706048545
 40
0.7101529084174836
 40
0.8527677178508092
 40
0.994187708498709
 40
1.0
 40
1.0
 40
1.0
 40
1.0
 10
13.48120776358151
 20
10.13782315377516
 30
0.0
 10
13.48308812863468
 20
10.13692946031687
 30
0.0
 10
13.48684944555795
 20
10.13514179449996
 30
0.0
 10
13.49403723008897
 20
10.13402800132297
 30
0.0
 10
13.50138853855115
 20
10.13425168888256
 30
0.0
 10
13.50818964310077
 20
10.13588987071842
 30
0.0
 10
13.51372938735934
 20
10.13874549013368
 30
0.0
 10
13.51704827399728
 20
10.14245567961726
 30
0.0
 10
13.51841974894757
 20
10.14534951363773
 30
0.0
 10
13.51797964726017
 20
10.14677080172974
 30
0.0
 10
13.51796227335779
 20
10.1468269099458
 30
0.0
  0
SPLINE
  5
266
330
1B
100
AcDbEntity
 67
     1
  8
0
  6
Continuous
 62
     7
370
    25
100
AcDbSpline
210
0.0
220
0.0
230
1.0
 70
     8
 71
     3
 72
    11
 73
     7
 74
     0
 42
0.000000001
 43
0.00000001
 40
0.0
 40
0.0
 40
0.0
 40
0.0
 40
0.0243168985931808
 40
0.445967881491502
 40
0.8681736922359166
 40
0.9999999999999999
 40
0.9999999999999999
 40
0.9999999999999999
 40
0.9999999999999999
 10
13.47496927293498
 20
10.14683834214689
 30
0.0
 10
13.47494531879838
 20
10.14675880717186
 30
0.0
 10
13.47450600391157
 20
10.14530014893946
 30
0.0
 10
13.47592097303785
 20
10.1423789855043
 30
0.0
 10
13.4784989397441
 20
10.13948397269708
 30
0.0
 10
13.48068711058493
 20
10.13814237362864
 30
0.0
 10
13.48120776358151
 20
10.13782315377516
 30
0.0
  0
SPLINE
  5
267
330
1B
100
AcDbEntity
 67
     1
  8
0
  6
Continuous
 62
     7
370
    25
100
AcDbSpline
210
0.0
220
0.0
230
1.0
 70
     8
 71
     3
 72
     9
 73
     5
 74
     0
 42
0.000000001
 43
0.00000001
 40
0.0
 40
0.0
 40
0.0
 40
0.0
 40
0.0912300865387653
 40
1.0
 40
1.0
 40
1.0
 40
1.0
 10
13.47932933018986
 20
10.12779965714919
 30
0.0
 10
13.47930662078305
 20
10.12804107852406
 30
0.0
 10
13.47905769624864
 20
10.13068736972064
 30
0.0
 10
13.47880783431883
 20
10.13333313233916
 30
0.0
 10
13.47858076731449
 20
10.13573752180503
 30
0.0
  0
LWPOLYLINE
  5
268
330
1B
100
AcDbEntity
 67
     1
  8
0
  6
Continuous
 62
     7
370
    25
100
AcDbPolyline
 90
        4
 70
   128
 43
0.0
 10
13.4625442492
 20
10.16655847
 10
13.4624115292
 20
10.1710458931
 10
13.4622786017
 20
10.1755331965
 10
13.4621014429
 20
10.1815154966
  0
LINE
  5
269
330
1B
100
AcDbEntity
 67
     1
  8
0
  6
Continuous
 62
     7
370
    25
100
AcDbLine
 10
13.4812077636
 20
10.1378231538
 30
0.0
 11
13.4816522552
 21
10.1527792376
 31
0.0
  0
SPLINE
  5
26A
330
1B
100
AcDbEntity
 67
     1
  8
0
  6
Continuous
 62
     7
370
    25
100
AcDbSpline
210
0.0
220
0.0
230
1.0
 70
     8
 71
     3
 72
    17
 73
    13
 74
     0
 42
0.000000001
 43
0.00000001
 40
0.0
 40
0.0
 40
0.0
 40
0.0
 40
0.107330345875031
 40
0.2146959389363696
 40
0.3218537032164144
 40
0.4296922234593865
 40
0.5363079736633234
 40
0.6440936571563491
 40
0.750919403565497
 40
0.8588120058632107
 40
0.9665301422002729
 40
1.0
 40
1.0
 40
1.0
 40
1.0
 10
13.48165225519745
 20
10.15277923760891
 30
0.0
 10
13.48347823365438
 20
10.15191124945603
 30
0.0
 10
13.48713079021786
 20
10.15017498810377
 30
0.0
 10
13.49411144956851
 20
10.14909324337014
 30
0.0
 10
13.50124376641622
 20
10.1493108216923
 30
0.0
 10
13.5078594586275
 20
10.15090269979409
 30
0.0
 10
13.51318054954624
 20
10.15367119468464
 30
0.0
 10
13.5166188076374
 20
10.15728797147236
 30
0.0
 10
13.51778364505378
 20
10.16137470934411
 30
0.0
 10
13.51655772740427
 20
10.1654461218521
 30
0.0
 10
13.5138693610062
 20
10.16826152077889
 30
0.0
 10
13.51175919727022
 20
10.16955902305437
 30
0.0
 10
13.5112589643672
 20
10.16986660739907
 30
0.0
  0
SPLINE
  5
26B
330
1B
100
AcDbEntity
 67
     1
  8
0
  6
Continuous
 62
     7
370
    25
100
AcDbSpline
210
0.0
220
0.0
230
1.0
 70
     8
 71
     3
 72
    17
 73
    13
 74
     0
 42
0.000000001
 43
0.00000001
 40
0.0
 40
0.0
 40
0.0
 40
0.0
 40
0.1068279713152256
 40
0.2136591076898059
 40
0.3210196666435073
 40
0.4295516578897856
 40
0.5365948033750162
 40
0.6441231962049504
 40
0.7505463269584093
 40
0.858344221789275
 40
0.9662987184651687
 40
1.0
 40
1.0
 40
1.0
 40
1.0
 10
13.5112589643672
 20
10.16986660739907
 30
0.0
 10
13.5094412337206
 20
10.17072922781948
 30
0.0
 10
13.50580571857234
 20
10.17245449421771
 30
0.0
 10
13.49884782721197
 20
10.17353071530345
 30
0.0
 10
13.49171227187067
 20
10.17332214084835
 30
0.0
 10
13.48506369216723
 20
10.17173624653059
 30
0.0
 10
13.47972269737394
 20
10.16896552640802
 30
0.0
 10
13.47629181163873
 20
10.1653520085962
 30
0.0
 10
13.47513268900745
 20
10.16127729901216
 30
0.0
 10
13.47635091603236
 20
10.15721145898192
 30
0.0
 10
13.47903354432005
 20
10.15439034383759
 30
0.0
 10
13.48114897399129
 20
10.153088870678
 30
0.0
 10
13.48165225519745
 20
10.15277923760891
 30
0.0
  0
LWPOLYLINE
  5
26C
330
1B
100
AcDbEntity
 67
     1
  8
0
  6
Continuous
 62
     7
370
    25
100
AcDbPolyline
 90
        4
 70
   128
 43
0.0
 10
13.5330032225
 20
10.1673787754
 10
13.5331437206
 20
10.1718616438
 10
13.5332840373
 20
10.1763443776
 10
13.5334711002
 20
10.1823208832
  0
LWPOLYLINE
  5
26D
330
1B
100
AcDbEntity
 67
     1
  8
0
  6
Continuous
 62
     7
370
    25
100
AcDbPolyline
 90
        3
 70
   128
 43
0.0
 10
13.5416910839
 20
10.1569487474
 10
13.5419077554
 20
10.1646800784
 10
13.542124401
 20
10.1724114243
  0
LINE
  5
26E
330
1B
100
AcDbEntity
 67
     1
  8
0
  6
Continuous
 62
     7
370
    25
100
AcDbLine
 10
13.5769243559
 20
10.1772834608
 30
0.0
 11
13.5769243818
 21
10.1924960659
 31
0.0
  0
SPLINE
  5
26F
330
1B
100
AcDbEntity
 67
     1
  8
0
  6
Continuous
 62
     7
370
    25
100
AcDbSpline
210
0.0
220
0.0
230
1.0
 70
     8
 71
     3
 72
    11
 73
     7
 74
     0
 42
0.000000001
 43
0.00000001
 40
0.0
 40
0.0
 40
0.0
 40
0.0
 40
0.0845786114360012
 40
0.3163804519320028
 40
0.6644061778336458
 40
1.0
 40
1.0
 40
1.0
 40
1.0
 10
13.46781303310652
 20
10.20573942882911
 30
0.0
 10
13.46740206642769
 20
10.20636738446823
 30
0.0
 10
13.46586477678237
 20
10.2087163576368
 30
0.0
 10
13.45919081118414
 20
10.21253899825019
 30
0.0
 10
13.44831465351504
 20
10.21626210780219
 30
0.0
 10
13.43917188238776
 20
10.21753543144418
 30
0.0
 10
13.43468362935804
 20
10.2181605153071
 30
0.0
  0
LINE
  5
270
330
1B
100
AcDbEntity
 67
     1
  8
0
  6
Continuous
 62
     7
370
    25
100
AcDbLine
 10
13.429572961
 20
10.1940420127
 30
0.0
 11
13.3970632632
 21
10.1752791969
 31
0.0
  0
SPLINE
  5
271
330
1B
100
AcDbEntity
 67
     1
  8
0
  6
Continuous
 62
     7
370
    25
100
AcDbSpline
210
0.0
220
0.0
230
1.0
 70
     8
 71
     3
 72
    11
 73
     7
 74
     0
 42
0.000000001
 43
0.00000001
 40
0.0
 40
0.0
 40
0.0
 40
0.0
 40
0.0923165396962117
 40
0.47384204485784
 40
0.8429882216767473
 40
1.0
 40
1.0
 40
1.0
 40
1.0
 10
13.43335486025149
 20
10.19936026810594
 30
0.0
 10
13.43341487028082
 20
10.19917986054874
 30
0.0
 10
13.43372288957076
 20
10.19825386520606
 30
0.0
 10
13.43275279109839
 20
10.19658034785168
 30
0.0
 10
13.43118949945497
 20
10.1950268109916
 30
0.0
 10
13.42994448737841
 20
10.19426834723667
 30
0.0
 10
13.42957296099881
 20
10.19404201265065
 30
0.0
  0
LINE
  5
272
330
1B
100
AcDbEntity
 67
     1
  8
0
  6
Continuous
 62
     7
370
    25
100
AcDbLine
 10
13.4196552418
 20
10.2356029941
 30
0.0
 11
13.3560987484
 21
10.1989216696
 31
0.0
  0
LINE
  5
273
330
1B
100
AcDbEntity
 67
     1
  8
0
  6
Continuous
 62
     7
370
    25
100
AcDbLine
 10
13.4353920184
 20
10.2265205892
 30
0.0
 11
13.4196552418
 21
10.2356029941
 31
0.0
  0
LINE
  5
274
330
1B
100
AcDbEntity
 67
     1
  8
0
  6
Continuous
 62
     7
370
    25
100
AcDbLine
 10
13.429572961
 20
10.1940420127
 30
0.0
 11
13.4291284953
 21
10.2089980815
 31
0.0
  0
LWPOLYLINE
  5
275
330
1B
100
AcDbEntity
 67
     1
  8
0
  6
Continuous
 62
     7
370
    25
100
AcDbPolyline
 90
        3
 70
   128
 43
0.0
 10
13.4346836294
 20
10.2181605153
 10
13.435315508
 20
10.2256184536
 10
13.4359475941
 20
10.2330765116
  0
LINE
  5
276
330
1B
100
AcDbEntity
 67
     1
  8
0
  6
Continuous
 62
     7
370
    25
100
AcDbLine
 10
13.4196552418
 20
10.2356029941
 30
0.0
 11
13.4196552548
 21
10.2508156067
 31
0.0
  0
LINE
  5
277
330
1B
100
AcDbEntity
 67
     1
  8
0
  6
Continuous
 62
     7
370
    25
100
AcDbLine
 10
13.3617583097
 20
10.2705291353
 30
0.0
 11
13.3568554199
 21
10.267699456
 31
0.0
  0
LINE
  5
278
330
1B
100
AcDbEntity
 67
     1
  8
0
  6
Continuous
 62
     7
370
    25
100
AcDbLine
 10
13.3770295226
 20
10.2617154282
 30
0.0
 11
13.3617583097
 21
10.2705291353
 31
0.0
  0
SPLINE
  5
279
330
1B
100
AcDbEntity
 67
     1
  8
0
  6
Continuous
 62
     7
370
    25
100
AcDbSpline
210
0.0
220
0.0
230
1.0
 70
     8
 71
     3
 72
     9
 73
     5
 74
     0
 42
0.000000001
 43
0.00000001
 40
0.0
 40
0.0
 40
0.0
 40
0.0
 40
0.4850892629573654
 40
1.0
 40
1.0
 40
1.0
 40
1.0
 10
13.38829737465006
 20
10.25176223077167
 30
0.0
 10
13.38692913199997
 20
10.2535415333144
 30
0.0
 10
13.38410853225767
 20
10.25720952326719
 30
0.0
 10
13.3794356432697
 20
10.2601838932233
 30
0.0
 10
13.37702952255678
 20
10.26171542824964
 30
0.0
  0
SPLINE
  5
27A
330
1B
100
AcDbEntity
 67
     1
  8
0
  6
Continuous
 62
     7
370
    25
100
AcDbSpline
210
0.0
220
0.0
230
1.0
 70
     8
 71
     3
 72
     9
 73
     5
 74
     0
 42
0.000000001
 43
0.00000001
 40
0.0
 40
0.0
 40
0.0
 40
0.0
 40
0.9425289056146983
 40
1.0
 40
1.0
 40
1.0
 40
1.0
 10
13.29207749492434
 20
10.25156027809643
 30
0.0
 10
13.28846516533147
 20
10.24944731466621
 30
0.0
 10
13.28463257243023
 20
10.24720551240674
 30
0.0
 10
13.28333542245673
 20
10.24427525117689
 30
0.0
 10
13.28326087382817
 20
10.24410684585717
 30
0.0
  0
SPLINE
  5
27B
330
1B
100
AcDbEntity
 67
     1
  8
0
  6
Continuous
 62
     7
370
    25
100
AcDbSpline
210
0.0
220
0.0
230
1.0
 70
     8
 71
     3
 72
    12
 73
     8
 74
     0
 42
0.000000001
 43
0.00000001
 40
0.0
 40
0.0
 40
0.0
 40
0.0
 40
0.1844290512720356
 40
0.3856158716037872
 40
0.5912798655621312
 40
0.7740994579861497
 40
0.9999999999999999
 40
0.9999999999999999
 40
0.9999999999999999
 40
0.9999999999999999
 10
13.34504226573499
 20
10.25272746617355
 30
0.0
 10
13.34223523496364
 20
10.25409467811503
 30
0.0
 10
13.33636611830307
 20
10.25695333091862
 30
0.0
 10
13.32499036637443
 20
10.25918755917208
 30
0.0
 10
13.3130821495285
 20
10.25904325071935
 30
0.0
 10
13.30153339521668
 20
10.25640381634235
 30
0.0
 10
13.29544343158624
 20
10.25328439134332
 30
0.0
 10
13.29207749492434
 20
10.25156027809643
 30
0.0
  0
SPLINE
  5
27C
330
1B
100
AcDbEntity
 67
     1
  8
0
  6
Continuous
 62
     7
370
    25
100
AcDbSpline
210
0.0
220
0.0
230
1.0
 70
     8
 71
     3
 72
    10
 73
     6
 74
     0
 42
0.000000001
 43
0.00000001
 40
0.0
 40
0.0
 40
0.0
 40
0.0
 40
0.268123442469068
 40
0.5366166924616149
 40
1.0
 40
1.0
 40
1.0
 40
1.0
 10
13.35497943660922
 20
10.24273399038764
 30
0.0
 10
13.35449514636971
 20
10.24373974294612
 30
0.0
 10
13.35352589793649
 20
10.24575263524077
 30
0.0
 10
13.35035076642486
 20
10.24921765118419
 30
0.0
 10
13.3471002873248
 20
10.25136676652476
 30
0.0
 10
13.34504226573499
 20
10.25272746617355
 30
0.0
  0
SPLINE
  5
27D
330
1B
100
AcDbEntity
 67
     1
  8
0
  6
Continuous
 62
     7
370
    25
100
AcDbSpline
210
0.0
220
0.0
230
1.0
 70
     8
 71
     3
 72
    11
 73
     7
 74
     0
 42
0.000000001
 43
0.00000001
 40
0.0
 40
0.0
 40
0.0
 40
0.0
 40
0.2185403727458304
 40
0.4732849468668407
 40
0.8611980449440592
 40
1.0
 40
1.0
 40
1.0
 40
1.0
 10
13.36106520456188
 20
10.24838270229416
 30
0.0
 10
13.36105011247841
 20
10.24787086278235
 30
0.0
 10
13.36101742810146
 20
10.24676239054399
 30
0.0
 10
13.35936502028633
 20
10.24494286308819
 30
0.0
 10
13.35714093496813
 20
10.24363944352643
 30
0.0
 10
13.35543024431868
 20
10.24292283404502
 30
0.0
 10
13.35497943660922
 20
10.24273399038764
 30
0.0
  0
SPLINE
  5
27E
330
1B
100
AcDbEntity
 67
     1
  8
0
  6
Continuous
 62
     7
370
    25
100
AcDbSpline
210
0.0
220
0.0
230
1.0
 70
     8
 71
     3
 72
    11
 73
     7
 74
     0
 42
0.000000001
 43
0.00000001
 40
0.0
 40
0.0
 40
0.0
 40
0.0
 40
0.3070319252019191
 40
0.614110416593982
 40
0.9218572210045115
 40
0.9999999999999999
 40
0.9999999999999999
 40
0.9999999999999999
 40
0.9999999999999999
 10
13.33439430106854
 20
10.22931268731919
 30
0.0
 10
13.33544025730202
 20
10.23004331252809
 30
0.0
 10
13.33753232840458
 20
10.23150467375664
 30
0.0
 10
13.33873296840242
 20
10.23427410151794
 30
0.0
 10
13.33881740945211
 20
10.23647193370848
 30
0.0
 10
13.33797645210419
 20
10.23754758802092
 30
0.0
 10
13.33780615793972
 20
10.23776540840485
 30
0.0
  0
SPLINE
  5
27F
330
1B
100
AcDbEntity
 67
     1
  8
0
  6
Continuous
 62
     7
370
    25
100
AcDbSpline
210
0.0
220
0.0
230
1.0
 70
     8
 71
     3
 72
    14
 73
    10
 74
     0
 42
0.000000001
 43
0.00000001
 40
0.0
 40
0.0
 40
0.0
 40
0.0
 40
0.1340168630152446
 40
0.2962207247582956
 40
0.4604167497256739
 40
0.6221104110420259
 40
0.7848863894741369
 40
0.948001787094359
 40
1.0
 40
1.0
 40
1.0
 40
1.0
 10
13.31025840502669
 20
10.23289424703091
 30
0.0
 10
13.31069575782989
 20
10.23215619537982
 30
0.0
 10
13.31166244934484
 20
10.23052486190374
 30
0.0
 10
13.31492464072318
 20
10.22853576942752
 30
0.0
 10
13.31924841983837
 20
10.2271454314027
 30
0.0
 10
13.32417469113075
 20
10.22668495595329
 30
0.0
 10
13.32905586398021
 20
10.22717988078856
 30
0.0
 10
13.33244535157432
 20
10.22825781433819
 30
0.0
 10
13.33401490232295
 20
10.22910733695637
 30
0.0
 10
13.33439430106854
 20
10.22931268731919
 30
0.0
  0
LINE
  5
280
330
1B
100
AcDbEntity
 67
     1
  8
0
  6
Continuous
 62
     7
370
    25
100
AcDbLine
 10
13.3109197885
 20
10.2249965235
 30
0.0
 11
13.3103493179
 21
10.230888618
 31
0.0
  0
LINE
  5
281
330
1B
100
AcDbEntity
 67
     1
  8
0
  6
Continuous
 62
     7
370
    25
100
AcDbLine
 10
13.2920774949
 20
10.2515602781
 30
0.0
 11
13.2916330292
 21
10.266516347
 31
0.0
  0
LINE
  5
282
330
1B
100
AcDbEntity
 67
     1
  8
0
  6
Continuous
 62
     7
370
    25
100
AcDbLine
 10
13.3343943011
 20
10.2293126873
 30
0.0
 11
13.3339498354
 21
10.2442687562
 31
0.0
  0
SPLINE
  5
283
330
1B
100
AcDbEntity
 67
     1
  8
0
  6
Continuous
 62
     7
370
    25
100
AcDbSpline
210
0.0
220
0.0
230
1.0
 70
     8
 71
     3
 72
    17
 73
    13
 74
     0
 42
0.000000001
 43
0.00000001
 40
0.0
 40
0.0
 40
0.0
 40
0.0
 40
0.1073160018349799
 40
0.2146785283242627
 40
0.3217320338998316
 40
0.4294977595117075
 40
0.5363114227461596
 40
0.6446460932592641
 40
0.751190109808731
 40
0.8582811945987731
 40
0.9656203693057267
 40
1.0
 40
1.0
 40
1.0
 40
1.0
 10
13.31426240748912
 20
10.25563126050049
 30
0.0
 10
13.31326178685934
 20
10.25493019732735
 30
0.0
 10
13.31126011180119
 20
10.25352776704948
 30
0.0
 10
13.31001276922085
 20
10.25084808662322
 30
0.0
 10
13.31026501290042
 20
10.24811066565694
 30
0.0
 10
13.31209994392413
 20
10.24557026333869
 30
0.0
 10
13.3152926013105
 20
10.24352018825655
 30
0.0
 10
13.31946657390771
 20
10.24219428567065
 30
0.0
 10
13.32417271510053
 20
10.24175206270754
 30
0.0
 10
13.32884254075178
 20
10.24222734116745
 30
0.0
 10
13.33208322304778
 20
10.24325854279253
 30
0.0
 10
13.33358541736404
 20
10.24407153261214
 30
0.0
 10
13.33394983537955
 20
10.24426875618933
 30
0.0
  0
SPLINE
  5
284
330
1B
100
AcDbEntity
 67
     1
  8
0
  6
Continuous
 62
     7
370
    25
100
AcDbSpline
210
0.0
220
0.0
230
1.0
 70
     8
 71
     3
 72
    17
 73
    13
 74
     0
 42
0.000000001
 43
0.00000001
 40
0.0
 40
0.0
 40
0.0
 40
0.0
 40
0.1070116474760197
 40
0.2140343234963696
 40
0.3212074921262417
 40
0.4291264508051736
 40
0.5358425610043378
 40
0.6440327186926177
 40
0.7510770986776438
 40
0.859084213915139
 40
0.966902387272749
 40
1.0
 40
1.0
 40
1.0
 40
1.0
 10
13.33394983537955
 20
10.24426875618933
 30
0.0
 10
13.33494511458778
 20
10.24496687231149
 30
0.0
 10
13.33693577557701
 20
10.24636317650317
 30
0.0
 10
13.33817698576591
 20
10.24903327853823
 30
0.0
 10
13.33793123261648
 20
10.25176513235642
 30
0.0
 10
13.33610100728351
 20
10.25430317508672
 30
0.0
 10
13.33291463633347
 20
10.25634872918731
 30
0.0
 10
13.32874703453116
 20
10.25767390078797
 30
0.0
 10
13.32403423615203
 20
10.25812462360121
 30
0.0
 10
13.31934207659538
 20
10.25765690398027
 30
0.0
 10
13.31610250577341
 20
10.25662821641942
 30
0.0
 10
13.31461239697734
 20
10.25582088303034
 30
0.0
 10
13.31426240748912
 20
10.25563126050049
 30
0.0
  0
LINE
  5
285
330
1B
100
AcDbEntity
 67
     1
  8
0
  6
Continuous
 62
     7
370
    25
100
AcDbLine
 10
13.3450422657
 20
10.2527274662
 30
0.0
 11
13.3454946845
 21
10.2676787355
 31
0.0
  0
LINE
  5
286
330
1B
100
AcDbEntity
 67
     1
  8
0
  6
Continuous
 62
     7
370
    25
100
AcDbLine
 10
13.3549794366
 20
10.2427339904
 30
0.0
 11
13.3553635897
 21
10.2580473941
 31
0.0
  0
LINE
  5
287
330
1B
100
AcDbEntity
 67
     1
  8
0
  6
Continuous
 62
     7
370
    25
100
AcDbLine
 10
13.330564761
 20
10.2847428365
 30
0.0
 11
13.3226954977
 21
10.2860294193
 31
0.0
  0
LINE
  5
288
330
1B
100
AcDbEntity
 67
     1
  8
0
  6
Continuous
 62
     7
370
    25
100
AcDbLine
 10
13.2994519716
 20
10.3049612135
 30
0.0
 11
13.2359097898
 21
10.2682881489
 31
0.0
  0
LINE
  5
289
330
1B
100
AcDbEntity
 67
     1
  8
0
  6
Continuous
 62
     7
370
    25
100
AcDbLine
 10
13.3154094028
 20
10.2957514589
 30
0.0
 11
13.2994519716
 21
10.3049612135
 31
0.0
  0
LWPOLYLINE
  5
28A
330
1B
100
AcDbEntity
 67
     1
  8
0
  6
Continuous
 62
     7
370
    25
100
AcDbPolyline
 90
        4
 70
   128
 43
0.0
 10
13.3770295226
 20
10.2617154282
 10
13.3771654057
 20
10.2662012344
 10
13.3773010749
 20
10.2706869251
 10
13.3774821682
 20
10.2766665666
  0
SPLINE
  5
28B
330
1B
100
AcDbEntity
 67
     1
  8
0
  6
Continuous
 62
     7
370
    25
100
AcDbSpline
210
0.0
220
0.0
230
1.0
 70
     8
 71
     3
 72
     9
 73
     5
 74
     0
 42
0.000000001
 43
0.00000001
 40
0.0
 40
0.0
 40
0.0
 40
0.0
 40
0.4999999741594594
 40
1.0
 40
1.0
 40
1.0
 40
1.0
 10
13.12240485064395
 20
10.31300497714724
 30
0.0
 10
13.12239182181156
 20
10.31554786941482
 30
0.0
 10
13.12236576414543
 20
10.32063365421281
 30
0.0
 10
13.12234173526696
 20
10.32571836369917
 30
0.0
 10
13.1223297208271
 20
10.32826071857375
 30
0.0
  0
LINE
  5
28C
330
1B
100
AcDbEntity
 67
     1
  8
0
  6
Continuous
 62
     7
370
    25
100
AcDbLine
 10
13.1224048506
 20
10.3130049771
 30
0.0
 11
13.1185835554
 21
10.3084933129
 31
0.0
  0
LINE
  5
28D
330
1B
100
AcDbEntity
 67
     1
  8
0
  6
Continuous
 62
     7
370
    25
100
AcDbLine
 10
13.188337664
 20
10.2897527415
 30
0.0
 11
13.1782603774
 21
10.283936684
 31
0.0
  0
SPLINE
  5
28E
330
1B
100
AcDbEntity
 67
     1
  8
0
  6
Continuous
 62
     7
370
    25
100
AcDbSpline
210
0.0
220
0.0
230
1.0
 70
     8
 71
     3
 72
     9
 73
     5
 74
     0
 42
0.000000001
 43
0.00000001
 40
0.0
 40
0.0
 40
0.0
 40
0.0
 40
0.7060277841538659
 40
1.0
 40
1.0
 40
1.0
 40
1.0
 10
13.16675377217078
 20
10.33649561030179
 30
0.0
 10
13.16210317192139
 20
10.33335226065891
 30
0.0
 10
13.15551617867017
 20
10.32890009926607
 30
0.0
 10
13.15418141662227
 20
10.32322443648614
 30
0.0
 10
13.15378903366542
 20
10.32155594932233
 30
0.0
  0
SPLINE
  5
28F
330
1B
100
AcDbEntity
 67
     1
  8
0
  6
Continuous
 62
     7
370
    25
100
AcDbSpline
210
0.0
220
0.0
230
1.0
 70
     8
 71
     3
 72
    15
 73
    11
 74
     0
 42
0.000000001
 43
0.00000001
 40
0.0
 40
0.0
 40
0.0
 40
0.0
 40
0.100559656061842
 40
0.2128761139993977
 40
0.3222063191942922
 40
0.4507962165646994
 40
0.5918844088884175
 40
0.7358253672309972
 40
0.8815685601319938
 40
1.0
 40
1.0
 40
1.0
 40
1.0
 10
13.24847574107893
 20
10.32446114339446
 30
0.0
 10
13.24827504847341
 20
10.32657680887936
 30
0.0
 10
13.24785019954646
 20
10.33105549013769
 30
0.0
 10
13.24206139994139
 20
10.33713289369246
 30
0.0
 10
13.23299103018948
 20
10.34231797850975
 30
0.0
 10
13.22067503248847
 20
10.34607392730285
 30
0.0
 10
13.2056731507227
 20
10.34758693022146
 30
0.0
 10
13.19005170730258
 20
10.34607053962199
 30
0.0
 10
13.17671314883143
 20
10.34206641062704
 30
0.0
 10
13.16983658606858
 20
10.33821998937186
 30
0.0
 10
13.16675377217078
 20
10.33649561030179
 30
0.0
  0
LINE
  5
290
330
1B
100
AcDbEntity
 67
     1
  8
0
  6
Continuous
 62
     7
370
    25
100
AcDbLine
 10
13.2571278751
 20
10.3294546809
 30
0.0
 11
13.2484757411
 21
10.3244611434
 31
0.0
  0
LINE
  5
291
330
1B
100
AcDbEntity
 67
     1
  8
0
  6
Continuous
 62
     7
370
    25
100
AcDbLine
 10
13.2669017775
 20
10.3238137202
 30
0.0
 11
13.2571278751
 21
10.3294546809
 31
0.0
  0
LINE
  5
292
330
1B
100
AcDbEntity
 67
     1
  8
0
  6
Continuous
 62
     7
370
    25
100
AcDbLine
 10
13.1479807781
 20
10.2982439537
 30
0.0
 11
13.1224048506
 21
10.3130049771
 31
0.0
  0
SPLINE
  5
293
330
1B
100
AcDbEntity
 67
     1
  8
0
  6
Continuous
 62
     7
370
    25
100
AcDbSpline
210
0.0
220
0.0
230
1.0
 70
     8
 71
     3
 72
    10
 73
     6
 74
     0
 42
0.000000001
 43
0.00000001
 40
0.0
 40
0.0
 40
0.0
 40
0.0
 40
0.6089971012343401
 40
0.9560496743041101
 40
1.0
 40
1.0
 40
1.0
 40
1.0
 10
13.15501433804059
 20
10.28559952402256
 30
0.0
 10
13.15307485243942
 20
10.28701270157658
 30
0.0
 10
13.15003010136664
 20
10.28923121450137
 30
0.0
 10
13.14777771251237
 20
10.29209392798564
 30
0.0
 10
13.14788312703295
 20
10.29326179664008
 30
0.0
 10
13.14789497605639
 20
10.29339306985543
 30
0.0
  0
SPLINE
  5
294
330
1B
100
AcDbEntity
 67
     1
  8
0
  6
Continuous
 62
     7
370
    25
100
AcDbSpline
210
0.0
220
0.0
230
1.0
 70
     8
 71
     3
 72
    12
 73
     8
 74
     0
 42
0.000000001
 43
0.00000001
 40
0.0
 40
0.0
 40
0.0
 40
0.0
 40
0.1977575116713264
 40
0.3467524039036138
 40
0.4963273507788559
 40
0.6781040964898699
 40
1.0
 40
1.0
 40
1.0
 40
1.0
 10
13.17826037743646
 20
10.28393668400149
 30
0.0
 10
13.1769159367552
 20
10.28326137547045
 30
0.0
 10
13.17455856466757
 20
10.28207727452513
 30
0.0
 10
13.17026044566422
 20
10.28122609186747
 30
0.0
 10
13.1658857342158
 20
10.2812999454571
 30
0.0
 10
13.16036689714862
 20
10.28261208331629
 30
0.0
 10
13.15710134443693
 20
10.28443469655651
 30
0.0
 10
13.15501433804059
 20
10.28559952402256
 30
0.0
  0
SPLINE
  5
295
330
1B
100
AcDbEntity
 67
     1
  8
0
  6
Continuous
 62
     7
370
    25
100
AcDbSpline
210
0.0
220
0.0
230
1.0
 70
     8
 71
     3
 72
    11
 73
     7
 74
     0
 42
0.000000001
 43
0.00000001
 40
0.0
 40
0.0
 40
0.0
 40
0.0
 40
0.0244025452844423
 40
0.4457254807656553
 40
0.8675148002624148
 40
1.0
 40
1.0
 40
1.0
 40
1.0
 10
13.18285763224678
 20
10.31619363163521
 30
0.0
 10
13.18283372734729
 20
10.31611374544569
 30
0.0
 10
13.18239709163191
 20
10.3146545816652
 30
0.0
 10
13.18381002757847
 20
10.31173409934384
 30
0.0
 10
13.1863902960292
 20
10.30883722978394
 30
0.0
 10
13.18858099071078
 20
10.30749410084939
 30
0.0
 10
13.18910462045089
 20
10.30717306010335
 30
0.0
  0
SPLINE
  5
296
330
1B
100
AcDbEntity
 67
     1
  8
0
  6
Continuous
 62
     7
370
    25
100
AcDbSpline
210
0.0
220
0.0
230
1.0
 70
     8
 71
     3
 72
    15
 73
    11
 74
     0
 42
0.000000001
 43
0.00000001
 40
0.0
 40
0.0
 40
0.0
 40
0.0
 40
0.1421818015171205
 40
0.2843911784793162
 40
0.426680338351752
 40
0.5698143711139717
 40
0.7100636354721775
 40
0.8523459117431191
 40
0.9945983629337329
 40
1.0
 40
1.0
 40
1.0
 40
1.0
 10
13.18910462045089
 20
10.30717306010335
 30
0.0
 10
13.19099113174646
 20
10.30627711713373
 30
0.0
 10
13.19476452021697
 20
10.30448505743085
 30
0.0
 10
13.20197728902096
 20
10.30336780879321
 30
0.0
 10
13.20935800636656
 20
10.30358926185606
 30
0.0
 10
13.21616916617033
 20
10.3052346378155
 30
0.0
 10
13.22169063741488
 20
10.30809965567453
 30
0.0
 10
13.22501058072795
 20
10.31181232176487
 30
0.0
 10
13.22639645238879
 20
10.314714368019
 30
0.0
 10
13.22595171601544
 20
10.31614253344377
 30
0.0
 10
13.22593544620194
 20
10.31619478009259
 30
0.0
  0
LINE
  5
297
330
1B
100
AcDbEntity
 67
     1
  8
0
  6
Continuous
 62
     7
370
    25
100
AcDbLine
 10
13.3617583097
 20
10.2705291353
 30
0.0
 11
13.3617581282
 21
10.2857416207
 31
0.0
  0
LINE
  5
298
330
1B
100
AcDbEntity
 67
     1
  8
0
  6
Continuous
 62
     7
370
    25
100
AcDbLine
 10
13.2994519716
 20
10.3049612135
 30
0.0
 11
13.2994517869
 21
10.3201737007
 31
0.0
  0
LWPOLYLINE
  5
299
330
1B
100
AcDbEntity
 67
     1
  8
0
  6
Continuous
 62
     7
370
    25
100
AcDbPolyline
 90
        3
 70
   128
 43
0.0
 10
13.3146928467
 20
10.2884136359
 10
13.3152402748
 20
10.2940210012
 10
13.3159744093
 20
10.301537956
  0
LINE
  5
29A
330
1B
100
AcDbEntity
 67
     1
  8
0
  6
Continuous
 62
     7
370
    25
100
AcDbLine
 10
13.1782603774
 20
10.283936684
 30
0.0
 11
13.177817153
 21
10.298893473
 31
0.0
  0
LINE
  5
29B
330
1B
100
AcDbEntity
 67
     1
  8
0
  6
Continuous
 62
     7
370
    25
100
AcDbLine
 10
13.155014338
 20
10.285599524
 30
0.0
 11
13.1554754942
 21
10.3005457506
 31
0.0
  0
LINE
  5
29C
330
1B
100
AcDbEntity
 67
     1
  8
0
  6
Continuous
 62
     7
370
    25
100
AcDbLine
 10
13.1667537722
 20
10.3364956103
 30
0.0
 11
13.1662938151
 21
10.3514424242
 31
0.0
  0
LINE
  5
29D
330
1B
100
AcDbEntity
 67
     1
  8
0
  6
Continuous
 62
     7
370
    25
100
AcDbLine
 10
13.188337664
 20
10.2897527415
 30
0.0
 11
13.1868946964
 21
10.3041325335
 31
0.0
  0
LINE
  5
29E
330
1B
100
AcDbEntity
 67
     1
  8
0
  6
Continuous
 62
     7
370
    25
100
AcDbLine
 10
13.1891046205
 20
10.3071730601
 30
0.0
 11
13.1895491121
 21
10.3221291439
 31
0.0
  0
SPLINE
  5
29F
330
1B
100
AcDbEntity
 67
     1
  8
0
  6
Continuous
 62
     7
370
    25
100
AcDbSpline
210
0.0
220
0.0
230
1.0
 70
     8
 71
     3
 72
    17
 73
    13
 74
     0
 42
0.000000001
 43
0.00000001
 40
0.0
 40
0.0
 40
0.0
 40
0.0
 40
0.1073950215111701
 40
0.2148123289414522
 40
0.3222736669945584
 40
0.4304546832871416
 40
0.5362742084619219
 40
0.6438058179078936
 40
0.7512271190146513
 40
0.8589622976272554
 40
0.9666918108932527
 40
1.0
 40
1.0
 40
1.0
 40
1.0
 10
13.18954911206683
 20
10.32212914393711
 30
0.0
 10
13.19138067402627
 20
10.32125915136516
 30
0.0
 10
13.19504417801903
 20
10.31951898568604
 30
0.0
 10
13.20204831624511
 20
10.3184346396353
 30
0.0
 10
13.209211573515
 20
10.31864855642855
 30
0.0
 10
13.21583932402301
 20
10.32024728034151
 30
0.0
 10
13.22114212170303
 20
10.32302580450926
 30
0.0
 10
13.22458114807809
 20
10.32664375350014
 30
0.0
 10
13.22575627176471
 20
10.33074212188231
 30
0.0
 10
13.22451738173297
 20
10.33482707119585
 30
0.0
 10
13.22182460727799
 20
10.33764406658552
 30
0.0
 10
13.2197121614308
 20
10.33894292743742
 30
0.0
 10
13.21921327535586
 20
10.33924967309585
 30
0.0
  0
SPLINE
  5
2A0
330
1B
100
AcDbEntity
 67
     1
  8
0
  6
Continuous
 62
     7
370
    25
100
AcDbSpline
210
0.0
220
0.0
230
1.0
 70
     8
 71
     3
 72
    17
 73
    13
 74
     0
 42
0.000000001
 43
0.00000001
 40
0.0
 40
0.0
 40
0.0
 40
0.0
 40
0.1067627264718804
 40
0.2135407328550049
 40
0.3205439442598044
 40
0.4284518442747338
 40
0.5362438587201228
 40
0.6446460213722468
 40
0.7506525506796654
 40
0.8583452256592746
 40
0.9661475380192242
 40
0.9999999999999999
 40
0.9999999999999999
 40
0.9999999999999999
 40
0.9999999999999999
 10
13.21921327535586
 20
10.33924967309585
 30
0.0
 10
13.21739454051367
 20
10.34011330782582
 30
0.0
 10
13.21375681053146
 20
10.34184070088939
 30
0.0
 10
13.20679895669708
 20
10.34291855188979
 30
0.0
 10
13.19967541138434
 20
10.34270444508004
 30
0.0
 10
13.1930265742971
 20
10.34111748489785
 30
0.0
 10
13.18764162237719
 20
10.33834752708187
 30
0.0
 10
13.1841783419035
 20
10.33471696989566
 30
0.0
 10
13.18302490364102
 20
10.33063148592046
 30
0.0
 10
13.18423971230951
 20
10.32656827260499
 30
0.0
 10
13.18692474663525
 20
10.32374416818463
 30
0.0
 10
13.18904291509821
 20
10.32244065557665
 30
0.0
 10
13.18954911206683
 20
10.32212914393711
 30
0.0
  0
LINE
  5
2A1
330
1B
100
AcDbEntity
 67
     1
  8
0
  6
Continuous
 62
     7
370
    25
100
AcDbLine
 10
13.2484757411
 20
10.3244611434
 30
0.0
 11
13.2491148112
 21
10.3400425735
 31
0.0
  0
LINE
  5
2A2
330
1B
100
AcDbEntity
 67
     1
  8
0
  6
Continuous
 62
     7
370
    25
100
AcDbLine
 10
13.2571278751
 20
10.3294546809
 30
0.0
 11
13.2571278978
 21
10.3446672879
 31
0.0
  0
SPLINE
  5
2A3
330
1B
100
AcDbEntity
 67
     1
  8
0
  6
Continuous
 62
     7
370
    25
100
AcDbSpline
210
0.0
220
0.0
230
1.0
 70
     8
 71
     3
 72
    10
 73
     6
 74
     0
 42
0.000000001
 43
0.00000001
 40
0.0
 40
0.0
 40
0.0
 40
0.0
 40
0.4471204003082216
 40
0.8241677299424818
 40
1.0
 40
1.0
 40
1.0
 40
1.0
 10
13.09767342554399
 20
10.35492704930908
 30
0.0
 10
13.09613494909154
 20
10.35598872086809
 30
0.0
 10
13.09329910746026
 20
10.35794567796094
 30
0.0
 10
13.0914702089915
 20
10.36099950824123
 30
0.0
 10
13.0917591655818
 20
10.36270701313379
 30
0.0
 10
13.09185106243105
 20
10.36325005082511
 30
0.0
  0
SPLINE
  5
2A4
330
1B
100
AcDbEntity
 67
     1
  8
0
  6
Continuous
 62
     7
370
    25
100
AcDbSpline
210
0.0
220
0.0
230
1.0
 70
     8
 71
     3
 72
    11
 73
     7
 74
     0
 42
0.000000001
 43
0.00000001
 40
0.0
 40
0.0
 40
0.0
 40
0.0
 40
0.2424813332350106
 40
0.5133514826435431
 40
0.9215252864590405
 40
1.0
 40
1.0
 40
1.0
 40
1.0
 10
13.11465428087876
 20
10.35120449120368
 30
0.0
 10
13.11312097491863
 20
10.35106533532124
 30
0.0
 10
13.109874849217
 20
10.35077073170116
 30
0.0
 10
13.10417845063154
 20
10.35186603071224
 30
0.0
 10
13.10023164602177
 20
10.35348776588777
 30
0.0
 10
13.09802866774284
 20
10.35472718607923
 30
0.0
 10
13.09767342554399
 20
10.35492704930908
 30
0.0
  0
SPLINE
  5
2A5
330
1B
100
AcDbEntity
 67
     1
  8
0
  6
Continuous
 62
     7
370
    25
100
AcDbSpline
210
0.0
220
0.0
230
1.0
 70
     8
 71
     3
 72
     9
 73
     5
 74
     0
 42
0.000000001
 43
0.00000001
 40
0.0
 40
0.0
 40
0.0
 40
0.0
 40
0.5944141384721833
 40
0.9999999999999999
 40
0.9999999999999999
 40
0.9999999999999999
 40
0.9999999999999999
 10
13.08146468771787
 20
10.38893996488595
 30
0.0
 10
13.07648308587116
 20
10.38578081008832
 30
0.0
 10
13.06810239381779
 20
10.38046607311764
 30
0.0
 10
13.06465078648665
 20
10.37360936995191
 30
0.0
 10
13.06325086335359
 20
10.3708283880912
 30
0.0
  0
SPLINE
  5
2A6
330
1B
100
AcDbEntity
 67
     1
  8
0
  6
Continuous
 62
     7
370
    25
100
AcDbSpline
210
0.0
220
0.0
230
1.0
 70
     8
 71
     3
 72
    12
 73
     8
 74
     0
 42
0.000000001
 43
0.00000001
 40
0.0
 40
0.0
 40
0.0
 40
0.0
 40
0.1955526465830379
 40
0.3928181505898751
 40
0.5992749974987206
 40
0.8089985269036023
 40
1.0
 40
1.0
 40
1.0
 40
1.0
 10
13.15708094598818
 20
10.39040113186431
 30
0.0
 10
13.15281082836395
 20
10.39241569701855
 30
0.0
 10
13.14423319089772
 20
10.39646247302469
 30
0.0
 10
13.12765466999132
 20
10.39913034748782
 30
0.0
 10
13.11030995678402
 20
10.39876664536
 30
0.0
 10
13.09400883713397
 20
10.39524273291853
 30
0.0
 10
13.08551377309097
 20
10.39097441497134
 30
0.0
 10
13.08146468771787
 20
10.38893996488595
 30
0.0
  0
SPLINE
  5
2A7
330
1B
100
AcDbEntity
 67
     1
  8
0
  6
Continuous
 62
     7
370
    25
100
AcDbSpline
210
0.0
220
0.0
230
1.0
 70
     8
 71
     3
 72
    10
 73
     6
 74
     0
 42
0.000000001
 43
0.00000001
 40
0.0
 40
0.0
 40
0.0
 40
0.0
 40
0.1905848520130332
 40
0.6297959155946219
 40
0.9999999999999999
 40
0.9999999999999999
 40
0.9999999999999999
 40
0.9999999999999999
 10
13.17092973512334
 20
10.36910440019681
 30
0.0
 10
13.17122272970295
 20
10.37059461972017
 30
0.0
 10
13.17219094300836
 20
10.37551911481638
 30
0.0
 10
13.16726973551252
 20
10.38328845578797
 30
0.0
 10
13.16027852991482
 20
10.38816893552315
 30
0.0
 10
13.15708094598818
 20
10.39040113186431
 30
0.0
  0
LINE
  5
2A8
330
1B
100
AcDbEntity
 67
     1
  8
0
  6
Continuous
 62
     7
370
    25
100
AcDbLine
 10
13.1124680816
 20
10.3798159013
 30
0.0
 11
13.1388050266
 21
10.3646156602
 31
0.0
  0
SPLINE
  5
2A9
330
1B
100
AcDbEntity
 67
     1
  8
0
  6
Continuous
 62
     7
370
    25
100
AcDbSpline
210
0.0
220
0.0
230
1.0
 70
     8
 71
     3
 72
    10
 73
     6
 74
     0
 42
0.000000001
 43
0.00000001
 40
0.0
 40
0.0
 40
0.0
 40
0.0
 40
0.492750127695529
 40
0.988625057466789
 40
1.0
 40
1.0
 40
1.0
 40
1.0
 10
13.13880502658072
 20
10.36461566016457
 30
0.0
 10
13.14004389957226
 20
10.36569254088251
 30
0.0
 10
13.14252950193663
 20
10.36785313141679
 30
0.0
 10
13.14371074191051
 20
10.37060016028843
 30
0.0
 10
13.14326609735261
 20
10.37191220631818
 30
0.0
 10
13.14325612631748
 20
10.371941628599
 30
0.0
  0
SPLINE
  5
2AA
330
1B
100
AcDbEntity
 67
     1
  8
0
  6
Continuous
 62
     7
370
    25
100
AcDbSpline
210
0.0
220
0.0
230
1.0
 70
     8
 71
     3
 72
     9
 73
     5
 74
     0
 42
0.000000001
 43
0.00000001
 40
0.0
 40
0.0
 40
0.0
 40
0.0
 40
0.499999636795812
 40
1.0
 40
1.0
 40
1.0
 40
1.0
 10
13.11465428087876
 20
10.35120449120368
 30
0.0
 10
13.1146838797422
 20
10.353722804581
 30
0.0
 10
13.11474307751209
 20
10.35875943499429
 30
0.0
 10
13.11479938430129
 20
10.3637978883682
 30
0.0
 10
13.11482753771634
 20
10.36631711688514
 30
0.0
  0
LINE
  5
2AB
330
1B
100
AcDbEntity
 67
     1
  8
0
  6
Continuous
 62
     7
370
    25
100
AcDbLine
 10
13.157080946
 20
10.3904011319
 30
0.0
 11
13.1575254376
 21
10.4053572157
 31
0.0
  0
LINE
  5
2AC
330
1B
100
AcDbEntity
 67
     1
  8
0
  6
Continuous
 62
     7
370
    25
100
AcDbLine
 10
13.0814646877
 20
10.3889399649
 30
0.0
 11
13.0810200016
 21
10.4038959215
 31
0.0
  0
LINE
  5
2AD
330
1B
100
AcDbEntity
 67
     1
  8
0
  6
Continuous
 62
     7
370
    25
100
AcDbLine
 10
13.0976734255
 20
10.3549270493
 30
0.0
 11
13.0981179172
 21
10.3698831331
 31
0.0
  0
LINE
  5
2AE
330
1B
100
AcDbEntity
 67
     1
  8
0
  6
Continuous
 62
     7
370
    25
100
AcDbLine
 10
13.1134104614
 20
10.3944846313
 30
0.0
 11
13.13875163
 21
10.3798590978
 31
0.0
  0
SPLINE
  5
2AF
330
1B
100
AcDbEntity
 67
     1
  8
0
  6
Continuous
 62
     7
370
    25
100
AcDbSpline
210
0.0
220
0.0
230
1.0
 70
     8
 71
     3
 72
    12
 73
     8
 74
     0
 42
0.000000001
 43
0.00000001
 40
0.0
 40
0.0
 40
0.0
 40
0.0
 40
0.2321477187797641
 40
0.464420308991
 40
0.6950090455082013
 40
0.9262047092287088
 40
1.0
 40
1.0
 40
1.0
 40
1.0
 10
13.13735608606494
 20
10.39368335224802
 30
0.0
 10
13.13578047374918
 20
10.39443316448217
 30
0.0
 10
13.13262840160138
 20
10.39593319227181
 30
0.0
 10
13.1266070998342
 20
10.39686894022856
 30
0.0
 10
13.12048892044004
 20
10.39666918892443
 30
0.0
 10
13.11605977825201
 20
10.39562201652333
 30
0.0
 10
13.11392660240645
 20
10.39470621717837
 30
0.0
 10
13.11341046142105
 20
10.39448463133147
 30
0.0
  0
SPLINE
  5
2B0
330
1B
100
AcDbEntity
 67
     1
  8
0
  6
Continuous
 62
     7
370
    25
100
AcDbSpline
210
0.0
220
0.0
230
1.0
 70
     8
 71
     3
 72
    12
 73
     8
 74
     0
 42
0.000000001
 43
0.00000001
 40
0.0
 40
0.0
 40
0.0
 40
0.0
 40
0.2305807678708681
 40
0.4611943973064805
 40
0.6918971703987074
 40
0.9230968391589931
 40
1.0
 40
1.0
 40
1.0
 40
1.0
 10
13.13875163002898
 20
10.37985909775947
 30
0.0
 10
13.13985494159066
 20
10.38084183675571
 30
0.0
 10
13.14206172195411
 20
10.38280745480471
 30
0.0
 10
13.14298625287962
 20
10.38635021257857
 30
0.0
 10
13.14196225957714
 20
10.38983045453545
 30
0.0
 10
13.13964986841718
 20
10.39226851104262
 30
0.0
 10
13.13781425845069
 20
10.39340074427961
 30
0.0
 10
13.13735608606494
 20
10.39368335224802
 30
0.0
  0
LWPOLYLINE
  5
2B1
330
1B
100
AcDbEntity
 67
     1
  8
0
  6
Continuous
 62
     7
370
    25
100
AcDbPolyline
 90
        3
 70
   128
 43
0.0
 10
13.1388050266
 20
10.3646156602
 10
13.1387782311
 20
10.3722373154
 10
13.13875163
 20
10.3798590978
  0
LWPOLYLINE
  5
2B2
330
1B
100
AcDbEntity
 67
     1
  8
0
  6
Continuous
 62
     7
370
    25
100
AcDbPolyline
 90
        3
 70
   128
 43
0.0
 10
13.1124680816
 20
10.3798159013
 10
13.1129391613
 20
10.3871502102
 10
13.1134104614
 20
10.3944846313
  0
LINE
  5
2B3
330
1B
100
AcDbEntity
 67
     1
  8
0
  6
Continuous
 62
     7
370
    25
100
AcDbLine
 10
13.1172283602
 20
10.4425947935
 30
0.0
 11
13.1075623528
 21
10.4481734832
 31
0.0
  0
LINE
  5
2B4
330
1B
100
AcDbEntity
 67
     1
  8
0
  6
Continuous
 62
     7
370
    25
100
AcDbLine
 10
13.1075623528
 20
10.4481734832
 30
0.0
 11
13.0158954463
 21
10.395268369
 31
0.0
  0
LINE
  5
2B5
330
1B
100
AcDbEntity
 67
     1
  8
0
  6
Continuous
 62
     7
370
    25
100
AcDbLine
 10
13.1075623528
 20
10.4481734832
 30
0.0
 11
13.1075623788
 21
10.4633860883
 31
0.0
  0
ARC
  5
2B6
330
1B
100
AcDbEntity
 67
     1
  8
0
  6
Continuous
 62
     8
370
    25
100
AcDbCircle
 10
17.124823449
 20
6.31558184
 30
0.0
 40
0.0150204439025158
100
AcDbArc
 50
172.6794006285
 51
234.6669849668
  0
ARC
  5
2B7
330
1B
100
AcDbEntity
 67
     1
  8
0
  6
Continuous
 62
     8
370
    25
100
AcDbCircle
 10
18.5103525573
 20
6.3153841843
 30
0.0
 40
0.014600683852288
100
AcDbArc
 50
304.3282428087
 51
8.3163351364
  0
ARC
  5
2B8
330
1B
100
AcDbEntity
 67
     1
  8
0
  6
Continuous
 62
     8
370
    25
100
AcDbCircle
 10
25.9052783319
 20
10.5833268984
 30
0.0
 40
0.0145977259788404
100
AcDbArc
 50
304.3190931231
 51
8.3231612943
  0
ARC
  5
2B9
330
1B
100
AcDbEntity
 67
     1
  8
0
  6
Continuous
 62
     8
370
    25
100
AcDbCircle
 10
6.5578159259
 20
12.4142761368
 30
0.0
 40
0.0150170330419014
100
AcDbArc
 50
172.6731326344
 51
234.6881388137
  0
ARC
  5
2BA
330
1B
100
AcDbEntity
 67
     1
  8
0
  6
Continuous
 62
     8
370
    25
100
AcDbCircle
 10
17.6345547701
 20
7.0381400029
 30
0.0
 40
0.0385461508484918
100
AcDbArc
 50
64.4197933422
 51
127.0817298423
  0
ARC
  5
2BB
330
1B
100
AcDbEntity
 67
     1
  8
0
  6
Continuous
 62
     8
370
    25
100
AcDbCircle
 10
18.0001957009
 20
7.0382230962
 30
0.0
 40
0.0384648557982038
100
AcDbArc
 50
52.8732375806
 51
116.0260972825
  0
ARC
  5
2BC
330
1B
100
AcDbEntity
 67
     1
  8
0
  6
Continuous
 62
     8
370
    25
100
AcDbCircle
 10
24.8166917542
 20
10.972291979
 30
0.0
 40
0.0385101409158355
100
AcDbArc
 50
52.8993902882
 51
115.7982878405
  0
ARC
  5
2BD
330
1B
100
AcDbEntity
 67
     1
  8
0
  6
Continuous
 62
     8
370
    25
100
AcDbCircle
 10
7.6459519716
 20
12.803044712
 30
0.0
 40
0.0385088406263539
100
AcDbArc
 50
64.2006280309
 51
127.1011309141
  0
LINE
  5
2BE
330
1B
100
AcDbEntity
 67
     1
  8
0
  6
Continuous
 62
     8
370
    25
100
AcDbLine
 10
18.2350081835
 20
7.2244714728
 30
0.0
 11
18.2405718993
 21
7.2212604009
 31
0.0
  0
ARC
  5
2BF
330
1B
100
AcDbEntity
 67
     1
  8
0
  6
Continuous
 62
     8
370
    25
100
AcDbCircle
 10
18.2575922517
 20
7.188130367
 30
0.0
 40
0.0427868683590422
100
AcDbArc
 50
121.858757288
 51
149.5939347578
  0
LINE
  5
2C0
330
1B
100
AcDbEntity
 67
     1
  8
0
  6
Continuous
 62
     8
370
    25
100
AcDbLine
 10
18.2966879806
 20
7.2536475273
 30
0.0
 11
18.2911242648
 21
7.2568585992
 31
0.0
  0
LWPOLYLINE
  5
2C1
330
1B
100
AcDbEntity
 67
     1
  8
0
  6
Continuous
 62
     8
370
    25
100
AcDbPolyline
 90
        3
 70
   128
 43
0.0
 10
18.2050532235
 20
7.2007613255
 10
18.2050447195
 20
7.2011805463
 10
18.205062972
 20
7.2017831456
  0
ARC
  5
2C2
330
1B
100
AcDbEntity
 67
     1
  8
0
  6
Continuous
 62
     8
370
    25
100
AcDbCircle
 10
18.2262510228
 20
7.2124892829
 30
0.0
 40
0.0148411838063309
100
AcDbArc
 50
53.8388691194
 51
114.8587930772
  0
ARC
  5
2C3
330
1B
100
AcDbEntity
 67
     1
  8
0
  6
Continuous
 62
     8
370
    25
100
AcDbCircle
 10
18.3000266375
 20
7.2442217739
 30
0.0
 40
0.0154577357374816
100
AcDbArc
 50
69.492461125
 51
125.1638754818
  0
ARC
  5
2C4
330
1B
100
AcDbEntity
 67
     1
  8
0
  6
Continuous
 62
     8
370
    25
100
AcDbCircle
 10
18.2824130402
 20
7.2453406326
 30
0.0
 40
0.0144412252156716
100
AcDbArc
 50
52.8991934774
 51
115.7984687192
  0
ELLIPSE
  5
2C5
330
1B
100
AcDbEntity
 67
     1
  8
0
  6
Continuous
 62
     8
370
    25
100
AcDbEllipse
 10
16.7991288607
 20
6.5233080377
 30
0.0
 11
0.01383862202941799
 21
0.03806912872765356
 31
0.0
210
0.0
220
0.0
230
1.0
 40
0.4223291612
 41
2.298942275448564
 42
3.06202642313671
  0
ELLIPSE
  5
2C6
330
1B
100
AcDbEntity
 67
     1
  8
0
  6
Continuous
 62
     8
370
    25
100
AcDbEllipse
 10
7.8589066474
 20
11.6831142859
 30
0.0
 11
0.02941296739668609
 21
0.02831115049175814
 31
0.0
210
0.0
220
0.0
230
1.0
 40
0.6929528063
 41
2.570816328295456
 42
3.339027604810802
  0
ARC
  5
2C7
330
1B
100
AcDbEntity
 67
     1
  8
0
  6
Continuous
 62
     8
370
    25
100
AcDbCircle
 10
25.6094053768
 20
11.1879104321
 30
0.0
 40
0.6542792093750034
100
AcDbArc
 50
298.2739063006
 51
325.6209078251
  0
ARC
  5
2C8
330
1B
100
AcDbEntity
 67
     1
  8
0
  6
Continuous
 62
     8
370
    25
100
AcDbCircle
 10
25.9071320779
 20
11.4293256446
 30
0.0
 40
0.0132422768899429
100
AcDbArc
 50
63.1229756322
 51
116.1439409767
  0
ARC
  5
2C9
330
1B
100
AcDbEntity
 67
     1
  8
0
  6
Continuous
 62
     8
370
    25
100
AcDbCircle
 10
25.6092430836
 20
11.1625038537
 30
0.0
 40
0.655286217708074
100
AcDbArc
 50
298.2817047562
 51
325.5024289298
  0
LINE
  5
2CA
330
1B
100
AcDbEntity
 67
     1
  8
0
  6
Continuous
 62
     8
370
    25
100
AcDbLine
 10
24.2878421697
 20
10.717835494
 30
0.0
 11
24.2934058856
 21
10.7146244222
 31
0.0
  0
ARC
  5
2CB
330
1B
100
AcDbEntity
 67
     1
  8
0
  6
Continuous
 62
     8
370
    25
100
AcDbCircle
 10
24.310426217
 20
10.6814947534
 30
0.0
 40
0.0427865472003695
100
AcDbArc
 50
121.8589915143
 51
149.594063388
  0
LINE
  5
2CC
330
1B
100
AcDbEntity
 67
     1
  8
0
  6
Continuous
 62
     8
370
    25
100
AcDbLine
 10
24.3495219669
 20
10.7470115486
 30
0.0
 11
24.343958251
 21
10.7502226204
 31
0.0
  0
LWPOLYLINE
  5
2CD
330
1B
100
AcDbEntity
 67
     1
  8
0
  6
Continuous
 62
     8
370
    25
100
AcDbPolyline
 90
        3
 70
   128
 43
0.0
 10
24.2578872098
 20
10.6941253467
 10
24.2578789131
 20
10.6945446872
 10
24.2578969583
 20
10.6951471668
  0
ARC
  5
2CE
330
1B
100
AcDbEntity
 67
     1
  8
0
  6
Continuous
 62
     8
370
    25
100
AcDbCircle
 10
24.2790850091
 20
10.7058533041
 30
0.0
 40
0.0148411838063882
100
AcDbArc
 50
53.8388691195
 51
114.8587930771
  0
ARC
  5
2CF
330
1B
100
AcDbEntity
 67
     1
  8
0
  6
Continuous
 62
     8
370
    25
100
AcDbCircle
 10
24.3528608466
 20
10.7375856138
 30
0.0
 40
0.0154580122929758
100
AcDbArc
 50
69.492905489
 51
125.164163595
  0
ARC
  5
2D0
330
1B
100
AcDbEntity
 67
     1
  8
0
  6
Continuous
 62
     8
370
    25
100
AcDbCircle
 10
24.3352470265
 20
10.7387046539
 30
0.0
 40
0.0144412252156393
100
AcDbArc
 50
52.8991934773
 51
115.7984687193
  0
ARC
  5
2D1
330
1B
100
AcDbEntity
 67
     1
  8
0
  6
Continuous
 62
     8
370
    25
100
AcDbCircle
 10
24.742290698
 20
11.0506242263
 30
0.0
 40
0.1030898720888209
100
AcDbArc
 50
2.8724817363
 51
66.5060643521
  0
LINE
  5
2D2
330
1B
100
AcDbEntity
 67
     1
  8
0
  6
Continuous
 62
     8
370
    25
100
AcDbLine
 10
24.7829545982
 20
11.1306048971
 30
0.0
 11
24.783387682
 21
11.1451681824
 31
0.0
  0
LINE
  5
2D3
330
1B
100
AcDbEntity
 67
     1
  8
0
  6
Continuous
 62
     8
370
    25
100
AcDbLine
 10
24.3029938788
 20
10.7468924341
 30
0.0
 11
24.3118073822
 21
10.741805763
 31
0.0
  0
LWPOLYLINE
  5
2D4
330
1B
100
AcDbEntity
 67
     1
  8
0
  6
Continuous
 62
     8
370
    25
100
AcDbPolyline
 90
        3
 70
   128
 43
0.0
 10
24.4887038449
 20
10.8512225815
 10
24.4889792928
 20
10.8514868987
 10
24.4982849934
 20
10.8596037615
  0
LINE
  5
2D5
330
1B
100
AcDbEntity
 67
     1
  8
0
  6
Continuous
 62
     8
370
    25
100
AcDbLine
 10
24.270279047
 20
10.7176580262
 30
0.0
 11
24.2613099819
 21
10.722834479
 31
0.0
  0
LINE
  5
2D6
330
1B
100
AcDbEntity
 67
     1
  8
0
  6
Continuous
 62
     8
370
    25
100
AcDbLine
 10
24.2451332249
 20
10.7134982869
 30
0.0
 11
24.26013518
 21
10.7048399808
 31
0.0
  0
LINE
  5
2D7
330
1B
100
AcDbEntity
 67
     1
  8
0
  6
Continuous
 62
     8
370
    25
100
AcDbLine
 10
24.783387682
 20
11.1451681824
 30
0.0
 11
24.762072826
 21
11.157469949
 31
0.0
  0
ARC
  5
2D8
330
1B
100
AcDbEntity
 67
     1
  8
0
  6
Continuous
 62
     8
370
    25
100
AcDbCircle
 10
15.340128283
 20
17.5280206609
 30
0.0
 40
0.0132427634007988
100
AcDbArc
 50
63.1407962903
 51
116.143561613
  0
ARC
  5
2D9
330
1B
100
AcDbEntity
 67
     1
  8
0
  6
Continuous
 62
     8
370
    25
100
AcDbCircle
 10
23.6323324985
 20
11.8329352131
 30
0.0
 40
0.0186592195804766
100
AcDbArc
 50
177.2730235099
 51
215.5346472379
  0
ELLIPSE
  5
2DA
330
1B
100
AcDbEntity
 67
     1
  8
0
  6
Continuous
 62
     8
370
    25
100
AcDbEllipse
 10
23.7060036688
 20
11.8299517876
 30
0.0
 11
0.07035139336000285
 21
-0.04632189252161466
 31
0.0
210
0.0
220
0.0
230
1.0
 40
0.7162168423
 41
2.011452990261231
 42
2.797213849190387
  0
ARC
  5
2DB
330
1B
100
AcDbEntity
 67
     1
  8
0
  6
Continuous
 62
     8
370
    25
100
AcDbCircle
 10
23.8497069848
 20
11.9609128161
 30
0.0
 40
0.038510140915752
100
AcDbArc
 50
52.8993902881
 51
115.7982878405
  0
ELLIPSE
  5
2DC
330
1B
100
AcDbEntity
 67
     1
  8
0
  6
Continuous
 62
     8
370
    25
100
AcDbEllipse
 10
23.7808449242
 20
11.9793175872
 30
0.0
 11
0.05018152193006743
 21
0.004786214386456322
 31
0.0
210
0.0
220
0.0
230
1.0
 40
0.5707170156
 41
0.2019278127955399
 42
0.7304089827420122
  0
LINE
  5
2DD
330
1B
100
AcDbEntity
 67
     1
  8
0
  6
Continuous
 62
     8
370
    25
100
AcDbLine
 10
23.8154031694
 20
11.9854590837
 30
0.0
 11
23.8164029125
 21
12.0019904652
 31
0.0
  0
LINE
  5
2DE
330
1B
100
AcDbEntity
 67
     1
  8
0
  6
Continuous
 62
     8
370
    25
100
AcDbLine
 10
16.2793840418
 20
16.3519446536
 30
0.0
 11
16.2793836269
 21
16.3421545333
 31
0.0
  0
ARC
  5
2DF
330
1B
100
AcDbEntity
 67
     1
  8
0
  6
Continuous
 62
     8
370
    25
100
AcDbCircle
 10
6.8535457003
 20
13.0190766856
 30
0.0
 40
0.654790254231848
100
AcDbArc
 50
214.4689252729
 51
241.7196168793
  0
ARC
  5
2E0
330
1B
100
AcDbEntity
 67
     1
  8
0
  6
Continuous
 62
     8
370
    25
100
AcDbCircle
 10
6.5555122062
 20
13.2600757998
 30
0.0
 40
0.0132434466802356
100
AcDbArc
 50
63.8588004219
 51
116.8747183341
  0
ARC
  5
2E1
330
1B
100
AcDbEntity
 67
     1
  8
0
  6
Continuous
 62
     8
370
    25
100
AcDbCircle
 10
6.853037728
 20
12.992757118
 30
0.0
 40
0.6546756928493199
100
AcDbArc
 50
214.3842131963
 51
241.7256226904
  0
ARC
  5
2E2
330
1B
100
AcDbEntity
 67
     1
  8
0
  6
Continuous
 62
     8
370
    25
100
AcDbCircle
 10
7.717734061
 20
12.8831668086
 30
0.0
 40
0.10041680806736
100
AcDbArc
 50
112.5304188446
 51
177.929408498
  0
LINE
  5
2E3
330
1B
100
AcDbEntity
 67
     1
  8
0
  6
Continuous
 62
     8
370
    25
100
AcDbLine
 10
7.6792569636
 20
12.9759194275
 30
0.0
 11
7.6796087405
 21
12.9640754818
 31
0.0
  0
LINE
  5
2E4
330
1B
100
AcDbEntity
 67
     1
  8
0
  6
Continuous
 62
     8
370
    25
100
AcDbLine
 10
12.5540786522
 20
15.7893993173
 30
0.0
 11
11.5554618122
 21
15.2130524114
 31
0.0
  0
LINE
  5
2E5
330
1B
100
AcDbEntity
 67
     1
  8
0
  6
Continuous
 62
     8
370
    25
100
AcDbLine
 10
10.7103988321
 20
14.7253283772
 30
0.0
 11
9.7123216874
 21
14.1492929539
 31
0.0
  0
LINE
  5
2E6
330
1B
100
AcDbEntity
 67
     1
  8
0
  6
Continuous
 62
     8
370
    25
100
AcDbLine
 10
7.6956612555
 20
12.9853870856
 30
0.0
 11
7.6792569636
 21
12.9759194275
 31
0.0
  0
ARC
  5
2E7
330
1B
100
AcDbEntity
 67
     1
  8
0
  6
Continuous
 62
     8
370
    25
100
AcDbCircle
 10
14.3716255685
 20
16.9009831912
 30
0.0
 40
0.1246569128365257
100
AcDbArc
 50
6.9581869353
 51
57.1569818234
  0
ARC
  5
2E8
330
1B
100
AcDbEntity
 67
     1
  8
0
  6
Continuous
 62
     8
370
    25
100
AcDbCircle
 10
13.9504346236
 20
17.528019022
 30
0.0
 40
0.0132442300671151
100
AcDbArc
 50
63.8596020029
 51
116.8560400937
  0
ARC
  5
2E9
330
1B
100
AcDbEntity
 67
     1
  8
0
  6
Continuous
 62
     8
370
    25
100
AcDbCircle
 10
15.9853089794
 20
16.3177953979
 30
0.0
 40
0.0824178491341299
100
AcDbArc
 50
244.567742356
 51
281.1367635692
  0
ARC
  5
2EA
330
1B
100
AcDbEntity
 67
     1
  8
0
  6
Continuous
 62
     8
370
    25
100
AcDbCircle
 10
16.084765837
 20
16.3430553566
 30
0.0
 40
0.124416972078919
100
AcDbArc
 50
6.2164465933
 51
57.189954989
  0
LINE
  5
2EB
330
1B
100
AcDbEntity
 67
     1
  8
0
  6
Continuous
 62
     8
370
    25
100
AcDbLine
 10
15.9499151578
 20
16.243364361
 30
0.0
 11
15.9365335334
 21
16.2510875012
 31
0.0
  0
ARC
  5
2EC
330
1B
100
AcDbEntity
 67
     1
  8
0
  6
Continuous
 62
     8
370
    25
100
AcDbCircle
 10
14.9186305836
 20
16.9012465404
 30
0.0
 40
0.1242693510889274
100
AcDbArc
 50
122.7900470605
 51
174.2230381288
  0
LINE
  5
2ED
330
1B
100
AcDbEntity
 67
     1
  8
0
  6
Continuous
 62
     8
370
    25
100
AcDbLine
 10
15.9499151578
 20
16.2073148976
 30
0.0
 11
15.9499151578
 21
16.243364361
 31
0.0
  0
ELLIPSE
  5
2EE
330
1B
100
AcDbEntity
 67
     1
  8
0
  6
Continuous
 62
     8
370
    25
100
AcDbEllipse
 10
16.2440500374
 20
16.3291425044
 30
0.0
 11
0.04999999999999716
 21
0.0
 31
0.0
210
0.0
220
0.0
230
1.0
 40
0.6445477628
 41
0.786007150983107
 42
1.529012598066045
  0
LINE
  5
2EF
330
1B
100
AcDbEntity
 67
     1
  8
0
  6
Continuous
 62
     8
370
    25
100
AcDbLine
 10
17.7095518908
 20
7.0973976582
 30
0.0
 11
17.7102832382
 21
7.049433476
 31
0.0
  0
LINE
  5
2F0
330
1B
100
AcDbEntity
 67
     1
  8
0
  6
Continuous
 62
     8
370
    25
100
AcDbLine
 10
17.9294159455
 20
7.0973977779
 30
0.0
 11
17.9286933096
 21
7.0499934535
 31
0.0
  0
LINE
  5
2F1
330
1B
100
AcDbEntity
 67
     1
  8
0
  6
Continuous
 62
     8
370
    25
100
AcDbLine
 10
7.7153045492
 20
12.8655294394
 30
0.0
 11
7.7161993401
 21
12.8068449879
 31
0.0
  0
ELLIPSE
  5
2F2
330
1B
100
AcDbEntity
 67
     1
  8
0
  6
Continuous
 62
     8
370
    25
100
AcDbEllipse
 10
18.4527847067
 20
7.3320564559
 30
0.0
 11
0.03076331917855412
 21
0.05151851644671712
 31
0.0
210
0.0
220
0.0
230
1.0
 40
0.567293684
 41
5.75104124954286
 42
7.076748914733277
  0
ELLIPSE
  5
2F3
330
1B
100
AcDbEntity
 67
     1
  8
0
  6
Continuous
 62
     8
370
    25
100
AcDbEllipse
 10
18.0389553543
 20
7.0932168357
 30
0.0
 11
0.03076331917855412
 21
0.05151851644671712
 31
0.0
210
0.0
220
0.0
230
1.0
 40
0.567293684
 41
0.7935636075536058
 42
2.119271272744114
  0
LINE
  5
2F4
330
1B
100
AcDbEntity
 67
     1
  8
0
  6
Continuous
 62
     8
370
    25
100
AcDbLine
 10
18.9943187126
 20
7.6562817823
 30
0.0
 11
19.9025234586
 21
8.2344094203
 31
0.0
  0
ARC
  5
2F5
330
1B
100
AcDbEntity
 67
     1
  8
0
  6
Continuous
 62
     8
370
    25
100
AcDbCircle
 10
18.0248267086
 20
7.1406053074
 30
0.0
 40
0.0149161510328556
100
AcDbArc
 50
306.0490578964
 51
4.5470289323
  0
ARC
  5
2F6
330
1B
100
AcDbEntity
 67
     1
  8
0
  6
Continuous
 62
     8
370
    25
100
AcDbCircle
 10
18.4387128743
 20
7.3794336537
 30
0.0
 40
0.0148604357899309
100
AcDbArc
 50
305.3520761466
 51
4.6077571583
  0
ELLIPSE
  5
2F7
330
1B
100
AcDbEntity
 67
     1
  8
0
  6
Continuous
 62
     8
370
    25
100
AcDbEllipse
 10
18.4315747341
 20
7.3447252604
 30
0.0
 11
0.0157534796935046
 21
0.02554130486912598
 31
0.0
210
0.0
220
0.0
230
1.0
 40
0.5569763375
 41
5.531254709046775
 42
6.290919573366449
  0
ARC
  5
2F8
330
1B
100
AcDbEntity
 67
     1
  8
0
  6
Continuous
 62
     8
370
    25
100
AcDbCircle
 10
18.4721461725
 20
7.3915280494
 30
0.0
 40
0.0392428211116102
100
AcDbArc
 50
240.4593826547
 51
263.9040510664
  0
ARC
  5
2F9
330
1B
100
AcDbEntity
 67
     1
  8
0
  6
Continuous
 62
     8
370
    25
100
AcDbCircle
 10
19.8889574676
 20
8.2325353573
 30
0.0
 40
0.0136948247774452
100
AcDbArc
 50
308.1827035617
 51
7.8652982318
  0
LINE
  5
2FA
330
1B
100
AcDbEntity
 67
     1
  8
0
  6
Continuous
 62
     8
370
    25
100
AcDbLine
 10
18.4527978748
 20
7.3573865441
 30
0.0
 11
18.4414547309
 21
7.363933185
 31
0.0
  0
LINE
  5
2FB
330
1B
100
AcDbEntity
 67
     1
  8
0
  6
Continuous
 62
     8
370
    25
100
AcDbLine
 10
18.4527976674
 20
7.3437455159
 30
0.0
 11
18.4527978748
 21
7.3573865441
 31
0.0
  0
LINE
  5
2FC
330
1B
100
AcDbEntity
 67
     1
  8
0
  6
Continuous
 62
     8
370
    25
100
AcDbLine
 10
18.425156221
 20
7.3545267492
 30
0.0
 11
18.4483170758
 21
7.3411595733
 31
0.0
  0
ELLIPSE
  5
2FD
330
1B
100
AcDbEntity
 67
     1
  8
0
  6
Continuous
 62
     8
370
    25
100
AcDbEllipse
 10
19.0407144832
 20
8.7326534361
 30
0.0
 11
0.03076331917855768
 21
0.05151851644671801
 31
0.0
210
0.0
220
0.0
230
1.0
 40
0.567293684
 41
5.267792026473701
 42
5.488499295418435
  0
LINE
  5
2FE
330
1B
100
AcDbEntity
 67
     1
  8
0
  6
Continuous
 62
     8
370
    25
100
AcDbLine
 10
21.869936273
 20
10.3664426809
 30
0.0
 11
20.7724818582
 21
9.7330521441
 31
0.0
  0
LINE
  5
2FF
330
1B
100
AcDbEntity
 67
     1
  8
0
  6
Continuous
 62
     8
370
    25
100
AcDbLine
 10
20.5018665881
 20
9.5768678426
 30
0.0
 11
20.498197881
 21
9.574750466
 31
0.0
  0
LINE
  5
300
330
1B
100
AcDbEntity
 67
     1
  8
0
  6
Continuous
 62
     8
370
    25
100
AcDbLine
 10
20.2207937414
 20
9.4146480011
 30
0.0
 11
19.0831756564
 21
8.7580771953
 31
0.0
  0
LINE
  5
301
330
1B
100
AcDbEntity
 67
     1
  8
0
  6
Continuous
 62
     8
370
    25
100
AcDbLine
 10
21.9244158452
 20
10.3479968234
 30
0.0
 11
21.9094091197
 21
10.3402290971
 31
0.0
  0
ARC
  5
302
330
1B
100
AcDbEntity
 67
     1
  8
0
  6
Continuous
 62
     8
370
    25
100
AcDbCircle
 10
19.8966496821
 20
8.2497765606
 30
0.0
 40
0.0148156599180498
100
AcDbArc
 50
293.584257359
 51
352.9604655106
  0
ARC
  5
303
330
1B
100
AcDbEntity
 67
     1
  8
0
  6
Continuous
 62
     8
370
    25
100
AcDbCircle
 10
19.8901495448
 20
8.2611315818
 30
0.0
 40
0.0150604112395968
100
AcDbArc
 50
65.6314977994
 51
125.6704505593
  0
ARC
  5
304
330
1B
100
AcDbEntity
 67
     1
  8
0
  6
Continuous
 62
     8
370
    25
100
AcDbCircle
 10
19.0707476071
 20
8.7340454689
 30
0.0
 40
0.0150604112395837
100
AcDbArc
 50
65.6314977994
 51
125.6704505593
  0
ARC
  5
305
330
1B
100
AcDbEntity
 67
     1
  8
0
  6
Continuous
 62
     8
370
    25
100
AcDbCircle
 10
19.8965943382
 20
8.2479886245
 30
0.0
 40
0.0148171946080862
100
AcDbArc
 50
293.5876405952
 51
352.9570822744
  0
ELLIPSE
  5
306
330
1B
100
AcDbEntity
 67
     1
  8
0
  6
Continuous
 62
     8
370
    25
100
AcDbEllipse
 10
19.1044114025
 20
8.7462635513
 30
0.0
 11
0.03002288168172384
 21
0.0009053186190008944
 31
0.0
210
0.0
220
0.0
230
1.0
 40
0.5762683979
 41
2.338971568965161
 42
3.094799660909099
  0
ARC
  5
307
330
1B
100
AcDbEntity
 67
     1
  8
0
  6
Continuous
 62
     8
370
    25
100
AcDbCircle
 10
19.0890146565
 20
8.7427515637
 30
0.0
 40
0.0147636986927116
100
AcDbArc
 50
113.5254813591
 51
173.6289256881
  0
ARC
  5
308
330
1B
100
AcDbEntity
 67
     1
  8
0
  6
Continuous
 62
     8
370
    25
100
AcDbCircle
 10
14.3971324813
 20
9.2716253519
 30
0.0
 40
0.015195993608025
100
AcDbArc
 50
54.5365266433
 51
113.2775632125
  0
ARC
  5
309
330
1B
100
AcDbEntity
 67
     1
  8
0
  6
Continuous
 62
     8
370
    25
100
AcDbCircle
 10
14.3299264319
 20
9.2716232487
 30
0.0
 40
0.0151981787298459
100
AcDbArc
 50
66.7494017834
 51
125.4609825572
  0
ARC
  5
30A
330
1B
100
AcDbEntity
 67
     1
  8
0
  6
Continuous
 62
     8
370
    25
100
AcDbCircle
 10
15.1390821547
 20
9.6997207128
 30
0.0
 40
0.0153477754433928
100
AcDbArc
 50
54.6948896647
 51
111.4833678341
  0
ARC
  5
30B
330
1B
100
AcDbEntity
 67
     1
  8
0
  6
Continuous
 62
     8
370
    25
100
AcDbCircle
 10
11.4696406563
 20
10.9223080078
 30
0.0
 40
0.015347507313434
100
AcDbArc
 50
68.5161405458
 51
125.3052334456
  0
ELLIPSE
  5
30C
330
1B
100
AcDbEntity
 67
     1
  8
0
  6
Continuous
 62
     8
370
    25
100
AcDbEllipse
 10
15.1055062187
 20
9.7122289892
 30
0.0
 11
0.03002288168172029
 21
0.0009053186190008943
 31
0.0
210
0.0
220
0.0
230
1.0
 40
0.5762683979
 41
6.236392314498915
 42
7.051055962854781
  0
LINE
  5
30D
330
1B
100
AcDbEntity
 67
     1
  8
0
  6
Continuous
 62
     8
370
    25
100
AcDbLine
 10
15.1262881645
 20
9.7098813023
 30
0.0
 11
15.1267420935
 21
9.7248977835
 31
0.0
  0
LINE
  5
30E
330
1B
100
AcDbEntity
 67
     1
  8
0
  6
Continuous
 62
     8
370
    25
100
AcDbLine
 10
14.4276114875
 20
10.12839765
 30
0.0
 11
14.4275423144
 21
10.1261132719
 31
0.0
  0
ARC
  5
30F
330
1B
100
AcDbEntity
 67
     1
  8
0
  6
Continuous
 62
     8
370
    25
100
AcDbCircle
 10
22.7588293357
 20
9.8909641737
 30
0.0
 40
0.0153698909944839
100
AcDbArc
 50
301.0572278932
 51
3.0092338353
  0
ARC
  5
310
330
1B
100
AcDbEntity
 67
     1
  8
0
  6
Continuous
 62
     8
370
    25
100
AcDbCircle
 10
22.7463524828
 20
9.8904751906
 30
0.0
 40
0.0146516751797213
100
AcDbArc
 50
174.9258945403
 51
235.1124052711
  0
ELLIPSE
  5
311
330
1B
100
AcDbEntity
 67
     1
  8
0
  6
Continuous
 62
     8
370
    25
100
AcDbEllipse
 10
24.6357264014
 20
10.9005115153
 30
0.0
 11
0.03076331917855057
 21
0.05151851644671623
 31
0.0
210
0.0
220
0.0
230
1.0
 40
0.567293684
 41
5.751041249542839
 42
7.076748914733161
  0
ELLIPSE
  5
312
330
1B
100
AcDbEntity
 67
     1
  8
0
  6
Continuous
 62
     8
370
    25
100
AcDbEllipse
 10
24.221897049
 20
10.6616718951
 30
0.0
 11
0.03076331917855413
 21
0.05151851644671802
 31
0.0
210
0.0
220
0.0
230
1.0
 40
0.567293684
 41
0.7935636075535587
 42
2.119271272744106
  0
LINE
  5
313
330
1B
100
AcDbEntity
 67
     1
  8
0
  6
Continuous
 62
     8
370
    25
100
AcDbLine
 10
22.7741780329
 20
9.8917710453
 30
0.0
 11
23.6807226246
 21
10.3610172587
 31
0.0
  0
ELLIPSE
  5
314
330
1B
100
AcDbEntity
 67
     1
  8
0
  6
Continuous
 62
     8
370
    25
100
AcDbEllipse
 10
21.933579083
 20
10.3773462871
 30
0.0
 11
0.01575347969351171
 21
0.02554130486912598
 31
0.0
210
0.0
220
0.0
230
1.0
 40
0.5569763375
 41
2.389662055457261
 42
3.157873331972776
  0
ELLIPSE
  5
315
330
1B
100
AcDbEntity
 67
     1
  8
0
  6
Continuous
 62
     8
370
    25
100
AcDbEllipse
 10
14.265193546
 20
10.227642235
 30
0.0
 11
0.2047097045134798
 21
0.343677862408919
 31
0.0
210
0.0
220
0.0
230
1.0
 40
0.5680613212
 41
4.988625555393067
 42
5.073432418517746
  0
SPLINE
  5
316
330
1B
100
AcDbEntity
 67
     1
  8
0
  6
Continuous
 62
     8
370
    25
100
AcDbSpline
210
0.0
220
0.0
230
1.0
 70
     8
 71
     3
 72
    12
 73
     8
 74
     0
 42
0.000000001
 43
0.00000001
 40
0.0
 40
0.0
 40
0.0
 40
0.0
 40
0.0372258384967417
 40
0.3830843552218562
 40
0.697187351124946
 40
0.9489260358171094
 40
1.0
 40
1.0
 40
1.0
 40
1.0
 10
14.52577055392694
 20
10.22005981338018
 30
0.0
 10
14.52592368763819
 20
10.22034211924311
 30
0.0
 10
14.52749955889872
 20
10.22324727769875
 30
0.0
 10
14.52788375170044
 20
10.22873704771349
 30
0.0
 10
14.52614527390653
 20
10.23525918985022
 30
0.0
 10
14.52269628272639
 20
10.23875980842273
 30
0.0
 10
14.52051806917071
 20
10.24004021694376
 30
0.0
 10
14.52015068028673
 20
10.24025617733771
 30
0.0
  0
ELLIPSE
  5
317
330
1B
100
AcDbEntity
 67
     1
  8
0
  6
Continuous
 62
     8
370
    25
100
AcDbEllipse
 10
12.8835387774
 20
11.025057639
 30
0.0
 11
0.1950141600982356
 21
0.349271652929005
 31
0.0
210
0.0
220
0.0
230
1.0
 40
0.586693556
 41
4.687092590510028
 42
5.057270871979572
  0
ARC
  5
318
330
1B
100
AcDbEntity
 67
     1
  8
0
  6
Continuous
 62
     8
370
    25
100
AcDbCircle
 10
14.4400676505
 20
10.1527614076
 30
0.0
 40
0.0148124699490916
100
AcDbArc
 50
53.7740539051
 51
114.9241853796
  0
ARC
  5
319
330
1B
100
AcDbEntity
 67
     1
  8
0
  6
Continuous
 62
     8
370
    25
100
AcDbCircle
 10
14.4334317255
 20
10.1418010582
 30
0.0
 40
0.0146125467696199
100
AcDbArc
 50
182.680186176
 51
246.5277944491
  0
ARC
  5
31A
330
1B
100
AcDbEntity
 67
     1
  8
0
  6
Continuous
 62
     8
370
    25
100
AcDbCircle
 10
14.5256444204
 20
10.2021516287
 30
0.0
 40
0.0148124699490931
100
AcDbArc
 50
53.7740539051
 51
114.9241853796
  0
ARC
  5
31B
330
1B
100
AcDbEntity
 67
     1
  8
0
  6
Continuous
 62
     8
370
    25
100
AcDbCircle
 10
21.925734824
 20
10.3406007457
 30
0.0
 40
0.0163299340243451
100
AcDbArc
 50
125.9824449128
 51
181.3040920532
  0
ARC
  5
31C
330
1B
100
AcDbEntity
 67
     1
  8
0
  6
Continuous
 62
     8
370
    25
100
AcDbCircle
 10
24.2078749279
 20
10.7090394446
 30
0.0
 40
0.0148118081775202
100
AcDbArc
 50
304.7099180827
 51
4.6606659639
  0
ARC
  5
31D
330
1B
100
AcDbEntity
 67
     1
  8
0
  6
Continuous
 62
     8
370
    25
100
AcDbCircle
 10
24.6216547212
 20
10.9478888009
 30
0.0
 40
0.0148604357899305
100
AcDbArc
 50
305.3520761466
 51
4.6077571583
  0
ELLIPSE
  5
31E
330
1B
100
AcDbEntity
 67
     1
  8
0
  6
Continuous
 62
     8
370
    25
100
AcDbEllipse
 10
12.8623288048
 20
11.0368713019
 30
0.0
 11
0.1800109694655401
 21
0.3232913384724458
 31
0.0
210
0.0
220
0.0
230
1.0
 40
0.5874357535
 41
4.686018912078737
 42
4.98365198122512
  0
LINE
  5
31F
330
1B
100
AcDbEntity
 67
     1
  8
0
  6
Continuous
 62
     8
370
    25
100
AcDbLine
 10
13.0079541644
 20
10.9722284333
 30
0.0
 11
13.0079541644
 21
10.9454217565
 31
0.0
  0
ELLIPSE
  5
320
330
1B
100
AcDbEntity
 67
     1
  8
0
  6
Continuous
 62
     8
370
    25
100
AcDbEllipse
 10
11.5032166206
 20
10.9348160487
 30
0.0
 11
0.03002288168172207
 21
-0.0009053186190008944
 31
0.0
210
0.0
220
0.0
230
1.0
 40
0.5762683979
 41
2.373721997914705
 42
3.170343247147162
  0
LINE
  5
321
330
1B
100
AcDbEntity
 67
     1
  8
0
  6
Continuous
 62
     8
370
    25
100
AcDbLine
 10
11.4819807418
 20
10.9474847808
 30
0.0
 11
11.4824347746
 21
10.9324683594
 31
0.0
  0
LINE
  5
322
330
1B
100
AcDbEntity
 67
     1
  8
0
  6
Continuous
 62
     8
370
    25
100
AcDbLine
 10
12.2239836843
 20
11.3641783074
 30
0.0
 11
12.2239838917
 21
11.3757283297
 31
0.0
  0
LINE
  5
323
330
1B
100
AcDbEntity
 67
     1
  8
0
  6
Continuous
 62
     8
370
    25
100
AcDbLine
 10
12.9655342014
 20
10.9699042221
 30
0.0
 11
12.9655343051
 21
10.9722284633
 31
0.0
  0
LINE
  5
324
330
1B
100
AcDbEntity
 67
     1
  8
0
  6
Continuous
 62
     8
370
    25
100
AcDbLine
 10
12.2664036991
 20
11.3757283297
 30
0.0
 11
12.2664036991
 21
11.3733259899
 31
0.0
  0
ARC
  5
325
330
1B
100
AcDbEntity
 67
     1
  8
0
  6
Continuous
 62
     8
370
    25
100
AcDbCircle
 10
24.655087812
 20
10.9599830769
 30
0.0
 40
0.0392428211114736
100
AcDbArc
 50
240.4593826547
 51
263.9040510664
  0
ELLIPSE
  5
326
330
1B
100
AcDbEntity
 67
     1
  8
0
  6
Continuous
 62
     8
370
    25
100
AcDbEllipse
 10
24.6145164288
 20
10.9131803197
 30
0.0
 11
0.01575347969351171
 21
0.02554130486912598
 31
0.0
210
0.0
220
0.0
230
1.0
 40
0.5569763375
 41
5.531254709046948
 42
6.290919573366714
  0
LINE
  5
327
330
1B
100
AcDbEntity
 67
     1
  8
0
  6
Continuous
 62
     8
370
    25
100
AcDbLine
 10
24.6357395143
 20
10.9258415716
 30
0.0
 11
24.6243963703
 21
10.9323882125
 31
0.0
  0
LINE
  5
328
330
1B
100
AcDbEntity
 67
     1
  8
0
  6
Continuous
 62
     8
370
    25
100
AcDbLine
 10
24.6357395143
 20
10.9122006631
 30
0.0
 11
24.6357395143
 21
10.9258415716
 31
0.0
  0
ARC
  5
329
330
1B
100
AcDbEntity
 67
     1
  8
0
  6
Continuous
 62
     8
370
    25
100
AcDbCircle
 10
24.7142481338
 20
11.1045327002
 30
0.0
 40
0.079425008169374
100
AcDbArc
 50
294.622403478
 51
351.4048346515
  0
ARC
  5
32A
330
1B
100
AcDbEntity
 67
     1
  8
0
  6
Continuous
 62
     8
370
    25
100
AcDbCircle
 10
24.7349115195
 20
11.1596735789
 30
0.0
 40
0.0150604607181312
100
AcDbArc
 50
65.6298125738
 51
125.6707585558
  0
LINE
  5
32B
330
1B
100
AcDbEntity
 67
     1
  8
0
  6
Continuous
 62
     8
370
    25
100
AcDbLine
 10
24.5499835373
 20
10.8894411752
 30
0.0
 11
24.5731439773
 21
10.8760742387
 31
0.0
  0
ARC
  5
32C
330
1B
100
AcDbEntity
 67
     1
  8
0
  6
Continuous
 62
     8
370
    25
100
AcDbCircle
 10
23.5554771799
 20
11.8403784649
 30
0.0
 40
0.0150604357397652
100
AcDbArc
 50
65.6314996204
 51
125.6708240212
  0
ARC
  5
32D
330
1B
100
AcDbEntity
 67
     1
  8
0
  6
Continuous
 62
     8
370
    25
100
AcDbCircle
 10
23.3434564986
 20
11.728157764
 30
0.0
 40
0.0150487663311475
100
AcDbArc
 50
54.3172159345
 51
114.5174570936
  0
ARC
  5
32E
330
1B
100
AcDbEntity
 67
     1
  8
0
  6
Continuous
 62
     8
370
    25
100
AcDbCircle
 10
23.2761724166
 20
11.7281583142
 30
0.0
 40
0.0150481840042967
100
AcDbArc
 50
65.4812576245
 51
125.6840693474
  0
ARC
  5
32F
330
1B
100
AcDbEntity
 67
     1
  8
0
  6
Continuous
 62
     8
370
    25
100
AcDbCircle
 10
15.725637424
 20
16.0859043028
 30
0.0
 40
0.0150597332555639
100
AcDbArc
 50
65.6300594269
 51
125.6715136436
  0
ARC
  5
330
330
1B
100
AcDbEntity
 67
     1
  8
0
  6
Continuous
 62
     8
370
    25
100
AcDbCircle
 10
23.5379133537
 20
11.8403794213
 30
0.0
 40
0.0150593756420819
100
AcDbArc
 50
54.3285548455
 51
114.3706226769
  0
ARC
  5
331
330
1B
100
AcDbEntity
 67
     1
  8
0
  6
Continuous
 62
     8
370
    25
100
AcDbCircle
 10
7.7481213766
 20
12.9374074633
 30
0.0
 40
0.079015153507322
100
AcDbArc
 50
187.6664546615
 51
245.4603276023
  0
ARC
  5
332
330
1B
100
AcDbEntity
 67
     1
  8
0
  6
Continuous
 62
     8
370
    25
100
AcDbCircle
 10
7.7277329888
 20
12.9928746635
 30
0.0
 40
0.0150594027660161
100
AcDbArc
 50
54.3286230897
 51
114.3723034157
  0
ARC
  5
333
330
1B
100
AcDbEntity
 67
     1
  8
0
  6
Continuous
 62
     8
370
    25
100
AcDbCircle
 10
9.7008944312
 20
14.1316753309
 30
0.0
 40
0.0150593756420646
100
AcDbArc
 50
54.3285548454
 51
114.3706226769
  0
ARC
  5
334
330
1B
100
AcDbEntity
 67
     1
  8
0
  6
Continuous
 62
     8
370
    25
100
AcDbCircle
 10
10.6051399586
 20
13.6587719192
 30
0.0
 40
0.0150487663311536
100
AcDbArc
 50
54.3172159345
 51
114.5174570936
  0
ARC
  5
335
330
1B
100
AcDbEntity
 67
     1
  8
0
  6
Continuous
 62
     8
370
    25
100
AcDbCircle
 10
10.5378558997
 20
13.6587722332
 30
0.0
 40
0.0150483893475445
100
AcDbArc
 50
65.4817108609
 51
125.6836161111
  0
ARC
  5
336
330
1B
100
AcDbEntity
 67
     1
  8
0
  6
Continuous
 62
     8
370
    25
100
AcDbCircle
 10
13.3918968077
 20
15.2671270492
 30
0.0
 40
0.0150593756420645
100
AcDbArc
 50
54.3285548454
 51
114.3706226769
  0
ARC
  5
337
330
1B
100
AcDbEntity
 67
     1
  8
0
  6
Continuous
 62
     8
370
    25
100
AcDbCircle
 10
9.7184581634
 20
14.1316743372
 30
0.0
 40
0.0150604112396017
100
AcDbArc
 50
65.6314977994
 51
125.6704505593
  0
ELLIPSE
  5
338
330
1B
100
AcDbEntity
 67
     1
  8
0
  6
Continuous
 62
     8
370
    25
100
AcDbEllipse
 10
13.3582328282
 20
15.2793440605
 30
0.0
 11
0.03002288168172384
 21
-0.0009053186190008944
 31
0.0
210
0.0
220
0.0
230
1.0
 40
0.5762683979
 41
0.0287104261340855
 42
0.8026210846246353
  0
ARC
  5
339
330
1B
100
AcDbEntity
 67
     1
  8
0
  6
Continuous
 62
     8
370
    25
100
AcDbCircle
 10
13.3717482112
 20
15.2736831117
 30
0.0
 40
0.0175066647296557
100
AcDbArc
 50
27.2028409927
 51
63.6349998337
  0
ELLIPSE
  5
33A
330
1B
100
AcDbEntity
 67
     1
  8
0
  6
Continuous
 62
     8
370
    25
100
AcDbEllipse
 10
13.400719775
 20
15.302044994
 30
0.0
 11
0.01417903813750599
 21
0.02644850847513602
 31
0.0
210
0.0
220
0.0
230
1.0
 40
0.5972236007
 41
2.354662636603406
 42
2.853748608439001
  0
ARC
  5
33B
330
1B
100
AcDbEntity
 67
     1
  8
0
  6
Continuous
 62
     8
370
    25
100
AcDbCircle
 10
12.5747150294
 20
15.7609868216
 30
0.0
 40
0.01465167517977
100
AcDbArc
 50
174.9258945404
 51
235.112405271
  0
ARC
  5
33C
330
1B
100
AcDbEntity
 67
     1
  8
0
  6
Continuous
 62
     8
370
    25
100
AcDbCircle
 10
12.5724950775
 20
15.7890058316
 30
0.0
 40
0.0150593756420709
100
AcDbArc
 50
54.3285548455
 51
114.3706226769
  0
ARC
  5
33D
330
1B
100
AcDbEntity
 67
     1
  8
0
  6
Continuous
 62
     8
370
    25
100
AcDbCircle
 10
12.5659946398
 20
15.7776499207
 30
0.0
 40
0.0148158880741555
100
AcDbArc
 50
187.0405305488
 51
246.4153055554
  0
ARC
  5
33E
330
1B
100
AcDbEntity
 67
     1
  8
0
  6
Continuous
 62
     8
370
    25
100
AcDbCircle
 10
14.5456565187
 20
16.9278064666
 30
0.0
 40
0.0150593756420686
100
AcDbArc
 50
54.3285548454
 51
114.3706226769
  0
ARC
  5
33F
330
1B
100
AcDbEntity
 67
     1
  8
0
  6
Continuous
 62
     8
370
    25
100
AcDbCircle
 10
12.5660484211
 20
15.7758608011
 30
0.0
 40
0.0148156166101977
100
AcDbArc
 50
187.0399320462
 51
246.415904058
  0
ELLIPSE
  5
340
330
1B
100
AcDbEntity
 67
     1
  8
0
  6
Continuous
 62
     8
370
    25
100
AcDbEllipse
 10
15.7593013528
 20
16.0981216664
 30
0.0
 11
0.03002288168172384
 21
0.0009053186190008944
 31
0.0
210
0.0
220
0.0
230
1.0
 40
0.5762683979
 41
2.338971568965211
 42
3.094799660909104
  0
LINE
  5
341
330
1B
100
AcDbEntity
 67
     1
  8
0
  6
Continuous
 62
     8
370
    25
100
AcDbLine
 10
15.7380656416
 20
16.1099353155
 30
0.0
 11
15.7376524697
 21
16.0962742216
 31
0.0
  0
LINE
  5
342
330
1B
100
AcDbEntity
 67
     1
  8
0
  6
Continuous
 62
     8
370
    25
100
AcDbLine
 10
15.9317609006
 20
16.1968371123
 30
0.0
 11
15.9325262641
 21
16.2221673284
 31
0.0
  0
ARC
  5
343
330
1B
100
AcDbEntity
 67
     1
  8
0
  6
Continuous
 62
     8
370
    25
100
AcDbCircle
 10
15.9200985163
 20
16.2471005348
 30
0.0
 40
0.0150604357397427
100
AcDbArc
 50
65.6314996203
 51
125.6708240212
  0
ARC
  5
344
330
1B
100
AcDbEntity
 67
     1
  8
0
  6
Continuous
 62
     8
370
    25
100
AcDbCircle
 10
15.9265976391
 20
16.2357465242
 30
0.0
 40
0.0148169886677649
100
AcDbArc
 50
293.5858979816
 51
352.9577162979
  0
ARC
  5
345
330
1B
100
AcDbEntity
 67
     1
  8
0
  6
Continuous
 62
     8
370
    25
100
AcDbCircle
 10
14.7406641773
 20
16.9278053905
 30
0.0
 40
0.0150604357397497
100
AcDbArc
 50
65.6314996203
 51
125.6708240212
  0
ARC
  5
346
330
1B
100
AcDbEntity
 67
     1
  8
0
  6
Continuous
 62
     8
370
    25
100
AcDbCircle
 10
11.9716543448
 20
14.5436387507
 30
0.0
 40
0.0514732088206484
100
AcDbArc
 50
258.6446365789
 51
292.4106230373
  0
ARC
  5
347
330
1B
100
AcDbEntity
 67
     1
  8
0
  6
Continuous
 62
     8
370
    25
100
AcDbCircle
 10
11.9948233646
 20
14.4931686539
 30
0.0
 40
0.0459923363350138
100
AcDbArc
 50
122.6074875707
 51
160.0803974691
  0
LINE
  5
348
330
1B
100
AcDbEntity
 67
     1
  8
0
  6
Continuous
 62
     8
370
    25
100
AcDbLine
 10
11.9904008738
 20
14.475564724
 30
0.0
 11
11.9912780829
 21
14.4960530372
 31
0.0
  0
ARC
  5
349
330
1B
100
AcDbEntity
 67
     1
  8
0
  6
Continuous
 62
     8
370
    25
100
AcDbCircle
 10
11.1912286742
 20
14.9569820275
 30
0.0
 40
0.0459394193213044
100
AcDbArc
 50
122.6007282531
 51
159.5838913079
  0
LINE
  5
34A
330
1B
100
AcDbEntity
 67
     1
  8
0
  6
Continuous
 62
     8
370
    25
100
AcDbLine
 10
12.1131308872
 20
14.5666374107
 30
0.0
 11
12.4475312325
 21
14.7393950352
 31
0.0
  0
LINE
  5
34B
330
1B
100
AcDbEntity
 67
     1
  8
0
  6
Continuous
 62
     8
370
    25
100
AcDbLine
 10
13.221822664
 20
15.1862737023
 30
0.0
 11
12.0924472617
 21
14.6028167373
 31
0.0
  0
LINE
  5
34C
330
1B
100
AcDbEntity
 67
     1
  8
0
  6
Continuous
 62
     8
370
    25
100
AcDbLine
 10
11.2893320112
 20
15.0663308412
 30
0.0
 11
12.5872839182
 21
15.7368776599
 31
0.0
  0
ARC
  5
34D
330
1B
100
AcDbEntity
 67
     1
  8
0
  6
Continuous
 62
     8
370
    25
100
AcDbCircle
 10
11.157768341
 20
14.9842174065
 30
0.0
 40
0.0143985451280895
100
AcDbArc
 50
52.7816300999
 51
115.7069637034
  0
LINE
  5
34E
330
1B
100
AcDbEntity
 67
     1
  8
0
  6
Continuous
 62
     8
370
    25
100
AcDbLine
 10
19.6776749998
 20
8.0818876665
 30
0.0
 11
19.7476811848
 21
8.1222913994
 31
0.0
  0
LINE
  5
34F
330
1B
100
AcDbEntity
 67
     1
  8
0
  6
Continuous
 62
     8
370
    25
100
AcDbLine
 10
19.5354779213
 20
7.9686091397
 30
0.0
 11
19.5344080717
 21
7.9906896168
 31
0.0
  0
ELLIPSE
  5
350
330
1B
100
AcDbEntity
 67
     1
  8
0
  6
Continuous
 62
     8
370
    25
100
AcDbEllipse
 10
19.7906411268
 20
8.1612643265
 30
0.0
 11
0.03150941246642702
 21
0.05108116527866181
 31
0.0
210
0.0
220
0.0
230
1.0
 40
0.55694144
 41
2.785623524781171
 42
3.658800775879372
  0
LINE
  5
351
330
1B
100
AcDbEntity
 67
     1
  8
0
  6
Continuous
 62
     8
370
    25
100
AcDbLine
 10
19.4932836784
 20
7.964511116
 30
0.0
 11
19.4942379975
 21
7.9448078056
 31
0.0
  0
LINE
  5
352
330
1B
100
AcDbEntity
 67
     1
  8
0
  6
Continuous
 62
     8
370
    25
100
AcDbLine
 10
19.1375077562
 20
8.712820243
 30
0.0
 11
20.3701969691
 21
9.4988706852
 31
0.0
  0
ARC
  5
353
330
1B
100
AcDbEntity
 67
     1
  8
0
  6
Continuous
 62
     8
370
    25
100
AcDbCircle
 10
19.8380845742
 20
8.1592342768
 30
0.0
 40
0.0491129112770382
100
AcDbArc
 50
13.6263348412
 51
57.5995863331
  0
LINE
  5
354
330
1B
100
AcDbEntity
 67
     1
  8
0
  6
Continuous
 62
     8
370
    25
100
AcDbLine
 10
19.98294844
 20
8.2268646188
 30
0.0
 11
21.1950293192
 21
8.9997737194
 31
0.0
  0
LINE
  5
355
330
1B
100
AcDbEntity
 67
     1
  8
0
  6
Continuous
 62
     8
370
    25
100
AcDbLine
 10
19.4673453214
 20
7.9292866935
 30
0.0
 11
19.4519268758
 21
7.9381853752
 31
0.0
  0
LINE
  5
356
330
1B
100
AcDbEntity
 67
     1
  8
0
  6
Continuous
 62
     8
370
    25
100
AcDbLine
 10
21.3229085107
 20
9.0188802985
 30
0.0
 11
21.0145429593
 21
8.8222444596
 31
0.0
  0
ELLIPSE
  5
357
330
1B
100
AcDbEntity
 67
     1
  8
0
  6
Continuous
 62
     8
370
    25
100
AcDbEllipse
 10
19.7335650128
 20
8.1298876328
 30
0.0
 11
-0.01050231979566973
 21
0.01702753657941791
 31
0.0
210
0.0
220
0.0
230
1.0
 40
0.5569763375
 41
3.945931052700821
 42
4.168922493086479
  0
ELLIPSE
  5
358
330
1B
100
AcDbEntity
 67
     1
  8
0
  6
Continuous
 62
     8
370
    25
100
AcDbEllipse
 10
19.8584442714
 20
8.1809656236
 30
0.0
 11
0.03995893061770062
 21
0.001812191897640147
 31
0.0
210
0.0
220
0.0
230
1.0
 40
0.5768067772
 41
3.900762102729686
 42
4.828685168407041
  0
ARC
  5
359
330
1B
100
AcDbEntity
 67
     1
  8
0
  6
Continuous
 62
     8
370
    25
100
AcDbCircle
 10
19.8717427433
 20
8.163075011
 30
0.0
 40
0.0415714082277307
100
AcDbArc
 50
153.2353561582
 51
179.0198028711
  0
LINE
  5
35A
330
1B
100
AcDbEntity
 67
     1
  8
0
  6
Continuous
 62
     8
370
    25
100
AcDbLine
 10
19.8301774183
 20
8.1637861662
 30
0.0
 11
19.8312765135
 21
8.1393281148
 31
0.0
  0
ELLIPSE
  5
35B
330
1B
100
AcDbEntity
 67
     1
  8
0
  6
Continuous
 62
     8
370
    25
100
AcDbEllipse
 10
21.287635929
 20
9.0295858255
 30
0.0
 11
0.03042118605151601
 21
-0.02724725033546349
 31
0.0
210
0.0
220
0.0
230
1.0
 40
0.6627114032
 41
6.099911674944874
 42
6.895624851183316
  0
LINE
  5
35C
330
1B
100
AcDbEntity
 67
     1
  8
0
  6
Continuous
 62
     8
370
    25
100
AcDbLine
 10
19.8176715025
 20
8.1710038953
 30
0.0
 11
19.8301774183
 21
8.1637861662
 31
0.0
  0
LINE
  5
35D
330
1B
100
AcDbEntity
 67
     1
  8
0
  6
Continuous
 62
     8
370
    25
100
AcDbLine
 10
19.80069464
 20
8.1216777626
 30
0.0
 11
19.7764689135
 21
8.1356595241
 31
0.0
  0
ELLIPSE
  5
35E
330
1B
100
AcDbEntity
 67
     1
  8
0
  6
Continuous
 62
     8
370
    25
100
AcDbEllipse
 10
19.7477049945
 20
8.1383335025
 30
0.0
 11
-0.02050887945237179
 21
0.03434567763114593
 31
0.0
210
0.0
220
0.0
230
1.0
 40
0.567293684
 41
4.253331300099687
 42
4.475571280693493
  0
ELLIPSE
  5
35F
330
1B
100
AcDbEntity
 67
     1
  8
0
  6
Continuous
 62
     8
370
    25
100
AcDbEllipse
 10
19.8047746237
 20
8.1525364569
 30
0.0
 11
0.02148563442520767
 21
0.0337707204679507
 31
0.0
210
0.0
220
0.0
230
1.0
 40
0.5464645097
 41
2.396989419001473
 42
3.165200695517014
  0
ARC
  5
360
330
1B
100
AcDbEntity
 67
     1
  8
0
  6
Continuous
 62
     8
370
    25
100
AcDbCircle
 10
21.3049333723
 20
9.0939259121
 30
0.0
 40
0.01492415140262
100
AcDbArc
 50
65.3287954923
 51
125.9730062701
  0
ARC
  5
361
330
1B
100
AcDbEntity
 67
     1
  8
0
  6
Continuous
 62
     8
370
    25
100
AcDbCircle
 10
21.3095603934
 20
9.0845794404
 30
0.0
 40
0.0164307679460245
100
AcDbArc
 50
298.2130646697
 51
0.6082773695
  0
ARC
  5
362
330
1B
100
AcDbEntity
 67
     1
  8
0
  6
Continuous
 62
     8
370
    25
100
AcDbCircle
 10
21.314414348
 20
9.03395926
 30
0.0
 40
0.0173068160119857
100
AcDbArc
 50
299.3930906523
 51
354.2679958162
  0
ARC
  5
363
330
1B
100
AcDbEntity
 67
     1
  8
0
  6
Continuous
 62
     8
370
    25
100
AcDbCircle
 10
20.5013265157
 20
9.5581549173
 30
0.0
 40
0.0145293448924342
100
AcDbArc
 50
64.4138992562
 51
126.8879025062
  0
ARC
  5
364
330
1B
100
AcDbEntity
 67
     1
  8
0
  6
Continuous
 62
     8
370
    25
100
AcDbCircle
 10
20.4838467132
 20
9.5577362451
 30
0.0
 40
0.0148882312786358
100
AcDbArc
 50
53.9645025608
 51
114.9434840647
  0
ARC
  5
365
330
1B
100
AcDbEntity
 67
     1
  8
0
  6
Continuous
 62
     8
370
    25
100
AcDbCircle
 10
21.3353626987
 20
9.1394088152
 30
0.0
 40
0.0514623155329182
100
AcDbArc
 50
258.6409556805
 51
292.4143039357
  0
ARC
  5
366
330
1B
100
AcDbEntity
 67
     1
  8
0
  6
Continuous
 62
     8
370
    25
100
AcDbCircle
 10
21.3585310367
 20
9.08894981
 30
0.0
 40
0.0459923363350518
100
AcDbArc
 50
122.6074875707
 51
160.0803974691
  0
ARC
  5
367
330
1B
100
AcDbEntity
 67
     1
  8
0
  6
Continuous
 62
     8
370
    25
100
AcDbCircle
 10
21.3339127956
 20
9.0795167841
 30
0.0
 40
0.0473447071662272
100
AcDbArc
 50
267.0154733145
 51
293.2431245274
  0
ARC
  5
368
330
1B
100
AcDbEntity
 67
     1
  8
0
  6
Continuous
 62
     8
370
    25
100
AcDbCircle
 10
20.5549363463
 20
9.5527631836
 30
0.0
 40
0.0459394193213363
100
AcDbArc
 50
122.6007282532
 51
159.5838913079
  0
LINE
  5
369
330
1B
100
AcDbEntity
 67
     1
  8
0
  6
Continuous
 62
     8
370
    25
100
AcDbLine
 10
22.6889194386
 20
9.7886027651
 30
0.0
 11
21.4768385594
 21
9.1624185668
 31
0.0
  0
LINE
  5
36A
330
1B
100
AcDbEntity
 67
     1
  8
0
  6
Continuous
 62
     8
370
    25
100
AcDbLine
 10
21.3525966078
 20
9.0360146409
 30
0.0
 11
21.6609621591
 21
9.1953221915
 31
0.0
  0
ELLIPSE
  5
36B
330
1B
100
AcDbEntity
 67
     1
  8
0
  6
Continuous
 62
     8
370
    25
100
AcDbEllipse
 10
21.3313348558
 20
9.0548064509
 30
0.0
 11
-0.01218846800079021
 21
0.03858947176676252
 31
0.0
210
0.0
220
0.0
230
1.0
 40
0.4518550987
 41
3.223608405207266
 42
4.067600182679632
  0
ARC
  5
36C
330
1B
100
AcDbEntity
 67
     1
  8
0
  6
Continuous
 62
     8
370
    25
100
AcDbCircle
 10
22.7411237042
 20
9.8377568559
 30
0.0
 40
0.0441126610870681
100
AcDbArc
 50
8.0580388478
 51
57.1283180648
  0
LINE
  5
36D
330
1B
100
AcDbEntity
 67
     1
  8
0
  6
Continuous
 62
     8
370
    25
100
AcDbLine
 10
21.9509915903
 20
10.332658816
 30
0.0
 11
20.6530396833
 21
9.6621119973
 31
0.0
  0
ELLIPSE
  5
36E
330
1B
100
AcDbEntity
 67
     1
  8
0
  6
Continuous
 62
     8
370
    25
100
AcDbEllipse
 10
22.7579822051
 20
9.8788856666
 30
0.0
 11
0.01000242568661491
 21
-0.0004418395838232669
 31
0.0
210
0.0
220
0.0
230
1.0
 40
0.5454687351
 41
5.523171460871552
 42
6.280991387427978
  0
LINE
  5
36F
330
1B
100
AcDbEntity
 67
     1
  8
0
  6
Continuous
 62
     8
370
    25
100
AcDbLine
 10
22.9395567078
 20
9.9332568378
 30
0.0
 11
22.9424564815
 21
9.9613237828
 31
0.0
  0
ARC
  5
370
330
1B
100
AcDbEntity
 67
     1
  8
0
  6
Continuous
 62
     8
370
    25
100
AcDbCircle
 10
20.5214292062
 20
9.5795341859
 30
0.0
 40
0.0147986615769303
100
AcDbArc
 50
53.7248396495
 51
114.7637541539
  0
LINE
  5
371
330
1B
100
AcDbEntity
 67
     1
  8
0
  6
Continuous
 62
     8
370
    25
100
AcDbLine
 10
22.7782764614
 20
9.8837592147
 30
0.0
 11
22.7789586512
 21
9.8833981372
 31
0.0
  0
LINE
  5
372
330
1B
100
AcDbEntity
 67
     1
  8
0
  6
Continuous
 62
     8
370
    25
100
AcDbLine
 10
22.8883442422
 20
9.9349099765
 30
0.0
 11
22.7872064286
 21
9.8765387739
 31
0.0
  0
LINE
  5
373
330
1B
100
AcDbEntity
 67
     1
  8
0
  6
Continuous
 62
     8
370
    25
100
AcDbLine
 10
22.8885142193
 20
9.9408208125
 30
0.0
 11
22.8883442422
 21
9.9349099765
 31
0.0
  0
ELLIPSE
  5
374
330
1B
100
AcDbEntity
 67
     1
  8
0
  6
Continuous
 62
     8
370
    25
100
AcDbEllipse
 10
22.8742107734
 20
9.9424962272
 30
0.0
 11
0.02469521052090684
 21
-0.008723797210874904
 31
0.0
210
0.0
220
0.0
230
1.0
 40
0.1172982907
 41
5.035804411963354
 42
5.362532638461141
  0
ELLIPSE
  5
375
330
1B
100
AcDbEntity
 67
     1
  8
0
  6
Continuous
 62
     8
370
    25
100
AcDbEllipse
 10
22.8742107734
 20
9.9424962272
 30
0.0
 11
0.01917854522561058
 21
-0.01821515678736851
 31
0.0
210
0.0
220
0.0
230
1.0
 40
0.1972947927
 41
0.9459614229009045
 42
1.174848167333216
  0
LINE
  5
376
330
1B
100
AcDbEntity
 67
     1
  8
0
  6
Continuous
 62
     8
370
    25
100
AcDbLine
 10
11.8313216471
 20
14.4039925633
 30
0.0
 11
11.4969213018
 21
14.1907550861
 31
0.0
  0
LINE
  5
377
330
1B
100
AcDbEntity
 67
     1
  8
0
  6
Continuous
 62
     8
370
    25
100
AcDbLine
 10
10.6802291452
 20
13.7194052279
 30
0.0
 11
11.8096045475
 21
14.4395754252
 31
0.0
  0
LINE
  5
378
330
1B
100
AcDbEntity
 67
     1
  8
0
  6
Continuous
 62
     8
370
    25
100
AcDbLine
 10
11.9556686725
 20
14.4555192011
 30
0.0
 11
11.9536208098
 21
14.4743193232
 31
0.0
  0
LINE
  5
379
330
1B
100
AcDbEntity
 67
     1
  8
0
  6
Continuous
 62
     8
370
    25
100
AcDbLine
 10
11.0064892969
 20
14.9030895291
 30
0.0
 11
9.773800084
 21
14.1170390868
 31
0.0
  0
ARC
  5
37A
330
1B
100
AcDbEntity
 67
     1
  8
0
  6
Continuous
 62
     8
370
    25
100
AcDbCircle
 10
11.9462813521
 20
14.4885444603
 30
0.0
 40
0.016006941175962
100
AcDbArc
 50
297.2914658641
 51
1.5331003678
  0
ARC
  5
37B
330
1B
100
AcDbEntity
 67
     1
  8
0
  6
Continuous
 62
     8
370
    25
100
AcDbCircle
 10
11.9411804525
 20
14.4986020438
 30
0.0
 40
0.0145293448924178
100
AcDbArc
 50
64.4138992562
 51
126.8879025063
  0
ARC
  5
37C
330
1B
100
AcDbEntity
 67
     1
  8
0
  6
Continuous
 62
     8
370
    25
100
AcDbCircle
 10
11.1376640913
 20
14.9619164735
 30
0.0
 40
0.0149241514026483
100
AcDbArc
 50
65.3287954923
 51
125.9730062701
  0
ARC
  5
37D
330
1B
100
AcDbEntity
 67
     1
  8
0
  6
Continuous
 62
     8
370
    25
100
AcDbCircle
 10
11.1201855246
 20
14.9624298773
 30
0.0
 40
0.0144789646357298
100
AcDbArc
 50
53.0079204216
 51
115.9015696043
  0
ELLIPSE
  5
37E
330
1B
100
AcDbEntity
 67
     1
  8
0
  6
Continuous
 62
     8
370
    25
100
AcDbEllipse
 10
14.5702626623
 20
9.2231418209
 30
0.0
 11
0.1127988369880395
 21
0.1889012269712982
 31
0.0
210
0.0
220
0.0
230
1.0
 40
0.567293684
 41
0.793563607553677
 42
1.143439059573045
  0
LINE
  5
37F
330
1B
100
AcDbEntity
 67
     1
  8
0
  6
Continuous
 62
     8
370
    25
100
AcDbLine
 10
15.0975349705
 20
9.6932865668
 30
0.0
 11
15.0978640353
 21
9.704171202
 31
0.0
  0
LINE
  5
380
330
1B
100
AcDbEntity
 67
     1
  8
0
  6
Continuous
 62
     8
370
    25
100
AcDbLine
 10
14.428206511
 20
9.3106708338
 30
0.0
 11
14.4313410791
 21
9.3087958833
 31
0.0
  0
LINE
  5
381
330
1B
100
AcDbEntity
 67
     1
  8
0
  6
Continuous
 62
     8
370
    25
100
AcDbLine
 10
14.4247879909
 20
9.3050138437
 30
0.0
 11
14.428206511
 21
9.3106708338
 31
0.0
  0
LINE
  5
382
330
1B
100
AcDbEntity
 67
     1
  8
0
  6
Continuous
 62
     8
370
    25
100
AcDbLine
 10
11.5746963416
 20
10.8846968103
 30
0.0
 11
14.3550283193
 21
9.2800415827
 31
0.0
  0
ARC
  5
383
330
1B
100
AcDbEntity
 67
     1
  8
0
  6
Continuous
 62
     8
370
    25
100
AcDbCircle
 10
15.0854424999
 20
9.7290741137
 30
0.0
 40
0.0150884079572648
100
AcDbArc
 50
65.6929582633
 51
125.6086148072
  0
ARC
  5
384
330
1B
100
AcDbEntity
 67
     1
  8
0
  6
Continuous
 62
     8
370
    25
100
AcDbCircle
 10
12.261971605
 20
11.3586267599
 30
0.0
 40
0.0150884079572581
100
AcDbArc
 50
65.6929582633
 51
125.6086148072
  0
ARC
  5
385
330
1B
100
AcDbEntity
 67
     1
  8
0
  6
Continuous
 62
     8
370
    25
100
AcDbCircle
 10
11.7195156837
 20
11.0557229763
 30
0.0
 40
0.0150590793418933
100
AcDbArc
 50
54.3283120343
 51
114.3859343441
  0
ARC
  5
386
330
1B
100
AcDbEntity
 67
     1
  8
0
  6
Continuous
 62
     8
370
    25
100
AcDbCircle
 10
11.5495890182
 20
10.8447893852
 30
0.0
 40
0.1102366333772137
100
AcDbArc
 50
59.0638744309
 51
65.6630378391
  0
ARC
  5
387
330
1B
100
AcDbEntity
 67
     1
  8
0
  6
Continuous
 62
     8
370
    25
100
AcDbCircle
 10
11.5180689253
 20
10.7902217695
 30
0.0
 40
0.1101462555932485
100
AcDbArc
 50
59.0619395844
 51
65.666596701
  0
ARC
  5
388
330
1B
100
AcDbEntity
 67
     1
  8
0
  6
Continuous
 62
     8
370
    25
100
AcDbCircle
 10
12.2444043483
 20
11.3586585743
 30
0.0
 40
0.0150607750076024
100
AcDbArc
 50
54.3303490508
 51
114.3677025904
  0
ENDSEC
  0
SECTION
  2
OBJECTS
  0
DICTIONARY
  5
C
330
0
100
AcDbDictionary
281
     1
  3
ACAD_GROUP
350
D
  3
ACAD_LAYOUT
350
1A
  3
ACAD_MLINESTYLE
350
17
  3
ACAD_PLOTSETTINGS
350
19
  3
ACAD_PLOTSTYLENAME
350
E
  3
ACAD_SCALELIST
350
47
  0
DICTIONARY
  5
D
102
{ACAD_REACTORS
330
C
102
}
330
C
100
AcDbDictionary
281
     1
  0
DICTIONARY
  5
1A
102
{ACAD_REACTORS
330
C
102
}
330
C
100
AcDbDictionary
281
     1
  3
EFB6810BTCXX_LINEART
350
1E
  3
Model
350
22
  0
DICTIONARY
  5
17
102
{ACAD_REACTORS
330
C
102
}
330
C
100
AcDbDictionary
281
     1
  3
Standard
350
18
  0
DICTIONARY
  5
19
102
{ACAD_REACTORS
330
C
102
}
330
C
100
AcDbDictionary
281
     1
  0
ACDBDICTIONARYWDFLT
  5
E
102
{ACAD_REACTORS
330
C
102
}
330
C
100
AcDbDictionary
281
     1
  3
Normal
350
F
100
AcDbDictionaryWithDefault
340
F
  0
DICTIONARY
  5
47
102
{ACAD_REACTORS
330
C
102
}
330
C
100
AcDbDictionary
281
     1
  3
A0
350
48
  3
A1
350
49
  3
A2
350
4A
  3
A3
350
4B
  3
A4
350
4C
  3
A5
350
4D
  3
A6
350
4E
  3
A7
350
4F
  3
A8
350
50
  3
A9
350
51
  3
B0
350
52
  3
B1
350
53
  3
B2
350
54
  3
B3
350
55
  3
B4
350
56
  3
B5
350
57
  3
B6
350
58
  3
B7
350
59
  3
B8
350
5A
  3
B9
350
5B
  3
C0
350
5C
  3
C1
350
5D
  3
C2
350
5E
  3
C3
350
5F
  3
C4
350
60
  3
C5
350
61
  3
C6
350
62
  3
C7
350
63
  3
C8
350
64
  3
C9
350
65
  3
D0
350
66
  3
D1
350
67
  3
D2
350
68
  0
LAYOUT
  5
1E
102
{ACAD_REACTORS
330
1A
102
}
330
1A
100
AcDbPlotSettings
  1

  2
none_device
  4
ANSI_D_(34.00_x_22.00_Inches)
  6

 40
6.35
 41
19.05
 42
6.3499746
 43
19.0499873
 44
863.6
 45
558.8
 46
0.0
 47
0.0
 48
0.0
 49
0.0
140
0.0
141
0.0
142
1.0
143
1.0
 70
  4832
 72
     0
 73
     0
 74
     1
  7

 75
     0
147
1.0
148
0.0
149
0.0
100
AcDbLayout
  1
EFB6810BTCXX_LINEART
 70
     1
 71
     0
 10
0.0
 20
0.0
 11
34.0
 21
22.0
 12
0.0
 22
0.0
 32
0.0
 14
0.0
 24
0.0
 34
0.0
 15
34.0
 25
22.0
 35
0.0
146
0.0
 13
0.0
 23
0.0
 33
0.0
 16
1.0
 26
0.0
 36
0.0
 17
0.0
 27
1.0
 37
0.0
 76
     0
330
1B
331
79
  0
LAYOUT
  5
22
102
{ACAD_REACTORS
330
1A
102
}
330
1A
100
AcDbPlotSettings
  1

  2
none_device
  4
Letter_(8.50_x_11.00_Inches)
  6

 40
6.35
 41
6.35
 42
6.35000508
 43
6.35000508
 44
215.9
 45
279.4
 46
0.0
 47
0.0
 48
0.0
 49
0.0
140
0.0
141
0.0
142
1.0
143
1.0
 70
  1712
 72
     0
 73
     0
 74
     0
  7

 75
     0
147
1.0
148
0.0
149
0.0
100
AcDbLayout
  1
Model
 70
     1
 71
     0
 10
0.0
 20
0.0
 11
12.0
 21
9.0
 12
0.0
 22
0.0
 32
0.0
 14
0.0
 24
0.0
 34
0.0
 15
34.0
 25
22.0
 35
0.0
146
0.0
 13
0.0
 23
0.0
 33
0.0
 16
1.0
 26
0.0
 36
0.0
 17
0.0
 27
1.0
 37
0.0
 76
     0
330
1F
331
29
  0
MLINESTYLE
  5
18
102
{ACAD_REACTORS
330
17
102
}
330
17
100
AcDbMlineStyle
  2
Standard
 70
     0
  3

 62
   256
 51
90.0
 52
90.0
 71
     2
 49
0.5
 62
   256
  6
BYLAYER
 49
-0.5
 62
   256
  6
BYLAYER
  0
ACDBPLACEHOLDER
  5
F
102
{ACAD_REACTORS
330
E
102
}
330
E
  0
SCALE
  5
48
102
{ACAD_REACTORS
330
47
102
}
330
47
100
AcDbScale
 70
     0
300
1:1
140
1.0
141
1.0
290
     1
  0
SCALE
  5
49
102
{ACAD_REACTORS
330
47
102
}
330
47
100
AcDbScale
 70
     0
300
1:2
140
1.0
141
2.0
290
     0
  0
SCALE
  5
4A
102
{ACAD_REACTORS
330
47
102
}
330
47
100
AcDbScale
 70
     0
300
1:4
140
1.0
141
4.0
290
     0
  0
SCALE
  5
4B
102
{ACAD_REACTORS
330
47
102
}
330
47
100
AcDbScale
 70
     0
300
1:5
140
1.0
141
5.0
290
     0
  0
SCALE
  5
4C
102
{ACAD_REACTORS
330
47
102
}
330
47
100
AcDbScale
 70
     0
300
1:8
140
1.0
141
8.0
290
     0
  0
SCALE
  5
4D
102
{ACAD_REACTORS
330
47
102
}
330
47
100
AcDbScale
 70
     0
300
1:10
140
1.0
141
10.0
290
     0
  0
SCALE
  5
4E
102
{ACAD_REACTORS
330
47
102
}
330
47
100
AcDbScale
 70
     0
300
1:16
140
1.0
141
16.0
290
     0
  0
SCALE
  5
4F
102
{ACAD_REACTORS
330
47
102
}
330
47
100
AcDbScale
 70
     0
300
1:20
140
1.0
141
20.0
290
     0
  0
SCALE
  5
50
102
{ACAD_REACTORS
330
47
102
}
330
47
100
AcDbScale
 70
     0
300
1:30
140
1.0
141
30.0
290
     0
  0
SCALE
  5
51
102
{ACAD_REACTORS
330
47
102
}
330
47
100
AcDbScale
 70
     0
300
1:40
140
1.0
141
40.0
290
     0
  0
SCALE
  5
52
102
{ACAD_REACTORS
330
47
102
}
330
47
100
AcDbScale
 70
     0
300
1:50
140
1.0
141
50.0
290
     0
  0
SCALE
  5
53
102
{ACAD_REACTORS
330
47
102
}
330
47
100
AcDbScale
 70
     0
300
1:100
140
1.0
141
100.0
290
     0
  0
SCALE
  5
54
102
{ACAD_REACTORS
330
47
102
}
330
47
100
AcDbScale
 70
     0
300
2:1
140
2.0
141
1.0
290
     0
  0
SCALE
  5
55
102
{ACAD_REACTORS
330
47
102
}
330
47
100
AcDbScale
 70
     0
300
4:1
140
4.0
141
1.0
290
     0
  0
SCALE
  5
56
102
{ACAD_REACTORS
330
47
102
}
330
47
100
AcDbScale
 70
     0
300
8:1
140
8.0
141
1.0
290
     0
  0
SCALE
  5
57
102
{ACAD_REACTORS
330
47
102
}
330
47
100
AcDbScale
 70
     0
300
10:1
140
10.0
141
1.0
290
     0
  0
SCALE
  5
58
102
{ACAD_REACTORS
330
47
102
}
330
47
100
AcDbScale
 70
     0
300
100:1
140
100.0
141
1.0
290
     0
  0
SCALE
  5
59
102
{ACAD_REACTORS
330
47
102
}
330
47
100
AcDbScale
 70
     0
300
1/128" = 1'-0"
140
0.0078125
141
12.0
290
     0
  0
SCALE
  5
5A
102
{ACAD_REACTORS
330
47
102
}
330
47
100
AcDbScale
 70
     0
300
1/64" = 1'-0"
140
0.015625
141
12.0
290
     0
  0
SCALE
  5
5B
102
{ACAD_REACTORS
330
47
102
}
330
47
100
AcDbScale
 70
     0
300
1/32" = 1'-0"
140
0.03125
141
12.0
290
     0
  0
SCALE
  5
5C
102
{ACAD_REACTORS
330
47
102
}
330
47
100
AcDbScale
 70
     0
300
1/16" = 1'-0"
140
0.0625
141
12.0
290
     0
  0
SCALE
  5
5D
102
{ACAD_REACTORS
330
47
102
}
330
47
100
AcDbScale
 70
     0
300
3/32" = 1'-0"
140
0.09375
141
12.0
290
     0
  0
SCALE
  5
5E
102
{ACAD_REACTORS
330
47
102
}
330
47
100
AcDbScale
 70
     0
300
1/8" = 1'-0"
140
0.125
141
12.0
290
     0
  0
SCALE
  5
5F
102
{ACAD_REACTORS
330
47
102
}
330
47
100
AcDbScale
 70
     0
300
3/16" = 1'-0"
140
0.1875
141
12.0
290
     0
  0
SCALE
  5
60
102
{ACAD_REACTORS
330
47
102
}
330
47
100
AcDbScale
 70
     0
300
1/4" = 1'-0"
140
0.25
141
12.0
290
     0
  0
SCALE
  5
61
102
{ACAD_REACTORS
330
47
102
}
330
47
100
AcDbScale
 70
     0
300
3/8" = 1'-0"
140
0.375
141
12.0
290
     0
  0
SCALE
  5
62
102
{ACAD_REACTORS
330
47
102
}
330
47
100
AcDbScale
 70
     0
300
1/2" = 1'-0"
140
0.5
141
12.0
290
     0
  0
SCALE
  5
63
102
{ACAD_REACTORS
330
47
102
}
330
47
100
AcDbScale
 70
     0
300
3/4" = 1'-0"
140
0.75
141
12.0
290
     0
  0
SCALE
  5
64
102
{ACAD_REACTORS
330
47
102
}
330
47
100
AcDbScale
 70
     0
300
1" = 1'-0"
140
1.0
141
12.0
290
     0
  0
SCALE
  5
65
102
{ACAD_REACTORS
330
47
102
}
330
47
100
AcDbScale
 70
     0
300
1-1/2" = 1'-0"
140
1.5
141
12.0
290
     0
  0
SCALE
  5
66
102
{ACAD_REACTORS
330
47
102
}
330
47
100
AcDbScale
 70
     0
300
3" = 1'-0"
140
3.0
141
12.0
290
     0
  0
SCALE
  5
67
102
{ACAD_REACTORS
330
47
102
}
330
47
100
AcDbScale
 70
     0
300
6" = 1'-0"
140
6.0
141
12.0
290
     0
  0
SCALE
  5
68
102
{ACAD_REACTORS
330
47
102
}
330
47
100
AcDbScale
 70
     0
300
1'-0" = 1'-0"
140
12.0
141
12.0
290
     0
  0
ENDSEC
  0
EOF
